  0
SECTION
  2
HEADER
  9
$ACADVER
  1
AC1009
  9
$INSBASE
 10
0.0
 20
0.0
 30
0.0
  9
$EXTMIN
 10
55.60686
 20
110.125058
 30
-0.001526
  9
$EXTMAX
 10
399.250911
 20
231.526513
 30
0.0
  9
$LIMMIN
 10
0.0
 20
0.0
  9
$LIMMAX
 10
12.0
 20
9.0
  9
$ORTHOMODE
 70
     0
  9
$REGENMODE
 70
     1
  9
$FILLMODE
 70
     1
  9
$QTEXTMODE
 70
     0
  9
$MIRRTEXT
 70
     1
  9
$DRAGMODE
 70
     2
  9
$LTSCALE
 40
0.5
  9
$OSMODE
 70
    39
  9
$ATTMODE
 70
     1
  9
$TEXTSIZE
 40
0.2
  9
$TRACEWID
 40
0.05
  9
$TEXTSTYLE
  7
STANDARD
  9
$CLAYER
  8
0
  9
$CELTYPE
  6
BYLAYER
  9
$CECOLOR
 62
   256
  9
$DIMSCALE
 40
1.0
  9
$DIMASZ
 40
0.18
  9
$DIMEXO
 40
0.0625
  9
$DIMDLI
 40
0.38
  9
$DIMRND
 40
0.0
  9
$DIMDLE
 40
0.0
  9
$DIMEXE
 40
0.18
  9
$DIMTP
 40
0.0
  9
$DIMTM
 40
0.0
  9
$DIMTXT
 40
0.18
  9
$DIMCEN
 40
0.09
  9
$DIMTSZ
 40
0.0
  9
$DIMTOL
 70
     0
  9
$DIMLIM
 70
     0
  9
$DIMTIH
 70
     1
  9
$DIMTOH
 70
     1
  9
$DIMSE1
 70
     0
  9
$DIMSE2
 70
     0
  9
$DIMTAD
 70
     0
  9
$DIMZIN
 70
     0
  9
$DIMBLK
  1

  9
$DIMASO
 70
     1
  9
$DIMSHO
 70
     1
  9
$DIMPOST
  1

  9
$DIMAPOST
  1

  9
$DIMALT
 70
     0
  9
$DIMALTD
 70
     2
  9
$DIMALTF
 40
25.4
  9
$DIMLFAC
 40
1.0
  9
$DIMTOFL
 70
     0
  9
$DIMTVP
 40
0.0
  9
$DIMTIX
 70
     0
  9
$DIMSOXD
 70
     0
  9
$DIMSAH
 70
     0
  9
$DIMBLK1
  1

  9
$DIMBLK2
  1

  9
$DIMSTYLE
  2
STANDARD
  9
$DIMCLRD
 70
     0
  9
$DIMCLRE
 70
     0
  9
$DIMCLRT
 70
     0
  9
$DIMTFAC
 40
1.0
  9
$DIMGAP
 40
0.09
  9
$LUNITS
 70
     2
  9
$LUPREC
 70
     4
  9
$SKETCHINC
 40
0.1
  9
$FILLETRAD
 40
0.0
  9
$AUNITS
 70
     0
  9
$AUPREC
 70
     0
  9
$MENU
  1
.
  9
$ELEVATION
 40
0.0
  9
$PELEVATION
 40
0.0
  9
$THICKNESS
 40
0.0
  9
$LIMCHECK
 70
     0
  9
$BLIPMODE
 70
     0
  9
$CHAMFERA
 40
0.0
  9
$CHAMFERB
 40
0.0
  9
$SKPOLY
 70
     0
  9
$TDCREATE
 40
2451614.55802
  9
$TDUPDATE
 40
2452948.804794
  9
$TDINDWG
 40
0.173431
  9
$TDUSRTIMER
 40
0.17343
  9
$USRTIMER
 70
     1
  9
$ANGBASE
 50
0.0
  9
$ANGDIR
 70
     0
  9
$PDMODE
 70
     0
  9
$PDSIZE
 40
0.0
  9
$PLINEWID
 40
0.0
  9
$COORDS
 70
     2
  9
$SPLFRAME
 70
     0
  9
$SPLINETYPE
 70
     6
  9
$SPLINESEGS
 70
     8
  9
$ATTDIA
 70
     0
  9
$ATTREQ
 70
     1
  9
$HANDLING
 70
     1
  9
$HANDSEED
  5
118AB
  9
$SURFTAB1
 70
     6
  9
$SURFTAB2
 70
     6
  9
$SURFTYPE
 70
     6
  9
$SURFU
 70
     6
  9
$SURFV
 70
     6
  9
$UCSNAME
  2

  9
$UCSORG
 10
0.0
 20
0.0
 30
0.0
  9
$UCSXDIR
 10
1.0
 20
0.0
 30
0.0
  9
$UCSYDIR
 10
0.0
 20
1.0
 30
0.0
  9
$PUCSNAME
  2

  9
$PUCSORG
 10
0.0
 20
0.0
 30
0.0
  9
$PUCSXDIR
 10
1.0
 20
0.0
 30
0.0
  9
$PUCSYDIR
 10
0.0
 20
1.0
 30
0.0
  9
$USERI1
 70
     0
  9
$USERI2
 70
     0
  9
$USERI3
 70
     0
  9
$USERI4
 70
     0
  9
$USERI5
 70
     0
  9
$USERR1
 40
0.0
  9
$USERR2
 40
0.0
  9
$USERR3
 40
0.0
  9
$USERR4
 40
0.0
  9
$USERR5
 40
0.0
  9
$WORLDVIEW
 70
     1
  9
$SHADEDGE
 70
     3
  9
$SHADEDIF
 70
    70
  9
$TILEMODE
 70
     1
  9
$MAXACTVP
 70
    48
  9
$PLIMCHECK
 70
     0
  9
$PEXTMIN
 10
1.000000E+020
 20
1.000000E+020
 30
1.000000E+020
  9
$PEXTMAX
 10
-1.000000E+020
 20
-1.000000E+020
 30
-1.000000E+020
  9
$PLIMMIN
 10
0.0
 20
0.0
  9
$PLIMMAX
 10
12.0
 20
9.0
  9
$UNITMODE
 70
     0
  9
$VISRETAIN
 70
     1
  9
$PLINEGEN
 70
     0
  9
$PSLTSCALE
 70
     1
  0
ENDSEC
  0
SECTION
  2
TABLES
  0
TABLE
  2
VPORT
 70
     4
  0
VPORT
  2
*ACTIVE
 70
     0
 10
0.0
 20
0.0
 11
1.0
 21
1.0
 12
227.428885
 22
170.825785
 13
0.0
 23
0.0
 14
1.0
 24
1.0
 15
0.0
 25
0.0
 16
0.0
 26
0.0
 36
1.0
 17
0.0
 27
0.0
 37
0.0
 40
213.536231
 41
1.616967
 42
50.0
 43
0.0
 44
0.0
 50
0.0
 51
0.0
 71
     0
 72
   100
 73
     1
 74
     1
 75
     0
 76
     0
 77
     0
 78
     0
  0
ENDTAB
  0
TABLE
  2
LTYPE
 70
     6
  0
LTYPE
  2
CONTINUOUS
 70
     0
  3
Solid line
 72
    65
 73
     0
 40
0.0
  0
LTYPE
  2
CENTER
 70
     0
  3
____ _ ____ _ ____ _ ____ _ ____ _ ____ _ ____
 72
    65
 73
     4
 40
17.5
 49
13.0
 49
-1.5
 49
1.5
 49
-1.5
  0
LTYPE
  2
HIDDEN
 70
     0
  3
Hidden __ __ __ __ __ __ __ __ __ __ __ __ __ _
 72
    65
 73
     2
 40
9.525
 49
6.35
 49
-3.175
  0
ENDTAB
  0
TABLE
  2
LAYER
 70
     5
  0
LAYER
  2
0
 70
     0
 62
     7
  6
CONTINUOUS
  0
LAYER
  2
CENTER
 70
     0
 62
     1
  6
CENTER
  0
LAYER
  2
1
 70
     0
 62
     7
  6
CONTINUOUS
  0
LAYER
  2
HIDDEN
 70
     0
 62
     6
  6
HIDDEN
  0
ENDTAB
  0
TABLE
  2
STYLE
 70
     2
  0
STYLE
  2
STANDARD
 70
     0
 40
0.0
 41
1.0
 50
0.0
 71
     0
 42
0.2
  3
txt
  4

  0
ENDTAB
  0
TABLE
  2
VIEW
 70
     0
  0
ENDTAB
  0
TABLE
  2
UCS
 70
     0
  0
ENDTAB
  0
TABLE
  2
APPID
 70
     2
  0
APPID
  2
ACAD
 70
     0
  0
APPID
  2
DCO15
 70
     0
  0
ENDTAB
  0
TABLE
  2
DIMSTYLE
 70
     3
  0
DIMSTYLE
  2
STANDARD
 70
     0
  3

  4

  5

  6

  7

 40
1.0
 41
0.18
 42
0.0625
 43
0.38
 44
0.18
 45
0.0
 46
0.0
 47
0.0
 48
0.0
140
0.18
141
0.09
142
0.0
143
25.4
144
1.0
145
0.0
146
1.0
147
0.09
 71
     0
 72
     0
 73
     1
 74
     1
 75
     0
 76
     0
 77
     0
 78
     0
170
     0
171
     2
172
     0
173
     0
174
     0
175
     0
176
     0
177
     0
178
     0
  0
ENDTAB
  0
ENDSEC
  0
SECTION
  2
BLOCKS
  0
BLOCK
  8
0
  2
$MODEL_SPACE
 70
     0
 10
0.0
 20
0.0
 30
0.0
  3
$MODEL_SPACE
  1

  0
ENDBLK
  5
11885
  8
0
  0
BLOCK
 67
     1
  8
0
  2
$PAPER_SPACE
 70
     0
 10
0.0
 20
0.0
 30
0.0
  3
$PAPER_SPACE
  1

  0
ENDBLK
  5
11882
 67
     1
  8
0
  0
BLOCK
  8
0
  2
A$C3C4259C2
 70
     0
 10
0.0
 20
0.0
 30
0.0
  3
A$C3C4259C2
  1

  0
POLYLINE
  5
10DCC
  8
HIDDEN
 66
     1
 10
0.0
 20
0.0
 30
0.0
 70
     8
  0
VERTEX
  5
10DCD
  8
0
 10
0.0
 20
4.16
 30
0.0
 70
    32
  0
VERTEX
  5
10DCE
  8
0
 10
-0.01641
 20
4.15969
 30
0.0
 70
    32
  0
VERTEX
  5
10DCF
  8
0
 10
-0.032811
 20
4.15875
 30
0.0
 70
    32
  0
VERTEX
  5
10DD0
  8
0
 10
-0.049191
 20
4.15718
 30
0.0
 70
    32
  0
VERTEX
  5
10DD1
  8
0
 10
-0.065542
 20
4.15499
 30
0.0
 70
    32
  0
VERTEX
  5
10DD2
  8
0
 10
-0.081853
 20
4.15218
 30
0.0
 70
    32
  0
VERTEX
  5
10DD3
  8
0
 10
-0.098115
 20
4.14874
 30
0.0
 70
    32
  0
VERTEX
  5
10DD4
  8
0
 10
-0.114318
 20
4.14469
 30
0.0
 70
    32
  0
VERTEX
  5
10DD5
  8
0
 10
-0.130453
 20
4.14002
 30
0.0
 70
    32
  0
VERTEX
  5
10DD6
  8
0
 10
-0.146508
 20
4.13473
 30
0.0
 70
    32
  0
VERTEX
  5
10DD7
  8
0
 10
-0.162475
 20
4.12883
 30
0.0
 70
    32
  0
VERTEX
  5
10DD8
  8
0
 10
-0.178345
 20
4.12233
 30
0.0
 70
    32
  0
VERTEX
  5
10DD9
  8
0
 10
-0.194107
 20
4.11522
 30
0.0
 70
    32
  0
VERTEX
  5
10DDA
  8
0
 10
-0.209752
 20
4.10751
 30
0.0
 70
    32
  0
VERTEX
  5
10DDB
  8
0
 10
-0.225271
 20
4.09921
 30
0.0
 70
    32
  0
VERTEX
  5
10DDC
  8
0
 10
-0.240654
 20
4.09031
 30
0.0
 70
    32
  0
VERTEX
  5
10DDD
  8
0
 10
-0.255892
 20
4.08083
 30
0.0
 70
    32
  0
VERTEX
  5
10DDE
  8
0
 10
-0.270976
 20
4.07078
 30
0.0
 70
    32
  0
VERTEX
  5
10DDF
  8
0
 10
-0.285897
 20
4.06015
 30
0.0
 70
    32
  0
VERTEX
  5
10DE0
  8
0
 10
-0.300645
 20
4.04895
 30
0.0
 70
    32
  0
VERTEX
  5
10DE1
  8
0
 10
-0.315212
 20
4.0372
 30
0.0
 70
    32
  0
VERTEX
  5
10DE2
  8
0
 10
-0.32959
 20
4.02489
 30
0.0
 70
    32
  0
VERTEX
  5
10DE3
  8
0
 10
-0.343769
 20
4.01204
 30
0.0
 70
    32
  0
VERTEX
  5
10DE4
  8
0
 10
-0.357741
 20
3.99865
 30
0.0
 70
    32
  0
VERTEX
  5
10DE5
  8
0
 10
-0.371497
 20
3.98473
 30
0.0
 70
    32
  0
VERTEX
  5
10DE6
  8
0
 10
-0.38503
 20
3.97029
 30
0.0
 70
    32
  0
VERTEX
  5
10DE7
  8
0
 10
-0.398331
 20
3.95534
 30
0.0
 70
    32
  0
VERTEX
  5
10DE8
  8
0
 10
-0.411392
 20
3.93988
 30
0.0
 70
    32
  0
VERTEX
  5
10DE9
  8
0
 10
-0.424205
 20
3.92393
 30
0.0
 70
    32
  0
VERTEX
  5
10DEA
  8
0
 10
-0.436762
 20
3.9075
 30
0.0
 70
    32
  0
VERTEX
  5
10DEB
  8
0
 10
-0.449056
 20
3.89059
 30
0.0
 70
    32
  0
VERTEX
  5
10DEC
  8
0
 10
-0.46108
 20
3.87322
 30
0.0
 70
    32
  0
VERTEX
  5
10DED
  8
0
 10
-0.472826
 20
3.85539
 30
0.0
 70
    32
  0
VERTEX
  5
10DEE
  8
0
 10
-0.484288
 20
3.83712
 30
0.0
 70
    32
  0
VERTEX
  5
10DEF
  8
0
 10
-0.495457
 20
3.81842
 30
0.0
 70
    32
  0
VERTEX
  5
10DF0
  8
0
 10
-0.506329
 20
3.7993
 30
0.0
 70
    32
  0
VERTEX
  5
10DF1
  8
0
 10
-0.516895
 20
3.77977
 30
0.0
 70
    32
  0
VERTEX
  5
10DF2
  8
0
 10
-0.52715
 20
3.75984
 30
0.0
 70
    32
  0
VERTEX
  5
10DF3
  8
0
 10
-0.537087
 20
3.73953
 30
0.0
 70
    32
  0
VERTEX
  5
10DF4
  8
0
 10
-0.546701
 20
3.71884
 30
0.0
 70
    32
  0
VERTEX
  5
10DF5
  8
0
 10
-0.555985
 20
3.69779
 30
0.0
 70
    32
  0
VERTEX
  5
10DF6
  8
0
 10
-0.564935
 20
3.6764
 30
0.0
 70
    32
  0
VERTEX
  5
10DF7
  8
0
 10
-0.573544
 20
3.65467
 30
0.0
 70
    32
  0
VERTEX
  5
10DF8
  8
0
 10
-0.581808
 20
3.63261
 30
0.0
 70
    32
  0
VERTEX
  5
10DF9
  8
0
 10
-0.589721
 20
3.61025
 30
0.0
 70
    32
  0
VERTEX
  5
10DFA
  8
0
 10
-0.597279
 20
3.5876
 30
0.0
 70
    32
  0
VERTEX
  5
10DFB
  8
0
 10
-0.604477
 20
3.56466
 30
0.0
 70
    32
  0
VERTEX
  5
10DFC
  8
0
 10
-0.611312
 20
3.54145
 30
0.0
 70
    32
  0
VERTEX
  5
10DFD
  8
0
 10
-0.617778
 20
3.51799
 30
0.0
 70
    32
  0
VERTEX
  5
10DFE
  8
0
 10
-0.623871
 20
3.49429
 30
0.0
 70
    32
  0
VERTEX
  5
10DFF
  8
0
 10
-0.629589
 20
3.47037
 30
0.0
 70
    32
  0
VERTEX
  5
10E00
  8
0
 10
-0.634928
 20
3.44623
 30
0.0
 70
    32
  0
VERTEX
  5
10E01
  8
0
 10
-0.639885
 20
3.4219
 30
0.0
 70
    32
  0
VERTEX
  5
10E02
  8
0
 10
-0.644456
 20
3.39738
 30
0.0
 70
    32
  0
VERTEX
  5
10E03
  8
0
 10
-0.648638
 20
3.3727
 30
0.0
 70
    32
  0
VERTEX
  5
10E04
  8
0
 10
-0.65243
 20
3.34787
 30
0.0
 70
    32
  0
VERTEX
  5
10E05
  8
0
 10
-0.655829
 20
3.32289
 30
0.0
 70
    32
  0
VERTEX
  5
10E06
  8
0
 10
-0.658833
 20
3.2978
 30
0.0
 70
    32
  0
VERTEX
  5
10E07
  8
0
 10
-0.66144
 20
3.2726
 30
0.0
 70
    32
  0
VERTEX
  5
10E08
  8
0
 10
-0.663649
 20
3.24731
 30
0.0
 70
    32
  0
VERTEX
  5
10E09
  8
0
 10
-0.665458
 20
3.22194
 30
0.0
 70
    32
  0
VERTEX
  5
10E0A
  8
0
 10
-0.666866
 20
3.19651
 30
0.0
 70
    32
  0
VERTEX
  5
10E0B
  8
0
 10
-0.667872
 20
3.17103
 30
0.0
 70
    32
  0
VERTEX
  5
10E0C
  8
0
 10
-0.668476
 20
3.14552
 30
0.0
 70
    32
  0
VERTEX
  5
10E0D
  8
0
 10
-0.668678
 20
3.12
 30
0.0
 70
    32
  0
VERTEX
  5
10E0E
  8
0
 10
-0.668476
 20
3.09448
 30
0.0
 70
    32
  0
VERTEX
  5
10E0F
  8
0
 10
-0.667872
 20
3.06897
 30
0.0
 70
    32
  0
VERTEX
  5
10E10
  8
0
 10
-0.666866
 20
3.04349
 30
0.0
 70
    32
  0
VERTEX
  5
10E11
  8
0
 10
-0.665458
 20
3.01806
 30
0.0
 70
    32
  0
VERTEX
  5
10E12
  8
0
 10
-0.663649
 20
2.99269
 30
0.0
 70
    32
  0
VERTEX
  5
10E13
  8
0
 10
-0.66144
 20
2.9674
 30
0.0
 70
    32
  0
VERTEX
  5
10E14
  8
0
 10
-0.658833
 20
2.9422
 30
0.0
 70
    32
  0
VERTEX
  5
10E15
  8
0
 10
-0.655829
 20
2.91711
 30
0.0
 70
    32
  0
VERTEX
  5
10E16
  8
0
 10
-0.65243
 20
2.89213
 30
0.0
 70
    32
  0
VERTEX
  5
10E17
  8
0
 10
-0.648638
 20
2.8673
 30
0.0
 70
    32
  0
VERTEX
  5
10E18
  8
0
 10
-0.644456
 20
2.84262
 30
0.0
 70
    32
  0
VERTEX
  5
10E19
  8
0
 10
-0.639885
 20
2.8181
 30
0.0
 70
    32
  0
VERTEX
  5
10E1A
  8
0
 10
-0.634928
 20
2.79377
 30
0.0
 70
    32
  0
VERTEX
  5
10E1B
  8
0
 10
-0.629589
 20
2.76963
 30
0.0
 70
    32
  0
VERTEX
  5
10E1C
  8
0
 10
-0.623871
 20
2.74571
 30
0.0
 70
    32
  0
VERTEX
  5
10E1D
  8
0
 10
-0.617778
 20
2.72201
 30
0.0
 70
    32
  0
VERTEX
  5
10E1E
  8
0
 10
-0.611312
 20
2.69855
 30
0.0
 70
    32
  0
VERTEX
  5
10E1F
  8
0
 10
-0.604477
 20
2.67534
 30
0.0
 70
    32
  0
VERTEX
  5
10E20
  8
0
 10
-0.597279
 20
2.6524
 30
0.0
 70
    32
  0
VERTEX
  5
10E21
  8
0
 10
-0.589721
 20
2.62975
 30
0.0
 70
    32
  0
VERTEX
  5
10E22
  8
0
 10
-0.581808
 20
2.60739
 30
0.0
 70
    32
  0
VERTEX
  5
10E23
  8
0
 10
-0.573544
 20
2.58533
 30
0.0
 70
    32
  0
VERTEX
  5
10E24
  8
0
 10
-0.564935
 20
2.5636
 30
0.0
 70
    32
  0
VERTEX
  5
10E25
  8
0
 10
-0.555985
 20
2.54221
 30
0.0
 70
    32
  0
VERTEX
  5
10E26
  8
0
 10
-0.546701
 20
2.52116
 30
0.0
 70
    32
  0
VERTEX
  5
10E27
  8
0
 10
-0.537087
 20
2.50047
 30
0.0
 70
    32
  0
VERTEX
  5
10E28
  8
0
 10
-0.52715
 20
2.48016
 30
0.0
 70
    32
  0
VERTEX
  5
10E29
  8
0
 10
-0.516895
 20
2.46023
 30
0.0
 70
    32
  0
VERTEX
  5
10E2A
  8
0
 10
-0.506329
 20
2.4407
 30
0.0
 70
    32
  0
VERTEX
  5
10E2B
  8
0
 10
-0.495457
 20
2.42158
 30
0.0
 70
    32
  0
VERTEX
  5
10E2C
  8
0
 10
-0.484288
 20
2.40288
 30
0.0
 70
    32
  0
VERTEX
  5
10E2D
  8
0
 10
-0.472826
 20
2.38461
 30
0.0
 70
    32
  0
VERTEX
  5
10E2E
  8
0
 10
-0.46108
 20
2.36678
 30
0.0
 70
    32
  0
VERTEX
  5
10E2F
  8
0
 10
-0.449056
 20
2.34941
 30
0.0
 70
    32
  0
VERTEX
  5
10E30
  8
0
 10
-0.436762
 20
2.3325
 30
0.0
 70
    32
  0
VERTEX
  5
10E31
  8
0
 10
-0.424205
 20
2.31607
 30
0.0
 70
    32
  0
VERTEX
  5
10E32
  8
0
 10
-0.411392
 20
2.30012
 30
0.0
 70
    32
  0
VERTEX
  5
10E33
  8
0
 10
-0.398331
 20
2.28466
 30
0.0
 70
    32
  0
VERTEX
  5
10E34
  8
0
 10
-0.38503
 20
2.26971
 30
0.0
 70
    32
  0
VERTEX
  5
10E35
  8
0
 10
-0.371497
 20
2.25527
 30
0.0
 70
    32
  0
VERTEX
  5
10E36
  8
0
 10
-0.357741
 20
2.24135
 30
0.0
 70
    32
  0
VERTEX
  5
10E37
  8
0
 10
-0.343769
 20
2.22796
 30
0.0
 70
    32
  0
VERTEX
  5
10E38
  8
0
 10
-0.32959
 20
2.21511
 30
0.0
 70
    32
  0
VERTEX
  5
10E39
  8
0
 10
-0.315212
 20
2.2028
 30
0.0
 70
    32
  0
VERTEX
  5
10E3A
  8
0
 10
-0.300645
 20
2.19105
 30
0.0
 70
    32
  0
VERTEX
  5
10E3B
  8
0
 10
-0.285897
 20
2.17985
 30
0.0
 70
    32
  0
VERTEX
  5
10E3C
  8
0
 10
-0.270976
 20
2.16922
 30
0.0
 70
    32
  0
VERTEX
  5
10E3D
  8
0
 10
-0.255892
 20
2.15917
 30
0.0
 70
    32
  0
VERTEX
  5
10E3E
  8
0
 10
-0.240654
 20
2.14969
 30
0.0
 70
    32
  0
VERTEX
  5
10E3F
  8
0
 10
-0.225271
 20
2.14079
 30
0.0
 70
    32
  0
VERTEX
  5
10E40
  8
0
 10
-0.209752
 20
2.13249
 30
0.0
 70
    32
  0
VERTEX
  5
10E41
  8
0
 10
-0.194107
 20
2.12478
 30
0.0
 70
    32
  0
VERTEX
  5
10E42
  8
0
 10
-0.178345
 20
2.11767
 30
0.0
 70
    32
  0
VERTEX
  5
10E43
  8
0
 10
-0.162475
 20
2.11117
 30
0.0
 70
    32
  0
VERTEX
  5
10E44
  8
0
 10
-0.146508
 20
2.10527
 30
0.0
 70
    32
  0
VERTEX
  5
10E45
  8
0
 10
-0.130453
 20
2.09998
 30
0.0
 70
    32
  0
VERTEX
  5
10E46
  8
0
 10
-0.114318
 20
2.09531
 30
0.0
 70
    32
  0
VERTEX
  5
10E47
  8
0
 10
-0.098115
 20
2.09126
 30
0.0
 70
    32
  0
VERTEX
  5
10E48
  8
0
 10
-0.081853
 20
2.08782
 30
0.0
 70
    32
  0
VERTEX
  5
10E49
  8
0
 10
-0.065542
 20
2.08501
 30
0.0
 70
    32
  0
VERTEX
  5
10E4A
  8
0
 10
-0.049191
 20
2.08282
 30
0.0
 70
    32
  0
VERTEX
  5
10E4B
  8
0
 10
-0.032811
 20
2.08125
 30
0.0
 70
    32
  0
VERTEX
  5
10E4C
  8
0
 10
-0.01641
 20
2.08031
 30
0.0
 70
    32
  0
VERTEX
  5
10E4D
  8
0
 10
0.0
 20
2.08
 30
0.0
 70
    32
  0
SEQEND
  5
10E4E
  8
0
  0
POLYLINE
  5
10E4F
  8
HIDDEN
 66
     1
 10
0.0
 20
0.0
 30
0.0
 70
     8
  0
VERTEX
  5
10E50
  8
0
 10
0.0
 20
0.0
 30
0.0
 70
    32
  0
VERTEX
  5
10E51
  8
0
 10
0.032811
 20
0.001253
 30
0.0
 70
    32
  0
VERTEX
  5
10E52
  8
0
 10
0.065542
 20
0.005008
 30
0.0
 70
    32
  0
VERTEX
  5
10E53
  8
0
 10
0.098115
 20
0.011256
 30
0.0
 70
    32
  0
VERTEX
  5
10E54
  8
0
 10
0.130453
 20
0.019983
 30
0.0
 70
    32
  0
VERTEX
  5
10E55
  8
0
 10
0.162475
 20
0.031168
 30
0.0
 70
    32
  0
VERTEX
  5
10E56
  8
0
 10
0.194107
 20
0.044782
 30
0.0
 70
    32
  0
VERTEX
  5
10E57
  8
0
 10
0.225271
 20
0.060794
 30
0.0
 70
    32
  0
VERTEX
  5
10E58
  8
0
 10
0.255892
 20
0.079165
 30
0.0
 70
    32
  0
VERTEX
  5
10E59
  8
0
 10
0.285897
 20
0.099851
 30
0.0
 70
    32
  0
VERTEX
  5
10E5A
  8
0
 10
0.315212
 20
0.122802
 30
0.0
 70
    32
  0
VERTEX
  5
10E5B
  8
0
 10
0.343769
 20
0.147962
 30
0.0
 70
    32
  0
VERTEX
  5
10E5C
  8
0
 10
0.371497
 20
0.175272
 30
0.0
 70
    32
  0
VERTEX
  5
10E5D
  8
0
 10
0.398331
 20
0.204664
 30
0.0
 70
    32
  0
VERTEX
  5
10E5E
  8
0
 10
0.424205
 20
0.236069
 30
0.0
 70
    32
  0
VERTEX
  5
10E5F
  8
0
 10
0.449056
 20
0.269411
 30
0.0
 70
    32
  0
VERTEX
  5
10E60
  8
0
 10
0.472826
 20
0.304609
 30
0.0
 70
    32
  0
VERTEX
  5
10E61
  8
0
 10
0.495457
 20
0.341579
 30
0.0
 70
    32
  0
VERTEX
  5
10E62
  8
0
 10
0.516895
 20
0.380231
 30
0.0
 70
    32
  0
VERTEX
  5
10E63
  8
0
 10
0.537087
 20
0.420473
 30
0.0
 70
    32
  0
VERTEX
  5
10E64
  8
0
 10
0.555985
 20
0.462207
 30
0.0
 70
    32
  0
VERTEX
  5
10E65
  8
0
 10
0.573544
 20
0.505333
 30
0.0
 70
    32
  0
VERTEX
  5
10E66
  8
0
 10
0.589721
 20
0.549747
 30
0.0
 70
    32
  0
VERTEX
  5
10E67
  8
0
 10
0.604477
 20
0.595343
 30
0.0
 70
    32
  0
VERTEX
  5
10E68
  8
0
 10
0.617778
 20
0.642009
 30
0.0
 70
    32
  0
VERTEX
  5
10E69
  8
0
 10
0.629589
 20
0.689635
 30
0.0
 70
    32
  0
VERTEX
  5
10E6A
  8
0
 10
0.639885
 20
0.738104
 30
0.0
 70
    32
  0
VERTEX
  5
10E6B
  8
0
 10
0.648638
 20
0.787301
 30
0.0
 70
    32
  0
VERTEX
  5
10E6C
  8
0
 10
0.655829
 20
0.837106
 30
0.0
 70
    32
  0
VERTEX
  5
10E6D
  8
0
 10
0.66144
 20
0.8874
 30
0.0
 70
    32
  0
VERTEX
  5
10E6E
  8
0
 10
0.665458
 20
0.938062
 30
0.0
 70
    32
  0
VERTEX
  5
10E6F
  8
0
 10
0.667872
 20
0.98897
 30
0.0
 70
    32
  0
VERTEX
  5
10E70
  8
0
 10
0.668678
 20
1.04
 30
0.0
 70
    32
  0
VERTEX
  5
10E71
  8
0
 10
0.667872
 20
1.09103
 30
0.0
 70
    32
  0
VERTEX
  5
10E72
  8
0
 10
0.665458
 20
1.14194
 30
0.0
 70
    32
  0
VERTEX
  5
10E73
  8
0
 10
0.66144
 20
1.1926
 30
0.0
 70
    32
  0
VERTEX
  5
10E74
  8
0
 10
0.655829
 20
1.24289
 30
0.0
 70
    32
  0
VERTEX
  5
10E75
  8
0
 10
0.648638
 20
1.2927
 30
0.0
 70
    32
  0
VERTEX
  5
10E76
  8
0
 10
0.639885
 20
1.3419
 30
0.0
 70
    32
  0
VERTEX
  5
10E77
  8
0
 10
0.629589
 20
1.39037
 30
0.0
 70
    32
  0
VERTEX
  5
10E78
  8
0
 10
0.617778
 20
1.43799
 30
0.0
 70
    32
  0
VERTEX
  5
10E79
  8
0
 10
0.604477
 20
1.48466
 30
0.0
 70
    32
  0
VERTEX
  5
10E7A
  8
0
 10
0.589721
 20
1.53025
 30
0.0
 70
    32
  0
VERTEX
  5
10E7B
  8
0
 10
0.573544
 20
1.57467
 30
0.0
 70
    32
  0
VERTEX
  5
10E7C
  8
0
 10
0.555985
 20
1.61779
 30
0.0
 70
    32
  0
VERTEX
  5
10E7D
  8
0
 10
0.537087
 20
1.65953
 30
0.0
 70
    32
  0
VERTEX
  5
10E7E
  8
0
 10
0.516895
 20
1.69977
 30
0.0
 70
    32
  0
VERTEX
  5
10E7F
  8
0
 10
0.495457
 20
1.73842
 30
0.0
 70
    32
  0
VERTEX
  5
10E80
  8
0
 10
0.472826
 20
1.77539
 30
0.0
 70
    32
  0
VERTEX
  5
10E81
  8
0
 10
0.449056
 20
1.81059
 30
0.0
 70
    32
  0
VERTEX
  5
10E82
  8
0
 10
0.424205
 20
1.84393
 30
0.0
 70
    32
  0
VERTEX
  5
10E83
  8
0
 10
0.398331
 20
1.87534
 30
0.0
 70
    32
  0
VERTEX
  5
10E84
  8
0
 10
0.371497
 20
1.90473
 30
0.0
 70
    32
  0
VERTEX
  5
10E85
  8
0
 10
0.343769
 20
1.93204
 30
0.0
 70
    32
  0
VERTEX
  5
10E86
  8
0
 10
0.315212
 20
1.9572
 30
0.0
 70
    32
  0
VERTEX
  5
10E87
  8
0
 10
0.285897
 20
1.98015
 30
0.0
 70
    32
  0
VERTEX
  5
10E88
  8
0
 10
0.255892
 20
2.00083
 30
0.0
 70
    32
  0
VERTEX
  5
10E89
  8
0
 10
0.225271
 20
2.01921
 30
0.0
 70
    32
  0
VERTEX
  5
10E8A
  8
0
 10
0.194107
 20
2.03522
 30
0.0
 70
    32
  0
VERTEX
  5
10E8B
  8
0
 10
0.162475
 20
2.04883
 30
0.0
 70
    32
  0
VERTEX
  5
10E8C
  8
0
 10
0.130453
 20
2.06002
 30
0.0
 70
    32
  0
VERTEX
  5
10E8D
  8
0
 10
0.098115
 20
2.06874
 30
0.0
 70
    32
  0
VERTEX
  5
10E8E
  8
0
 10
0.065542
 20
2.07499
 30
0.0
 70
    32
  0
VERTEX
  5
10E8F
  8
0
 10
0.032811
 20
2.07875
 30
0.0
 70
    32
  0
VERTEX
  5
10E90
  8
0
 10
0.0
 20
2.08
 30
0.0
 70
    32
  0
VERTEX
  5
10E91
  8
0
 10
-0.032811
 20
2.07875
 30
0.0
 70
    32
  0
VERTEX
  5
10E92
  8
0
 10
-0.065542
 20
2.07499
 30
0.0
 70
    32
  0
VERTEX
  5
10E93
  8
0
 10
-0.098115
 20
2.06874
 30
0.0
 70
    32
  0
VERTEX
  5
10E94
  8
0
 10
-0.130453
 20
2.06002
 30
0.0
 70
    32
  0
VERTEX
  5
10E95
  8
0
 10
-0.162475
 20
2.04883
 30
0.0
 70
    32
  0
VERTEX
  5
10E96
  8
0
 10
-0.194107
 20
2.03522
 30
0.0
 70
    32
  0
VERTEX
  5
10E97
  8
0
 10
-0.225271
 20
2.01921
 30
0.0
 70
    32
  0
VERTEX
  5
10E98
  8
0
 10
-0.255892
 20
2.00083
 30
0.0
 70
    32
  0
VERTEX
  5
10E99
  8
0
 10
-0.285897
 20
1.98015
 30
0.0
 70
    32
  0
VERTEX
  5
10E9A
  8
0
 10
-0.315212
 20
1.9572
 30
0.0
 70
    32
  0
VERTEX
  5
10E9B
  8
0
 10
-0.343769
 20
1.93204
 30
0.0
 70
    32
  0
VERTEX
  5
10E9C
  8
0
 10
-0.371497
 20
1.90473
 30
0.0
 70
    32
  0
VERTEX
  5
10E9D
  8
0
 10
-0.398331
 20
1.87534
 30
0.0
 70
    32
  0
VERTEX
  5
10E9E
  8
0
 10
-0.424205
 20
1.84393
 30
0.0
 70
    32
  0
VERTEX
  5
10E9F
  8
0
 10
-0.449056
 20
1.81059
 30
0.0
 70
    32
  0
VERTEX
  5
10EA0
  8
0
 10
-0.472826
 20
1.77539
 30
0.0
 70
    32
  0
VERTEX
  5
10EA1
  8
0
 10
-0.495457
 20
1.73842
 30
0.0
 70
    32
  0
VERTEX
  5
10EA2
  8
0
 10
-0.516895
 20
1.69977
 30
0.0
 70
    32
  0
VERTEX
  5
10EA3
  8
0
 10
-0.537087
 20
1.65953
 30
0.0
 70
    32
  0
VERTEX
  5
10EA4
  8
0
 10
-0.555985
 20
1.61779
 30
0.0
 70
    32
  0
VERTEX
  5
10EA5
  8
0
 10
-0.573544
 20
1.57467
 30
0.0
 70
    32
  0
VERTEX
  5
10EA6
  8
0
 10
-0.589721
 20
1.53025
 30
0.0
 70
    32
  0
VERTEX
  5
10EA7
  8
0
 10
-0.604477
 20
1.48466
 30
0.0
 70
    32
  0
VERTEX
  5
10EA8
  8
0
 10
-0.617778
 20
1.43799
 30
0.0
 70
    32
  0
VERTEX
  5
10EA9
  8
0
 10
-0.629589
 20
1.39037
 30
0.0
 70
    32
  0
VERTEX
  5
10EAA
  8
0
 10
-0.639885
 20
1.3419
 30
0.0
 70
    32
  0
VERTEX
  5
10EAB
  8
0
 10
-0.648638
 20
1.2927
 30
0.0
 70
    32
  0
VERTEX
  5
10EAC
  8
0
 10
-0.655829
 20
1.24289
 30
0.0
 70
    32
  0
VERTEX
  5
10EAD
  8
0
 10
-0.66144
 20
1.1926
 30
0.0
 70
    32
  0
VERTEX
  5
10EAE
  8
0
 10
-0.665458
 20
1.14194
 30
0.0
 70
    32
  0
VERTEX
  5
10EAF
  8
0
 10
-0.667872
 20
1.09103
 30
0.0
 70
    32
  0
VERTEX
  5
10EB0
  8
0
 10
-0.668678
 20
1.04
 30
0.0
 70
    32
  0
VERTEX
  5
10EB1
  8
0
 10
-0.667872
 20
0.98897
 30
0.0
 70
    32
  0
VERTEX
  5
10EB2
  8
0
 10
-0.665458
 20
0.938062
 30
0.0
 70
    32
  0
VERTEX
  5
10EB3
  8
0
 10
-0.66144
 20
0.8874
 30
0.0
 70
    32
  0
VERTEX
  5
10EB4
  8
0
 10
-0.655829
 20
0.837106
 30
0.0
 70
    32
  0
VERTEX
  5
10EB5
  8
0
 10
-0.648638
 20
0.787301
 30
0.0
 70
    32
  0
VERTEX
  5
10EB6
  8
0
 10
-0.639885
 20
0.738104
 30
0.0
 70
    32
  0
VERTEX
  5
10EB7
  8
0
 10
-0.629589
 20
0.689635
 30
0.0
 70
    32
  0
VERTEX
  5
10EB8
  8
0
 10
-0.617778
 20
0.642009
 30
0.0
 70
    32
  0
VERTEX
  5
10EB9
  8
0
 10
-0.604477
 20
0.595343
 30
0.0
 70
    32
  0
VERTEX
  5
10EBA
  8
0
 10
-0.589721
 20
0.549747
 30
0.0
 70
    32
  0
VERTEX
  5
10EBB
  8
0
 10
-0.573544
 20
0.505333
 30
0.0
 70
    32
  0
VERTEX
  5
10EBC
  8
0
 10
-0.555985
 20
0.462207
 30
0.0
 70
    32
  0
VERTEX
  5
10EBD
  8
0
 10
-0.537087
 20
0.420473
 30
0.0
 70
    32
  0
VERTEX
  5
10EBE
  8
0
 10
-0.516895
 20
0.380231
 30
0.0
 70
    32
  0
VERTEX
  5
10EBF
  8
0
 10
-0.495457
 20
0.341579
 30
0.0
 70
    32
  0
VERTEX
  5
10EC0
  8
0
 10
-0.472826
 20
0.304609
 30
0.0
 70
    32
  0
VERTEX
  5
10EC1
  8
0
 10
-0.449056
 20
0.269411
 30
0.0
 70
    32
  0
VERTEX
  5
10EC2
  8
0
 10
-0.424205
 20
0.236069
 30
0.0
 70
    32
  0
VERTEX
  5
10EC3
  8
0
 10
-0.398331
 20
0.204664
 30
0.0
 70
    32
  0
VERTEX
  5
10EC4
  8
0
 10
-0.371497
 20
0.175272
 30
0.0
 70
    32
  0
VERTEX
  5
10EC5
  8
0
 10
-0.343769
 20
0.147962
 30
0.0
 70
    32
  0
VERTEX
  5
10EC6
  8
0
 10
-0.315212
 20
0.122802
 30
0.0
 70
    32
  0
VERTEX
  5
10EC7
  8
0
 10
-0.285897
 20
0.099851
 30
0.0
 70
    32
  0
VERTEX
  5
10EC8
  8
0
 10
-0.255892
 20
0.079165
 30
0.0
 70
    32
  0
VERTEX
  5
10EC9
  8
0
 10
-0.225271
 20
0.060794
 30
0.0
 70
    32
  0
VERTEX
  5
10ECA
  8
0
 10
-0.194107
 20
0.044782
 30
0.0
 70
    32
  0
VERTEX
  5
10ECB
  8
0
 10
-0.162475
 20
0.031168
 30
0.0
 70
    32
  0
VERTEX
  5
10ECC
  8
0
 10
-0.130453
 20
0.019983
 30
0.0
 70
    32
  0
VERTEX
  5
10ECD
  8
0
 10
-0.098115
 20
0.011256
 30
0.0
 70
    32
  0
VERTEX
  5
10ECE
  8
0
 10
-0.065542
 20
0.005008
 30
0.0
 70
    32
  0
VERTEX
  5
10ECF
  8
0
 10
-0.032811
 20
0.001253
 30
0.0
 70
    32
  0
VERTEX
  5
10ED0
  8
0
 10
0.0
 20
0.0
 30
0.0
 70
    32
  0
SEQEND
  5
10ED1
  8
0
  0
ENDBLK
  5
10ED2
  8
0
  0
ENDSEC
  0
SECTION
  2
ENTITIES
  0
TEXT
  5
10ED3
  8
0
  6
CONTINUOUS
 62
     7
 10
56.193271
 20
223.05278
 30
0.0
 40
8.466667
  1
HF-KP23
  0
POLYLINE
  5
10ED4
  8
HIDDEN
 66
     1
 10
0.0
 20
0.0
 30
0.0
  0
VERTEX
  5
117E2
  8
HIDDEN
 10
221.067466
 20
121.488655
 30
0.0
  0
VERTEX
  5
117E3
  8
HIDDEN
 10
220.817066
 20
125.029299
 30
0.0
  0
VERTEX
  5
117E4
  8
HIDDEN
 10
220.768579
 20
125.290419
 30
0.0
  0
VERTEX
  5
117E5
  8
HIDDEN
 10
220.71694
 20
125.507042
 30
0.0
  0
VERTEX
  5
117E6
  8
HIDDEN
 10
220.664532
 20
125.671921
 30
0.0
  0
VERTEX
  5
117E7
  8
HIDDEN
 10
220.608479
 20
125.794108
 30
0.0
  0
VERTEX
  5
117E8
  8
HIDDEN
 10
220.569254
 20
125.86115
 30
0.0
  0
SEQEND
  5
117E9
  8
HIDDEN
  0
LINE
  5
10EDD
  8
HIDDEN
 10
166.255766
 20
120.396778
 30
0.0
 11
166.255766
 21
129.02222
 31
0.0
  0
INSERT
  5
10EDE
  8
1
  2
A$C3C4259C2
 10
236.633105
 20
118.224615
 30
0.0
 41
-1.561578
 42
1.561577
 43
1.561578
  0
LINE
  5
10EDF
  8
HIDDEN
 10
195.517466
 20
120.92222
 30
0.0
 11
195.517466
 21
126.12222
 31
0.0
  0
LINE
  5
10EE0
  8
HIDDEN
 10
106.261118
 20
118.92222
 30
0.0
 11
106.261118
 21
126.12222
 31
0.0
  0
LINE
  5
10EE1
  8
HIDDEN
 10
75.005657
 20
123.025445
 30
0.0
 11
75.005657
 21
120.41382
 31
0.0
  0
LINE
  5
10EE2
  8
CENTER
 10
96.811118
 20
134.034748
 30
0.0
 11
96.811118
 21
112.966669
 31
0.0
  0
LINE
  5
10EE3
  8
CENTER
 10
80.911118
 20
134.034748
 30
0.0
 11
80.911118
 21
113.676304
 31
0.0
  0
LINE
  5
10EE4
  8
CENTER
 10
90.911118
 20
195.739912
 30
0.0
 11
90.911118
 21
110.126714
 31
0.0
  0
LINE
  5
10EE5
  8
CENTER
 10
176.367466
 20
118.235622
 30
0.0
 11
176.367466
 21
135.237377
 31
0.0
  0
LINE
  5
10EE6
  8
CENTER
 10
201.867466
 20
120.537626
 30
0.0
 11
201.867466
 21
136.312611
 31
0.0
  0
ARC
  5
10EE7
  8
HIDDEN
 10
91.361118
 20
118.92222
 30
0.0
 40
4.0
 50
226.903739
 51
270.0
  0
LINE
  5
10EE8
  8
HIDDEN
 10
85.14621
 20
116.025445
 30
0.0
 11
79.022514
 21
116.025446
 31
0.0
  0
LINE
  5
10EE9
  8
HIDDEN
 10
91.361118
 20
114.92222
 30
0.0
 11
102.261118
 21
114.92222
 31
0.0
  0
ARC
  5
10EEA
  8
HIDDEN
 10
102.261118
 20
118.92222
 30
0.0
 40
4.0
 50
270.0
 51
0.0
  0
ARC
  5
10EEB
  8
HIDDEN
 10
172.842992
 20
123.168464
 30
0.0
 40
7.146592
 50
202.819746
 51
270.567754
  0
LINE
  5
10EEC
  8
HIDDEN
 10
192.589179
 20
116.02222
 30
0.0
 11
172.913807
 21
116.022222
 31
0.0
  0
LINE
  5
10EED
  8
HIDDEN
 10
220.832898
 20
118.22222
 30
0.0
 11
236.643851
 21
118.22222
 31
0.0
  0
LINE
  5
10EEE
  8
HIDDEN
 10
216.863419
 20
114.92222
 30
0.0
 11
201.517466
 21
114.92222
 31
0.0
  0
ARC
  5
10EEF
  8
HIDDEN
 10
201.517466
 20
120.92222
 30
0.0
 40
6.0
 50
180.0
 51
270.0
  0
LINE
  5
10EF0
  8
HIDDEN
 10
196.121233
 20
117.22222
 30
0.0
 11
194.73847
 21
117.22222
 31
0.0
  0
LINE
  5
10EF1
  8
HIDDEN
 10
194.787594
 20
117.22222
 30
0.0
 11
193.557681
 21
116.337679
 31
0.0
  0
LINE
  5
10EF2
  8
HIDDEN
 10
220.569254
 20
117.08329
 30
0.0
 11
216.863419
 21
114.92222
 31
0.0
  0
POLYLINE
  5
10EF3
  8
HIDDEN
 66
     1
 10
0.0
 20
0.0
 30
0.0
  0
VERTEX
  5
117EA
  8
HIDDEN
 10
220.569254
 20
117.08329
 30
0.0
  0
VERTEX
  5
117EB
  8
HIDDEN
 10
220.605783
 20
117.174812
 30
0.0
  0
VERTEX
  5
117EC
  8
HIDDEN
 10
220.661911
 20
117.294636
 30
0.0
  0
VERTEX
  5
117ED
  8
HIDDEN
 10
220.716134
 20
117.463499
 30
0.0
  0
VERTEX
  5
117EE
  8
HIDDEN
 10
220.766196
 20
117.671751
 30
0.0
  0
VERTEX
  5
117EF
  8
HIDDEN
 10
220.814846
 20
117.930825
 30
0.0
  0
VERTEX
  5
117F0
  8
HIDDEN
 10
221.067466
 20
121.488655
 30
0.0
  0
SEQEND
  5
117F1
  8
HIDDEN
  0
LINE
  5
10EFC
  8
CENTER
 10
109.6136
 20
143.319738
 30
0.0
 11
121.354711
 21
131.578627
 31
0.0
  0
LINE
  5
10EFD
  8
CENTER
 10
109.6136
 20
180.724702
 30
0.0
 11
121.354711
 21
192.465813
 31
0.0
  0
LINE
  5
10EFE
  8
CENTER
 10
126.207807
 20
162.02222
 30
0.0
 11
55.614429
 21
162.02222
 31
0.0
  0
LINE
  5
10EFF
  8
0
 62
     5
 10
110.470487
 20
192.02222
 30
0.0
 11
116.411118
 21
192.02222
 31
0.0
  0
ARC
  5
10F00
  8
0
 62
     5
 10
110.552562
 20
184.02222
 30
0.0
 40
1.0
 50
28.28907
 51
90.0
  0
ARC
  5
10F01
  8
0
 62
     5
 10
115.659855
 20
186.770957
 30
0.0
 40
4.533836
 50
183.687572
 51
266.312428
  0
ARC
  5
10F02
  8
0
 62
     5
 10
110.855097
 20
140.52222
 30
0.0
 40
1.0
 50
270.0
 51
325.93541
  0
LINE
  5
10F03
  8
0
 62
     5
 10
116.411118
 20
132.02222
 30
0.0
 11
110.737236
 21
132.02222
 31
0.0
  0
ARC
  5
10F04
  8
0
 62
     5
 10
-268.343452
 20
162.02222
 30
0.0
 40
380.266164
 50
355.434883
 51
356.312428
  0
ARC
  5
10F05
  8
0
 62
     5
 10
115.659855
 20
137.273483
 30
0.0
 40
4.533836
 50
93.687572
 51
176.312428
  0
ARC
  5
10F06
  8
0
 62
     5
 10
115.659855
 20
137.273483
 30
0.0
 40
4.8
 50
93.687572
 51
176.312428
  0
ARC
  5
10F07
  8
0
 62
     5
 10
115.659855
 20
186.770957
 30
0.0
 40
4.8
 50
183.687572
 51
266.312428
  0
LINE
  5
10F08
  8
CENTER
 10
72.208636
 20
180.724702
 30
0.0
 11
60.467525
 21
192.465813
 31
0.0
  0
LINE
  5
10F09
  8
0
 62
     5
 10
67.911118
 20
181.663664
 30
0.0
 11
67.911118
 21
178.32222
 31
0.0
  0
ARC
  5
10F0A
  8
0
 62
     5
 10
61.911118
 20
180.656523
 30
0.0
 40
1.0
 50
94.388399
 51
180.0
  0
ARC
  5
10F0B
  8
0
 62
     5
 10
69.622326
 20
135.02222
 30
0.0
 40
1.5
 50
270.0
 51
4.058402
  0
ARC
  5
10F0C
  8
HIDDEN
 10
70.221283
 20
124.525445
 30
0.0
 40
1.5
 50
180.0
 51
270.0
  0
ARC
  5
10F0D
  8
CENTER
 10
90.911118
 20
162.02222
 30
0.0
 40
35.0
 50
216.254023
 51
234.381034
  0
LINE
  5
10F0E
  8
CENTER
 10
72.208636
 20
143.319738
 30
0.0
 11
60.467525
 21
131.578627
 31
0.0
  0
ARC
  5
10F0F
  8
0
 62
     5
 10
66.162381
 20
137.273483
 30
0.0
 40
4.533836
 50
3.687572
 51
86.312428
  0
ARC
  5
10F10
  8
0
 62
     5
 10
66.162381
 20
137.273483
 30
0.0
 40
4.8
 50
3.687572
 51
86.312428
  0
LINE
  5
10F11
  8
0
 62
     5
 10
68.721288
 20
129.02222
 30
0.0
 11
93.100948
 21
129.02222
 31
0.0
  0
LINE
  5
10F12
  8
0
 62
     5
 10
67.411118
 20
130.02222
 30
0.0
 11
95.411118
 21
130.02222
 31
0.0
  0
LINE
  5
10F13
  8
0
 62
     5
 10
60.644954
 20
143.141468
 30
0.0
 11
60.644954
 21
180.902972
 31
0.0
  0
LINE
  5
10F14
  8
0
 62
     5
 10
60.911118
 20
180.656523
 30
0.0
 11
60.911118
 21
143.387917
 31
0.0
  0
LINE
  5
10F15
  8
0
 62
     5
 10
60.911118
 20
136.52222
 30
0.0
 11
60.911118
 21
142.462851
 31
0.0
  0
CIRCLE
  5
10F16
  8
0
 62
     5
 10
66.162381
 20
137.273483
 30
0.0
 40
2.9
  0
LINE
  5
10F17
  8
0
 62
     5
 10
68.721283
 20
129.02222
 30
0.0
 11
68.721283
 21
130.02222
 31
0.0
  0
LINE
  5
10F18
  8
0
 62
     5
 10
68.77053
 20
130.02222
 30
0.0
 11
68.77053
 21
129.02222
 31
0.0
  0
LINE
  5
10F19
  8
HIDDEN
 10
68.721283
 20
124.525445
 30
0.0
 11
68.721283
 21
127.275445
 31
0.0
  0
ARC
  5
10F1A
  8
0
 62
     5
 10
65.411118
 20
136.52222
 30
0.0
 40
4.5
 50
180.0
 51
270.0
  0
LINE
  5
10F1B
  8
0
 62
     5
 10
69.842555
 20
133.023772
 30
0.0
 11
69.816443
 21
133.522996
 31
0.0
  0
POLYLINE
  5
10F1C
  8
0
 62
     5
 66
     1
 10
0.0
 20
0.0
 30
0.0
 70
     8
  0
VERTEX
  5
10F1D
  8
0
 62
     5
 10
69.8164
 20
133.523
 30
0.0
 70
    32
  0
VERTEX
  5
10F1E
  8
0
 62
     5
 10
69.816
 20
133.523
 30
0.0
 70
    32
  0
VERTEX
  5
10F1F
  8
0
 62
     5
 10
69.8155
 20
133.523
 30
0.0
 70
    32
  0
VERTEX
  5
10F20
  8
0
 62
     5
 10
69.8151
 20
133.523
 30
0.0
 70
    32
  0
VERTEX
  5
10F21
  8
0
 62
     5
 10
69.8146
 20
133.523
 30
0.0
 70
    32
  0
VERTEX
  5
10F22
  8
0
 62
     5
 10
69.8142
 20
133.523
 30
0.0
 70
    32
  0
VERTEX
  5
10F23
  8
0
 62
     5
 10
69.8137
 20
133.523
 30
0.0
 70
    32
  0
VERTEX
  5
10F24
  8
0
 62
     5
 10
69.8133
 20
133.523
 30
0.0
 70
    32
  0
VERTEX
  5
10F25
  8
0
 62
     5
 10
69.8128
 20
133.523
 30
0.0
 70
    32
  0
VERTEX
  5
10F26
  8
0
 62
     5
 10
69.8124
 20
133.523
 30
0.0
 70
    32
  0
VERTEX
  5
10F27
  8
0
 62
     5
 10
69.8119
 20
133.523
 30
0.0
 70
    32
  0
VERTEX
  5
10F28
  8
0
 62
     5
 10
69.8115
 20
133.523
 30
0.0
 70
    32
  0
VERTEX
  5
10F29
  8
0
 62
     5
 10
69.811
 20
133.523
 30
0.0
 70
    32
  0
VERTEX
  5
10F2A
  8
0
 62
     5
 10
69.8106
 20
133.523
 30
0.0
 70
    32
  0
VERTEX
  5
10F2B
  8
0
 62
     5
 10
69.8101
 20
133.523
 30
0.0
 70
    32
  0
VERTEX
  5
10F2C
  8
0
 62
     5
 10
69.8097
 20
133.523
 30
0.0
 70
    32
  0
VERTEX
  5
10F2D
  8
0
 62
     5
 10
69.8092
 20
133.523
 30
0.0
 70
    32
  0
VERTEX
  5
10F2E
  8
0
 62
     5
 10
69.8088
 20
133.523
 30
0.0
 70
    32
  0
VERTEX
  5
10F2F
  8
0
 62
     5
 10
69.8083
 20
133.523
 30
0.0
 70
    32
  0
VERTEX
  5
10F30
  8
0
 62
     5
 10
69.8079
 20
133.523
 30
0.0
 70
    32
  0
VERTEX
  5
10F31
  8
0
 62
     5
 10
69.8074
 20
133.523
 30
0.0
 70
    32
  0
VERTEX
  5
10F32
  8
0
 62
     5
 10
69.807
 20
133.523
 30
0.0
 70
    32
  0
VERTEX
  5
10F33
  8
0
 62
     5
 10
69.8065
 20
133.523
 30
0.0
 70
    32
  0
VERTEX
  5
10F34
  8
0
 62
     5
 10
69.8061
 20
133.523
 30
0.0
 70
    32
  0
VERTEX
  5
10F35
  8
0
 62
     5
 10
69.8056
 20
133.523
 30
0.0
 70
    32
  0
VERTEX
  5
10F36
  8
0
 62
     5
 10
69.8052
 20
133.523
 30
0.0
 70
    32
  0
VERTEX
  5
10F37
  8
0
 62
     5
 10
69.8047
 20
133.523
 30
0.0
 70
    32
  0
VERTEX
  5
10F38
  8
0
 62
     5
 10
69.8043
 20
133.523
 30
0.0
 70
    32
  0
VERTEX
  5
10F39
  8
0
 62
     5
 10
69.8038
 20
133.523
 30
0.0
 70
    32
  0
VERTEX
  5
10F3A
  8
0
 62
     5
 10
69.8034
 20
133.523
 30
0.0
 70
    32
  0
VERTEX
  5
10F3B
  8
0
 62
     5
 10
69.8029
 20
133.523
 30
0.0
 70
    32
  0
VERTEX
  5
10F3C
  8
0
 62
     5
 10
69.8025
 20
133.523
 30
0.0
 70
    32
  0
VERTEX
  5
10F3D
  8
0
 62
     5
 10
69.802
 20
133.523
 30
0.0
 70
    32
  0
VERTEX
  5
10F3E
  8
0
 62
     5
 10
69.8016
 20
133.523
 30
0.0
 70
    32
  0
VERTEX
  5
10F3F
  8
0
 62
     5
 10
69.8011
 20
133.523
 30
0.0
 70
    32
  0
VERTEX
  5
10F40
  8
0
 62
     5
 10
69.8007
 20
133.523
 30
0.0
 70
    32
  0
VERTEX
  5
10F41
  8
0
 62
     5
 10
69.8002
 20
133.523
 30
0.0
 70
    32
  0
VERTEX
  5
10F42
  8
0
 62
     5
 10
69.7998
 20
133.523
 30
0.0
 70
    32
  0
VERTEX
  5
10F43
  8
0
 62
     5
 10
69.7993
 20
133.523
 30
0.0
 70
    32
  0
VERTEX
  5
10F44
  8
0
 62
     5
 10
69.7989
 20
133.523
 30
0.0
 70
    32
  0
VERTEX
  5
10F45
  8
0
 62
     5
 10
69.7984
 20
133.523
 30
0.0
 70
    32
  0
VERTEX
  5
10F46
  8
0
 62
     5
 10
69.798
 20
133.523
 30
0.0
 70
    32
  0
VERTEX
  5
10F47
  8
0
 62
     5
 10
69.7975
 20
133.523
 30
0.0
 70
    32
  0
VERTEX
  5
10F48
  8
0
 62
     5
 10
69.7971
 20
133.523
 30
0.0
 70
    32
  0
VERTEX
  5
10F49
  8
0
 62
     5
 10
69.7966
 20
133.523
 30
0.0
 70
    32
  0
VERTEX
  5
10F4A
  8
0
 62
     5
 10
69.7962
 20
133.523
 30
0.0
 70
    32
  0
VERTEX
  5
10F4B
  8
0
 62
     5
 10
69.7957
 20
133.523
 30
0.0
 70
    32
  0
VERTEX
  5
10F4C
  8
0
 62
     5
 10
69.7953
 20
133.523
 30
0.0
 70
    32
  0
VERTEX
  5
10F4D
  8
0
 62
     5
 10
69.7948
 20
133.523
 30
0.0
 70
    32
  0
VERTEX
  5
10F4E
  8
0
 62
     5
 10
69.7944
 20
133.523
 30
0.0
 70
    32
  0
VERTEX
  5
10F4F
  8
0
 62
     5
 10
69.7939
 20
133.523
 30
0.0
 70
    32
  0
VERTEX
  5
10F50
  8
0
 62
     5
 10
69.7935
 20
133.523
 30
0.0
 70
    32
  0
VERTEX
  5
10F51
  8
0
 62
     5
 10
69.793
 20
133.523
 30
0.0
 70
    32
  0
VERTEX
  5
10F52
  8
0
 62
     5
 10
69.7926
 20
133.523
 30
0.0
 70
    32
  0
VERTEX
  5
10F53
  8
0
 62
     5
 10
69.7921
 20
133.524
 30
0.0
 70
    32
  0
VERTEX
  5
10F54
  8
0
 62
     5
 10
69.7917
 20
133.524
 30
0.0
 70
    32
  0
VERTEX
  5
10F55
  8
0
 62
     5
 10
69.7912
 20
133.524
 30
0.0
 70
    32
  0
VERTEX
  5
10F56
  8
0
 62
     5
 10
69.7908
 20
133.524
 30
0.0
 70
    32
  0
VERTEX
  5
10F57
  8
0
 62
     5
 10
69.7903
 20
133.524
 30
0.0
 70
    32
  0
VERTEX
  5
10F58
  8
0
 62
     5
 10
69.7898
 20
133.524
 30
0.0
 70
    32
  0
VERTEX
  5
10F59
  8
0
 62
     5
 10
69.7894
 20
133.524
 30
0.0
 70
    32
  0
VERTEX
  5
10F5A
  8
0
 62
     5
 10
69.7889
 20
133.524
 30
0.0
 70
    32
  0
VERTEX
  5
10F5B
  8
0
 62
     5
 10
69.7885
 20
133.524
 30
0.0
 70
    32
  0
VERTEX
  5
10F5C
  8
0
 62
     5
 10
69.788
 20
133.524
 30
0.0
 70
    32
  0
VERTEX
  5
10F5D
  8
0
 62
     5
 10
69.7876
 20
133.524
 30
0.0
 70
    32
  0
VERTEX
  5
10F5E
  8
0
 62
     5
 10
69.7871
 20
133.524
 30
0.0
 70
    32
  0
VERTEX
  5
10F5F
  8
0
 62
     5
 10
69.7867
 20
133.524
 30
0.0
 70
    32
  0
VERTEX
  5
10F60
  8
0
 62
     5
 10
69.7862
 20
133.524
 30
0.0
 70
    32
  0
VERTEX
  5
10F61
  8
0
 62
     5
 10
69.7858
 20
133.524
 30
0.0
 70
    32
  0
VERTEX
  5
10F62
  8
0
 62
     5
 10
69.7853
 20
133.524
 30
0.0
 70
    32
  0
VERTEX
  5
10F63
  8
0
 62
     5
 10
69.7849
 20
133.524
 30
0.0
 70
    32
  0
VERTEX
  5
10F64
  8
0
 62
     5
 10
69.7844
 20
133.524
 30
0.0
 70
    32
  0
VERTEX
  5
10F65
  8
0
 62
     5
 10
69.784
 20
133.524
 30
0.0
 70
    32
  0
VERTEX
  5
10F66
  8
0
 62
     5
 10
69.7835
 20
133.524
 30
0.0
 70
    32
  0
VERTEX
  5
10F67
  8
0
 62
     5
 10
69.7831
 20
133.524
 30
0.0
 70
    32
  0
VERTEX
  5
10F68
  8
0
 62
     5
 10
69.7826
 20
133.524
 30
0.0
 70
    32
  0
VERTEX
  5
10F69
  8
0
 62
     5
 10
69.7822
 20
133.524
 30
0.0
 70
    32
  0
VERTEX
  5
10F6A
  8
0
 62
     5
 10
69.7817
 20
133.524
 30
0.0
 70
    32
  0
VERTEX
  5
10F6B
  8
0
 62
     5
 10
69.7813
 20
133.524
 30
0.0
 70
    32
  0
VERTEX
  5
10F6C
  8
0
 62
     5
 10
69.7808
 20
133.524
 30
0.0
 70
    32
  0
VERTEX
  5
10F6D
  8
0
 62
     5
 10
69.7804
 20
133.524
 30
0.0
 70
    32
  0
VERTEX
  5
10F6E
  8
0
 62
     5
 10
69.7799
 20
133.524
 30
0.0
 70
    32
  0
VERTEX
  5
10F6F
  8
0
 62
     5
 10
69.7795
 20
133.524
 30
0.0
 70
    32
  0
VERTEX
  5
10F70
  8
0
 62
     5
 10
69.779
 20
133.524
 30
0.0
 70
    32
  0
VERTEX
  5
10F71
  8
0
 62
     5
 10
69.7786
 20
133.524
 30
0.0
 70
    32
  0
VERTEX
  5
10F72
  8
0
 62
     5
 10
69.7781
 20
133.524
 30
0.0
 70
    32
  0
VERTEX
  5
10F73
  8
0
 62
     5
 10
69.7777
 20
133.524
 30
0.0
 70
    32
  0
VERTEX
  5
10F74
  8
0
 62
     5
 10
69.7772
 20
133.524
 30
0.0
 70
    32
  0
VERTEX
  5
10F75
  8
0
 62
     5
 10
69.7768
 20
133.524
 30
0.0
 70
    32
  0
VERTEX
  5
10F76
  8
0
 62
     5
 10
69.7763
 20
133.524
 30
0.0
 70
    32
  0
VERTEX
  5
10F77
  8
0
 62
     5
 10
69.7759
 20
133.524
 30
0.0
 70
    32
  0
VERTEX
  5
10F78
  8
0
 62
     5
 10
69.7754
 20
133.524
 30
0.0
 70
    32
  0
VERTEX
  5
10F79
  8
0
 62
     5
 10
69.775
 20
133.524
 30
0.0
 70
    32
  0
VERTEX
  5
10F7A
  8
0
 62
     5
 10
69.7745
 20
133.524
 30
0.0
 70
    32
  0
VERTEX
  5
10F7B
  8
0
 62
     5
 10
69.7741
 20
133.524
 30
0.0
 70
    32
  0
VERTEX
  5
10F7C
  8
0
 62
     5
 10
69.7736
 20
133.524
 30
0.0
 70
    32
  0
VERTEX
  5
10F7D
  8
0
 62
     5
 10
69.7732
 20
133.524
 30
0.0
 70
    32
  0
VERTEX
  5
10F7E
  8
0
 62
     5
 10
69.7727
 20
133.524
 30
0.0
 70
    32
  0
VERTEX
  5
10F7F
  8
0
 62
     5
 10
69.7723
 20
133.524
 30
0.0
 70
    32
  0
VERTEX
  5
10F80
  8
0
 62
     5
 10
69.7718
 20
133.524
 30
0.0
 70
    32
  0
VERTEX
  5
10F81
  8
0
 62
     5
 10
69.7714
 20
133.524
 30
0.0
 70
    32
  0
VERTEX
  5
10F82
  8
0
 62
     5
 10
69.7709
 20
133.524
 30
0.0
 70
    32
  0
VERTEX
  5
10F83
  8
0
 62
     5
 10
69.7705
 20
133.524
 30
0.0
 70
    32
  0
VERTEX
  5
10F84
  8
0
 62
     5
 10
69.77
 20
133.524
 30
0.0
 70
    32
  0
VERTEX
  5
10F85
  8
0
 62
     5
 10
69.7696
 20
133.524
 30
0.0
 70
    32
  0
VERTEX
  5
10F86
  8
0
 62
     5
 10
69.7691
 20
133.524
 30
0.0
 70
    32
  0
VERTEX
  5
10F87
  8
0
 62
     5
 10
69.7687
 20
133.524
 30
0.0
 70
    32
  0
VERTEX
  5
10F88
  8
0
 62
     5
 10
69.7682
 20
133.524
 30
0.0
 70
    32
  0
VERTEX
  5
10F89
  8
0
 62
     5
 10
69.7678
 20
133.524
 30
0.0
 70
    32
  0
VERTEX
  5
10F8A
  8
0
 62
     5
 10
69.7673
 20
133.524
 30
0.0
 70
    32
  0
VERTEX
  5
10F8B
  8
0
 62
     5
 10
69.7669
 20
133.524
 30
0.0
 70
    32
  0
VERTEX
  5
10F8C
  8
0
 62
     5
 10
69.7664
 20
133.524
 30
0.0
 70
    32
  0
VERTEX
  5
10F8D
  8
0
 62
     5
 10
69.7659
 20
133.524
 30
0.0
 70
    32
  0
VERTEX
  5
10F8E
  8
0
 62
     5
 10
69.7655
 20
133.524
 30
0.0
 70
    32
  0
VERTEX
  5
10F8F
  8
0
 62
     5
 10
69.765
 20
133.524
 30
0.0
 70
    32
  0
VERTEX
  5
10F90
  8
0
 62
     5
 10
69.7646
 20
133.524
 30
0.0
 70
    32
  0
VERTEX
  5
10F91
  8
0
 62
     5
 10
69.7641
 20
133.524
 30
0.0
 70
    32
  0
VERTEX
  5
10F92
  8
0
 62
     5
 10
69.7637
 20
133.524
 30
0.0
 70
    32
  0
VERTEX
  5
10F93
  8
0
 62
     5
 10
69.7632
 20
133.524
 30
0.0
 70
    32
  0
VERTEX
  5
10F94
  8
0
 62
     5
 10
69.7628
 20
133.524
 30
0.0
 70
    32
  0
VERTEX
  5
10F95
  8
0
 62
     5
 10
69.7623
 20
133.524
 30
0.0
 70
    32
  0
VERTEX
  5
10F96
  8
0
 62
     5
 10
69.7619
 20
133.524
 30
0.0
 70
    32
  0
VERTEX
  5
10F97
  8
0
 62
     5
 10
69.7614
 20
133.524
 30
0.0
 70
    32
  0
VERTEX
  5
10F98
  8
0
 62
     5
 10
69.761
 20
133.524
 30
0.0
 70
    32
  0
VERTEX
  5
10F99
  8
0
 62
     5
 10
69.7605
 20
133.524
 30
0.0
 70
    32
  0
VERTEX
  5
10F9A
  8
0
 62
     5
 10
69.7601
 20
133.524
 30
0.0
 70
    32
  0
VERTEX
  5
10F9B
  8
0
 62
     5
 10
69.7596
 20
133.524
 30
0.0
 70
    32
  0
VERTEX
  5
10F9C
  8
0
 62
     5
 10
69.7592
 20
133.524
 30
0.0
 70
    32
  0
VERTEX
  5
10F9D
  8
0
 62
     5
 10
69.7587
 20
133.524
 30
0.0
 70
    32
  0
VERTEX
  5
10F9E
  8
0
 62
     5
 10
69.7583
 20
133.524
 30
0.0
 70
    32
  0
VERTEX
  5
10F9F
  8
0
 62
     5
 10
69.7578
 20
133.524
 30
0.0
 70
    32
  0
VERTEX
  5
10FA0
  8
0
 62
     5
 10
69.7574
 20
133.524
 30
0.0
 70
    32
  0
VERTEX
  5
10FA1
  8
0
 62
     5
 10
69.7569
 20
133.524
 30
0.0
 70
    32
  0
VERTEX
  5
10FA2
  8
0
 62
     5
 10
69.7565
 20
133.524
 30
0.0
 70
    32
  0
VERTEX
  5
10FA3
  8
0
 62
     5
 10
69.756
 20
133.524
 30
0.0
 70
    32
  0
VERTEX
  5
10FA4
  8
0
 62
     5
 10
69.7556
 20
133.524
 30
0.0
 70
    32
  0
VERTEX
  5
10FA5
  8
0
 62
     5
 10
69.7551
 20
133.524
 30
0.0
 70
    32
  0
VERTEX
  5
10FA6
  8
0
 62
     5
 10
69.7547
 20
133.524
 30
0.0
 70
    32
  0
VERTEX
  5
10FA7
  8
0
 62
     5
 10
69.7542
 20
133.524
 30
0.0
 70
    32
  0
VERTEX
  5
10FA8
  8
0
 62
     5
 10
69.7538
 20
133.524
 30
0.0
 70
    32
  0
VERTEX
  5
10FA9
  8
0
 62
     5
 10
69.7533
 20
133.524
 30
0.0
 70
    32
  0
VERTEX
  5
10FAA
  8
0
 62
     5
 10
69.7529
 20
133.524
 30
0.0
 70
    32
  0
VERTEX
  5
10FAB
  8
0
 62
     5
 10
69.7524
 20
133.524
 30
0.0
 70
    32
  0
VERTEX
  5
10FAC
  8
0
 62
     5
 10
69.752
 20
133.524
 30
0.0
 70
    32
  0
VERTEX
  5
10FAD
  8
0
 62
     5
 10
69.7515
 20
133.524
 30
0.0
 70
    32
  0
VERTEX
  5
10FAE
  8
0
 62
     5
 10
69.7511
 20
133.524
 30
0.0
 70
    32
  0
VERTEX
  5
10FAF
  8
0
 62
     5
 10
69.7506
 20
133.524
 30
0.0
 70
    32
  0
VERTEX
  5
10FB0
  8
0
 62
     5
 10
69.7502
 20
133.524
 30
0.0
 70
    32
  0
VERTEX
  5
10FB1
  8
0
 62
     5
 10
69.7497
 20
133.524
 30
0.0
 70
    32
  0
VERTEX
  5
10FB2
  8
0
 62
     5
 10
69.7493
 20
133.524
 30
0.0
 70
    32
  0
VERTEX
  5
10FB3
  8
0
 62
     5
 10
69.7488
 20
133.524
 30
0.0
 70
    32
  0
VERTEX
  5
10FB4
  8
0
 62
     5
 10
69.7484
 20
133.524
 30
0.0
 70
    32
  0
VERTEX
  5
10FB5
  8
0
 62
     5
 10
69.7479
 20
133.524
 30
0.0
 70
    32
  0
VERTEX
  5
10FB6
  8
0
 62
     5
 10
69.7475
 20
133.524
 30
0.0
 70
    32
  0
VERTEX
  5
10FB7
  8
0
 62
     5
 10
69.747
 20
133.524
 30
0.0
 70
    32
  0
VERTEX
  5
10FB8
  8
0
 62
     5
 10
69.7466
 20
133.524
 30
0.0
 70
    32
  0
VERTEX
  5
10FB9
  8
0
 62
     5
 10
69.7461
 20
133.524
 30
0.0
 70
    32
  0
VERTEX
  5
10FBA
  8
0
 62
     5
 10
69.7457
 20
133.524
 30
0.0
 70
    32
  0
VERTEX
  5
10FBB
  8
0
 62
     5
 10
69.7452
 20
133.524
 30
0.0
 70
    32
  0
VERTEX
  5
10FBC
  8
0
 62
     5
 10
69.7448
 20
133.524
 30
0.0
 70
    32
  0
VERTEX
  5
10FBD
  8
0
 62
     5
 10
69.7443
 20
133.524
 30
0.0
 70
    32
  0
VERTEX
  5
10FBE
  8
0
 62
     5
 10
69.7439
 20
133.524
 30
0.0
 70
    32
  0
VERTEX
  5
10FBF
  8
0
 62
     5
 10
69.7434
 20
133.524
 30
0.0
 70
    32
  0
VERTEX
  5
10FC0
  8
0
 62
     5
 10
69.743
 20
133.524
 30
0.0
 70
    32
  0
VERTEX
  5
10FC1
  8
0
 62
     5
 10
69.7425
 20
133.524
 30
0.0
 70
    32
  0
VERTEX
  5
10FC2
  8
0
 62
     5
 10
69.7421
 20
133.524
 30
0.0
 70
    32
  0
VERTEX
  5
10FC3
  8
0
 62
     5
 10
69.7416
 20
133.524
 30
0.0
 70
    32
  0
VERTEX
  5
10FC4
  8
0
 62
     5
 10
69.7412
 20
133.524
 30
0.0
 70
    32
  0
VERTEX
  5
10FC5
  8
0
 62
     5
 10
69.7407
 20
133.524
 30
0.0
 70
    32
  0
VERTEX
  5
10FC6
  8
0
 62
     5
 10
69.7403
 20
133.524
 30
0.0
 70
    32
  0
VERTEX
  5
10FC7
  8
0
 62
     5
 10
69.7398
 20
133.524
 30
0.0
 70
    32
  0
VERTEX
  5
10FC8
  8
0
 62
     5
 10
69.7393
 20
133.524
 30
0.0
 70
    32
  0
VERTEX
  5
10FC9
  8
0
 62
     5
 10
69.7389
 20
133.524
 30
0.0
 70
    32
  0
VERTEX
  5
10FCA
  8
0
 62
     5
 10
69.7384
 20
133.524
 30
0.0
 70
    32
  0
VERTEX
  5
10FCB
  8
0
 62
     5
 10
69.738
 20
133.524
 30
0.0
 70
    32
  0
VERTEX
  5
10FCC
  8
0
 62
     5
 10
69.7375
 20
133.524
 30
0.0
 70
    32
  0
VERTEX
  5
10FCD
  8
0
 62
     5
 10
69.7371
 20
133.524
 30
0.0
 70
    32
  0
VERTEX
  5
10FCE
  8
0
 62
     5
 10
69.7366
 20
133.524
 30
0.0
 70
    32
  0
VERTEX
  5
10FCF
  8
0
 62
     5
 10
69.7362
 20
133.524
 30
0.0
 70
    32
  0
VERTEX
  5
10FD0
  8
0
 62
     5
 10
69.7357
 20
133.524
 30
0.0
 70
    32
  0
VERTEX
  5
10FD1
  8
0
 62
     5
 10
69.7353
 20
133.524
 30
0.0
 70
    32
  0
VERTEX
  5
10FD2
  8
0
 62
     5
 10
69.7348
 20
133.523
 30
0.0
 70
    32
  0
VERTEX
  5
10FD3
  8
0
 62
     5
 10
69.7344
 20
133.523
 30
0.0
 70
    32
  0
VERTEX
  5
10FD4
  8
0
 62
     5
 10
69.7339
 20
133.523
 30
0.0
 70
    32
  0
VERTEX
  5
10FD5
  8
0
 62
     5
 10
69.7335
 20
133.523
 30
0.0
 70
    32
  0
VERTEX
  5
10FD6
  8
0
 62
     5
 10
69.733
 20
133.523
 30
0.0
 70
    32
  0
VERTEX
  5
10FD7
  8
0
 62
     5
 10
69.7326
 20
133.523
 30
0.0
 70
    32
  0
VERTEX
  5
10FD8
  8
0
 62
     5
 10
69.7321
 20
133.523
 30
0.0
 70
    32
  0
VERTEX
  5
10FD9
  8
0
 62
     5
 10
69.7317
 20
133.523
 30
0.0
 70
    32
  0
VERTEX
  5
10FDA
  8
0
 62
     5
 10
69.7312
 20
133.523
 30
0.0
 70
    32
  0
VERTEX
  5
10FDB
  8
0
 62
     5
 10
69.7308
 20
133.523
 30
0.0
 70
    32
  0
VERTEX
  5
10FDC
  8
0
 62
     5
 10
69.7303
 20
133.523
 30
0.0
 70
    32
  0
SEQEND
  5
10FDD
  8
0
 62
     5
  0
LINE
  5
10FDE
  8
0
 62
     5
 10
69.842555
 20
133.023771
 30
0.0
 11
69.842555
 21
130.02222
 31
0.0
  0
LINE
  5
10FDF
  8
0
 62
     5
 10
67.211118
 20
132.02222
 30
0.0
 11
65.411118
 21
132.02222
 31
0.0
  0
POLYLINE
  5
10FE0
  8
0
 62
     5
 66
     1
 10
0.0
 20
0.0
 30
0.0
  0
VERTEX
  5
117F2
  8
0
 62
     5
 10
67.702061
 20
133.517942
 30
0.0
  0
VERTEX
  5
117F3
  8
0
 62
     5
 10
67.734222
 20
133.521149
 30
0.0
  0
VERTEX
  5
117F4
  8
0
 62
     5
 10
67.76652
 20
133.52222
 30
0.0
  0
SEQEND
  5
117F5
  8
0
 62
     5
  0
ARC
  5
10FE5
  8
0
 62
     5
 10
67.711118
 20
133.02222
 30
0.0
 40
0.5
 50
90.0
 51
180.0
  0
ARC
  5
10FE6
  8
0
 62
     5
 10
67.411118
 20
130.22222
 30
0.0
 40
0.2
 50
180.0
 51
270.0
  0
LINE
  5
10FE7
  8
0
 62
     5
 10
67.211118
 20
130.22222
 30
0.0
 11
67.211118
 21
133.02222
 31
0.0
  0
LINE
  5
10FE8
  8
0
 62
     5
 10
69.622326
 20
133.52222
 30
0.0
 11
67.711118
 21
133.52222
 31
0.0
  0
LINE
  5
10FE9
  8
0
 62
     5
 10
64.70241
 20
144.508169
 30
0.0
 11
64.56241
 21
144.711371
 31
0.0
  0
LINE
  5
10FEA
  8
0
 62
     5
 10
64.14241
 20
144.508169
 30
0.0
 11
63.799046
 21
145.102894
 31
0.0
  0
LINE
  5
10FEB
  8
0
 62
     5
 10
64.70241
 20
143.948169
 30
0.0
 11
64.56241
 21
144.655371
 31
0.0
  0
LINE
  5
10FEC
  8
0
 62
     5
 10
64.14241
 20
143.948169
 30
0.0
 11
64.28241
 21
144.655371
 31
0.0
  0
LINE
  5
10FED
  8
0
 62
     5
 10
64.14241
 20
144.508169
 30
0.0
 11
64.28241
 21
144.711371
 31
0.0
  0
LINE
  5
10FEE
  8
0
 62
     5
 10
65.045775
 20
145.102894
 30
0.0
 11
64.70241
 21
144.508169
 31
0.0
  0
LINE
  5
10FEF
  8
0
 62
     5
 10
68.411118
 20
146.02222
 30
0.0
 11
68.411118
 21
142.078241
 31
0.0
  0
CIRCLE
  5
10FF0
  8
0
 62
     5
 10
64.42241
 20
145.726258
 30
0.0
 40
2.75
  0
ARC
  5
10FF1
  8
0
 62
     5
 10
64.42241
 20
145.726258
 30
0.0
 40
2.95
 50
276.813854
 51
263.186146
  0
CIRCLE
  5
10FF2
  8
0
 62
     5
 10
64.42241
 20
145.726258
 30
0.0
 40
3.0
  0
ARC
  5
10FF3
  8
0
 62
     5
 10
90.911118
 20
521.27679
 30
0.0
 40
380.266164
 50
265.574357
 51
266.312428
  0
ARC
  5
10FF4
  8
0
 62
     5
 10
90.911118
 20
521.27679
 30
0.0
 40
380.0
 50
265.611601
 51
266.312428
  0
LINE
  5
10FF5
  8
0
 62
     5
 10
64.14241
 20
143.948169
 30
0.0
 11
64.14241
 21
144.508169
 31
0.0
  0
LINE
  5
10FF6
  8
0
 62
     5
 10
64.70241
 20
144.508169
 30
0.0
 11
64.70241
 21
143.948169
 31
0.0
  0
ARC
  5
10FF7
  8
0
 62
     5
 10
64.42241
 20
145.726258
 30
0.0
 40
1.8
 50
261.050982
 51
278.949018
  0
LINE
  5
10FF8
  8
0
 62
     5
 10
64.07241
 20
143.000998
 30
0.0
 11
64.07241
 21
142.797095
 31
0.0
  0
LINE
  5
10FF9
  8
0
 62
     5
 10
64.77241
 20
142.797095
 30
0.0
 11
64.77241
 21
143.000998
 31
0.0
  0
ARC
  5
10FFA
  8
0
 62
     5
 10
61.911118
 20
143.387917
 30
0.0
 40
1.0
 50
180.0
 51
265.611601
  0
ARC
  5
10FFB
  8
0
 62
     5
 10
69.411118
 20
142.078241
 30
0.0
 40
1.0
 50
180.0
 51
235.93541
  0
LINE
  5
10FFC
  8
0
 62
     5
 10
65.045775
 20
145.102894
 30
0.0
 11
63.799046
 21
146.349623
 31
0.0
  0
LINE
  5
10FFD
  8
0
 62
     5
 10
64.70241
 20
146.944347
 30
0.0
 11
65.045775
 21
146.349623
 31
0.0
  0
LINE
  5
10FFE
  8
0
 62
     5
 10
65.437298
 20
145.866258
 30
0.0
 11
64.882641
 21
146.186489
 31
0.0
  0
LINE
  5
10FFF
  8
0
 62
     5
 10
63.351523
 20
145.866258
 30
0.0
 11
65.493298
 21
145.586258
 31
0.0
  0
LINE
  5
11000
  8
0
 62
     5
 10
63.407523
 20
145.866258
 30
0.0
 11
65.437298
 21
145.586258
 31
0.0
  0
LINE
  5
11001
  8
0
 62
     5
 10
63.351523
 20
145.586258
 30
0.0
 11
65.493298
 21
145.866258
 31
0.0
  0
LINE
  5
11002
  8
0
 62
     5
 10
63.407523
 20
145.586258
 30
0.0
 11
65.437298
 21
145.866258
 31
0.0
  0
LINE
  5
11003
  8
0
 62
     5
 10
63.799046
 20
145.102894
 30
0.0
 11
65.045775
 21
146.349623
 31
0.0
  0
LINE
  5
11004
  8
0
 62
     5
 10
64.882641
 20
145.266027
 30
0.0
 11
65.437298
 21
145.586258
 31
0.0
  0
ARC
  5
11005
  8
0
 62
     5
 10
64.42241
 20
145.726258
 30
0.0
 40
1.127721
 50
289.033269
 51
340.966731
  0
ARC
  5
11006
  8
0
 62
     5
 10
64.42241
 20
145.726258
 30
0.0
 40
1.127721
 50
19.033269
 51
70.966731
  0
ARC
  5
11007
  8
0
 62
     5
 10
64.911118
 20
146.02222
 30
0.0
 40
3.5
 50
0.0
 51
90.0
  0
LINE
  5
11008
  8
0
 62
     5
 10
61.911118
 20
149.52222
 30
0.0
 11
64.911118
 21
149.52222
 31
0.0
  0
LINE
  5
11009
  8
0
 62
     5
 10
63.204321
 20
146.006258
 30
0.0
 11
63.407523
 21
145.866258
 31
0.0
  0
LINE
  5
1100A
  8
0
 62
     5
 10
64.14241
 20
146.944347
 30
0.0
 11
64.28241
 21
146.741146
 31
0.0
  0
LINE
  5
1100B
  8
0
 62
     5
 10
63.962179
 20
145.266027
 30
0.0
 11
64.28241
 21
144.711371
 31
0.0
  0
LINE
  5
1100C
  8
0
 62
     5
 10
64.882641
 20
146.186489
 30
0.0
 11
64.56241
 21
146.741146
 31
0.0
  0
LINE
  5
1100D
  8
0
 62
     5
 10
64.14241
 20
147.504347
 30
0.0
 11
64.28241
 21
146.797146
 31
0.0
  0
LINE
  5
1100E
  8
0
 62
     5
 10
64.14241
 20
146.944347
 30
0.0
 11
64.14241
 21
147.504347
 31
0.0
  0
LINE
  5
1100F
  8
0
 62
     5
 10
64.28241
 20
146.797146
 30
0.0
 11
64.28241
 21
146.741146
 31
0.0
  0
LINE
  5
11010
  8
0
 62
     5
 10
64.28241
 20
144.711371
 30
0.0
 11
64.28241
 21
144.655371
 31
0.0
  0
LINE
  5
11011
  8
0
 62
     5
 10
64.56241
 20
144.655371
 30
0.0
 11
64.56241
 21
144.711371
 31
0.0
  0
LINE
  5
11012
  8
0
 62
     5
 10
64.56241
 20
146.741146
 30
0.0
 11
64.56241
 21
146.797146
 31
0.0
  0
LINE
  5
11013
  8
0
 62
     5
 10
64.70241
 20
147.504347
 30
0.0
 11
64.70241
 21
146.944347
 31
0.0
  0
LINE
  5
11014
  8
0
 62
     5
 10
63.799046
 20
145.102894
 30
0.0
 11
63.204321
 21
145.446258
 31
0.0
  0
LINE
  5
11015
  8
0
 62
     5
 10
63.407523
 20
145.586258
 30
0.0
 11
63.962179
 21
145.266027
 31
0.0
  0
LINE
  5
11016
  8
0
 62
     5
 10
64.56241
 20
144.711371
 30
0.0
 11
64.28241
 21
146.741146
 31
0.0
  0
LINE
  5
11017
  8
0
 62
     5
 10
64.56241
 20
144.655371
 30
0.0
 11
64.28241
 21
146.797146
 31
0.0
  0
LINE
  5
11018
  8
0
 62
     5
 10
64.28241
 20
144.655371
 30
0.0
 11
64.56241
 21
146.797146
 31
0.0
  0
LINE
  5
11019
  8
0
 62
     5
 10
64.28241
 20
144.711371
 30
0.0
 11
64.56241
 21
146.741146
 31
0.0
  0
LINE
  5
1101A
  8
0
 62
     5
 10
64.70241
 20
147.504347
 30
0.0
 11
64.56241
 21
146.797146
 31
0.0
  0
LINE
  5
1101B
  8
0
 62
     5
 10
62.644321
 20
146.006258
 30
0.0
 11
63.351523
 21
145.866258
 31
0.0
  0
LINE
  5
1101C
  8
0
 62
     5
 10
63.204321
 20
145.446258
 30
0.0
 11
62.644321
 21
145.446258
 31
0.0
  0
LINE
  5
1101D
  8
0
 62
     5
 10
63.351523
 20
145.586258
 30
0.0
 11
63.407523
 21
145.586258
 31
0.0
  0
LINE
  5
1101E
  8
0
 62
     5
 10
63.407523
 20
145.866258
 30
0.0
 11
63.351523
 21
145.866258
 31
0.0
  0
LINE
  5
1101F
  8
0
 62
     5
 10
62.644321
 20
146.006258
 30
0.0
 11
63.204321
 21
146.006258
 31
0.0
  0
LINE
  5
11020
  8
0
 62
     5
 10
63.799046
 20
146.349623
 30
0.0
 11
64.14241
 21
146.944347
 31
0.0
  0
LINE
  5
11021
  8
0
 62
     5
 10
64.28241
 20
146.741146
 30
0.0
 11
63.962179
 21
146.186489
 31
0.0
  0
LINE
  5
11022
  8
0
 62
     5
 10
64.56241
 20
144.711371
 30
0.0
 11
64.882641
 21
145.266027
 31
0.0
  0
LINE
  5
11023
  8
0
 62
     5
 10
64.70241
 20
146.944347
 30
0.0
 11
64.56241
 21
146.741146
 31
0.0
  0
LINE
  5
11024
  8
0
 62
     5
 10
62.644321
 20
145.446258
 30
0.0
 11
63.351523
 21
145.586258
 31
0.0
  0
LINE
  5
11025
  8
0
 62
     5
 10
63.204321
 20
145.446258
 30
0.0
 11
63.407523
 21
145.586258
 31
0.0
  0
LINE
  5
11026
  8
0
 62
     5
 10
63.204321
 20
146.006258
 30
0.0
 11
63.799046
 21
146.349623
 31
0.0
  0
LINE
  5
11027
  8
0
 62
     5
 10
63.962179
 20
146.186489
 30
0.0
 11
63.407523
 21
145.866258
 31
0.0
  0
ARC
  5
11028
  8
0
 62
     5
 10
64.42241
 20
145.726258
 30
0.0
 40
1.127721
 50
109.033269
 51
160.966731
  0
ARC
  5
11029
  8
0
 62
     5
 10
64.42241
 20
145.726258
 30
0.0
 40
1.08
 50
172.551809
 51
187.448191
  0
ARC
  5
1102A
  8
0
 62
     5
 10
64.42241
 20
145.726258
 30
0.0
 40
1.08
 50
262.551809
 51
277.448191
  0
ARC
  5
1102B
  8
0
 62
     5
 10
64.42241
 20
145.726258
 30
0.0
 40
1.08
 50
82.551809
 51
97.448191
  0
ARC
  5
1102C
  8
0
 62
     5
 10
64.42241
 20
145.726258
 30
0.0
 40
1.127721
 50
199.033269
 51
250.966731
  0
ARC
  5
1102D
  8
0
 62
     5
 10
64.42241
 20
145.726258
 30
0.0
 40
1.8
 50
171.050982
 51
188.949018
  0
ARC
  5
1102E
  8
0
 62
     5
 10
64.42241
 20
145.726258
 30
0.0
 40
1.8
 50
81.050982
 51
98.949018
  0
ARC
  5
1102F
  8
0
 62
     5
 10
61.911118
 20
150.52222
 30
0.0
 40
1.0
 50
180.0
 51
270.0
  0
LINE
  5
11030
  8
0
 62
     5
 10
65.045775
 20
146.349623
 30
0.0
 11
65.640499
 21
146.006258
 31
0.0
  0
LINE
  5
11031
  8
0
 62
     5
 10
65.640499
 20
145.446258
 30
0.0
 11
65.437298
 21
145.586258
 31
0.0
  0
LINE
  5
11032
  8
0
 62
     5
 10
66.200499
 20
145.446258
 30
0.0
 11
65.493298
 21
145.586258
 31
0.0
  0
LINE
  5
11033
  8
0
 62
     5
 10
66.200499
 20
145.446258
 30
0.0
 11
65.640499
 21
145.446258
 31
0.0
  0
LINE
  5
11034
  8
0
 62
     5
 10
65.437298
 20
145.586258
 30
0.0
 11
65.493298
 21
145.586258
 31
0.0
  0
LINE
  5
11035
  8
0
 62
     5
 10
65.493298
 20
145.866258
 30
0.0
 11
65.437298
 21
145.866258
 31
0.0
  0
LINE
  5
11036
  8
0
 62
     5
 10
65.640499
 20
146.006258
 30
0.0
 11
66.200499
 21
146.006258
 31
0.0
  0
LINE
  5
11037
  8
0
 62
     5
 10
66.200499
 20
146.006258
 30
0.0
 11
65.493298
 21
145.866258
 31
0.0
  0
LINE
  5
11038
  8
0
 62
     5
 10
65.640499
 20
146.006258
 30
0.0
 11
65.437298
 21
145.866258
 31
0.0
  0
LINE
  5
11039
  8
0
 62
     5
 10
65.640499
 20
145.446258
 30
0.0
 11
65.045775
 21
145.102894
 31
0.0
  0
ARC
  5
1103A
  8
0
 62
     5
 10
64.42241
 20
145.726258
 30
0.0
 40
1.08
 50
352.551809
 51
7.448191
  0
ARC
  5
1103B
  8
0
 62
     5
 10
64.42241
 20
145.726258
 30
0.0
 40
1.8
 50
351.050982
 51
8.949018
  0
ARC
  5
1103C
  8
0
 62
     5
 10
64.411118
 20
178.32222
 30
0.0
 40
3.5
 50
270.0
 51
0.0
  0
LINE
  5
1103D
  8
0
 62
     5
 10
64.411118
 20
174.82222
 30
0.0
 11
61.911118
 21
174.82222
 31
0.0
  0
ARC
  5
1103E
  8
0
 62
     5
 10
61.911118
 20
173.82222
 30
0.0
 40
1.0
 50
90.0
 51
180.0
  0
LINE
  5
1103F
  8
HIDDEN
 10
89.25358
 20
123.019088
 30
0.0
 11
91.600991
 21
123.025445
 31
0.0
  0
LINE
  5
11040
  8
0
 62
     5
 10
90.695979
 20
124.82222
 30
0.0
 11
90.399672
 21
124.52222
 31
0.0
  0
LINE
  5
11041
  8
0
 62
     5
 10
87.620339
 20
125.12222
 30
0.0
 11
91.000904
 21
125.12222
 31
0.0
  0
LINE
  5
11042
  8
0
 62
     5
 10
89.452818
 20
123.22222
 30
0.0
 11
104.169418
 21
123.22222
 31
0.0
  0
ARC
  5
11043
  8
0
 62
     5
 10
450.165688
 20
162.02222
 30
0.0
 40
380.266164
 50
183.687572
 51
184.186722
  0
ARC
  5
11044
  8
0
 62
     5
 10
450.165688
 20
162.02222
 30
0.0
 40
380.0
 50
183.687572
 51
184.058402
  0
LINE
  5
11045
  8
0
 62
     5
 10
77.545918
 20
127.82222
 30
0.0
 11
86.435113
 21
127.82222
 31
0.0
  0
LINE
  5
11046
  8
0
 62
     5
 10
87.573409
 20
124.52222
 30
0.0
 11
71.422564
 21
124.52222
 31
0.0
  0
LINE
  5
11047
  8
0
 62
     5
 10
74.911366
 20
130.02222
 30
0.0
 11
74.911366
 21
129.02222
 31
0.0
  0
LINE
  5
11048
  8
0
 62
     5
 10
70.334874
 20
129.02222
 30
0.0
 11
70.334874
 21
130.02222
 31
0.0
  0
LINE
  5
11049
  8
0
 62
     5
 10
72.127438
 20
125.12222
 30
0.0
 11
76.360692
 21
125.12222
 31
0.0
  0
LINE
  5
1104A
  8
HIDDEN
 10
70.221245
 20
123.025445
 30
0.0
 11
75.005657
 21
123.025445
 31
0.0
  0
LINE
  5
1104B
  8
0
 62
     5
 10
74.004046
 20
125.12222
 30
0.0
 11
74.004046
 21
124.52222
 31
0.0
  0
LINE
  5
1104C
  8
0
 62
     5
 10
71.422564
 20
124.52222
 30
0.0
 11
71.126257
 21
124.82222
 31
0.0
  0
LINE
  5
1104D
  8
0
 62
     5
 10
71.126257
 20
124.82222
 30
0.0
 11
72.127438
 21
124.82222
 31
0.0
  0
LINE
  5
1104E
  8
0
 62
     5
 10
71.126257
 20
125.12222
 30
0.0
 11
70.821332
 21
125.12222
 31
0.0
  0
LINE
  5
1104F
  8
0
 62
     5
 10
71.126257
 20
125.12222
 30
0.0
 11
71.126257
 21
124.82222
 31
0.0
  0
LINE
  5
11050
  8
0
 62
     5
 10
72.127438
 20
124.82222
 30
0.0
 11
72.127438
 21
125.12222
 31
0.0
  0
LINE
  5
11051
  8
0
 62
     5
 10
72.423744
 20
124.52222
 30
0.0
 11
72.127438
 21
124.82222
 31
0.0
  0
LINE
  5
11052
  8
0
 62
     5
 10
70.821283
 20
129.02222
 30
0.0
 11
70.821283
 21
125.12222
 31
0.0
  0
LINE
  5
11053
  8
0
 62
     5
 10
70.844675
 20
129.02222
 30
0.0
 11
70.844675
 21
125.12222
 31
0.0
  0
LINE
  5
11054
  8
0
 62
     5
 10
72.40902
 20
125.12222
 30
0.0
 11
72.40902
 21
129.02222
 31
0.0
  0
LINE
  5
11055
  8
0
 62
     5
 10
74.582853
 20
129.02222
 30
0.0
 11
74.582853
 21
125.12222
 31
0.0
  0
LINE
  5
11056
  8
0
 62
     5
 10
76.360692
 20
124.82222
 30
0.0
 11
77.545918
 21
124.82222
 31
0.0
  0
LINE
  5
11057
  8
0
 62
     5
 10
76.360692
 20
125.12222
 30
0.0
 11
76.360692
 21
124.82222
 31
0.0
  0
LINE
  5
11058
  8
0
 62
     5
 10
76.313762
 20
124.52222
 30
0.0
 11
76.360692
 21
124.82222
 31
0.0
  0
LINE
  5
11059
  8
0
 62
     5
 10
77.498988
 20
124.52222
 30
0.0
 11
77.545918
 21
124.82222
 31
0.0
  0
LINE
  5
1105A
  8
0
 62
     5
 10
77.545918
 20
124.82222
 30
0.0
 11
77.545918
 21
127.82222
 31
0.0
  0
LINE
  5
1105B
  8
0
 62
     5
 10
76.063467
 20
124.52222
 30
0.0
 11
76.063467
 21
125.12222
 31
0.0
  0
LINE
  5
1105C
  8
0
 62
     5
 10
89.726691
 20
129.02222
 30
0.0
 11
89.726691
 21
130.02222
 31
0.0
  0
LINE
  5
1105D
  8
0
 62
     5
 10
89.1236
 20
124.52222
 30
0.0
 11
89.140523
 21
123.22222
 31
0.0
  0
LINE
  5
1105E
  8
0
 62
     5
 10
88.819371
 20
124.52222
 30
0.0
 11
88.819371
 21
125.12222
 31
0.0
  0
LINE
  5
1105F
  8
0
 62
     5
 10
86.435113
 20
124.82222
 30
0.0
 11
87.620339
 21
124.82222
 31
0.0
  0
LINE
  5
11060
  8
0
 62
     5
 10
88.452818
 20
123.22222
 30
0.0
 11
88.411964
 21
124.52222
 31
0.0
  0
LINE
  5
11061
  8
0
 62
     5
 10
87.620339
 20
124.82222
 30
0.0
 11
87.620339
 21
125.12222
 31
0.0
  0
LINE
  5
11062
  8
0
 62
     5
 10
86.435113
 20
124.82222
 30
0.0
 11
86.388183
 21
124.52222
 31
0.0
  0
LINE
  5
11063
  8
0
 62
     5
 10
87.620339
 20
124.82222
 30
0.0
 11
87.573409
 21
124.52222
 31
0.0
  0
LINE
  5
11064
  8
0
 62
     5
 10
90.399672
 20
124.52222
 30
0.0
 11
87.644808
 21
124.52222
 31
0.0
  0
LINE
  5
11065
  8
0
 62
     5
 10
86.075314
 20
124.52222
 30
0.0
 11
86.075314
 21
127.82222
 31
0.0
  0
LINE
  5
11066
  8
0
 62
     5
 10
86.435113
 20
127.82222
 30
0.0
 11
86.435113
 21
124.82222
 31
0.0
  0
LINE
  5
11067
  8
0
 62
     5
 10
89.398178
 20
125.12222
 30
0.0
 11
89.398178
 21
129.02222
 31
0.0
  0
ARC
  5
11068
  8
0
 62
     5
 10
-268.343452
 20
162.02222
 30
0.0
 40
380.0
 50
355.611601
 51
356.312428
  0
LINE
  5
11069
  8
0
 62
     5
 10
106.92708
 20
137.311601
 30
0.0
 11
107.06708
 21
136.6044
 31
0.0
  0
LINE
  5
1106A
  8
0
 62
     5
 10
106.92708
 20
136.751601
 30
0.0
 11
106.92708
 21
137.311601
 31
0.0
  0
LINE
  5
1106B
  8
0
 62
     5
 10
107.48708
 20
137.311601
 30
0.0
 11
107.48708
 21
136.751601
 31
0.0
  0
LINE
  5
1106C
  8
0
 62
     5
 10
107.48708
 20
137.311601
 30
0.0
 11
107.34708
 21
136.6044
 31
0.0
  0
CIRCLE
  5
1106D
  8
0
 62
     5
 10
107.20708
 20
135.533512
 30
0.0
 40
2.75
  0
ARC
  5
1106E
  8
0
 62
     5
 10
106.911118
 20
136.02222
 30
0.0
 40
3.5
 50
90.0
 51
180.0
  0
ARC
  5
1106F
  8
0
 62
     5
 10
107.20708
 20
135.533512
 30
0.0
 40
2.95
 50
276.813854
 51
263.186146
  0
CIRCLE
  5
11070
  8
0
 62
     5
 10
107.20708
 20
135.533512
 30
0.0
 40
3.0
  0
LINE
  5
11071
  8
0
 62
     5
 10
96.111118
 20
132.02222
 30
0.0
 11
109.545421
 21
132.02222
 31
0.0
  0
LINE
  5
11072
  8
0
 62
     5
 10
110.23381
 20
128.62222
 30
0.0
 11
91.000953
 21
128.62222
 31
0.0
  0
LINE
  5
11073
  8
0
 62
     5
 10
110.716326
 20
131.756056
 30
0.0
 11
95.669221
 21
131.756056
 31
0.0
  0
LINE
  5
11074
  8
0
 62
     5
 10
93.100953
 20
129.02222
 30
0.0
 11
93.100953
 21
130.02222
 31
0.0
  0
LINE
  5
11075
  8
0
 62
     5
 10
100.311118
 20
128.64525
 30
0.0
 11
93.311118
 21
128.64525
 31
0.0
  0
LINE
  5
11076
  8
0
 62
     5
 10
100.311118
 20
128.92222
 30
0.0
 11
93.311118
 21
128.92222
 31
0.0
  0
LINE
  5
11077
  8
HIDDEN
 10
93.100953
 20
124.525445
 30
0.0
 11
93.100953
 21
127.275445
 31
0.0
  0
ARC
  5
11078
  8
HIDDEN
 10
91.600953
 20
124.525445
 30
0.0
 40
1.5
 50
270.0
 51
0.0
  0
LINE
  5
11079
  8
0
 62
     5
 10
93.311118
 20
128.64525
 30
0.0
 11
93.311118
 21
128.92222
 31
0.0
  0
LINE
  5
1107A
  8
0
 62
     5
 10
90.695979
 20
125.12222
 30
0.0
 11
90.695979
 21
124.82222
 31
0.0
  0
LINE
  5
1107B
  8
0
 62
     5
 10
91.000953
 20
129.02222
 30
0.0
 11
91.000953
 21
125.12222
 31
0.0
  0
LINE
  5
1107C
  8
0
 62
     5
 10
100.311118
 20
128.64525
 30
0.0
 11
100.311118
 21
128.92222
 31
0.0
  0
ARC
  5
1107D
  8
0
 62
     5
 10
96.111118
 20
131.52222
 30
0.0
 40
0.5
 50
90.0
 51
180.0
  0
LINE
  5
1107E
  8
0
 62
     5
 10
95.611118
 20
131.52222
 30
0.0
 11
95.611118
 21
130.22222
 31
0.0
  0
ARC
  5
1107F
  8
0
 62
     5
 10
95.411118
 20
130.22222
 30
0.0
 40
0.2
 50
270.0
 51
0.0
  0
LINE
  5
11080
  8
0
 62
     5
 10
110.73381
 20
131.978612
 30
0.0
 11
110.73381
 21
129.12222
 31
0.0
  0
LINE
  5
11081
  8
0
 62
     5
 10
103.481713
 20
123.22222
 30
0.0
 11
103.552006
 21
128.62222
 31
0.0
  0
LINE
  5
11082
  8
0
 62
     5
 10
104.33912
 20
128.62222
 30
0.0
 11
104.169418
 21
123.22222
 31
0.0
  0
LINE
  5
11083
  8
HIDDEN
 10
108.561118
 20
126.12222
 30
0.0
 11
106.261118
 21
126.12222
 31
0.0
  0
ARC
  5
11084
  8
HIDDEN
 10
108.561118
 20
126.62222
 30
0.0
 40
0.5
 50
270.0
 51
0.0
  0
LINE
  5
11085
  8
HIDDEN
 10
109.061118
 20
127.17222
 30
0.0
 11
109.061118
 21
126.62222
 31
0.0
  0
LINE
  5
11086
  8
0
 62
     5
 10
105.428991
 20
135.253512
 30
0.0
 11
106.136192
 21
135.393512
 31
0.0
  0
LINE
  5
11087
  8
0
 62
     5
 10
105.428991
 20
135.813512
 30
0.0
 11
106.136192
 21
135.673512
 31
0.0
  0
LINE
  5
11088
  8
0
 62
     5
 10
106.583715
 20
134.910148
 30
0.0
 11
105.988991
 21
135.253512
 31
0.0
  0
LINE
  5
11089
  8
0
 62
     5
 10
105.988991
 20
135.813512
 30
0.0
 11
106.192192
 21
135.673512
 31
0.0
  0
LINE
  5
1108A
  8
0
 62
     5
 10
105.988991
 20
135.253512
 30
0.0
 11
106.192192
 21
135.393512
 31
0.0
  0
LINE
  5
1108B
  8
0
 62
     5
 10
105.988991
 20
135.813512
 30
0.0
 11
106.583715
 21
136.156877
 31
0.0
  0
LINE
  5
1108C
  8
0
 62
     5
 10
105.988991
 20
135.253512
 30
0.0
 11
105.428991
 21
135.253512
 31
0.0
  0
LINE
  5
1108D
  8
0
 62
     5
 10
105.428991
 20
135.813512
 30
0.0
 11
105.988991
 21
135.813512
 31
0.0
  0
LINE
  5
1108E
  8
0
 62
     5
 10
103.411118
 20
133.02222
 30
0.0
 11
103.411118
 21
136.02222
 31
0.0
  0
ARC
  5
1108F
  8
0
 62
     5
 10
107.20708
 20
135.533512
 30
0.0
 40
1.8
 50
171.050982
 51
188.949018
  0
ARC
  5
11090
  8
0
 62
     5
 10
102.411118
 20
133.02222
 30
0.0
 40
1.0
 50
270.0
 51
0.0
  0
LINE
  5
11091
  8
0
 62
     5
 10
108.985169
 20
135.813512
 30
0.0
 11
108.277967
 21
135.673512
 31
0.0
  0
LINE
  5
11092
  8
0
 62
     5
 10
106.192192
 20
135.393512
 30
0.0
 11
108.221967
 21
135.673512
 31
0.0
  0
LINE
  5
11093
  8
0
 62
     5
 10
106.136192
 20
135.393512
 30
0.0
 11
108.277967
 21
135.673512
 31
0.0
  0
LINE
  5
11094
  8
0
 62
     5
 10
108.985169
 20
135.253512
 30
0.0
 11
108.425169
 21
135.253512
 31
0.0
  0
LINE
  5
11095
  8
0
 62
     5
 10
106.136192
 20
135.393512
 30
0.0
 11
106.192192
 21
135.393512
 31
0.0
  0
LINE
  5
11096
  8
0
 62
     5
 10
108.221967
 20
135.393512
 30
0.0
 11
108.277967
 21
135.393512
 31
0.0
  0
LINE
  5
11097
  8
0
 62
     5
 10
108.277967
 20
135.673512
 30
0.0
 11
108.221967
 21
135.673512
 31
0.0
  0
LINE
  5
11098
  8
0
 62
     5
 10
106.192192
 20
135.673512
 30
0.0
 11
106.136192
 21
135.673512
 31
0.0
  0
LINE
  5
11099
  8
0
 62
     5
 10
108.425169
 20
135.813512
 30
0.0
 11
108.985169
 21
135.813512
 31
0.0
  0
LINE
  5
1109A
  8
0
 62
     5
 10
106.136192
 20
135.673512
 30
0.0
 11
108.277967
 21
135.393512
 31
0.0
  0
LINE
  5
1109B
  8
0
 62
     5
 10
106.192192
 20
135.673512
 30
0.0
 11
108.221967
 21
135.393512
 31
0.0
  0
LINE
  5
1109C
  8
0
 62
     5
 10
108.985169
 20
135.253512
 30
0.0
 11
108.277967
 21
135.393512
 31
0.0
  0
LINE
  5
1109D
  8
0
 62
     5
 10
106.192192
 20
135.393512
 30
0.0
 11
106.746849
 21
135.073281
 31
0.0
  0
LINE
  5
1109E
  8
0
 62
     5
 10
108.221967
 20
135.673512
 30
0.0
 11
107.667311
 21
135.993743
 31
0.0
  0
LINE
  5
1109F
  8
0
 62
     5
 10
107.830444
 20
136.156877
 30
0.0
 11
108.425169
 21
135.813512
 31
0.0
  0
LINE
  5
110A0
  8
0
 62
     5
 10
108.425169
 20
135.253512
 30
0.0
 11
108.221967
 21
135.393512
 31
0.0
  0
LINE
  5
110A1
  8
0
 62
     5
 10
107.830444
 20
134.910148
 30
0.0
 11
106.583715
 21
136.156877
 31
0.0
  0
LINE
  5
110A2
  8
0
 62
     5
 10
107.48708
 20
134.315423
 30
0.0
 11
107.34708
 21
134.518625
 31
0.0
  0
LINE
  5
110A3
  8
0
 62
     5
 10
106.92708
 20
136.751601
 30
0.0
 11
107.06708
 21
136.5484
 31
0.0
  0
LINE
  5
110A4
  8
0
 62
     5
 10
106.92708
 20
134.315423
 30
0.0
 11
106.583715
 21
134.910148
 31
0.0
  0
LINE
  5
110A5
  8
0
 62
     5
 10
106.746849
 20
135.073281
 30
0.0
 11
107.06708
 21
134.518625
 31
0.0
  0
LINE
  5
110A6
  8
0
 62
     5
 10
107.667311
 20
135.993743
 30
0.0
 11
107.34708
 21
136.5484
 31
0.0
  0
LINE
  5
110A7
  8
0
 62
     5
 10
107.48708
 20
136.751601
 30
0.0
 11
107.830444
 21
136.156877
 31
0.0
  0
LINE
  5
110A8
  8
0
 62
     5
 10
107.48708
 20
133.755423
 30
0.0
 11
107.34708
 21
134.462625
 31
0.0
  0
LINE
  5
110A9
  8
0
 62
     5
 10
107.34708
 20
134.518625
 30
0.0
 11
107.06708
 21
136.5484
 31
0.0
  0
LINE
  5
110AA
  8
0
 62
     5
 10
107.34708
 20
134.462625
 30
0.0
 11
107.06708
 21
136.6044
 31
0.0
  0
LINE
  5
110AB
  8
0
 62
     5
 10
106.85708
 20
132.808252
 30
0.0
 11
106.85708
 21
132.604349
 31
0.0
  0
LINE
  5
110AC
  8
0
 62
     5
 10
106.92708
 20
133.755423
 30
0.0
 11
106.92708
 21
134.315423
 31
0.0
  0
LINE
  5
110AD
  8
0
 62
     5
 10
107.06708
 20
136.6044
 30
0.0
 11
107.06708
 21
136.5484
 31
0.0
  0
LINE
  5
110AE
  8
0
 62
     5
 10
107.06708
 20
134.518625
 30
0.0
 11
107.06708
 21
134.462625
 31
0.0
  0
LINE
  5
110AF
  8
0
 62
     5
 10
107.34708
 20
134.462625
 30
0.0
 11
107.34708
 21
134.518625
 31
0.0
  0
LINE
  5
110B0
  8
0
 62
     5
 10
107.34708
 20
136.5484
 30
0.0
 11
107.34708
 21
136.6044
 31
0.0
  0
LINE
  5
110B1
  8
0
 62
     5
 10
107.48708
 20
134.315423
 30
0.0
 11
107.48708
 21
133.755423
 31
0.0
  0
LINE
  5
110B2
  8
0
 62
     5
 10
107.55708
 20
132.604349
 30
0.0
 11
107.55708
 21
132.808252
 31
0.0
  0
LINE
  5
110B3
  8
0
 62
     5
 10
107.06708
 20
134.462625
 30
0.0
 11
107.34708
 21
136.6044
 31
0.0
  0
LINE
  5
110B4
  8
0
 62
     5
 10
107.06708
 20
134.518625
 30
0.0
 11
107.34708
 21
136.5484
 31
0.0
  0
LINE
  5
110B5
  8
0
 62
     5
 10
106.92708
 20
133.755423
 30
0.0
 11
107.06708
 21
134.462625
 31
0.0
  0
LINE
  5
110B6
  8
0
 62
     5
 10
106.583715
 20
136.156877
 30
0.0
 11
106.92708
 21
136.751601
 31
0.0
  0
LINE
  5
110B7
  8
0
 62
     5
 10
107.06708
 20
136.5484
 30
0.0
 11
106.746849
 21
135.993743
 31
0.0
  0
LINE
  5
110B8
  8
0
 62
     5
 10
107.34708
 20
134.518625
 30
0.0
 11
107.667311
 21
135.073281
 31
0.0
  0
LINE
  5
110B9
  8
0
 62
     5
 10
107.830444
 20
134.910148
 30
0.0
 11
107.48708
 21
134.315423
 31
0.0
  0
LINE
  5
110BA
  8
0
 62
     5
 10
107.48708
 20
136.751601
 30
0.0
 11
107.34708
 21
136.5484
 31
0.0
  0
LINE
  5
110BB
  8
0
 62
     5
 10
106.92708
 20
134.315423
 30
0.0
 11
107.06708
 21
134.518625
 31
0.0
  0
LINE
  5
110BC
  8
0
 62
     5
 10
106.583715
 20
134.910148
 30
0.0
 11
107.830444
 21
136.156877
 31
0.0
  0
LINE
  5
110BD
  8
0
 62
     5
 10
108.425169
 20
135.813512
 30
0.0
 11
108.221967
 21
135.673512
 31
0.0
  0
LINE
  5
110BE
  8
0
 62
     5
 10
106.746849
 20
135.993743
 30
0.0
 11
106.192192
 21
135.673512
 31
0.0
  0
LINE
  5
110BF
  8
0
 62
     5
 10
107.667311
 20
135.073281
 30
0.0
 11
108.221967
 21
135.393512
 31
0.0
  0
LINE
  5
110C0
  8
0
 62
     5
 10
108.425169
 20
135.253512
 30
0.0
 11
107.830444
 21
134.910148
 31
0.0
  0
ARC
  5
110C1
  8
0
 62
     5
 10
107.20708
 20
135.533512
 30
0.0
 40
1.127721
 50
109.033269
 51
160.966731
  0
ARC
  5
110C2
  8
0
 62
     5
 10
107.20708
 20
135.533512
 30
0.0
 40
1.127721
 50
289.033269
 51
340.966731
  0
ARC
  5
110C3
  8
0
 62
     5
 10
107.20708
 20
135.533512
 30
0.0
 40
1.127721
 50
19.033269
 51
70.966731
  0
ARC
  5
110C4
  8
0
 62
     5
 10
107.20708
 20
135.533512
 30
0.0
 40
1.08
 50
172.551809
 51
187.448191
  0
ARC
  5
110C5
  8
0
 62
     5
 10
107.20708
 20
135.533512
 30
0.0
 40
1.08
 50
262.551809
 51
277.448191
  0
ARC
  5
110C6
  8
0
 62
     5
 10
107.20708
 20
135.533512
 30
0.0
 40
1.08
 50
352.551809
 51
7.448191
  0
ARC
  5
110C7
  8
0
 62
     5
 10
107.20708
 20
135.533512
 30
0.0
 40
1.08
 50
82.551809
 51
97.448191
  0
ARC
  5
110C8
  8
0
 62
     5
 10
107.20708
 20
135.533512
 30
0.0
 40
1.8
 50
261.050982
 51
278.949018
  0
ARC
  5
110C9
  8
0
 62
     5
 10
107.20708
 20
135.533512
 30
0.0
 40
1.127721
 50
199.033269
 51
250.966731
  0
ARC
  5
110CA
  8
0
 62
     5
 10
107.20708
 20
135.533512
 30
0.0
 40
1.8
 50
351.050982
 51
8.949018
  0
ARC
  5
110CB
  8
0
 62
     5
 10
109.545421
 20
133.02222
 30
0.0
 40
1.0
 50
270.0
 51
355.611601
  0
ARC
  5
110CC
  8
0
 62
     5
 10
107.20708
 20
135.533512
 30
0.0
 40
1.8
 50
81.050982
 51
98.949018
  0
LINE
  5
110CD
  8
0
 62
     5
 10
106.911118
 20
139.52222
 30
0.0
 11
110.855097
 21
139.52222
 31
0.0
  0
ARC
  5
110CE
  8
CENTER
 10
90.911118
 20
162.02222
 30
0.0
 40
35.0
 50
126.254023
 51
144.381034
  0
LINE
  5
110CF
  8
0
 62
     5
 10
65.411118
 20
192.02222
 30
0.0
 11
71.351749
 21
192.02222
 31
0.0
  0
ARC
  5
110D0
  8
0
 62
     5
 10
66.162381
 20
186.770957
 30
0.0
 40
4.533836
 50
273.687572
 51
356.312428
  0
ARC
  5
110D1
  8
0
 62
     5
 10
70.967139
 20
183.52222
 30
0.0
 40
1.0
 50
90.0
 51
145.93541
  0
ARC
  5
110D2
  8
0
 62
     5
 10
66.162381
 20
186.770957
 30
0.0
 40
4.8
 50
273.687572
 51
356.312428
  0
ARC
  5
110D3
  8
0
 62
     5
 10
65.411118
 20
187.52222
 30
0.0
 40
4.5
 50
90.0
 51
180.0
  0
CIRCLE
  5
110D4
  8
0
 62
     5
 10
66.162381
 20
186.770957
 30
0.0
 40
2.9
  0
LINE
  5
110D5
  8
0
 62
     5
 10
61.834601
 20
181.653591
 30
0.0
 11
66.471097
 21
181.980895
 31
0.0
  0
ARC
  5
110D6
  8
0
 62
     5
 10
90.911118
 20
-197.23235
 30
0.0
 40
380.266164
 50
93.687572
 51
94.425643
  0
LINE
  5
110D7
  8
0
 62
     5
 10
60.911118
 20
181.581589
 30
0.0
 11
60.911118
 21
187.52222
 31
0.0
  0
ARC
  5
110D8
  8
0
 62
     5
 10
68.911118
 20
181.663664
 30
0.0
 40
1.0
 50
118.28907
 51
180.0
  0
LINE
  5
110D9
  8
0
 62
     5
 10
109.545421
 20
192.02222
 30
0.0
 11
72.276815
 21
192.02222
 31
0.0
  0
LINE
  5
110DA
  8
0
 62
     5
 10
72.030366
 20
192.288384
 30
0.0
 11
109.79187
 21
192.288384
 31
0.0
  0
LINE
  5
110DB
  8
0
 62
     5
 10
78.411118
 20
191.02222
 30
0.0
 11
78.411118
 21
188.02222
 31
0.0
  0
LINE
  5
110DC
  8
0
 62
     5
 10
73.991792
 20
187.887563
 30
0.0
 11
75.238521
 21
189.134292
 31
0.0
  0
LINE
  5
110DD
  8
0
 62
     5
 10
74.475156
 20
187.44004
 30
0.0
 11
74.755156
 21
189.581815
 31
0.0
  0
LINE
  5
110DE
  8
0
 62
     5
 10
74.475156
 20
187.49604
 30
0.0
 11
74.755156
 21
189.525815
 31
0.0
  0
LINE
  5
110DF
  8
0
 62
     5
 10
74.755156
 20
187.49604
 30
0.0
 11
74.475156
 21
189.525815
 31
0.0
  0
LINE
  5
110E0
  8
0
 62
     5
 10
74.755156
 20
187.44004
 30
0.0
 11
74.475156
 21
189.581815
 31
0.0
  0
LINE
  5
110E1
  8
0
 62
     5
 10
75.238521
 20
187.887563
 30
0.0
 11
73.991792
 21
189.134292
 31
0.0
  0
LINE
  5
110E2
  8
0
 62
     5
 10
73.544269
 20
188.650928
 30
0.0
 11
75.686044
 21
188.370928
 31
0.0
  0
LINE
  5
110E3
  8
0
 62
     5
 10
73.600269
 20
188.650928
 30
0.0
 11
75.630044
 21
188.370928
 31
0.0
  0
LINE
  5
110E4
  8
0
 62
     5
 10
73.600269
 20
188.370928
 30
0.0
 11
75.630044
 21
188.650928
 31
0.0
  0
LINE
  5
110E5
  8
0
 62
     5
 10
73.544269
 20
188.370928
 30
0.0
 11
75.686044
 21
188.650928
 31
0.0
  0
ARC
  5
110E6
  8
0
 62
     5
 10
74.615156
 20
188.510928
 30
0.0
 40
1.08
 50
172.551809
 51
187.448191
  0
ARC
  5
110E7
  8
0
 62
     5
 10
74.615156
 20
188.510928
 30
0.0
 40
1.08
 50
352.551809
 51
7.448191
  0
ARC
  5
110E8
  8
0
 62
     5
 10
74.615156
 20
188.510928
 30
0.0
 40
1.8
 50
351.050982
 51
8.949018
  0
ARC
  5
110E9
  8
0
 62
     5
 10
74.615156
 20
188.510928
 30
0.0
 40
1.8
 50
171.050982
 51
188.949018
  0
LINE
  5
110EA
  8
0
 62
     5
 10
71.279747
 20
191.098737
 30
0.0
 11
70.952443
 21
186.462241
 31
0.0
  0
ARC
  5
110EB
  8
0
 62
     5
 10
450.165688
 20
162.02222
 30
0.0
 40
380.266164
 50
175.574357
 51
176.312428
  0
CIRCLE
  5
110EC
  8
0
 62
     5
 10
74.615156
 20
188.510928
 30
0.0
 40
2.75
  0
ARC
  5
110ED
  8
0
 62
     5
 10
74.615156
 20
188.510928
 30
0.0
 40
2.95
 50
276.813854
 51
263.186146
  0
CIRCLE
  5
110EE
  8
0
 62
     5
 10
74.615156
 20
188.510928
 30
0.0
 40
3.0
  0
LINE
  5
110EF
  8
0
 62
     5
 10
75.075387
 20
188.050697
 30
0.0
 11
75.630044
 21
188.370928
 31
0.0
  0
LINE
  5
110F0
  8
0
 62
     5
 10
75.833245
 20
188.230928
 30
0.0
 11
75.238521
 21
187.887563
 31
0.0
  0
ARC
  5
110F1
  8
0
 62
     5
 10
74.615156
 20
188.510928
 30
0.0
 40
1.127721
 50
289.033269
 51
340.966731
  0
ARC
  5
110F2
  8
0
 62
     5
 10
74.911118
 20
188.02222
 30
0.0
 40
3.5
 50
270.0
 51
0.0
  0
LINE
  5
110F3
  8
0
 62
     5
 10
73.397067
 20
188.230928
 30
0.0
 11
73.600269
 21
188.370928
 31
0.0
  0
LINE
  5
110F4
  8
0
 62
     5
 10
74.755156
 20
187.49604
 30
0.0
 11
75.075387
 21
188.050697
 31
0.0
  0
LINE
  5
110F5
  8
0
 62
     5
 10
75.238521
 20
187.887563
 30
0.0
 11
74.895156
 21
187.292839
 31
0.0
  0
LINE
  5
110F6
  8
0
 62
     5
 10
74.335156
 20
187.292839
 30
0.0
 11
74.475156
 21
187.49604
 31
0.0
  0
LINE
  5
110F7
  8
0
 62
     5
 10
74.335156
 20
186.732839
 30
0.0
 11
74.475156
 21
187.44004
 31
0.0
  0
LINE
  5
110F8
  8
0
 62
     5
 10
74.265156
 20
185.785667
 30
0.0
 11
74.265156
 21
185.581764
 31
0.0
  0
LINE
  5
110F9
  8
0
 62
     5
 10
74.335156
 20
186.732839
 30
0.0
 11
74.335156
 21
187.292839
 31
0.0
  0
LINE
  5
110FA
  8
0
 62
     5
 10
74.475156
 20
187.49604
 30
0.0
 11
74.475156
 21
187.44004
 31
0.0
  0
LINE
  5
110FB
  8
0
 62
     5
 10
74.755156
 20
187.44004
 30
0.0
 11
74.755156
 21
187.49604
 31
0.0
  0
LINE
  5
110FC
  8
0
 62
     5
 10
74.895156
 20
187.292839
 30
0.0
 11
74.895156
 21
186.732839
 31
0.0
  0
LINE
  5
110FD
  8
0
 62
     5
 10
74.965156
 20
185.581764
 30
0.0
 11
74.965156
 21
185.785667
 31
0.0
  0
LINE
  5
110FE
  8
0
 62
     5
 10
74.895156
 20
186.732839
 30
0.0
 11
74.755156
 21
187.44004
 31
0.0
  0
LINE
  5
110FF
  8
0
 62
     5
 10
74.335156
 20
187.292839
 30
0.0
 11
73.991792
 21
187.887563
 31
0.0
  0
LINE
  5
11100
  8
0
 62
     5
 10
74.154925
 20
188.050697
 30
0.0
 11
74.475156
 21
187.49604
 31
0.0
  0
LINE
  5
11101
  8
0
 62
     5
 10
74.895156
 20
187.292839
 30
0.0
 11
74.755156
 21
187.49604
 31
0.0
  0
LINE
  5
11102
  8
0
 62
     5
 10
73.991792
 20
187.887563
 30
0.0
 11
73.397067
 21
188.230928
 31
0.0
  0
LINE
  5
11103
  8
0
 62
     5
 10
73.600269
 20
188.370928
 30
0.0
 11
74.154925
 21
188.050697
 31
0.0
  0
LINE
  5
11104
  8
0
 62
     5
 10
73.544269
 20
188.370928
 30
0.0
 11
73.600269
 21
188.370928
 31
0.0
  0
ARC
  5
11105
  8
0
 62
     5
 10
74.615156
 20
188.510928
 30
0.0
 40
1.08
 50
262.551809
 51
277.448191
  0
ARC
  5
11106
  8
0
 62
     5
 10
74.615156
 20
188.510928
 30
0.0
 40
1.8
 50
261.050982
 51
278.949018
  0
ARC
  5
11107
  8
0
 62
     5
 10
74.615156
 20
188.510928
 30
0.0
 40
1.127721
 50
199.033269
 51
250.966731
  0
LINE
  5
11108
  8
0
 62
     5
 10
74.911118
 20
184.52222
 30
0.0
 11
70.967139
 21
184.52222
 31
0.0
  0
LINE
  5
11109
  8
0
 62
     5
 10
73.397067
 20
188.230928
 30
0.0
 11
72.837067
 21
188.230928
 31
0.0
  0
LINE
  5
1110A
  8
0
 62
     5
 10
72.837067
 20
188.230928
 30
0.0
 11
73.544269
 21
188.370928
 31
0.0
  0
LINE
  5
1110B
  8
0
 62
     5
 10
75.833245
 20
188.230928
 30
0.0
 11
75.630044
 21
188.370928
 31
0.0
  0
LINE
  5
1110C
  8
0
 62
     5
 10
76.393245
 20
188.230928
 30
0.0
 11
75.686044
 21
188.370928
 31
0.0
  0
LINE
  5
1110D
  8
0
 62
     5
 10
76.393245
 20
188.230928
 30
0.0
 11
75.833245
 21
188.230928
 31
0.0
  0
LINE
  5
1110E
  8
0
 62
     5
 10
75.630044
 20
188.370928
 30
0.0
 11
75.686044
 21
188.370928
 31
0.0
  0
LINE
  5
1110F
  8
0
 62
     5
 10
75.630044
 20
188.650928
 30
0.0
 11
75.075387
 21
188.971159
 31
0.0
  0
LINE
  5
11110
  8
0
 62
     5
 10
75.238521
 20
189.134292
 30
0.0
 11
75.833245
 21
188.790928
 31
0.0
  0
ARC
  5
11111
  8
0
 62
     5
 10
74.615156
 20
188.510928
 30
0.0
 40
1.127721
 50
19.033269
 51
70.966731
  0
ARC
  5
11112
  8
0
 62
     5
 10
74.615156
 20
188.510928
 30
0.0
 40
1.8
 50
81.050982
 51
98.949018
  0
ARC
  5
11113
  8
0
 62
     5
 10
72.276815
 20
191.02222
 30
0.0
 40
1.0
 50
90.0
 51
175.611601
  0
LINE
  5
11114
  8
0
 62
     5
 10
73.397067
 20
188.790928
 30
0.0
 11
73.991792
 21
189.134292
 31
0.0
  0
LINE
  5
11115
  8
0
 62
     5
 10
74.154925
 20
188.971159
 30
0.0
 11
73.600269
 21
188.650928
 31
0.0
  0
LINE
  5
11116
  8
0
 62
     5
 10
73.991792
 20
189.134292
 30
0.0
 11
74.335156
 21
189.729017
 31
0.0
  0
LINE
  5
11117
  8
0
 62
     5
 10
74.475156
 20
189.525815
 30
0.0
 11
74.154925
 21
188.971159
 31
0.0
  0
LINE
  5
11118
  8
0
 62
     5
 10
74.895156
 20
189.729017
 30
0.0
 11
74.755156
 21
189.525815
 31
0.0
  0
LINE
  5
11119
  8
0
 62
     5
 10
74.475156
 20
189.581815
 30
0.0
 11
74.475156
 21
189.525815
 31
0.0
  0
LINE
  5
1111A
  8
0
 62
     5
 10
74.755156
 20
189.525815
 30
0.0
 11
74.755156
 21
189.581815
 31
0.0
  0
LINE
  5
1111B
  8
0
 62
     5
 10
74.335156
 20
189.729017
 30
0.0
 11
74.475156
 21
189.525815
 31
0.0
  0
LINE
  5
1111C
  8
0
 62
     5
 10
75.075387
 20
188.971159
 30
0.0
 11
74.755156
 21
189.525815
 31
0.0
  0
LINE
  5
1111D
  8
0
 62
     5
 10
74.895156
 20
189.729017
 30
0.0
 11
75.238521
 21
189.134292
 31
0.0
  0
LINE
  5
1111E
  8
0
 62
     5
 10
73.397067
 20
188.790928
 30
0.0
 11
73.600269
 21
188.650928
 31
0.0
  0
LINE
  5
1111F
  8
0
 62
     5
 10
73.600269
 20
188.650928
 30
0.0
 11
73.544269
 21
188.650928
 31
0.0
  0
ARC
  5
11120
  8
0
 62
     5
 10
74.615156
 20
188.510928
 30
0.0
 40
1.127721
 50
109.033269
 51
160.966731
  0
ARC
  5
11121
  8
0
 62
     5
 10
74.615156
 20
188.510928
 30
0.0
 40
1.08
 50
82.551809
 51
97.448191
  0
LINE
  5
11122
  8
0
 62
     5
 10
72.837067
 20
188.790928
 30
0.0
 11
73.544269
 21
188.650928
 31
0.0
  0
LINE
  5
11123
  8
0
 62
     5
 10
72.837067
 20
188.790928
 30
0.0
 11
73.397067
 21
188.790928
 31
0.0
  0
LINE
  5
11124
  8
0
 62
     5
 10
74.895156
 20
190.289017
 30
0.0
 11
74.755156
 21
189.581815
 31
0.0
  0
LINE
  5
11125
  8
0
 62
     5
 10
74.335156
 20
189.729017
 30
0.0
 11
74.335156
 21
190.289017
 31
0.0
  0
LINE
  5
11126
  8
0
 62
     5
 10
74.895156
 20
190.289017
 30
0.0
 11
74.895156
 21
189.729017
 31
0.0
  0
LINE
  5
11127
  8
0
 62
     5
 10
74.335156
 20
190.289017
 30
0.0
 11
74.475156
 21
189.581815
 31
0.0
  0
ARC
  5
11128
  8
0
 62
     5
 10
79.411118
 20
191.02222
 30
0.0
 40
1.0
 50
90.0
 51
180.0
  0
LINE
  5
11129
  8
0
 62
     5
 10
75.833245
 20
188.790928
 30
0.0
 11
75.630044
 21
188.650928
 31
0.0
  0
LINE
  5
1112A
  8
0
 62
     5
 10
76.393245
 20
188.790928
 30
0.0
 11
75.686044
 21
188.650928
 31
0.0
  0
LINE
  5
1112B
  8
0
 62
     5
 10
75.686044
 20
188.650928
 30
0.0
 11
75.630044
 21
188.650928
 31
0.0
  0
LINE
  5
1112C
  8
0
 62
     5
 10
75.833245
 20
188.790928
 30
0.0
 11
76.393245
 21
188.790928
 31
0.0
  0
LINE
  5
1112D
  8
0
 62
     5
 10
110.542489
 20
191.098737
 30
0.0
 11
110.869793
 21
186.462241
 31
0.0
  0
ARC
  5
1112E
  8
0
 62
     5
 10
-268.343452
 20
162.02222
 30
0.0
 40
380.266164
 50
3.687572
 51
4.425643
  0
ARC
  5
1112F
  8
0
 62
     5
 10
107.211118
 20
188.52222
 30
0.0
 40
3.5
 50
180.0
 51
270.0
  0
LINE
  5
11130
  8
0
 62
     5
 10
110.552562
 20
185.02222
 30
0.0
 11
107.211118
 21
185.02222
 31
0.0
  0
ARC
  5
11131
  8
0
 62
     5
 10
102.711118
 20
191.02222
 30
0.0
 40
1.0
 50
0.0
 51
90.0
  0
LINE
  5
11132
  8
0
 62
     5
 10
103.711118
 20
188.52222
 30
0.0
 11
103.711118
 21
191.02222
 31
0.0
  0
ARC
  5
11133
  8
0
 62
     5
 10
109.545421
 20
191.02222
 30
0.0
 40
1.0
 50
4.388399
 51
90.0
  0
LINE
  5
11134
  8
0
 62
     5
 10
193.608373
 20
131.853973
 30
0.0
 11
193.067466
 21
131.851613
 31
0.0
  0
LINE
  5
11135
  8
CENTER
 10
273.639228
 20
162.02222
 30
0.0
 11
160.10639
 21
162.02222
 31
0.0
  0
ARC
  5
11136
  8
0
 62
     5
 10
193.717466
 20
129.12222
 30
0.0
 40
0.5
 50
180.0
 51
270.0
  0
LINE
  5
11137
  8
0
 62
     5
 10
232.167466
 20
192.02222
 30
0.0
 11
193.067466
 21
192.192827
 31
0.0
  0
LINE
  5
11138
  8
0
 62
     5
 10
184.067466
 20
175.02222
 30
0.0
 11
184.067466
 21
181.966199
 31
0.0
  0
ARC
  5
11139
  8
0
 62
     5
 10
182.867466
 20
179.134358
 30
0.0
 40
1.933824
 50
90.0
 51
149.419713
  0
LINE
  5
1113A
  8
0
 62
     5
 10
182.867466
 20
175.389018
 30
0.0
 11
182.867466
 21
181.26638
 31
0.0
  0
LINE
  5
1113B
  8
0
 62
     5
 10
183.567466
 20
181.315377
 30
0.0
 11
183.567466
 21
175.320987
 31
0.0
  0
LINE
  5
1113C
  8
0
 62
     5
 10
188.567466
 20
191.82222
 30
0.0
 11
188.567466
 21
132.02222
 31
0.0
  0
LINE
  5
1113D
  8
0
 62
     5
 10
193.067466
 20
131.851613
 30
0.0
 11
193.067466
 21
192.192827
 31
0.0
  0
ARC
  5
1113E
  8
0
 62
     5
 10
119.911118
 20
180.656523
 30
0.0
 40
1.0
 50
0.0
 51
85.611601
  0
LINE
  5
1113F
  8
0
 62
     5
 10
113.411118
 20
178.02222
 30
0.0
 11
113.411118
 21
181.966199
 31
0.0
  0
ARC
  5
11140
  8
0
 62
     5
 10
117.399826
 20
178.318182
 30
0.0
 40
2.95
 50
276.813854
 51
263.186146
  0
CIRCLE
  5
11141
  8
0
 62
     5
 10
117.399826
 20
178.318182
 30
0.0
 40
3.0
  0
LINE
  5
11142
  8
0
 62
     5
 10
164.567466
 20
130.22222
 30
0.0
 11
164.567466
 21
191.02222
 31
0.0
  0
LINE
  5
11143
  8
0
 62
     5
 10
120.911118
 20
143.387917
 30
0.0
 11
120.911118
 21
180.656523
 31
0.0
  0
LINE
  5
11144
  8
0
 62
     5
 10
121.177282
 20
180.902972
 30
0.0
 11
121.177282
 21
143.141468
 31
0.0
  0
ARC
  5
11145
  8
CENTER
 10
90.911118
 20
162.02222
 30
0.0
 40
35.0
 50
306.254023
 51
324.381034
  0
LINE
  5
11146
  8
0
 62
     5
 10
120.911118
 20
142.462851
 30
0.0
 11
120.911118
 21
136.52222
 31
0.0
  0
CIRCLE
  5
11147
  8
0
 62
     5
 10
115.659855
 20
137.273483
 30
0.0
 40
2.9
  0
ARC
  5
11148
  8
0
 62
     5
 10
116.411118
 20
136.52222
 30
0.0
 40
4.5
 50
270.0
 51
0.0
  0
LINE
  5
11149
  8
0
 62
     5
 10
113.911118
 20
142.380776
 30
0.0
 11
113.911118
 21
145.72222
 31
0.0
  0
LINE
  5
1114A
  8
0
 62
     5
 10
115.351139
 20
142.063545
 30
0.0
 11
119.987635
 21
142.390849
 31
0.0
  0
ARC
  5
1114B
  8
0
 62
     5
 10
90.911118
 20
521.27679
 30
0.0
 40
380.266164
 50
273.687572
 51
274.425643
  0
ARC
  5
1114C
  8
0
 62
     5
 10
112.911118
 20
142.380776
 30
0.0
 40
1.0
 50
298.28907
 51
0.0
  0
ARC
  5
1114D
  8
0
 62
     5
 10
119.911118
 20
143.387917
 30
0.0
 40
1.0
 50
274.388399
 51
0.0
  0
ARC
  5
1114E
  8
0
 62
     5
 10
117.411118
 20
145.72222
 30
0.0
 40
3.5
 50
90.0
 51
180.0
  0
LINE
  5
1114F
  8
0
 62
     5
 10
117.411118
 20
149.22222
 30
0.0
 11
119.911118
 21
149.22222
 31
0.0
  0
ARC
  5
11150
  8
0
 62
     5
 10
119.911118
 20
150.22222
 30
0.0
 40
1.0
 50
270.0
 51
0.0
  0
ARC
  5
11151
  8
0
 62
     5
 10
119.911118
 20
173.52222
 30
0.0
 40
1.0
 50
0.0
 51
90.0
  0
LINE
  5
11152
  8
0
 62
     5
 10
116.181737
 20
178.598182
 30
0.0
 11
116.776461
 21
178.941546
 31
0.0
  0
LINE
  5
11153
  8
0
 62
     5
 10
115.621737
 20
178.598182
 30
0.0
 11
116.328938
 21
178.458182
 31
0.0
  0
LINE
  5
11154
  8
0
 62
     5
 10
116.181737
 20
178.598182
 30
0.0
 11
116.384938
 21
178.458182
 31
0.0
  0
ARC
  5
11155
  8
0
 62
     5
 10
117.399826
 20
178.318182
 30
0.0
 40
1.127721
 50
109.033269
 51
160.966731
  0
LINE
  5
11156
  8
0
 62
     5
 10
116.181737
 20
178.038182
 30
0.0
 11
116.384938
 21
178.178182
 31
0.0
  0
LINE
  5
11157
  8
0
 62
     5
 10
115.621737
 20
178.038182
 30
0.0
 11
116.328938
 21
178.178182
 31
0.0
  0
LINE
  5
11158
  8
0
 62
     5
 10
116.776461
 20
177.694817
 30
0.0
 11
116.181737
 21
178.038182
 31
0.0
  0
ARC
  5
11159
  8
0
 62
     5
 10
117.399826
 20
178.318182
 30
0.0
 40
1.127721
 50
199.033269
 51
250.966731
  0
ARC
  5
1115A
  8
0
 62
     5
 10
116.911118
 20
178.02222
 30
0.0
 40
3.5
 50
180.0
 51
270.0
  0
CIRCLE
  5
1115B
  8
0
 62
     5
 10
117.399826
 20
178.318182
 30
0.0
 40
2.75
  0
LINE
  5
1115C
  8
0
 62
     5
 10
115.621737
 20
178.598182
 30
0.0
 11
116.181737
 21
178.598182
 31
0.0
  0
LINE
  5
1115D
  8
0
 62
     5
 10
116.181737
 20
178.038182
 30
0.0
 11
115.621737
 21
178.038182
 31
0.0
  0
ARC
  5
1115E
  8
0
 62
     5
 10
117.399826
 20
178.318182
 30
0.0
 40
1.8
 50
171.050982
 51
188.949018
  0
LINE
  5
1115F
  8
0
 62
     5
 10
118.617915
 20
178.598182
 30
0.0
 11
118.414713
 21
178.458182
 31
0.0
  0
LINE
  5
11160
  8
0
 62
     5
 10
119.177915
 20
178.598182
 30
0.0
 11
118.470713
 21
178.458182
 31
0.0
  0
LINE
  5
11161
  8
0
 62
     5
 10
118.470713
 20
178.458182
 30
0.0
 11
118.414713
 21
178.458182
 31
0.0
  0
LINE
  5
11162
  8
0
 62
     5
 10
118.617915
 20
178.598182
 30
0.0
 11
119.177915
 21
178.598182
 31
0.0
  0
LINE
  5
11163
  8
0
 62
     5
 10
119.177915
 20
178.038182
 30
0.0
 11
118.617915
 21
178.038182
 31
0.0
  0
LINE
  5
11164
  8
0
 62
     5
 10
118.414713
 20
178.178182
 30
0.0
 11
118.470713
 21
178.178182
 31
0.0
  0
LINE
  5
11165
  8
0
 62
     5
 10
119.177915
 20
178.038182
 30
0.0
 11
118.470713
 21
178.178182
 31
0.0
  0
LINE
  5
11166
  8
0
 62
     5
 10
118.617915
 20
178.038182
 30
0.0
 11
118.414713
 21
178.178182
 31
0.0
  0
ARC
  5
11167
  8
0
 62
     5
 10
117.399826
 20
178.318182
 30
0.0
 40
1.08
 50
352.551809
 51
7.448191
  0
ARC
  5
11168
  8
0
 62
     5
 10
117.399826
 20
178.318182
 30
0.0
 40
1.8
 50
351.050982
 51
8.949018
  0
LINE
  5
11169
  8
0
 62
     5
 10
116.939595
 20
178.778413
 30
0.0
 11
116.384938
 21
178.458182
 31
0.0
  0
LINE
  5
1116A
  8
0
 62
     5
 10
117.679826
 20
179.536271
 30
0.0
 11
117.539826
 21
179.333069
 31
0.0
  0
LINE
  5
1116B
  8
0
 62
     5
 10
116.776461
 20
178.941546
 30
0.0
 11
117.119826
 21
179.536271
 31
0.0
  0
LINE
  5
1116C
  8
0
 62
     5
 10
117.259826
 20
179.333069
 30
0.0
 11
116.939595
 21
178.778413
 31
0.0
  0
LINE
  5
1116D
  8
0
 62
     5
 10
116.384938
 20
178.458182
 30
0.0
 11
116.328938
 21
178.458182
 31
0.0
  0
LINE
  5
1116E
  8
0
 62
     5
 10
117.679826
 20
180.096271
 30
0.0
 11
117.539826
 21
179.389069
 31
0.0
  0
LINE
  5
1116F
  8
0
 62
     5
 10
117.119826
 20
179.536271
 30
0.0
 11
117.119826
 21
180.096271
 31
0.0
  0
LINE
  5
11170
  8
0
 62
     5
 10
117.259826
 20
179.389069
 30
0.0
 11
117.259826
 21
179.333069
 31
0.0
  0
LINE
  5
11171
  8
0
 62
     5
 10
117.539826
 20
179.333069
 30
0.0
 11
117.539826
 21
179.389069
 31
0.0
  0
LINE
  5
11172
  8
0
 62
     5
 10
117.679826
 20
180.096271
 30
0.0
 11
117.679826
 21
179.536271
 31
0.0
  0
LINE
  5
11173
  8
0
 62
     5
 10
117.119826
 20
180.096271
 30
0.0
 11
117.259826
 21
179.389069
 31
0.0
  0
LINE
  5
11174
  8
0
 62
     5
 10
117.119826
 20
179.536271
 30
0.0
 11
117.259826
 21
179.333069
 31
0.0
  0
LINE
  5
11175
  8
0
 62
     5
 10
117.860057
 20
178.778413
 30
0.0
 11
117.539826
 21
179.333069
 31
0.0
  0
LINE
  5
11176
  8
0
 62
     5
 10
117.679826
 20
179.536271
 30
0.0
 11
118.02319
 21
178.941546
 31
0.0
  0
ARC
  5
11177
  8
0
 62
     5
 10
117.399826
 20
178.318182
 30
0.0
 40
1.08
 50
82.551809
 51
97.448191
  0
ARC
  5
11178
  8
0
 62
     5
 10
117.399826
 20
178.318182
 30
0.0
 40
1.8
 50
81.050982
 51
98.949018
  0
LINE
  5
11179
  8
0
 62
     5
 10
117.539826
 20
177.303294
 30
0.0
 11
117.860057
 21
177.857951
 31
0.0
  0
LINE
  5
1117A
  8
0
 62
     5
 10
118.02319
 20
177.694817
 30
0.0
 11
117.679826
 21
177.100093
 31
0.0
  0
LINE
  5
1117B
  8
0
 62
     5
 10
117.119826
 20
177.100093
 30
0.0
 11
117.259826
 21
177.303294
 31
0.0
  0
LINE
  5
1117C
  8
0
 62
     5
 10
116.328938
 20
178.178182
 30
0.0
 11
116.384938
 21
178.178182
 31
0.0
  0
LINE
  5
1117D
  8
0
 62
     5
 10
117.119826
 20
176.540093
 30
0.0
 11
117.259826
 21
177.247294
 31
0.0
  0
LINE
  5
1117E
  8
0
 62
     5
 10
117.049826
 20
175.592921
 30
0.0
 11
117.049826
 21
175.389018
 31
0.0
  0
LINE
  5
1117F
  8
0
 62
     5
 10
117.119826
 20
176.540093
 30
0.0
 11
117.119826
 21
177.100093
 31
0.0
  0
LINE
  5
11180
  8
0
 62
     5
 10
117.259826
 20
177.303294
 30
0.0
 11
117.259826
 21
177.247294
 31
0.0
  0
LINE
  5
11181
  8
0
 62
     5
 10
117.539826
 20
177.247294
 30
0.0
 11
117.539826
 21
177.303294
 31
0.0
  0
LINE
  5
11182
  8
0
 62
     5
 10
117.679826
 20
177.100093
 30
0.0
 11
117.679826
 21
176.540093
 31
0.0
  0
LINE
  5
11183
  8
0
 62
     5
 10
117.749826
 20
175.389018
 30
0.0
 11
117.749826
 21
175.592921
 31
0.0
  0
LINE
  5
11184
  8
0
 62
     5
 10
116.384938
 20
178.178182
 30
0.0
 11
116.939595
 21
177.857951
 31
0.0
  0
LINE
  5
11185
  8
0
 62
     5
 10
117.679826
 20
177.100093
 30
0.0
 11
117.539826
 21
177.303294
 31
0.0
  0
LINE
  5
11186
  8
0
 62
     5
 10
117.119826
 20
177.100093
 30
0.0
 11
116.776461
 21
177.694817
 31
0.0
  0
LINE
  5
11187
  8
0
 62
     5
 10
116.939595
 20
177.857951
 30
0.0
 11
117.259826
 21
177.303294
 31
0.0
  0
LINE
  5
11188
  8
0
 62
     5
 10
117.679826
 20
176.540093
 30
0.0
 11
117.539826
 21
177.247294
 31
0.0
  0
ARC
  5
11189
  8
0
 62
     5
 10
117.399826
 20
178.318182
 30
0.0
 40
1.08
 50
262.551809
 51
277.448191
  0
ARC
  5
1118A
  8
0
 62
     5
 10
117.399826
 20
178.318182
 30
0.0
 40
1.8
 50
261.050982
 51
278.949018
  0
LINE
  5
1118B
  8
0
 62
     5
 10
116.776461
 20
177.694817
 30
0.0
 11
118.02319
 21
178.941546
 31
0.0
  0
LINE
  5
1118C
  8
0
 62
     5
 10
117.259826
 20
177.247294
 30
0.0
 11
117.539826
 21
179.389069
 31
0.0
  0
LINE
  5
1118D
  8
0
 62
     5
 10
117.259826
 20
177.303294
 30
0.0
 11
117.539826
 21
179.333069
 31
0.0
  0
LINE
  5
1118E
  8
0
 62
     5
 10
118.02319
 20
177.694817
 30
0.0
 11
116.776461
 21
178.941546
 31
0.0
  0
LINE
  5
1118F
  8
0
 62
     5
 10
117.539826
 20
177.303294
 30
0.0
 11
117.259826
 21
179.333069
 31
0.0
  0
LINE
  5
11190
  8
0
 62
     5
 10
117.539826
 20
177.247294
 30
0.0
 11
117.259826
 21
179.389069
 31
0.0
  0
ARC
  5
11191
  8
0
 62
     5
 10
117.399826
 20
178.318182
 30
0.0
 40
1.08
 50
172.551809
 51
187.448191
  0
LINE
  5
11192
  8
0
 62
     5
 10
117.860057
 20
177.857951
 30
0.0
 11
118.414713
 21
178.178182
 31
0.0
  0
LINE
  5
11193
  8
0
 62
     5
 10
118.617915
 20
178.038182
 30
0.0
 11
118.02319
 21
177.694817
 31
0.0
  0
LINE
  5
11194
  8
0
 62
     5
 10
116.384938
 20
178.178182
 30
0.0
 11
118.414713
 21
178.458182
 31
0.0
  0
LINE
  5
11195
  8
0
 62
     5
 10
116.328938
 20
178.178182
 30
0.0
 11
118.470713
 21
178.458182
 31
0.0
  0
LINE
  5
11196
  8
0
 62
     5
 10
119.911118
 20
174.52222
 30
0.0
 11
116.911118
 21
174.52222
 31
0.0
  0
LINE
  5
11197
  8
0
 62
     5
 10
116.328938
 20
178.458182
 30
0.0
 11
118.470713
 21
178.178182
 31
0.0
  0
LINE
  5
11198
  8
0
 62
     5
 10
116.384938
 20
178.458182
 30
0.0
 11
118.414713
 21
178.178182
 31
0.0
  0
LINE
  5
11199
  8
0
 62
     5
 10
118.414713
 20
178.458182
 30
0.0
 11
117.860057
 21
178.778413
 31
0.0
  0
LINE
  5
1119A
  8
0
 62
     5
 10
118.02319
 20
178.941546
 30
0.0
 11
118.617915
 21
178.598182
 31
0.0
  0
ARC
  5
1119B
  8
0
 62
     5
 10
117.399826
 20
178.318182
 30
0.0
 40
1.127721
 50
289.033269
 51
340.966731
  0
ARC
  5
1119C
  8
0
 62
     5
 10
117.399826
 20
178.318182
 30
0.0
 40
1.127721
 50
19.033269
 51
70.966731
  0
LINE
  5
1119D
  8
0
 62
     5
 10
164.567466
 20
142.380776
 30
0.0
 11
180.56836
 21
142.380776
 31
0.0
  0
LINE
  5
1119E
  8
0
 62
     5
 10
165.567466
 20
149.22222
 30
0.0
 11
180.567466
 21
149.22222
 31
0.0
  0
LINE
  5
1119F
  8
0
 62
     5
 10
170.444093
 20
125.12222
 30
0.0
 11
174.677348
 21
125.12222
 31
0.0
  0
LINE
  5
111A0
  8
0
 62
     5
 10
183.777886
 20
124.52222
 30
0.0
 11
168.957047
 21
124.52222
 31
0.0
  0
LINE
  5
111A1
  8
0
 62
     5
 10
166.255771
 20
129.02222
 30
0.0
 11
186.479162
 21
129.02222
 31
0.0
  0
LINE
  5
111A2
  8
0
 62
     5
 10
164.767466
 20
130.02222
 30
0.0
 11
187.867466
 21
130.02222
 31
0.0
  0
LINE
  5
111A3
  8
0
 62
     5
 10
165.567466
 20
132.02222
 30
0.0
 11
188.567466
 21
132.02222
 31
0.0
  0
LINE
  5
111A4
  8
0
 62
     5
 10
183.567466
 20
139.52222
 30
0.0
 11
165.567466
 21
139.52222
 31
0.0
  0
LINE
  5
111A5
  8
0
  6
CONTINUOUS
 62
     5
 10
166.255766
 20
129.62222
 30
0.0
 11
166.255766
 21
130.02222
 31
0.0
  0
LINE
  5
111A6
  8
0
 62
     5
 10
166.255766
 20
129.02222
 30
0.0
 11
166.255766
 21
130.02222
 31
0.0
  0
LINE
  5
111A7
  8
0
 62
     5
 10
168.848462
 20
127.82222
 30
0.0
 11
170.256372
 21
127.82222
 31
0.0
  0
LINE
  5
111A8
  8
0
 62
     5
 10
168.957047
 20
124.52222
 30
0.0
 11
168.66074
 21
124.82222
 31
0.0
  0
LINE
  5
111A9
  8
0
 62
     5
 10
169.144768
 20
124.52222
 30
0.0
 11
168.848462
 21
124.82222
 31
0.0
  0
LINE
  5
111AA
  8
0
 62
     5
 10
170.256372
 20
124.82222
 30
0.0
 11
170.552678
 21
124.52222
 31
0.0
  0
LINE
  5
111AB
  8
0
 62
     5
 10
170.444093
 20
124.82222
 30
0.0
 11
170.7404
 21
124.52222
 31
0.0
  0
LINE
  5
111AC
  8
0
 62
     5
 10
168.66074
 20
125.12222
 30
0.0
 11
168.66074
 21
124.82222
 31
0.0
  0
LINE
  5
111AD
  8
0
 62
     5
 10
170.444093
 20
124.82222
 30
0.0
 11
170.444093
 21
125.12222
 31
0.0
  0
LINE
  5
111AE
  8
0
 62
     5
 10
172.320701
 20
125.12222
 30
0.0
 11
172.320701
 21
124.52222
 31
0.0
  0
LINE
  5
111AF
  8
0
 62
     5
 10
168.66074
 20
124.82222
 30
0.0
 11
168.848462
 21
124.82222
 31
0.0
  0
LINE
  5
111B0
  8
0
 62
     5
 10
170.256372
 20
124.82222
 30
0.0
 11
170.444093
 21
124.82222
 31
0.0
  0
LINE
  5
111B1
  8
0
 62
     5
 10
168.355815
 20
125.12222
 30
0.0
 11
168.66074
 21
125.12222
 31
0.0
  0
LINE
  5
111B2
  8
0
 62
     5
 10
168.355766
 20
129.02222
 30
0.0
 11
168.355766
 21
125.12222
 31
0.0
  0
LINE
  5
111B3
  8
0
 62
     5
 10
168.379158
 20
129.02222
 30
0.0
 11
168.379158
 21
125.12222
 31
0.0
  0
LINE
  5
111B4
  8
0
 62
     5
 10
168.848462
 20
124.82222
 30
0.0
 11
168.848462
 21
127.82222
 31
0.0
  0
LINE
  5
111B5
  8
0
 62
     5
 10
170.256372
 20
127.82222
 30
0.0
 11
170.256372
 21
124.82222
 31
0.0
  0
LINE
  5
111B6
  8
0
 62
     5
 10
170.725675
 20
125.12222
 30
0.0
 11
170.725675
 21
129.02222
 31
0.0
  0
POLYLINE
  5
111B7
  8
0
 62
     5
 66
     1
 10
0.0
 20
0.0
 30
0.0
 70
     8
  0
VERTEX
  5
111B8
  8
0
 62
     5
 10
164.568
 20
132.967
 30
0.0
 70
    32
  0
VERTEX
  5
111B9
  8
0
 62
     5
 10
164.568
 20
132.968
 30
0.0
 70
    32
  0
VERTEX
  5
111BA
  8
0
 62
     5
 10
164.568
 20
132.968
 30
0.0
 70
    32
  0
VERTEX
  5
111BB
  8
0
 62
     5
 10
164.568
 20
132.968
 30
0.0
 70
    32
  0
VERTEX
  5
111BC
  8
0
 62
     5
 10
164.568
 20
132.969
 30
0.0
 70
    32
  0
VERTEX
  5
111BD
  8
0
 62
     5
 10
164.568
 20
132.969
 30
0.0
 70
    32
  0
VERTEX
  5
111BE
  8
0
 62
     5
 10
164.568
 20
132.97
 30
0.0
 70
    32
  0
VERTEX
  5
111BF
  8
0
 62
     5
 10
164.568
 20
132.97
 30
0.0
 70
    32
  0
VERTEX
  5
111C0
  8
0
 62
     5
 10
164.568
 20
132.971
 30
0.0
 70
    32
  0
VERTEX
  5
111C1
  8
0
 62
     5
 10
164.568
 20
132.971
 30
0.0
 70
    32
  0
VERTEX
  5
111C2
  8
0
 62
     5
 10
164.568
 20
132.972
 30
0.0
 70
    32
  0
VERTEX
  5
111C3
  8
0
 62
     5
 10
164.568
 20
132.972
 30
0.0
 70
    32
  0
VERTEX
  5
111C4
  8
0
 62
     5
 10
164.568
 20
132.972
 30
0.0
 70
    32
  0
VERTEX
  5
111C5
  8
0
 62
     5
 10
164.568
 20
132.973
 30
0.0
 70
    32
  0
VERTEX
  5
111C6
  8
0
 62
     5
 10
164.568
 20
132.973
 30
0.0
 70
    32
  0
VERTEX
  5
111C7
  8
0
 62
     5
 10
164.568
 20
132.974
 30
0.0
 70
    32
  0
VERTEX
  5
111C8
  8
0
 62
     5
 10
164.568
 20
132.974
 30
0.0
 70
    32
  0
VERTEX
  5
111C9
  8
0
 62
     5
 10
164.568
 20
132.975
 30
0.0
 70
    32
  0
VERTEX
  5
111CA
  8
0
 62
     5
 10
164.568
 20
132.975
 30
0.0
 70
    32
  0
VERTEX
  5
111CB
  8
0
 62
     5
 10
164.568
 20
132.975
 30
0.0
 70
    32
  0
VERTEX
  5
111CC
  8
0
 62
     5
 10
164.568
 20
132.976
 30
0.0
 70
    32
  0
VERTEX
  5
111CD
  8
0
 62
     5
 10
164.568
 20
132.976
 30
0.0
 70
    32
  0
VERTEX
  5
111CE
  8
0
 62
     5
 10
164.568
 20
132.977
 30
0.0
 70
    32
  0
VERTEX
  5
111CF
  8
0
 62
     5
 10
164.568
 20
132.977
 30
0.0
 70
    32
  0
VERTEX
  5
111D0
  8
0
 62
     5
 10
164.568
 20
132.978
 30
0.0
 70
    32
  0
VERTEX
  5
111D1
  8
0
 62
     5
 10
164.568
 20
132.978
 30
0.0
 70
    32
  0
VERTEX
  5
111D2
  8
0
 62
     5
 10
164.568
 20
132.978
 30
0.0
 70
    32
  0
VERTEX
  5
111D3
  8
0
 62
     5
 10
164.568
 20
132.979
 30
0.0
 70
    32
  0
VERTEX
  5
111D4
  8
0
 62
     5
 10
164.568
 20
132.979
 30
0.0
 70
    32
  0
VERTEX
  5
111D5
  8
0
 62
     5
 10
164.568
 20
132.98
 30
0.0
 70
    32
  0
VERTEX
  5
111D6
  8
0
 62
     5
 10
164.568
 20
132.98
 30
0.0
 70
    32
  0
VERTEX
  5
111D7
  8
0
 62
     5
 10
164.568
 20
132.981
 30
0.0
 70
    32
  0
VERTEX
  5
111D8
  8
0
 62
     5
 10
164.568
 20
132.981
 30
0.0
 70
    32
  0
VERTEX
  5
111D9
  8
0
 62
     5
 10
164.568
 20
132.981
 30
0.0
 70
    32
  0
VERTEX
  5
111DA
  8
0
 62
     5
 10
164.568
 20
132.982
 30
0.0
 70
    32
  0
VERTEX
  5
111DB
  8
0
 62
     5
 10
164.568
 20
132.982
 30
0.0
 70
    32
  0
VERTEX
  5
111DC
  8
0
 62
     5
 10
164.568
 20
132.983
 30
0.0
 70
    32
  0
VERTEX
  5
111DD
  8
0
 62
     5
 10
164.568
 20
132.983
 30
0.0
 70
    32
  0
VERTEX
  5
111DE
  8
0
 62
     5
 10
164.568
 20
132.984
 30
0.0
 70
    32
  0
VERTEX
  5
111DF
  8
0
 62
     5
 10
164.568
 20
132.984
 30
0.0
 70
    32
  0
VERTEX
  5
111E0
  8
0
 62
     5
 10
164.568
 20
132.985
 30
0.0
 70
    32
  0
VERTEX
  5
111E1
  8
0
 62
     5
 10
164.568
 20
132.985
 30
0.0
 70
    32
  0
VERTEX
  5
111E2
  8
0
 62
     5
 10
164.568
 20
132.985
 30
0.0
 70
    32
  0
VERTEX
  5
111E3
  8
0
 62
     5
 10
164.568
 20
132.986
 30
0.0
 70
    32
  0
VERTEX
  5
111E4
  8
0
 62
     5
 10
164.568
 20
132.986
 30
0.0
 70
    32
  0
VERTEX
  5
111E5
  8
0
 62
     5
 10
164.568
 20
132.987
 30
0.0
 70
    32
  0
VERTEX
  5
111E6
  8
0
 62
     5
 10
164.568
 20
132.987
 30
0.0
 70
    32
  0
VERTEX
  5
111E7
  8
0
 62
     5
 10
164.568
 20
132.988
 30
0.0
 70
    32
  0
VERTEX
  5
111E8
  8
0
 62
     5
 10
164.568
 20
132.988
 30
0.0
 70
    32
  0
VERTEX
  5
111E9
  8
0
 62
     5
 10
164.568
 20
132.988
 30
0.0
 70
    32
  0
VERTEX
  5
111EA
  8
0
 62
     5
 10
164.568
 20
132.989
 30
0.0
 70
    32
  0
VERTEX
  5
111EB
  8
0
 62
     5
 10
164.568
 20
132.989
 30
0.0
 70
    32
  0
VERTEX
  5
111EC
  8
0
 62
     5
 10
164.568
 20
132.99
 30
0.0
 70
    32
  0
VERTEX
  5
111ED
  8
0
 62
     5
 10
164.568
 20
132.99
 30
0.0
 70
    32
  0
VERTEX
  5
111EE
  8
0
 62
     5
 10
164.568
 20
132.991
 30
0.0
 70
    32
  0
VERTEX
  5
111EF
  8
0
 62
     5
 10
164.568
 20
132.991
 30
0.0
 70
    32
  0
VERTEX
  5
111F0
  8
0
 62
     5
 10
164.568
 20
132.991
 30
0.0
 70
    32
  0
VERTEX
  5
111F1
  8
0
 62
     5
 10
164.568
 20
132.992
 30
0.0
 70
    32
  0
VERTEX
  5
111F2
  8
0
 62
     5
 10
164.568
 20
132.992
 30
0.0
 70
    32
  0
VERTEX
  5
111F3
  8
0
 62
     5
 10
164.568
 20
132.993
 30
0.0
 70
    32
  0
VERTEX
  5
111F4
  8
0
 62
     5
 10
164.568
 20
132.993
 30
0.0
 70
    32
  0
VERTEX
  5
111F5
  8
0
 62
     5
 10
164.568
 20
132.994
 30
0.0
 70
    32
  0
VERTEX
  5
111F6
  8
0
 62
     5
 10
164.568
 20
132.994
 30
0.0
 70
    32
  0
VERTEX
  5
111F7
  8
0
 62
     5
 10
164.568
 20
132.994
 30
0.0
 70
    32
  0
VERTEX
  5
111F8
  8
0
 62
     5
 10
164.568
 20
132.995
 30
0.0
 70
    32
  0
VERTEX
  5
111F9
  8
0
 62
     5
 10
164.568
 20
132.995
 30
0.0
 70
    32
  0
VERTEX
  5
111FA
  8
0
 62
     5
 10
164.568
 20
132.996
 30
0.0
 70
    32
  0
VERTEX
  5
111FB
  8
0
 62
     5
 10
164.568
 20
132.996
 30
0.0
 70
    32
  0
VERTEX
  5
111FC
  8
0
 62
     5
 10
164.568
 20
132.997
 30
0.0
 70
    32
  0
VERTEX
  5
111FD
  8
0
 62
     5
 10
164.568
 20
132.997
 30
0.0
 70
    32
  0
VERTEX
  5
111FE
  8
0
 62
     5
 10
164.568
 20
132.998
 30
0.0
 70
    32
  0
VERTEX
  5
111FF
  8
0
 62
     5
 10
164.568
 20
132.998
 30
0.0
 70
    32
  0
VERTEX
  5
11200
  8
0
 62
     5
 10
164.568
 20
132.998
 30
0.0
 70
    32
  0
VERTEX
  5
11201
  8
0
 62
     5
 10
164.568
 20
132.999
 30
0.0
 70
    32
  0
VERTEX
  5
11202
  8
0
 62
     5
 10
164.568
 20
132.999
 30
0.0
 70
    32
  0
VERTEX
  5
11203
  8
0
 62
     5
 10
164.568
 20
133.0
 30
0.0
 70
    32
  0
VERTEX
  5
11204
  8
0
 62
     5
 10
164.568
 20
133.0
 30
0.0
 70
    32
  0
VERTEX
  5
11205
  8
0
 62
     5
 10
164.568
 20
133.001
 30
0.0
 70
    32
  0
VERTEX
  5
11206
  8
0
 62
     5
 10
164.568
 20
133.001
 30
0.0
 70
    32
  0
VERTEX
  5
11207
  8
0
 62
     5
 10
164.568
 20
133.001
 30
0.0
 70
    32
  0
VERTEX
  5
11208
  8
0
 62
     5
 10
164.568
 20
133.002
 30
0.0
 70
    32
  0
VERTEX
  5
11209
  8
0
 62
     5
 10
164.568
 20
133.002
 30
0.0
 70
    32
  0
VERTEX
  5
1120A
  8
0
 62
     5
 10
164.568
 20
133.003
 30
0.0
 70
    32
  0
VERTEX
  5
1120B
  8
0
 62
     5
 10
164.568
 20
133.003
 30
0.0
 70
    32
  0
VERTEX
  5
1120C
  8
0
 62
     5
 10
164.568
 20
133.004
 30
0.0
 70
    32
  0
VERTEX
  5
1120D
  8
0
 62
     5
 10
164.568
 20
133.004
 30
0.0
 70
    32
  0
VERTEX
  5
1120E
  8
0
 62
     5
 10
164.568
 20
133.004
 30
0.0
 70
    32
  0
VERTEX
  5
1120F
  8
0
 62
     5
 10
164.568
 20
133.005
 30
0.0
 70
    32
  0
VERTEX
  5
11210
  8
0
 62
     5
 10
164.568
 20
133.005
 30
0.0
 70
    32
  0
VERTEX
  5
11211
  8
0
 62
     5
 10
164.568
 20
133.006
 30
0.0
 70
    32
  0
VERTEX
  5
11212
  8
0
 62
     5
 10
164.568
 20
133.006
 30
0.0
 70
    32
  0
VERTEX
  5
11213
  8
0
 62
     5
 10
164.568
 20
133.007
 30
0.0
 70
    32
  0
VERTEX
  5
11214
  8
0
 62
     5
 10
164.568
 20
133.007
 30
0.0
 70
    32
  0
VERTEX
  5
11215
  8
0
 62
     5
 10
164.568
 20
133.007
 30
0.0
 70
    32
  0
VERTEX
  5
11216
  8
0
 62
     5
 10
164.568
 20
133.008
 30
0.0
 70
    32
  0
VERTEX
  5
11217
  8
0
 62
     5
 10
164.568
 20
133.008
 30
0.0
 70
    32
  0
VERTEX
  5
11218
  8
0
 62
     5
 10
164.568
 20
133.009
 30
0.0
 70
    32
  0
VERTEX
  5
11219
  8
0
 62
     5
 10
164.568
 20
133.009
 30
0.0
 70
    32
  0
VERTEX
  5
1121A
  8
0
 62
     5
 10
164.568
 20
133.01
 30
0.0
 70
    32
  0
VERTEX
  5
1121B
  8
0
 62
     5
 10
164.568
 20
133.01
 30
0.0
 70
    32
  0
VERTEX
  5
1121C
  8
0
 62
     5
 10
164.568
 20
133.011
 30
0.0
 70
    32
  0
VERTEX
  5
1121D
  8
0
 62
     5
 10
164.568
 20
133.011
 30
0.0
 70
    32
  0
VERTEX
  5
1121E
  8
0
 62
     5
 10
164.568
 20
133.011
 30
0.0
 70
    32
  0
VERTEX
  5
1121F
  8
0
 62
     5
 10
164.568
 20
133.012
 30
0.0
 70
    32
  0
VERTEX
  5
11220
  8
0
 62
     5
 10
164.568
 20
133.012
 30
0.0
 70
    32
  0
VERTEX
  5
11221
  8
0
 62
     5
 10
164.568
 20
133.013
 30
0.0
 70
    32
  0
VERTEX
  5
11222
  8
0
 62
     5
 10
164.568
 20
133.013
 30
0.0
 70
    32
  0
VERTEX
  5
11223
  8
0
 62
     5
 10
164.568
 20
133.014
 30
0.0
 70
    32
  0
VERTEX
  5
11224
  8
0
 62
     5
 10
164.568
 20
133.014
 30
0.0
 70
    32
  0
VERTEX
  5
11225
  8
0
 62
     5
 10
164.568
 20
133.014
 30
0.0
 70
    32
  0
VERTEX
  5
11226
  8
0
 62
     5
 10
164.568
 20
133.015
 30
0.0
 70
    32
  0
VERTEX
  5
11227
  8
0
 62
     5
 10
164.568
 20
133.015
 30
0.0
 70
    32
  0
VERTEX
  5
11228
  8
0
 62
     5
 10
164.568
 20
133.016
 30
0.0
 70
    32
  0
VERTEX
  5
11229
  8
0
 62
     5
 10
164.568
 20
133.016
 30
0.0
 70
    32
  0
VERTEX
  5
1122A
  8
0
 62
     5
 10
164.568
 20
133.017
 30
0.0
 70
    32
  0
VERTEX
  5
1122B
  8
0
 62
     5
 10
164.568
 20
133.017
 30
0.0
 70
    32
  0
VERTEX
  5
1122C
  8
0
 62
     5
 10
164.568
 20
133.017
 30
0.0
 70
    32
  0
VERTEX
  5
1122D
  8
0
 62
     5
 10
164.568
 20
133.018
 30
0.0
 70
    32
  0
VERTEX
  5
1122E
  8
0
 62
     5
 10
164.568
 20
133.018
 30
0.0
 70
    32
  0
VERTEX
  5
1122F
  8
0
 62
     5
 10
164.568
 20
133.019
 30
0.0
 70
    32
  0
VERTEX
  5
11230
  8
0
 62
     5
 10
164.568
 20
133.019
 30
0.0
 70
    32
  0
VERTEX
  5
11231
  8
0
 62
     5
 10
164.568
 20
133.02
 30
0.0
 70
    32
  0
VERTEX
  5
11232
  8
0
 62
     5
 10
164.568
 20
133.02
 30
0.0
 70
    32
  0
VERTEX
  5
11233
  8
0
 62
     5
 10
164.567
 20
133.02
 30
0.0
 70
    32
  0
VERTEX
  5
11234
  8
0
 62
     5
 10
164.567
 20
133.021
 30
0.0
 70
    32
  0
VERTEX
  5
11235
  8
0
 62
     5
 10
164.567
 20
133.021
 30
0.0
 70
    32
  0
VERTEX
  5
11236
  8
0
 62
     5
 10
164.567
 20
133.022
 30
0.0
 70
    32
  0
VERTEX
  5
11237
  8
0
 62
     5
 10
164.567
 20
133.022
 30
0.0
 70
    32
  0
SEQEND
  5
11238
  8
0
 62
     5
  0
ARC
  5
11239
  8
0
 62
     5
 10
164.767466
 20
130.22222
 30
0.0
 40
0.2
 50
180.0
 51
270.0
  0
ARC
  5
1123A
  8
0
 62
     5
 10
165.567466
 20
133.02222
 30
0.0
 40
1.0
 50
180.0
 51
270.0
  0
ARC
  5
1123B
  8
0
 62
     5
 10
165.567466
 20
140.52222
 30
0.0
 40
1.0
 50
180.0
 51
270.0
  0
ARC
  5
1123C
  8
0
 62
     5
 10
165.567466
 20
150.22222
 30
0.0
 40
1.0
 50
180.0
 51
270.0
  0
LINE
  5
1123D
  8
0
 62
     5
 10
182.867466
 20
132.604349
 30
0.0
 11
182.867466
 21
138.48171
 31
0.0
  0
LINE
  5
1123E
  8
0
 62
     5
 10
183.567466
 20
138.530707
 30
0.0
 11
183.567466
 21
132.536317
 31
0.0
  0
LINE
  5
1123F
  8
0
 62
     5
 10
184.067466
 20
132.22222
 30
0.0
 11
184.067466
 21
139.027223
 31
0.0
  0
LINE
  5
11240
  8
0
 62
     5
 10
183.567466
 20
132.604349
 30
0.0
 11
182.867466
 21
132.604349
 31
0.0
  0
LINE
  5
11241
  8
0
 62
     5
 10
184.379118
 20
125.12222
 30
0.0
 11
180.998553
 21
125.12222
 31
0.0
  0
LINE
  5
11242
  8
0
 62
     5
 10
174.677348
 20
124.82222
 30
0.0
 11
180.998553
 21
124.82222
 31
0.0
  0
LINE
  5
11243
  8
0
 62
     5
 10
174.380122
 20
124.52222
 30
0.0
 11
174.380122
 21
125.12222
 31
0.0
  0
LINE
  5
11244
  8
0
 62
     5
 10
174.677348
 20
125.12222
 30
0.0
 11
174.677348
 21
124.82222
 31
0.0
  0
LINE
  5
11245
  8
0
 62
     5
 10
174.677348
 20
124.82222
 30
0.0
 11
174.630417
 21
124.52222
 31
0.0
  0
LINE
  5
11246
  8
0
 62
     5
 10
172.899509
 20
129.02222
 30
0.0
 11
172.899509
 21
125.12222
 31
0.0
  0
LINE
  5
11247
  8
0
 62
     5
 10
180.998553
 20
124.82222
 30
0.0
 11
180.998553
 21
125.12222
 31
0.0
  0
LINE
  5
11248
  8
0
 62
     5
 10
182.197585
 20
124.52222
 30
0.0
 11
182.197585
 21
125.12222
 31
0.0
  0
LINE
  5
11249
  8
0
 62
     5
 10
180.951623
 20
124.52222
 30
0.0
 11
180.998553
 21
124.82222
 31
0.0
  0
LINE
  5
1124A
  8
0
 62
     5
 10
182.776392
 20
125.12222
 30
0.0
 11
182.776392
 21
129.02222
 31
0.0
  0
LINE
  5
1124B
  8
0
 62
     5
 10
180.958903
 20
135.165743
 30
0.0
 11
180.958903
 21
134.467444
 31
0.0
  0
LINE
  5
1124C
  8
0
 62
     5
 10
180.958903
 20
135.906864
 30
0.0
 11
180.958903
 21
136.598883
 31
0.0
  0
LINE
  5
1124D
  8
0
 62
     5
 10
181.202605
 20
135.813512
 30
0.0
 11
181.202605
 21
135.253512
 31
0.0
  0
LINE
  5
1124E
  8
0
 62
     5
 10
181.202605
 20
133.755423
 30
0.0
 11
181.202605
 21
133.733512
 31
0.0
  0
LINE
  5
1124F
  8
0
 62
     5
 10
181.202605
 20
135.253512
 30
0.0
 11
180.982899
 21
135.253512
 31
0.0
  0
LINE
  5
11250
  8
0
 62
     5
 10
180.982899
 20
135.813512
 30
0.0
 11
181.202605
 21
135.813512
 31
0.0
  0
ARC
  5
11251
  8
0
 62
     5
 10
182.867466
 20
134.717336
 30
0.0
 40
1.933824
 50
210.580287
 51
270.0
  0
LINE
  5
11252
  8
0
 62
     5
 10
186.479167
 20
129.02222
 30
0.0
 11
186.479167
 21
130.02222
 31
0.0
  0
LINE
  5
11253
  8
HIDDEN
 10
192.589179
 20
129.62222
 30
0.0
 11
186.479167
 21
129.62222
 31
0.0
  0
LINE
  5
11254
  8
0
 62
     5
 10
184.074192
 20
125.12222
 30
0.0
 11
184.074192
 21
124.82222
 31
0.0
  0
LINE
  5
11255
  8
0
 62
     5
 10
183.777886
 20
124.52222
 30
0.0
 11
184.074192
 21
124.82222
 31
0.0
  0
LINE
  5
11256
  8
0
 62
     5
 10
184.379167
 20
129.02222
 30
0.0
 11
184.379167
 21
125.12222
 31
0.0
  0
ARC
  5
11257
  8
0
 62
     5
 10
187.867466
 20
130.22222
 30
0.0
 40
0.2
 50
270.0
 51
0.0
  0
LINE
  5
11258
  8
0
 62
     5
 10
183.567466
 20
132.533512
 30
0.0
 11
184.067466
 21
132.533512
 31
0.0
  0
ARC
  5
11259
  8
0
 62
     5
 10
184.267466
 20
132.22222
 30
0.0
 40
0.2
 50
180.0
 51
270.0
  0
ARC
  5
1125A
  8
0
 62
     5
 10
192.867466
 20
132.22222
 30
0.0
 40
0.2
 50
270.0
 51
0.0
  0
ARC
  5
1125B
  8
0
 62
     5
 10
188.767466
 20
132.22222
 30
0.0
 40
0.2
 50
180.0
 51
270.0
  0
LINE
  5
1125C
  8
0
 62
     5
 10
188.067466
 20
132.02222
 30
0.0
 11
188.067466
 21
130.22222
 31
0.0
  0
LINE
  5
1125D
  8
0
 62
     5
 10
192.867466
 20
132.02222
 30
0.0
 11
188.767466
 21
132.02222
 31
0.0
  0
LINE
  5
1125E
  8
0
 62
     5
 10
183.567466
 20
138.483512
 30
0.0
 11
182.867466
 21
138.483512
 31
0.0
  0
LINE
  5
1125F
  8
0
 62
     5
 10
181.567466
 20
142.390849
 30
0.0
 11
183.567466
 21
142.390849
 31
0.0
  0
LINE
  5
11260
  8
0
 62
     5
 10
181.067466
 20
142.424274
 30
0.0
 11
181.067466
 21
148.72222
 31
0.0
  0
POLYLINE
  5
11261
  8
0
 62
     5
 66
     1
 10
0.0
 20
0.0
 30
0.0
  0
VERTEX
  5
117F6
  8
0
 62
     5
 10
181.067466
 20
142.889383
 30
0.0
  0
VERTEX
  5
117F7
  8
0
 62
     5
 10
181.068537
 20
142.856778
 30
0.0
  0
VERTEX
  5
117F8
  8
0
 62
     5
 10
181.071744
 20
142.824312
 30
0.0
  0
VERTEX
  5
117F9
  8
0
 62
     5
 10
181.077074
 20
142.792124
 30
0.0
  0
VERTEX
  5
117FA
  8
0
 62
     5
 10
181.084503
 20
142.760353
 30
0.0
  0
VERTEX
  5
117FB
  8
0
 62
     5
 10
181.094001
 20
142.729135
 30
0.0
  0
VERTEX
  5
117FC
  8
0
 62
     5
 10
181.105527
 20
142.698603
 30
0.0
  0
VERTEX
  5
117FD
  8
0
 62
     5
 10
181.11903
 20
142.668887
 30
0.0
  0
VERTEX
  5
117FE
  8
0
 62
     5
 10
181.134454
 20
142.640116
 30
0.0
  0
VERTEX
  5
117FF
  8
0
 62
     5
 10
181.151732
 20
142.612413
 30
0.0
  0
VERTEX
  5
11800
  8
0
 62
     5
 10
181.17079
 20
142.585895
 30
0.0
  0
VERTEX
  5
11801
  8
0
 62
     5
 10
181.191546
 20
142.560677
 30
0.0
  0
VERTEX
  5
11802
  8
0
 62
     5
 10
181.213913
 20
142.536866
 30
0.0
  0
VERTEX
  5
11803
  8
0
 62
     5
 10
181.237793
 20
142.514565
 30
0.0
  0
VERTEX
  5
11804
  8
0
 62
     5
 10
181.263086
 20
142.49387
 30
0.0
  0
VERTEX
  5
11805
  8
0
 62
     5
 10
181.289681
 20
142.474867
 30
0.0
  0
VERTEX
  5
11806
  8
0
 62
     5
 10
181.317466
 20
142.45764
 30
0.0
  0
VERTEX
  5
11807
  8
0
 62
     5
 10
181.346322
 20
142.442262
 30
0.0
  0
VERTEX
  5
11808
  8
0
 62
     5
 10
181.376125
 20
142.428798
 30
0.0
  0
VERTEX
  5
11809
  8
0
 62
     5
 10
181.406747
 20
142.417306
 30
0.0
  0
VERTEX
  5
1180A
  8
0
 62
     5
 10
181.438057
 20
142.407836
 30
0.0
  0
VERTEX
  5
1180B
  8
0
 62
     5
 10
181.469921
 20
142.400428
 30
0.0
  0
VERTEX
  5
1180C
  8
0
 62
     5
 10
181.502203
 20
142.395114
 30
0.0
  0
VERTEX
  5
1180D
  8
0
 62
     5
 10
181.534765
 20
142.391917
 30
0.0
  0
VERTEX
  5
1180E
  8
0
 62
     5
 10
181.567466
 20
142.390849
 30
0.0
  0
SEQEND
  5
1180F
  8
0
 62
     5
  0
POLYLINE
  5
1127C
  8
0
 62
     5
 66
     1
 10
0.0
 20
0.0
 30
0.0
 70
     8
  0
VERTEX
  5
1127D
  8
0
 62
     5
 10
181.068
 20
142.401
 30
0.0
 70
    32
  0
VERTEX
  5
1127E
  8
0
 62
     5
 10
181.068
 20
142.401
 30
0.0
 70
    32
  0
VERTEX
  5
1127F
  8
0
 62
     5
 10
181.068
 20
142.402
 30
0.0
 70
    32
  0
VERTEX
  5
11280
  8
0
 62
     5
 10
181.068
 20
142.402
 30
0.0
 70
    32
  0
VERTEX
  5
11281
  8
0
 62
     5
 10
181.068
 20
142.402
 30
0.0
 70
    32
  0
VERTEX
  5
11282
  8
0
 62
     5
 10
181.068
 20
142.402
 30
0.0
 70
    32
  0
VERTEX
  5
11283
  8
0
 62
     5
 10
181.068
 20
142.402
 30
0.0
 70
    32
  0
VERTEX
  5
11284
  8
0
 62
     5
 10
181.068
 20
142.402
 30
0.0
 70
    32
  0
VERTEX
  5
11285
  8
0
 62
     5
 10
181.068
 20
142.402
 30
0.0
 70
    32
  0
VERTEX
  5
11286
  8
0
 62
     5
 10
181.068
 20
142.403
 30
0.0
 70
    32
  0
VERTEX
  5
11287
  8
0
 62
     5
 10
181.068
 20
142.403
 30
0.0
 70
    32
  0
VERTEX
  5
11288
  8
0
 62
     5
 10
181.068
 20
142.403
 30
0.0
 70
    32
  0
VERTEX
  5
11289
  8
0
 62
     5
 10
181.068
 20
142.403
 30
0.0
 70
    32
  0
VERTEX
  5
1128A
  8
0
 62
     5
 10
181.068
 20
142.403
 30
0.0
 70
    32
  0
VERTEX
  5
1128B
  8
0
 62
     5
 10
181.068
 20
142.403
 30
0.0
 70
    32
  0
VERTEX
  5
1128C
  8
0
 62
     5
 10
181.068
 20
142.403
 30
0.0
 70
    32
  0
VERTEX
  5
1128D
  8
0
 62
     5
 10
181.068
 20
142.404
 30
0.0
 70
    32
  0
VERTEX
  5
1128E
  8
0
 62
     5
 10
181.068
 20
142.404
 30
0.0
 70
    32
  0
VERTEX
  5
1128F
  8
0
 62
     5
 10
181.068
 20
142.404
 30
0.0
 70
    32
  0
VERTEX
  5
11290
  8
0
 62
     5
 10
181.068
 20
142.404
 30
0.0
 70
    32
  0
VERTEX
  5
11291
  8
0
 62
     5
 10
181.068
 20
142.404
 30
0.0
 70
    32
  0
VERTEX
  5
11292
  8
0
 62
     5
 10
181.068
 20
142.404
 30
0.0
 70
    32
  0
VERTEX
  5
11293
  8
0
 62
     5
 10
181.068
 20
142.404
 30
0.0
 70
    32
  0
VERTEX
  5
11294
  8
0
 62
     5
 10
181.068
 20
142.405
 30
0.0
 70
    32
  0
VERTEX
  5
11295
  8
0
 62
     5
 10
181.068
 20
142.405
 30
0.0
 70
    32
  0
VERTEX
  5
11296
  8
0
 62
     5
 10
181.068
 20
142.405
 30
0.0
 70
    32
  0
VERTEX
  5
11297
  8
0
 62
     5
 10
181.068
 20
142.405
 30
0.0
 70
    32
  0
VERTEX
  5
11298
  8
0
 62
     5
 10
181.068
 20
142.405
 30
0.0
 70
    32
  0
VERTEX
  5
11299
  8
0
 62
     5
 10
181.068
 20
142.405
 30
0.0
 70
    32
  0
VERTEX
  5
1129A
  8
0
 62
     5
 10
181.068
 20
142.405
 30
0.0
 70
    32
  0
VERTEX
  5
1129B
  8
0
 62
     5
 10
181.068
 20
142.406
 30
0.0
 70
    32
  0
VERTEX
  5
1129C
  8
0
 62
     5
 10
181.068
 20
142.406
 30
0.0
 70
    32
  0
VERTEX
  5
1129D
  8
0
 62
     5
 10
181.068
 20
142.406
 30
0.0
 70
    32
  0
VERTEX
  5
1129E
  8
0
 62
     5
 10
181.068
 20
142.406
 30
0.0
 70
    32
  0
VERTEX
  5
1129F
  8
0
 62
     5
 10
181.068
 20
142.406
 30
0.0
 70
    32
  0
VERTEX
  5
112A0
  8
0
 62
     5
 10
181.068
 20
142.406
 30
0.0
 70
    32
  0
VERTEX
  5
112A1
  8
0
 62
     5
 10
181.068
 20
142.407
 30
0.0
 70
    32
  0
VERTEX
  5
112A2
  8
0
 62
     5
 10
181.068
 20
142.407
 30
0.0
 70
    32
  0
VERTEX
  5
112A3
  8
0
 62
     5
 10
181.068
 20
142.407
 30
0.0
 70
    32
  0
VERTEX
  5
112A4
  8
0
 62
     5
 10
181.068
 20
142.407
 30
0.0
 70
    32
  0
VERTEX
  5
112A5
  8
0
 62
     5
 10
181.068
 20
142.407
 30
0.0
 70
    32
  0
VERTEX
  5
112A6
  8
0
 62
     5
 10
181.068
 20
142.407
 30
0.0
 70
    32
  0
VERTEX
  5
112A7
  8
0
 62
     5
 10
181.068
 20
142.407
 30
0.0
 70
    32
  0
VERTEX
  5
112A8
  8
0
 62
     5
 10
181.068
 20
142.408
 30
0.0
 70
    32
  0
VERTEX
  5
112A9
  8
0
 62
     5
 10
181.068
 20
142.408
 30
0.0
 70
    32
  0
VERTEX
  5
112AA
  8
0
 62
     5
 10
181.068
 20
142.408
 30
0.0
 70
    32
  0
VERTEX
  5
112AB
  8
0
 62
     5
 10
181.068
 20
142.408
 30
0.0
 70
    32
  0
VERTEX
  5
112AC
  8
0
 62
     5
 10
181.068
 20
142.408
 30
0.0
 70
    32
  0
VERTEX
  5
112AD
  8
0
 62
     5
 10
181.068
 20
142.408
 30
0.0
 70
    32
  0
VERTEX
  5
112AE
  8
0
 62
     5
 10
181.068
 20
142.408
 30
0.0
 70
    32
  0
VERTEX
  5
112AF
  8
0
 62
     5
 10
181.068
 20
142.409
 30
0.0
 70
    32
  0
VERTEX
  5
112B0
  8
0
 62
     5
 10
181.068
 20
142.409
 30
0.0
 70
    32
  0
VERTEX
  5
112B1
  8
0
 62
     5
 10
181.068
 20
142.409
 30
0.0
 70
    32
  0
VERTEX
  5
112B2
  8
0
 62
     5
 10
181.068
 20
142.409
 30
0.0
 70
    32
  0
VERTEX
  5
112B3
  8
0
 62
     5
 10
181.068
 20
142.409
 30
0.0
 70
    32
  0
VERTEX
  5
112B4
  8
0
 62
     5
 10
181.068
 20
142.409
 30
0.0
 70
    32
  0
VERTEX
  5
112B5
  8
0
 62
     5
 10
181.068
 20
142.409
 30
0.0
 70
    32
  0
VERTEX
  5
112B6
  8
0
 62
     5
 10
181.068
 20
142.41
 30
0.0
 70
    32
  0
VERTEX
  5
112B7
  8
0
 62
     5
 10
181.068
 20
142.41
 30
0.0
 70
    32
  0
VERTEX
  5
112B8
  8
0
 62
     5
 10
181.068
 20
142.41
 30
0.0
 70
    32
  0
VERTEX
  5
112B9
  8
0
 62
     5
 10
181.068
 20
142.41
 30
0.0
 70
    32
  0
VERTEX
  5
112BA
  8
0
 62
     5
 10
181.068
 20
142.41
 30
0.0
 70
    32
  0
VERTEX
  5
112BB
  8
0
 62
     5
 10
181.068
 20
142.41
 30
0.0
 70
    32
  0
VERTEX
  5
112BC
  8
0
 62
     5
 10
181.068
 20
142.41
 30
0.0
 70
    32
  0
VERTEX
  5
112BD
  8
0
 62
     5
 10
181.068
 20
142.411
 30
0.0
 70
    32
  0
VERTEX
  5
112BE
  8
0
 62
     5
 10
181.068
 20
142.411
 30
0.0
 70
    32
  0
VERTEX
  5
112BF
  8
0
 62
     5
 10
181.068
 20
142.411
 30
0.0
 70
    32
  0
VERTEX
  5
112C0
  8
0
 62
     5
 10
181.068
 20
142.411
 30
0.0
 70
    32
  0
VERTEX
  5
112C1
  8
0
 62
     5
 10
181.068
 20
142.411
 30
0.0
 70
    32
  0
VERTEX
  5
112C2
  8
0
 62
     5
 10
181.068
 20
142.411
 30
0.0
 70
    32
  0
VERTEX
  5
112C3
  8
0
 62
     5
 10
181.068
 20
142.411
 30
0.0
 70
    32
  0
VERTEX
  5
112C4
  8
0
 62
     5
 10
181.068
 20
142.412
 30
0.0
 70
    32
  0
VERTEX
  5
112C5
  8
0
 62
     5
 10
181.068
 20
142.412
 30
0.0
 70
    32
  0
VERTEX
  5
112C6
  8
0
 62
     5
 10
181.068
 20
142.412
 30
0.0
 70
    32
  0
VERTEX
  5
112C7
  8
0
 62
     5
 10
181.068
 20
142.412
 30
0.0
 70
    32
  0
VERTEX
  5
112C8
  8
0
 62
     5
 10
181.068
 20
142.412
 30
0.0
 70
    32
  0
VERTEX
  5
112C9
  8
0
 62
     5
 10
181.068
 20
142.412
 30
0.0
 70
    32
  0
VERTEX
  5
112CA
  8
0
 62
     5
 10
181.068
 20
142.412
 30
0.0
 70
    32
  0
VERTEX
  5
112CB
  8
0
 62
     5
 10
181.068
 20
142.413
 30
0.0
 70
    32
  0
VERTEX
  5
112CC
  8
0
 62
     5
 10
181.068
 20
142.413
 30
0.0
 70
    32
  0
VERTEX
  5
112CD
  8
0
 62
     5
 10
181.068
 20
142.413
 30
0.0
 70
    32
  0
VERTEX
  5
112CE
  8
0
 62
     5
 10
181.068
 20
142.413
 30
0.0
 70
    32
  0
VERTEX
  5
112CF
  8
0
 62
     5
 10
181.068
 20
142.413
 30
0.0
 70
    32
  0
VERTEX
  5
112D0
  8
0
 62
     5
 10
181.068
 20
142.413
 30
0.0
 70
    32
  0
VERTEX
  5
112D1
  8
0
 62
     5
 10
181.068
 20
142.413
 30
0.0
 70
    32
  0
VERTEX
  5
112D2
  8
0
 62
     5
 10
181.068
 20
142.414
 30
0.0
 70
    32
  0
VERTEX
  5
112D3
  8
0
 62
     5
 10
181.068
 20
142.414
 30
0.0
 70
    32
  0
VERTEX
  5
112D4
  8
0
 62
     5
 10
181.068
 20
142.414
 30
0.0
 70
    32
  0
VERTEX
  5
112D5
  8
0
 62
     5
 10
181.068
 20
142.414
 30
0.0
 70
    32
  0
VERTEX
  5
112D6
  8
0
 62
     5
 10
181.068
 20
142.414
 30
0.0
 70
    32
  0
VERTEX
  5
112D7
  8
0
 62
     5
 10
181.068
 20
142.414
 30
0.0
 70
    32
  0
VERTEX
  5
112D8
  8
0
 62
     5
 10
181.068
 20
142.414
 30
0.0
 70
    32
  0
VERTEX
  5
112D9
  8
0
 62
     5
 10
181.068
 20
142.415
 30
0.0
 70
    32
  0
VERTEX
  5
112DA
  8
0
 62
     5
 10
181.068
 20
142.415
 30
0.0
 70
    32
  0
VERTEX
  5
112DB
  8
0
 62
     5
 10
181.068
 20
142.415
 30
0.0
 70
    32
  0
VERTEX
  5
112DC
  8
0
 62
     5
 10
181.068
 20
142.415
 30
0.0
 70
    32
  0
VERTEX
  5
112DD
  8
0
 62
     5
 10
181.068
 20
142.415
 30
0.0
 70
    32
  0
VERTEX
  5
112DE
  8
0
 62
     5
 10
181.068
 20
142.415
 30
0.0
 70
    32
  0
VERTEX
  5
112DF
  8
0
 62
     5
 10
181.068
 20
142.415
 30
0.0
 70
    32
  0
VERTEX
  5
112E0
  8
0
 62
     5
 10
181.068
 20
142.416
 30
0.0
 70
    32
  0
VERTEX
  5
112E1
  8
0
 62
     5
 10
181.068
 20
142.416
 30
0.0
 70
    32
  0
VERTEX
  5
112E2
  8
0
 62
     5
 10
181.068
 20
142.416
 30
0.0
 70
    32
  0
VERTEX
  5
112E3
  8
0
 62
     5
 10
181.068
 20
142.416
 30
0.0
 70
    32
  0
VERTEX
  5
112E4
  8
0
 62
     5
 10
181.068
 20
142.416
 30
0.0
 70
    32
  0
VERTEX
  5
112E5
  8
0
 62
     5
 10
181.068
 20
142.416
 30
0.0
 70
    32
  0
VERTEX
  5
112E6
  8
0
 62
     5
 10
181.068
 20
142.416
 30
0.0
 70
    32
  0
VERTEX
  5
112E7
  8
0
 62
     5
 10
181.068
 20
142.417
 30
0.0
 70
    32
  0
VERTEX
  5
112E8
  8
0
 62
     5
 10
181.068
 20
142.417
 30
0.0
 70
    32
  0
VERTEX
  5
112E9
  8
0
 62
     5
 10
181.068
 20
142.417
 30
0.0
 70
    32
  0
VERTEX
  5
112EA
  8
0
 62
     5
 10
181.068
 20
142.417
 30
0.0
 70
    32
  0
VERTEX
  5
112EB
  8
0
 62
     5
 10
181.068
 20
142.417
 30
0.0
 70
    32
  0
VERTEX
  5
112EC
  8
0
 62
     5
 10
181.068
 20
142.417
 30
0.0
 70
    32
  0
VERTEX
  5
112ED
  8
0
 62
     5
 10
181.068
 20
142.417
 30
0.0
 70
    32
  0
VERTEX
  5
112EE
  8
0
 62
     5
 10
181.068
 20
142.418
 30
0.0
 70
    32
  0
VERTEX
  5
112EF
  8
0
 62
     5
 10
181.068
 20
142.418
 30
0.0
 70
    32
  0
VERTEX
  5
112F0
  8
0
 62
     5
 10
181.068
 20
142.418
 30
0.0
 70
    32
  0
VERTEX
  5
112F1
  8
0
 62
     5
 10
181.068
 20
142.418
 30
0.0
 70
    32
  0
VERTEX
  5
112F2
  8
0
 62
     5
 10
181.068
 20
142.418
 30
0.0
 70
    32
  0
VERTEX
  5
112F3
  8
0
 62
     5
 10
181.068
 20
142.418
 30
0.0
 70
    32
  0
VERTEX
  5
112F4
  8
0
 62
     5
 10
181.068
 20
142.418
 30
0.0
 70
    32
  0
VERTEX
  5
112F5
  8
0
 62
     5
 10
181.068
 20
142.419
 30
0.0
 70
    32
  0
VERTEX
  5
112F6
  8
0
 62
     5
 10
181.067
 20
142.419
 30
0.0
 70
    32
  0
VERTEX
  5
112F7
  8
0
 62
     5
 10
181.067
 20
142.419
 30
0.0
 70
    32
  0
VERTEX
  5
112F8
  8
0
 62
     5
 10
181.067
 20
142.419
 30
0.0
 70
    32
  0
VERTEX
  5
112F9
  8
0
 62
     5
 10
181.067
 20
142.419
 30
0.0
 70
    32
  0
VERTEX
  5
112FA
  8
0
 62
     5
 10
181.067
 20
142.419
 30
0.0
 70
    32
  0
VERTEX
  5
112FB
  8
0
 62
     5
 10
181.067
 20
142.42
 30
0.0
 70
    32
  0
VERTEX
  5
112FC
  8
0
 62
     5
 10
181.067
 20
142.42
 30
0.0
 70
    32
  0
VERTEX
  5
112FD
  8
0
 62
     5
 10
181.067
 20
142.42
 30
0.0
 70
    32
  0
VERTEX
  5
112FE
  8
0
 62
     5
 10
181.067
 20
142.42
 30
0.0
 70
    32
  0
VERTEX
  5
112FF
  8
0
 62
     5
 10
181.067
 20
142.42
 30
0.0
 70
    32
  0
VERTEX
  5
11300
  8
0
 62
     5
 10
181.067
 20
142.42
 30
0.0
 70
    32
  0
VERTEX
  5
11301
  8
0
 62
     5
 10
181.067
 20
142.42
 30
0.0
 70
    32
  0
VERTEX
  5
11302
  8
0
 62
     5
 10
181.067
 20
142.421
 30
0.0
 70
    32
  0
VERTEX
  5
11303
  8
0
 62
     5
 10
181.067
 20
142.421
 30
0.0
 70
    32
  0
VERTEX
  5
11304
  8
0
 62
     5
 10
181.067
 20
142.421
 30
0.0
 70
    32
  0
VERTEX
  5
11305
  8
0
 62
     5
 10
181.067
 20
142.421
 30
0.0
 70
    32
  0
VERTEX
  5
11306
  8
0
 62
     5
 10
181.067
 20
142.421
 30
0.0
 70
    32
  0
VERTEX
  5
11307
  8
0
 62
     5
 10
181.067
 20
142.421
 30
0.0
 70
    32
  0
VERTEX
  5
11308
  8
0
 62
     5
 10
181.067
 20
142.421
 30
0.0
 70
    32
  0
VERTEX
  5
11309
  8
0
 62
     5
 10
181.067
 20
142.422
 30
0.0
 70
    32
  0
VERTEX
  5
1130A
  8
0
 62
     5
 10
181.067
 20
142.422
 30
0.0
 70
    32
  0
VERTEX
  5
1130B
  8
0
 62
     5
 10
181.067
 20
142.422
 30
0.0
 70
    32
  0
VERTEX
  5
1130C
  8
0
 62
     5
 10
181.067
 20
142.422
 30
0.0
 70
    32
  0
VERTEX
  5
1130D
  8
0
 62
     5
 10
181.067
 20
142.422
 30
0.0
 70
    32
  0
VERTEX
  5
1130E
  8
0
 62
     5
 10
181.067
 20
142.422
 30
0.0
 70
    32
  0
VERTEX
  5
1130F
  8
0
 62
     5
 10
181.067
 20
142.422
 30
0.0
 70
    32
  0
VERTEX
  5
11310
  8
0
 62
     5
 10
181.067
 20
142.423
 30
0.0
 70
    32
  0
VERTEX
  5
11311
  8
0
 62
     5
 10
181.067
 20
142.423
 30
0.0
 70
    32
  0
VERTEX
  5
11312
  8
0
 62
     5
 10
181.067
 20
142.423
 30
0.0
 70
    32
  0
VERTEX
  5
11313
  8
0
 62
     5
 10
181.067
 20
142.423
 30
0.0
 70
    32
  0
VERTEX
  5
11314
  8
0
 62
     5
 10
181.067
 20
142.423
 30
0.0
 70
    32
  0
VERTEX
  5
11315
  8
0
 62
     5
 10
181.067
 20
142.423
 30
0.0
 70
    32
  0
VERTEX
  5
11316
  8
0
 62
     5
 10
181.067
 20
142.423
 30
0.0
 70
    32
  0
VERTEX
  5
11317
  8
0
 62
     5
 10
181.067
 20
142.424
 30
0.0
 70
    32
  0
VERTEX
  5
11318
  8
0
 62
     5
 10
181.067
 20
142.424
 30
0.0
 70
    32
  0
VERTEX
  5
11319
  8
0
 62
     5
 10
181.067
 20
142.424
 30
0.0
 70
    32
  0
VERTEX
  5
1131A
  8
0
 62
     5
 10
181.067
 20
142.424
 30
0.0
 70
    32
  0
VERTEX
  5
1131B
  8
0
 62
     5
 10
181.067
 20
142.424
 30
0.0
 70
    32
  0
VERTEX
  5
1131C
  8
0
 62
     5
 10
181.067
 20
142.424
 30
0.0
 70
    32
  0
SEQEND
  5
1131D
  8
0
 62
     5
  0
LINE
  5
1131E
  8
0
 62
     5
 10
181.202605
 20
137.333512
 30
0.0
 11
181.202605
 21
137.311252
 31
0.0
  0
ARC
  5
1131F
  8
0
 62
     5
 10
182.790983
 20
136.483725
 30
0.0
 40
1.801412
 50
87.566639
 51
151.853074
  0
LINE
  5
11320
  8
0
 62
     5
 10
181.067913
 20
142.401303
 30
0.0
 11
180.56836
 21
142.380776
 31
0.0
  0
ARC
  5
11321
  8
0
 62
     5
 10
180.567466
 20
148.72222
 30
0.0
 40
0.5
 50
0.0
 51
90.0
  0
LINE
  5
11322
  8
0
 62
     5
 10
184.067466
 20
148.92222
 30
0.0
 11
184.067466
 21
142.371626
 31
0.0
  0
LINE
  5
11323
  8
0
 62
     5
 10
187.867466
 20
142.797095
 30
0.0
 11
187.867466
 21
148.674456
 31
0.0
  0
LINE
  5
11324
  8
0
 62
     5
 10
188.567466
 20
142.797095
 30
0.0
 11
187.867466
 21
142.797095
 31
0.0
  0
LINE
  5
11325
  8
0
 62
     5
 10
184.067466
 20
142.380776
 30
0.0
 11
188.567466
 21
142.380776
 31
0.0
  0
LINE
  5
11326
  8
0
 62
     5
 10
186.116355
 20
143.876258
 30
0.0
 11
186.171826
 21
143.684592
 31
0.0
  0
LINE
  5
11327
  8
0
 62
     5
 10
186.116355
 20
143.89757
 30
0.0
 11
186.116355
 21
143.876258
 31
0.0
  0
LINE
  5
11328
  8
0
 62
     5
 10
187.128346
 20
142.976258
 30
0.0
 11
187.867466
 21
142.976258
 31
0.0
  0
LINE
  5
11329
  8
0
 62
     5
 10
183.567466
 20
138.533512
 30
0.0
 11
183.567466
 21
139.525555
 31
0.0
  0
POLYLINE
  5
1132A
  8
0
 62
     5
 66
     1
 10
0.0
 20
0.0
 30
0.0
  0
VERTEX
  5
11810
  8
0
 62
     5
 10
184.067466
 20
142.889383
 30
0.0
  0
VERTEX
  5
11811
  8
0
 62
     5
 10
184.066396
 20
142.856778
 30
0.0
  0
VERTEX
  5
11812
  8
0
 62
     5
 10
184.063189
 20
142.824311
 30
0.0
  0
VERTEX
  5
11813
  8
0
 62
     5
 10
184.057859
 20
142.792124
 30
0.0
  0
VERTEX
  5
11814
  8
0
 62
     5
 10
184.050429
 20
142.760353
 30
0.0
  0
VERTEX
  5
11815
  8
0
 62
     5
 10
184.040931
 20
142.729135
 30
0.0
  0
VERTEX
  5
11816
  8
0
 62
     5
 10
184.029406
 20
142.698602
 30
0.0
  0
VERTEX
  5
11817
  8
0
 62
     5
 10
184.015903
 20
142.668887
 30
0.0
  0
VERTEX
  5
11818
  8
0
 62
     5
 10
184.000479
 20
142.640116
 30
0.0
  0
VERTEX
  5
11819
  8
0
 62
     5
 10
183.983201
 20
142.612413
 30
0.0
  0
VERTEX
  5
1181A
  8
0
 62
     5
 10
183.964143
 20
142.585895
 30
0.0
  0
VERTEX
  5
1181B
  8
0
 62
     5
 10
183.943386
 20
142.560677
 30
0.0
  0
VERTEX
  5
1181C
  8
0
 62
     5
 10
183.92102
 20
142.536866
 30
0.0
  0
VERTEX
  5
1181D
  8
0
 62
     5
 10
183.897139
 20
142.514565
 30
0.0
  0
VERTEX
  5
1181E
  8
0
 62
     5
 10
183.871847
 20
142.49387
 30
0.0
  0
VERTEX
  5
1181F
  8
0
 62
     5
 10
183.845252
 20
142.474867
 30
0.0
  0
VERTEX
  5
11820
  8
0
 62
     5
 10
183.817466
 20
142.45764
 30
0.0
  0
VERTEX
  5
11821
  8
0
 62
     5
 10
183.788611
 20
142.442262
 30
0.0
  0
VERTEX
  5
11822
  8
0
 62
     5
 10
183.758808
 20
142.428798
 30
0.0
  0
VERTEX
  5
11823
  8
0
 62
     5
 10
183.728186
 20
142.417306
 30
0.0
  0
VERTEX
  5
11824
  8
0
 62
     5
 10
183.696876
 20
142.407836
 30
0.0
  0
VERTEX
  5
11825
  8
0
 62
     5
 10
183.665012
 20
142.400428
 30
0.0
  0
VERTEX
  5
11826
  8
0
 62
     5
 10
183.63273
 20
142.395114
 30
0.0
  0
VERTEX
  5
11827
  8
0
 62
     5
 10
183.600168
 20
142.391917
 30
0.0
  0
VERTEX
  5
11828
  8
0
 62
     5
 10
183.567466
 20
142.390849
 30
0.0
  0
SEQEND
  5
11829
  8
0
 62
     5
  0
LINE
  5
11345
  8
0
 62
     5
 10
183.567466
 20
138.533512
 30
0.0
 11
184.067466
 21
138.533512
 31
0.0
  0
ARC
  5
11346
  8
0
 62
     5
 10
183.567466
 20
139.02222
 30
0.0
 40
0.5
 50
0.0
 51
90.0
  0
POLYLINE
  5
11347
  8
0
 62
     5
 66
     1
 10
0.0
 20
0.0
 30
0.0
 70
     8
  0
VERTEX
  5
11348
  8
0
 62
     5
 10
184.367
 20
142.374
 30
0.0
 70
    32
  0
VERTEX
  5
11349
  8
0
 62
     5
 10
184.367
 20
142.374
 30
0.0
 70
    32
  0
VERTEX
  5
1134A
  8
0
 62
     5
 10
184.366
 20
142.374
 30
0.0
 70
    32
  0
VERTEX
  5
1134B
  8
0
 62
     5
 10
184.365
 20
142.374
 30
0.0
 70
    32
  0
VERTEX
  5
1134C
  8
0
 62
     5
 10
184.365
 20
142.374
 30
0.0
 70
    32
  0
VERTEX
  5
1134D
  8
0
 62
     5
 10
184.364
 20
142.374
 30
0.0
 70
    32
  0
VERTEX
  5
1134E
  8
0
 62
     5
 10
184.363
 20
142.374
 30
0.0
 70
    32
  0
VERTEX
  5
1134F
  8
0
 62
     5
 10
184.363
 20
142.374
 30
0.0
 70
    32
  0
VERTEX
  5
11350
  8
0
 62
     5
 10
184.362
 20
142.374
 30
0.0
 70
    32
  0
VERTEX
  5
11351
  8
0
 62
     5
 10
184.361
 20
142.374
 30
0.0
 70
    32
  0
VERTEX
  5
11352
  8
0
 62
     5
 10
184.361
 20
142.374
 30
0.0
 70
    32
  0
VERTEX
  5
11353
  8
0
 62
     5
 10
184.36
 20
142.374
 30
0.0
 70
    32
  0
VERTEX
  5
11354
  8
0
 62
     5
 10
184.359
 20
142.374
 30
0.0
 70
    32
  0
VERTEX
  5
11355
  8
0
 62
     5
 10
184.359
 20
142.374
 30
0.0
 70
    32
  0
VERTEX
  5
11356
  8
0
 62
     5
 10
184.358
 20
142.374
 30
0.0
 70
    32
  0
VERTEX
  5
11357
  8
0
 62
     5
 10
184.357
 20
142.374
 30
0.0
 70
    32
  0
VERTEX
  5
11358
  8
0
 62
     5
 10
184.357
 20
142.374
 30
0.0
 70
    32
  0
VERTEX
  5
11359
  8
0
 62
     5
 10
184.356
 20
142.374
 30
0.0
 70
    32
  0
VERTEX
  5
1135A
  8
0
 62
     5
 10
184.355
 20
142.374
 30
0.0
 70
    32
  0
VERTEX
  5
1135B
  8
0
 62
     5
 10
184.355
 20
142.374
 30
0.0
 70
    32
  0
VERTEX
  5
1135C
  8
0
 62
     5
 10
184.354
 20
142.374
 30
0.0
 70
    32
  0
VERTEX
  5
1135D
  8
0
 62
     5
 10
184.353
 20
142.374
 30
0.0
 70
    32
  0
VERTEX
  5
1135E
  8
0
 62
     5
 10
184.353
 20
142.374
 30
0.0
 70
    32
  0
VERTEX
  5
1135F
  8
0
 62
     5
 10
184.352
 20
142.374
 30
0.0
 70
    32
  0
VERTEX
  5
11360
  8
0
 62
     5
 10
184.351
 20
142.374
 30
0.0
 70
    32
  0
VERTEX
  5
11361
  8
0
 62
     5
 10
184.351
 20
142.374
 30
0.0
 70
    32
  0
VERTEX
  5
11362
  8
0
 62
     5
 10
184.35
 20
142.374
 30
0.0
 70
    32
  0
VERTEX
  5
11363
  8
0
 62
     5
 10
184.349
 20
142.374
 30
0.0
 70
    32
  0
VERTEX
  5
11364
  8
0
 62
     5
 10
184.349
 20
142.374
 30
0.0
 70
    32
  0
VERTEX
  5
11365
  8
0
 62
     5
 10
184.348
 20
142.374
 30
0.0
 70
    32
  0
VERTEX
  5
11366
  8
0
 62
     5
 10
184.347
 20
142.374
 30
0.0
 70
    32
  0
VERTEX
  5
11367
  8
0
 62
     5
 10
184.347
 20
142.374
 30
0.0
 70
    32
  0
VERTEX
  5
11368
  8
0
 62
     5
 10
184.346
 20
142.374
 30
0.0
 70
    32
  0
VERTEX
  5
11369
  8
0
 62
     5
 10
184.345
 20
142.374
 30
0.0
 70
    32
  0
VERTEX
  5
1136A
  8
0
 62
     5
 10
184.345
 20
142.374
 30
0.0
 70
    32
  0
VERTEX
  5
1136B
  8
0
 62
     5
 10
184.344
 20
142.374
 30
0.0
 70
    32
  0
VERTEX
  5
1136C
  8
0
 62
     5
 10
184.343
 20
142.374
 30
0.0
 70
    32
  0
VERTEX
  5
1136D
  8
0
 62
     5
 10
184.343
 20
142.374
 30
0.0
 70
    32
  0
VERTEX
  5
1136E
  8
0
 62
     5
 10
184.342
 20
142.374
 30
0.0
 70
    32
  0
VERTEX
  5
1136F
  8
0
 62
     5
 10
184.341
 20
142.374
 30
0.0
 70
    32
  0
VERTEX
  5
11370
  8
0
 62
     5
 10
184.341
 20
142.374
 30
0.0
 70
    32
  0
VERTEX
  5
11371
  8
0
 62
     5
 10
184.34
 20
142.374
 30
0.0
 70
    32
  0
VERTEX
  5
11372
  8
0
 62
     5
 10
184.339
 20
142.374
 30
0.0
 70
    32
  0
VERTEX
  5
11373
  8
0
 62
     5
 10
184.339
 20
142.374
 30
0.0
 70
    32
  0
VERTEX
  5
11374
  8
0
 62
     5
 10
184.338
 20
142.374
 30
0.0
 70
    32
  0
VERTEX
  5
11375
  8
0
 62
     5
 10
184.337
 20
142.374
 30
0.0
 70
    32
  0
VERTEX
  5
11376
  8
0
 62
     5
 10
184.337
 20
142.374
 30
0.0
 70
    32
  0
VERTEX
  5
11377
  8
0
 62
     5
 10
184.336
 20
142.374
 30
0.0
 70
    32
  0
VERTEX
  5
11378
  8
0
 62
     5
 10
184.335
 20
142.374
 30
0.0
 70
    32
  0
VERTEX
  5
11379
  8
0
 62
     5
 10
184.335
 20
142.374
 30
0.0
 70
    32
  0
VERTEX
  5
1137A
  8
0
 62
     5
 10
184.334
 20
142.374
 30
0.0
 70
    32
  0
VERTEX
  5
1137B
  8
0
 62
     5
 10
184.333
 20
142.374
 30
0.0
 70
    32
  0
VERTEX
  5
1137C
  8
0
 62
     5
 10
184.333
 20
142.374
 30
0.0
 70
    32
  0
VERTEX
  5
1137D
  8
0
 62
     5
 10
184.332
 20
142.374
 30
0.0
 70
    32
  0
VERTEX
  5
1137E
  8
0
 62
     5
 10
184.331
 20
142.374
 30
0.0
 70
    32
  0
VERTEX
  5
1137F
  8
0
 62
     5
 10
184.331
 20
142.374
 30
0.0
 70
    32
  0
VERTEX
  5
11380
  8
0
 62
     5
 10
184.33
 20
142.374
 30
0.0
 70
    32
  0
VERTEX
  5
11381
  8
0
 62
     5
 10
184.329
 20
142.374
 30
0.0
 70
    32
  0
VERTEX
  5
11382
  8
0
 62
     5
 10
184.329
 20
142.374
 30
0.0
 70
    32
  0
VERTEX
  5
11383
  8
0
 62
     5
 10
184.328
 20
142.374
 30
0.0
 70
    32
  0
VERTEX
  5
11384
  8
0
 62
     5
 10
184.327
 20
142.374
 30
0.0
 70
    32
  0
VERTEX
  5
11385
  8
0
 62
     5
 10
184.327
 20
142.374
 30
0.0
 70
    32
  0
VERTEX
  5
11386
  8
0
 62
     5
 10
184.326
 20
142.374
 30
0.0
 70
    32
  0
VERTEX
  5
11387
  8
0
 62
     5
 10
184.325
 20
142.374
 30
0.0
 70
    32
  0
VERTEX
  5
11388
  8
0
 62
     5
 10
184.325
 20
142.374
 30
0.0
 70
    32
  0
VERTEX
  5
11389
  8
0
 62
     5
 10
184.324
 20
142.374
 30
0.0
 70
    32
  0
VERTEX
  5
1138A
  8
0
 62
     5
 10
184.323
 20
142.374
 30
0.0
 70
    32
  0
VERTEX
  5
1138B
  8
0
 62
     5
 10
184.323
 20
142.374
 30
0.0
 70
    32
  0
VERTEX
  5
1138C
  8
0
 62
     5
 10
184.322
 20
142.374
 30
0.0
 70
    32
  0
VERTEX
  5
1138D
  8
0
 62
     5
 10
184.321
 20
142.374
 30
0.0
 70
    32
  0
VERTEX
  5
1138E
  8
0
 62
     5
 10
184.321
 20
142.374
 30
0.0
 70
    32
  0
VERTEX
  5
1138F
  8
0
 62
     5
 10
184.32
 20
142.374
 30
0.0
 70
    32
  0
VERTEX
  5
11390
  8
0
 62
     5
 10
184.319
 20
142.374
 30
0.0
 70
    32
  0
VERTEX
  5
11391
  8
0
 62
     5
 10
184.319
 20
142.374
 30
0.0
 70
    32
  0
VERTEX
  5
11392
  8
0
 62
     5
 10
184.318
 20
142.374
 30
0.0
 70
    32
  0
VERTEX
  5
11393
  8
0
 62
     5
 10
184.317
 20
142.374
 30
0.0
 70
    32
  0
VERTEX
  5
11394
  8
0
 62
     5
 10
184.317
 20
142.374
 30
0.0
 70
    32
  0
VERTEX
  5
11395
  8
0
 62
     5
 10
184.316
 20
142.374
 30
0.0
 70
    32
  0
VERTEX
  5
11396
  8
0
 62
     5
 10
184.315
 20
142.374
 30
0.0
 70
    32
  0
VERTEX
  5
11397
  8
0
 62
     5
 10
184.315
 20
142.374
 30
0.0
 70
    32
  0
VERTEX
  5
11398
  8
0
 62
     5
 10
184.314
 20
142.374
 30
0.0
 70
    32
  0
VERTEX
  5
11399
  8
0
 62
     5
 10
184.313
 20
142.374
 30
0.0
 70
    32
  0
VERTEX
  5
1139A
  8
0
 62
     5
 10
184.313
 20
142.374
 30
0.0
 70
    32
  0
VERTEX
  5
1139B
  8
0
 62
     5
 10
184.312
 20
142.374
 30
0.0
 70
    32
  0
VERTEX
  5
1139C
  8
0
 62
     5
 10
184.311
 20
142.374
 30
0.0
 70
    32
  0
VERTEX
  5
1139D
  8
0
 62
     5
 10
184.311
 20
142.374
 30
0.0
 70
    32
  0
VERTEX
  5
1139E
  8
0
 62
     5
 10
184.31
 20
142.374
 30
0.0
 70
    32
  0
VERTEX
  5
1139F
  8
0
 62
     5
 10
184.309
 20
142.374
 30
0.0
 70
    32
  0
VERTEX
  5
113A0
  8
0
 62
     5
 10
184.309
 20
142.374
 30
0.0
 70
    32
  0
VERTEX
  5
113A1
  8
0
 62
     5
 10
184.308
 20
142.374
 30
0.0
 70
    32
  0
VERTEX
  5
113A2
  8
0
 62
     5
 10
184.307
 20
142.374
 30
0.0
 70
    32
  0
VERTEX
  5
113A3
  8
0
 62
     5
 10
184.307
 20
142.374
 30
0.0
 70
    32
  0
VERTEX
  5
113A4
  8
0
 62
     5
 10
184.306
 20
142.374
 30
0.0
 70
    32
  0
VERTEX
  5
113A5
  8
0
 62
     5
 10
184.305
 20
142.374
 30
0.0
 70
    32
  0
VERTEX
  5
113A6
  8
0
 62
     5
 10
184.305
 20
142.374
 30
0.0
 70
    32
  0
VERTEX
  5
113A7
  8
0
 62
     5
 10
184.304
 20
142.374
 30
0.0
 70
    32
  0
VERTEX
  5
113A8
  8
0
 62
     5
 10
184.303
 20
142.374
 30
0.0
 70
    32
  0
VERTEX
  5
113A9
  8
0
 62
     5
 10
184.303
 20
142.374
 30
0.0
 70
    32
  0
VERTEX
  5
113AA
  8
0
 62
     5
 10
184.302
 20
142.374
 30
0.0
 70
    32
  0
VERTEX
  5
113AB
  8
0
 62
     5
 10
184.301
 20
142.374
 30
0.0
 70
    32
  0
VERTEX
  5
113AC
  8
0
 62
     5
 10
184.301
 20
142.374
 30
0.0
 70
    32
  0
VERTEX
  5
113AD
  8
0
 62
     5
 10
184.3
 20
142.374
 30
0.0
 70
    32
  0
VERTEX
  5
113AE
  8
0
 62
     5
 10
184.299
 20
142.374
 30
0.0
 70
    32
  0
VERTEX
  5
113AF
  8
0
 62
     5
 10
184.298
 20
142.374
 30
0.0
 70
    32
  0
VERTEX
  5
113B0
  8
0
 62
     5
 10
184.298
 20
142.374
 30
0.0
 70
    32
  0
VERTEX
  5
113B1
  8
0
 62
     5
 10
184.297
 20
142.374
 30
0.0
 70
    32
  0
VERTEX
  5
113B2
  8
0
 62
     5
 10
184.296
 20
142.374
 30
0.0
 70
    32
  0
VERTEX
  5
113B3
  8
0
 62
     5
 10
184.296
 20
142.374
 30
0.0
 70
    32
  0
VERTEX
  5
113B4
  8
0
 62
     5
 10
184.295
 20
142.374
 30
0.0
 70
    32
  0
VERTEX
  5
113B5
  8
0
 62
     5
 10
184.294
 20
142.374
 30
0.0
 70
    32
  0
VERTEX
  5
113B6
  8
0
 62
     5
 10
184.294
 20
142.374
 30
0.0
 70
    32
  0
VERTEX
  5
113B7
  8
0
 62
     5
 10
184.293
 20
142.374
 30
0.0
 70
    32
  0
VERTEX
  5
113B8
  8
0
 62
     5
 10
184.292
 20
142.374
 30
0.0
 70
    32
  0
VERTEX
  5
113B9
  8
0
 62
     5
 10
184.292
 20
142.374
 30
0.0
 70
    32
  0
VERTEX
  5
113BA
  8
0
 62
     5
 10
184.291
 20
142.374
 30
0.0
 70
    32
  0
VERTEX
  5
113BB
  8
0
 62
     5
 10
184.29
 20
142.374
 30
0.0
 70
    32
  0
VERTEX
  5
113BC
  8
0
 62
     5
 10
184.29
 20
142.374
 30
0.0
 70
    32
  0
VERTEX
  5
113BD
  8
0
 62
     5
 10
184.289
 20
142.374
 30
0.0
 70
    32
  0
VERTEX
  5
113BE
  8
0
 62
     5
 10
184.288
 20
142.374
 30
0.0
 70
    32
  0
VERTEX
  5
113BF
  8
0
 62
     5
 10
184.288
 20
142.374
 30
0.0
 70
    32
  0
VERTEX
  5
113C0
  8
0
 62
     5
 10
184.287
 20
142.374
 30
0.0
 70
    32
  0
VERTEX
  5
113C1
  8
0
 62
     5
 10
184.286
 20
142.374
 30
0.0
 70
    32
  0
VERTEX
  5
113C2
  8
0
 62
     5
 10
184.286
 20
142.374
 30
0.0
 70
    32
  0
VERTEX
  5
113C3
  8
0
 62
     5
 10
184.285
 20
142.374
 30
0.0
 70
    32
  0
VERTEX
  5
113C4
  8
0
 62
     5
 10
184.284
 20
142.374
 30
0.0
 70
    32
  0
VERTEX
  5
113C5
  8
0
 62
     5
 10
184.284
 20
142.374
 30
0.0
 70
    32
  0
VERTEX
  5
113C6
  8
0
 62
     5
 10
184.283
 20
142.374
 30
0.0
 70
    32
  0
VERTEX
  5
113C7
  8
0
 62
     5
 10
184.282
 20
142.374
 30
0.0
 70
    32
  0
VERTEX
  5
113C8
  8
0
 62
     5
 10
184.282
 20
142.374
 30
0.0
 70
    32
  0
VERTEX
  5
113C9
  8
0
 62
     5
 10
184.281
 20
142.374
 30
0.0
 70
    32
  0
VERTEX
  5
113CA
  8
0
 62
     5
 10
184.28
 20
142.374
 30
0.0
 70
    32
  0
VERTEX
  5
113CB
  8
0
 62
     5
 10
184.28
 20
142.374
 30
0.0
 70
    32
  0
VERTEX
  5
113CC
  8
0
 62
     5
 10
184.279
 20
142.374
 30
0.0
 70
    32
  0
VERTEX
  5
113CD
  8
0
 62
     5
 10
184.278
 20
142.374
 30
0.0
 70
    32
  0
VERTEX
  5
113CE
  8
0
 62
     5
 10
184.278
 20
142.374
 30
0.0
 70
    32
  0
VERTEX
  5
113CF
  8
0
 62
     5
 10
184.277
 20
142.374
 30
0.0
 70
    32
  0
VERTEX
  5
113D0
  8
0
 62
     5
 10
184.276
 20
142.374
 30
0.0
 70
    32
  0
VERTEX
  5
113D1
  8
0
 62
     5
 10
184.276
 20
142.374
 30
0.0
 70
    32
  0
VERTEX
  5
113D2
  8
0
 62
     5
 10
184.275
 20
142.374
 30
0.0
 70
    32
  0
VERTEX
  5
113D3
  8
0
 62
     5
 10
184.274
 20
142.374
 30
0.0
 70
    32
  0
VERTEX
  5
113D4
  8
0
 62
     5
 10
184.274
 20
142.374
 30
0.0
 70
    32
  0
VERTEX
  5
113D5
  8
0
 62
     5
 10
184.273
 20
142.374
 30
0.0
 70
    32
  0
VERTEX
  5
113D6
  8
0
 62
     5
 10
184.272
 20
142.374
 30
0.0
 70
    32
  0
VERTEX
  5
113D7
  8
0
 62
     5
 10
184.272
 20
142.374
 30
0.0
 70
    32
  0
VERTEX
  5
113D8
  8
0
 62
     5
 10
184.271
 20
142.374
 30
0.0
 70
    32
  0
VERTEX
  5
113D9
  8
0
 62
     5
 10
184.27
 20
142.374
 30
0.0
 70
    32
  0
VERTEX
  5
113DA
  8
0
 62
     5
 10
184.27
 20
142.374
 30
0.0
 70
    32
  0
VERTEX
  5
113DB
  8
0
 62
     5
 10
184.269
 20
142.374
 30
0.0
 70
    32
  0
VERTEX
  5
113DC
  8
0
 62
     5
 10
184.268
 20
142.374
 30
0.0
 70
    32
  0
VERTEX
  5
113DD
  8
0
 62
     5
 10
184.268
 20
142.374
 30
0.0
 70
    32
  0
VERTEX
  5
113DE
  8
0
 62
     5
 10
184.267
 20
142.374
 30
0.0
 70
    32
  0
VERTEX
  5
113DF
  8
0
 62
     5
 10
184.266
 20
142.374
 30
0.0
 70
    32
  0
VERTEX
  5
113E0
  8
0
 62
     5
 10
184.266
 20
142.374
 30
0.0
 70
    32
  0
VERTEX
  5
113E1
  8
0
 62
     5
 10
184.265
 20
142.374
 30
0.0
 70
    32
  0
VERTEX
  5
113E2
  8
0
 62
     5
 10
184.264
 20
142.374
 30
0.0
 70
    32
  0
VERTEX
  5
113E3
  8
0
 62
     5
 10
184.264
 20
142.374
 30
0.0
 70
    32
  0
VERTEX
  5
113E4
  8
0
 62
     5
 10
184.263
 20
142.374
 30
0.0
 70
    32
  0
VERTEX
  5
113E5
  8
0
 62
     5
 10
184.262
 20
142.374
 30
0.0
 70
    32
  0
VERTEX
  5
113E6
  8
0
 62
     5
 10
184.262
 20
142.374
 30
0.0
 70
    32
  0
VERTEX
  5
113E7
  8
0
 62
     5
 10
184.261
 20
142.374
 30
0.0
 70
    32
  0
VERTEX
  5
113E8
  8
0
 62
     5
 10
184.26
 20
142.374
 30
0.0
 70
    32
  0
VERTEX
  5
113E9
  8
0
 62
     5
 10
184.26
 20
142.374
 30
0.0
 70
    32
  0
VERTEX
  5
113EA
  8
0
 62
     5
 10
184.259
 20
142.374
 30
0.0
 70
    32
  0
VERTEX
  5
113EB
  8
0
 62
     5
 10
184.258
 20
142.374
 30
0.0
 70
    32
  0
VERTEX
  5
113EC
  8
0
 62
     5
 10
184.258
 20
142.374
 30
0.0
 70
    32
  0
VERTEX
  5
113ED
  8
0
 62
     5
 10
184.257
 20
142.374
 30
0.0
 70
    32
  0
VERTEX
  5
113EE
  8
0
 62
     5
 10
184.256
 20
142.374
 30
0.0
 70
    32
  0
VERTEX
  5
113EF
  8
0
 62
     5
 10
184.256
 20
142.374
 30
0.0
 70
    32
  0
VERTEX
  5
113F0
  8
0
 62
     5
 10
184.255
 20
142.374
 30
0.0
 70
    32
  0
VERTEX
  5
113F1
  8
0
 62
     5
 10
184.254
 20
142.374
 30
0.0
 70
    32
  0
VERTEX
  5
113F2
  8
0
 62
     5
 10
184.254
 20
142.374
 30
0.0
 70
    32
  0
VERTEX
  5
113F3
  8
0
 62
     5
 10
184.253
 20
142.374
 30
0.0
 70
    32
  0
VERTEX
  5
113F4
  8
0
 62
     5
 10
184.252
 20
142.374
 30
0.0
 70
    32
  0
VERTEX
  5
113F5
  8
0
 62
     5
 10
184.252
 20
142.374
 30
0.0
 70
    32
  0
VERTEX
  5
113F6
  8
0
 62
     5
 10
184.251
 20
142.374
 30
0.0
 70
    32
  0
VERTEX
  5
113F7
  8
0
 62
     5
 10
184.25
 20
142.374
 30
0.0
 70
    32
  0
VERTEX
  5
113F8
  8
0
 62
     5
 10
184.25
 20
142.374
 30
0.0
 70
    32
  0
VERTEX
  5
113F9
  8
0
 62
     5
 10
184.249
 20
142.374
 30
0.0
 70
    32
  0
VERTEX
  5
113FA
  8
0
 62
     5
 10
184.248
 20
142.374
 30
0.0
 70
    32
  0
VERTEX
  5
113FB
  8
0
 62
     5
 10
184.248
 20
142.374
 30
0.0
 70
    32
  0
VERTEX
  5
113FC
  8
0
 62
     5
 10
184.247
 20
142.374
 30
0.0
 70
    32
  0
VERTEX
  5
113FD
  8
0
 62
     5
 10
184.246
 20
142.374
 30
0.0
 70
    32
  0
VERTEX
  5
113FE
  8
0
 62
     5
 10
184.246
 20
142.374
 30
0.0
 70
    32
  0
VERTEX
  5
113FF
  8
0
 62
     5
 10
184.245
 20
142.374
 30
0.0
 70
    32
  0
VERTEX
  5
11400
  8
0
 62
     5
 10
184.244
 20
142.374
 30
0.0
 70
    32
  0
VERTEX
  5
11401
  8
0
 62
     5
 10
184.244
 20
142.374
 30
0.0
 70
    32
  0
VERTEX
  5
11402
  8
0
 62
     5
 10
184.243
 20
142.374
 30
0.0
 70
    32
  0
VERTEX
  5
11403
  8
0
 62
     5
 10
184.242
 20
142.374
 30
0.0
 70
    32
  0
VERTEX
  5
11404
  8
0
 62
     5
 10
184.242
 20
142.374
 30
0.0
 70
    32
  0
VERTEX
  5
11405
  8
0
 62
     5
 10
184.241
 20
142.374
 30
0.0
 70
    32
  0
VERTEX
  5
11406
  8
0
 62
     5
 10
184.24
 20
142.374
 30
0.0
 70
    32
  0
VERTEX
  5
11407
  8
0
 62
     5
 10
184.24
 20
142.374
 30
0.0
 70
    32
  0
VERTEX
  5
11408
  8
0
 62
     5
 10
184.239
 20
142.374
 30
0.0
 70
    32
  0
VERTEX
  5
11409
  8
0
 62
     5
 10
184.238
 20
142.374
 30
0.0
 70
    32
  0
VERTEX
  5
1140A
  8
0
 62
     5
 10
184.238
 20
142.374
 30
0.0
 70
    32
  0
VERTEX
  5
1140B
  8
0
 62
     5
 10
184.237
 20
142.374
 30
0.0
 70
    32
  0
VERTEX
  5
1140C
  8
0
 62
     5
 10
184.236
 20
142.374
 30
0.0
 70
    32
  0
VERTEX
  5
1140D
  8
0
 62
     5
 10
184.236
 20
142.374
 30
0.0
 70
    32
  0
VERTEX
  5
1140E
  8
0
 62
     5
 10
184.235
 20
142.374
 30
0.0
 70
    32
  0
VERTEX
  5
1140F
  8
0
 62
     5
 10
184.234
 20
142.374
 30
0.0
 70
    32
  0
VERTEX
  5
11410
  8
0
 62
     5
 10
184.234
 20
142.374
 30
0.0
 70
    32
  0
VERTEX
  5
11411
  8
0
 62
     5
 10
184.233
 20
142.374
 30
0.0
 70
    32
  0
VERTEX
  5
11412
  8
0
 62
     5
 10
184.232
 20
142.374
 30
0.0
 70
    32
  0
VERTEX
  5
11413
  8
0
 62
     5
 10
184.232
 20
142.374
 30
0.0
 70
    32
  0
VERTEX
  5
11414
  8
0
 62
     5
 10
184.231
 20
142.374
 30
0.0
 70
    32
  0
VERTEX
  5
11415
  8
0
 62
     5
 10
184.23
 20
142.374
 30
0.0
 70
    32
  0
VERTEX
  5
11416
  8
0
 62
     5
 10
184.23
 20
142.374
 30
0.0
 70
    32
  0
VERTEX
  5
11417
  8
0
 62
     5
 10
184.229
 20
142.373
 30
0.0
 70
    32
  0
VERTEX
  5
11418
  8
0
 62
     5
 10
184.228
 20
142.373
 30
0.0
 70
    32
  0
VERTEX
  5
11419
  8
0
 62
     5
 10
184.228
 20
142.373
 30
0.0
 70
    32
  0
VERTEX
  5
1141A
  8
0
 62
     5
 10
184.227
 20
142.373
 30
0.0
 70
    32
  0
VERTEX
  5
1141B
  8
0
 62
     5
 10
184.226
 20
142.373
 30
0.0
 70
    32
  0
VERTEX
  5
1141C
  8
0
 62
     5
 10
184.226
 20
142.373
 30
0.0
 70
    32
  0
VERTEX
  5
1141D
  8
0
 62
     5
 10
184.225
 20
142.373
 30
0.0
 70
    32
  0
VERTEX
  5
1141E
  8
0
 62
     5
 10
184.224
 20
142.373
 30
0.0
 70
    32
  0
VERTEX
  5
1141F
  8
0
 62
     5
 10
184.224
 20
142.373
 30
0.0
 70
    32
  0
VERTEX
  5
11420
  8
0
 62
     5
 10
184.223
 20
142.373
 30
0.0
 70
    32
  0
VERTEX
  5
11421
  8
0
 62
     5
 10
184.222
 20
142.373
 30
0.0
 70
    32
  0
VERTEX
  5
11422
  8
0
 62
     5
 10
184.221
 20
142.373
 30
0.0
 70
    32
  0
VERTEX
  5
11423
  8
0
 62
     5
 10
184.221
 20
142.373
 30
0.0
 70
    32
  0
VERTEX
  5
11424
  8
0
 62
     5
 10
184.22
 20
142.373
 30
0.0
 70
    32
  0
VERTEX
  5
11425
  8
0
 62
     5
 10
184.219
 20
142.373
 30
0.0
 70
    32
  0
VERTEX
  5
11426
  8
0
 62
     5
 10
184.219
 20
142.373
 30
0.0
 70
    32
  0
VERTEX
  5
11427
  8
0
 62
     5
 10
184.218
 20
142.373
 30
0.0
 70
    32
  0
VERTEX
  5
11428
  8
0
 62
     5
 10
184.217
 20
142.373
 30
0.0
 70
    32
  0
VERTEX
  5
11429
  8
0
 62
     5
 10
184.217
 20
142.373
 30
0.0
 70
    32
  0
VERTEX
  5
1142A
  8
0
 62
     5
 10
184.216
 20
142.373
 30
0.0
 70
    32
  0
VERTEX
  5
1142B
  8
0
 62
     5
 10
184.215
 20
142.373
 30
0.0
 70
    32
  0
VERTEX
  5
1142C
  8
0
 62
     5
 10
184.215
 20
142.373
 30
0.0
 70
    32
  0
VERTEX
  5
1142D
  8
0
 62
     5
 10
184.214
 20
142.373
 30
0.0
 70
    32
  0
VERTEX
  5
1142E
  8
0
 62
     5
 10
184.213
 20
142.373
 30
0.0
 70
    32
  0
VERTEX
  5
1142F
  8
0
 62
     5
 10
184.213
 20
142.373
 30
0.0
 70
    32
  0
VERTEX
  5
11430
  8
0
 62
     5
 10
184.212
 20
142.373
 30
0.0
 70
    32
  0
VERTEX
  5
11431
  8
0
 62
     5
 10
184.211
 20
142.373
 30
0.0
 70
    32
  0
VERTEX
  5
11432
  8
0
 62
     5
 10
184.211
 20
142.373
 30
0.0
 70
    32
  0
VERTEX
  5
11433
  8
0
 62
     5
 10
184.21
 20
142.373
 30
0.0
 70
    32
  0
VERTEX
  5
11434
  8
0
 62
     5
 10
184.209
 20
142.373
 30
0.0
 70
    32
  0
VERTEX
  5
11435
  8
0
 62
     5
 10
184.209
 20
142.373
 30
0.0
 70
    32
  0
VERTEX
  5
11436
  8
0
 62
     5
 10
184.208
 20
142.373
 30
0.0
 70
    32
  0
VERTEX
  5
11437
  8
0
 62
     5
 10
184.207
 20
142.373
 30
0.0
 70
    32
  0
VERTEX
  5
11438
  8
0
 62
     5
 10
184.207
 20
142.373
 30
0.0
 70
    32
  0
VERTEX
  5
11439
  8
0
 62
     5
 10
184.206
 20
142.373
 30
0.0
 70
    32
  0
VERTEX
  5
1143A
  8
0
 62
     5
 10
184.205
 20
142.373
 30
0.0
 70
    32
  0
VERTEX
  5
1143B
  8
0
 62
     5
 10
184.205
 20
142.373
 30
0.0
 70
    32
  0
VERTEX
  5
1143C
  8
0
 62
     5
 10
184.204
 20
142.373
 30
0.0
 70
    32
  0
VERTEX
  5
1143D
  8
0
 62
     5
 10
184.203
 20
142.373
 30
0.0
 70
    32
  0
VERTEX
  5
1143E
  8
0
 62
     5
 10
184.203
 20
142.373
 30
0.0
 70
    32
  0
VERTEX
  5
1143F
  8
0
 62
     5
 10
184.202
 20
142.373
 30
0.0
 70
    32
  0
VERTEX
  5
11440
  8
0
 62
     5
 10
184.201
 20
142.373
 30
0.0
 70
    32
  0
VERTEX
  5
11441
  8
0
 62
     5
 10
184.201
 20
142.373
 30
0.0
 70
    32
  0
VERTEX
  5
11442
  8
0
 62
     5
 10
184.2
 20
142.373
 30
0.0
 70
    32
  0
VERTEX
  5
11443
  8
0
 62
     5
 10
184.199
 20
142.373
 30
0.0
 70
    32
  0
VERTEX
  5
11444
  8
0
 62
     5
 10
184.199
 20
142.373
 30
0.0
 70
    32
  0
VERTEX
  5
11445
  8
0
 62
     5
 10
184.198
 20
142.373
 30
0.0
 70
    32
  0
VERTEX
  5
11446
  8
0
 62
     5
 10
184.197
 20
142.373
 30
0.0
 70
    32
  0
VERTEX
  5
11447
  8
0
 62
     5
 10
184.197
 20
142.373
 30
0.0
 70
    32
  0
VERTEX
  5
11448
  8
0
 62
     5
 10
184.196
 20
142.373
 30
0.0
 70
    32
  0
VERTEX
  5
11449
  8
0
 62
     5
 10
184.195
 20
142.373
 30
0.0
 70
    32
  0
VERTEX
  5
1144A
  8
0
 62
     5
 10
184.195
 20
142.373
 30
0.0
 70
    32
  0
VERTEX
  5
1144B
  8
0
 62
     5
 10
184.194
 20
142.373
 30
0.0
 70
    32
  0
VERTEX
  5
1144C
  8
0
 62
     5
 10
184.193
 20
142.373
 30
0.0
 70
    32
  0
VERTEX
  5
1144D
  8
0
 62
     5
 10
184.193
 20
142.373
 30
0.0
 70
    32
  0
VERTEX
  5
1144E
  8
0
 62
     5
 10
184.192
 20
142.373
 30
0.0
 70
    32
  0
VERTEX
  5
1144F
  8
0
 62
     5
 10
184.191
 20
142.373
 30
0.0
 70
    32
  0
VERTEX
  5
11450
  8
0
 62
     5
 10
184.191
 20
142.373
 30
0.0
 70
    32
  0
VERTEX
  5
11451
  8
0
 62
     5
 10
184.19
 20
142.373
 30
0.0
 70
    32
  0
VERTEX
  5
11452
  8
0
 62
     5
 10
184.189
 20
142.373
 30
0.0
 70
    32
  0
VERTEX
  5
11453
  8
0
 62
     5
 10
184.189
 20
142.373
 30
0.0
 70
    32
  0
VERTEX
  5
11454
  8
0
 62
     5
 10
184.188
 20
142.373
 30
0.0
 70
    32
  0
VERTEX
  5
11455
  8
0
 62
     5
 10
184.187
 20
142.373
 30
0.0
 70
    32
  0
VERTEX
  5
11456
  8
0
 62
     5
 10
184.187
 20
142.373
 30
0.0
 70
    32
  0
VERTEX
  5
11457
  8
0
 62
     5
 10
184.186
 20
142.373
 30
0.0
 70
    32
  0
VERTEX
  5
11458
  8
0
 62
     5
 10
184.185
 20
142.373
 30
0.0
 70
    32
  0
VERTEX
  5
11459
  8
0
 62
     5
 10
184.185
 20
142.373
 30
0.0
 70
    32
  0
VERTEX
  5
1145A
  8
0
 62
     5
 10
184.184
 20
142.373
 30
0.0
 70
    32
  0
VERTEX
  5
1145B
  8
0
 62
     5
 10
184.183
 20
142.373
 30
0.0
 70
    32
  0
VERTEX
  5
1145C
  8
0
 62
     5
 10
184.183
 20
142.373
 30
0.0
 70
    32
  0
VERTEX
  5
1145D
  8
0
 62
     5
 10
184.182
 20
142.373
 30
0.0
 70
    32
  0
VERTEX
  5
1145E
  8
0
 62
     5
 10
184.181
 20
142.373
 30
0.0
 70
    32
  0
VERTEX
  5
1145F
  8
0
 62
     5
 10
184.181
 20
142.373
 30
0.0
 70
    32
  0
VERTEX
  5
11460
  8
0
 62
     5
 10
184.18
 20
142.373
 30
0.0
 70
    32
  0
VERTEX
  5
11461
  8
0
 62
     5
 10
184.179
 20
142.373
 30
0.0
 70
    32
  0
VERTEX
  5
11462
  8
0
 62
     5
 10
184.179
 20
142.373
 30
0.0
 70
    32
  0
VERTEX
  5
11463
  8
0
 62
     5
 10
184.178
 20
142.373
 30
0.0
 70
    32
  0
VERTEX
  5
11464
  8
0
 62
     5
 10
184.177
 20
142.373
 30
0.0
 70
    32
  0
VERTEX
  5
11465
  8
0
 62
     5
 10
184.177
 20
142.373
 30
0.0
 70
    32
  0
VERTEX
  5
11466
  8
0
 62
     5
 10
184.176
 20
142.373
 30
0.0
 70
    32
  0
VERTEX
  5
11467
  8
0
 62
     5
 10
184.175
 20
142.373
 30
0.0
 70
    32
  0
VERTEX
  5
11468
  8
0
 62
     5
 10
184.175
 20
142.373
 30
0.0
 70
    32
  0
VERTEX
  5
11469
  8
0
 62
     5
 10
184.174
 20
142.373
 30
0.0
 70
    32
  0
VERTEX
  5
1146A
  8
0
 62
     5
 10
184.173
 20
142.373
 30
0.0
 70
    32
  0
VERTEX
  5
1146B
  8
0
 62
     5
 10
184.173
 20
142.373
 30
0.0
 70
    32
  0
VERTEX
  5
1146C
  8
0
 62
     5
 10
184.172
 20
142.373
 30
0.0
 70
    32
  0
VERTEX
  5
1146D
  8
0
 62
     5
 10
184.171
 20
142.373
 30
0.0
 70
    32
  0
VERTEX
  5
1146E
  8
0
 62
     5
 10
184.171
 20
142.373
 30
0.0
 70
    32
  0
VERTEX
  5
1146F
  8
0
 62
     5
 10
184.17
 20
142.373
 30
0.0
 70
    32
  0
VERTEX
  5
11470
  8
0
 62
     5
 10
184.169
 20
142.373
 30
0.0
 70
    32
  0
VERTEX
  5
11471
  8
0
 62
     5
 10
184.169
 20
142.373
 30
0.0
 70
    32
  0
VERTEX
  5
11472
  8
0
 62
     5
 10
184.168
 20
142.373
 30
0.0
 70
    32
  0
VERTEX
  5
11473
  8
0
 62
     5
 10
184.167
 20
142.373
 30
0.0
 70
    32
  0
VERTEX
  5
11474
  8
0
 62
     5
 10
184.167
 20
142.373
 30
0.0
 70
    32
  0
VERTEX
  5
11475
  8
0
 62
     5
 10
184.166
 20
142.373
 30
0.0
 70
    32
  0
VERTEX
  5
11476
  8
0
 62
     5
 10
184.165
 20
142.373
 30
0.0
 70
    32
  0
VERTEX
  5
11477
  8
0
 62
     5
 10
184.165
 20
142.373
 30
0.0
 70
    32
  0
VERTEX
  5
11478
  8
0
 62
     5
 10
184.164
 20
142.373
 30
0.0
 70
    32
  0
VERTEX
  5
11479
  8
0
 62
     5
 10
184.163
 20
142.373
 30
0.0
 70
    32
  0
VERTEX
  5
1147A
  8
0
 62
     5
 10
184.163
 20
142.373
 30
0.0
 70
    32
  0
VERTEX
  5
1147B
  8
0
 62
     5
 10
184.162
 20
142.373
 30
0.0
 70
    32
  0
VERTEX
  5
1147C
  8
0
 62
     5
 10
184.161
 20
142.373
 30
0.0
 70
    32
  0
VERTEX
  5
1147D
  8
0
 62
     5
 10
184.161
 20
142.373
 30
0.0
 70
    32
  0
VERTEX
  5
1147E
  8
0
 62
     5
 10
184.16
 20
142.373
 30
0.0
 70
    32
  0
VERTEX
  5
1147F
  8
0
 62
     5
 10
184.159
 20
142.373
 30
0.0
 70
    32
  0
VERTEX
  5
11480
  8
0
 62
     5
 10
184.159
 20
142.373
 30
0.0
 70
    32
  0
VERTEX
  5
11481
  8
0
 62
     5
 10
184.158
 20
142.373
 30
0.0
 70
    32
  0
VERTEX
  5
11482
  8
0
 62
     5
 10
184.157
 20
142.373
 30
0.0
 70
    32
  0
VERTEX
  5
11483
  8
0
 62
     5
 10
184.157
 20
142.373
 30
0.0
 70
    32
  0
VERTEX
  5
11484
  8
0
 62
     5
 10
184.156
 20
142.373
 30
0.0
 70
    32
  0
VERTEX
  5
11485
  8
0
 62
     5
 10
184.155
 20
142.373
 30
0.0
 70
    32
  0
VERTEX
  5
11486
  8
0
 62
     5
 10
184.155
 20
142.373
 30
0.0
 70
    32
  0
VERTEX
  5
11487
  8
0
 62
     5
 10
184.154
 20
142.373
 30
0.0
 70
    32
  0
VERTEX
  5
11488
  8
0
 62
     5
 10
184.153
 20
142.373
 30
0.0
 70
    32
  0
VERTEX
  5
11489
  8
0
 62
     5
 10
184.153
 20
142.373
 30
0.0
 70
    32
  0
VERTEX
  5
1148A
  8
0
 62
     5
 10
184.152
 20
142.373
 30
0.0
 70
    32
  0
VERTEX
  5
1148B
  8
0
 62
     5
 10
184.151
 20
142.373
 30
0.0
 70
    32
  0
VERTEX
  5
1148C
  8
0
 62
     5
 10
184.151
 20
142.373
 30
0.0
 70
    32
  0
VERTEX
  5
1148D
  8
0
 62
     5
 10
184.15
 20
142.373
 30
0.0
 70
    32
  0
VERTEX
  5
1148E
  8
0
 62
     5
 10
184.149
 20
142.373
 30
0.0
 70
    32
  0
VERTEX
  5
1148F
  8
0
 62
     5
 10
184.149
 20
142.373
 30
0.0
 70
    32
  0
VERTEX
  5
11490
  8
0
 62
     5
 10
184.148
 20
142.373
 30
0.0
 70
    32
  0
VERTEX
  5
11491
  8
0
 62
     5
 10
184.147
 20
142.373
 30
0.0
 70
    32
  0
VERTEX
  5
11492
  8
0
 62
     5
 10
184.147
 20
142.373
 30
0.0
 70
    32
  0
VERTEX
  5
11493
  8
0
 62
     5
 10
184.146
 20
142.373
 30
0.0
 70
    32
  0
VERTEX
  5
11494
  8
0
 62
     5
 10
184.145
 20
142.373
 30
0.0
 70
    32
  0
VERTEX
  5
11495
  8
0
 62
     5
 10
184.144
 20
142.373
 30
0.0
 70
    32
  0
VERTEX
  5
11496
  8
0
 62
     5
 10
184.144
 20
142.373
 30
0.0
 70
    32
  0
VERTEX
  5
11497
  8
0
 62
     5
 10
184.143
 20
142.373
 30
0.0
 70
    32
  0
VERTEX
  5
11498
  8
0
 62
     5
 10
184.142
 20
142.373
 30
0.0
 70
    32
  0
VERTEX
  5
11499
  8
0
 62
     5
 10
184.142
 20
142.373
 30
0.0
 70
    32
  0
VERTEX
  5
1149A
  8
0
 62
     5
 10
184.141
 20
142.373
 30
0.0
 70
    32
  0
VERTEX
  5
1149B
  8
0
 62
     5
 10
184.14
 20
142.373
 30
0.0
 70
    32
  0
VERTEX
  5
1149C
  8
0
 62
     5
 10
184.14
 20
142.373
 30
0.0
 70
    32
  0
VERTEX
  5
1149D
  8
0
 62
     5
 10
184.139
 20
142.373
 30
0.0
 70
    32
  0
VERTEX
  5
1149E
  8
0
 62
     5
 10
184.138
 20
142.373
 30
0.0
 70
    32
  0
VERTEX
  5
1149F
  8
0
 62
     5
 10
184.138
 20
142.373
 30
0.0
 70
    32
  0
VERTEX
  5
114A0
  8
0
 62
     5
 10
184.137
 20
142.373
 30
0.0
 70
    32
  0
VERTEX
  5
114A1
  8
0
 62
     5
 10
184.136
 20
142.373
 30
0.0
 70
    32
  0
VERTEX
  5
114A2
  8
0
 62
     5
 10
184.136
 20
142.373
 30
0.0
 70
    32
  0
VERTEX
  5
114A3
  8
0
 62
     5
 10
184.135
 20
142.373
 30
0.0
 70
    32
  0
VERTEX
  5
114A4
  8
0
 62
     5
 10
184.134
 20
142.373
 30
0.0
 70
    32
  0
VERTEX
  5
114A5
  8
0
 62
     5
 10
184.134
 20
142.373
 30
0.0
 70
    32
  0
VERTEX
  5
114A6
  8
0
 62
     5
 10
184.133
 20
142.373
 30
0.0
 70
    32
  0
VERTEX
  5
114A7
  8
0
 62
     5
 10
184.132
 20
142.373
 30
0.0
 70
    32
  0
VERTEX
  5
114A8
  8
0
 62
     5
 10
184.132
 20
142.373
 30
0.0
 70
    32
  0
VERTEX
  5
114A9
  8
0
 62
     5
 10
184.131
 20
142.373
 30
0.0
 70
    32
  0
VERTEX
  5
114AA
  8
0
 62
     5
 10
184.13
 20
142.373
 30
0.0
 70
    32
  0
VERTEX
  5
114AB
  8
0
 62
     5
 10
184.13
 20
142.373
 30
0.0
 70
    32
  0
VERTEX
  5
114AC
  8
0
 62
     5
 10
184.129
 20
142.373
 30
0.0
 70
    32
  0
VERTEX
  5
114AD
  8
0
 62
     5
 10
184.128
 20
142.373
 30
0.0
 70
    32
  0
VERTEX
  5
114AE
  8
0
 62
     5
 10
184.128
 20
142.373
 30
0.0
 70
    32
  0
VERTEX
  5
114AF
  8
0
 62
     5
 10
184.127
 20
142.373
 30
0.0
 70
    32
  0
VERTEX
  5
114B0
  8
0
 62
     5
 10
184.126
 20
142.373
 30
0.0
 70
    32
  0
VERTEX
  5
114B1
  8
0
 62
     5
 10
184.126
 20
142.373
 30
0.0
 70
    32
  0
VERTEX
  5
114B2
  8
0
 62
     5
 10
184.125
 20
142.373
 30
0.0
 70
    32
  0
VERTEX
  5
114B3
  8
0
 62
     5
 10
184.124
 20
142.373
 30
0.0
 70
    32
  0
VERTEX
  5
114B4
  8
0
 62
     5
 10
184.124
 20
142.373
 30
0.0
 70
    32
  0
VERTEX
  5
114B5
  8
0
 62
     5
 10
184.123
 20
142.373
 30
0.0
 70
    32
  0
VERTEX
  5
114B6
  8
0
 62
     5
 10
184.122
 20
142.373
 30
0.0
 70
    32
  0
VERTEX
  5
114B7
  8
0
 62
     5
 10
184.122
 20
142.373
 30
0.0
 70
    32
  0
VERTEX
  5
114B8
  8
0
 62
     5
 10
184.121
 20
142.373
 30
0.0
 70
    32
  0
VERTEX
  5
114B9
  8
0
 62
     5
 10
184.12
 20
142.373
 30
0.0
 70
    32
  0
VERTEX
  5
114BA
  8
0
 62
     5
 10
184.12
 20
142.373
 30
0.0
 70
    32
  0
VERTEX
  5
114BB
  8
0
 62
     5
 10
184.119
 20
142.373
 30
0.0
 70
    32
  0
VERTEX
  5
114BC
  8
0
 62
     5
 10
184.118
 20
142.373
 30
0.0
 70
    32
  0
VERTEX
  5
114BD
  8
0
 62
     5
 10
184.118
 20
142.373
 30
0.0
 70
    32
  0
VERTEX
  5
114BE
  8
0
 62
     5
 10
184.117
 20
142.373
 30
0.0
 70
    32
  0
VERTEX
  5
114BF
  8
0
 62
     5
 10
184.116
 20
142.373
 30
0.0
 70
    32
  0
VERTEX
  5
114C0
  8
0
 62
     5
 10
184.116
 20
142.373
 30
0.0
 70
    32
  0
VERTEX
  5
114C1
  8
0
 62
     5
 10
184.115
 20
142.373
 30
0.0
 70
    32
  0
VERTEX
  5
114C2
  8
0
 62
     5
 10
184.114
 20
142.373
 30
0.0
 70
    32
  0
VERTEX
  5
114C3
  8
0
 62
     5
 10
184.114
 20
142.373
 30
0.0
 70
    32
  0
VERTEX
  5
114C4
  8
0
 62
     5
 10
184.113
 20
142.373
 30
0.0
 70
    32
  0
VERTEX
  5
114C5
  8
0
 62
     5
 10
184.112
 20
142.373
 30
0.0
 70
    32
  0
VERTEX
  5
114C6
  8
0
 62
     5
 10
184.112
 20
142.373
 30
0.0
 70
    32
  0
VERTEX
  5
114C7
  8
0
 62
     5
 10
184.111
 20
142.373
 30
0.0
 70
    32
  0
VERTEX
  5
114C8
  8
0
 62
     5
 10
184.11
 20
142.373
 30
0.0
 70
    32
  0
VERTEX
  5
114C9
  8
0
 62
     5
 10
184.11
 20
142.373
 30
0.0
 70
    32
  0
VERTEX
  5
114CA
  8
0
 62
     5
 10
184.109
 20
142.373
 30
0.0
 70
    32
  0
VERTEX
  5
114CB
  8
0
 62
     5
 10
184.108
 20
142.373
 30
0.0
 70
    32
  0
VERTEX
  5
114CC
  8
0
 62
     5
 10
184.108
 20
142.373
 30
0.0
 70
    32
  0
VERTEX
  5
114CD
  8
0
 62
     5
 10
184.107
 20
142.373
 30
0.0
 70
    32
  0
VERTEX
  5
114CE
  8
0
 62
     5
 10
184.106
 20
142.373
 30
0.0
 70
    32
  0
VERTEX
  5
114CF
  8
0
 62
     5
 10
184.106
 20
142.373
 30
0.0
 70
    32
  0
VERTEX
  5
114D0
  8
0
 62
     5
 10
184.105
 20
142.373
 30
0.0
 70
    32
  0
VERTEX
  5
114D1
  8
0
 62
     5
 10
184.104
 20
142.373
 30
0.0
 70
    32
  0
VERTEX
  5
114D2
  8
0
 62
     5
 10
184.104
 20
142.373
 30
0.0
 70
    32
  0
VERTEX
  5
114D3
  8
0
 62
     5
 10
184.103
 20
142.373
 30
0.0
 70
    32
  0
VERTEX
  5
114D4
  8
0
 62
     5
 10
184.102
 20
142.373
 30
0.0
 70
    32
  0
VERTEX
  5
114D5
  8
0
 62
     5
 10
184.102
 20
142.373
 30
0.0
 70
    32
  0
VERTEX
  5
114D6
  8
0
 62
     5
 10
184.101
 20
142.373
 30
0.0
 70
    32
  0
VERTEX
  5
114D7
  8
0
 62
     5
 10
184.1
 20
142.373
 30
0.0
 70
    32
  0
VERTEX
  5
114D8
  8
0
 62
     5
 10
184.1
 20
142.373
 30
0.0
 70
    32
  0
VERTEX
  5
114D9
  8
0
 62
     5
 10
184.099
 20
142.373
 30
0.0
 70
    32
  0
VERTEX
  5
114DA
  8
0
 62
     5
 10
184.098
 20
142.373
 30
0.0
 70
    32
  0
VERTEX
  5
114DB
  8
0
 62
     5
 10
184.098
 20
142.373
 30
0.0
 70
    32
  0
VERTEX
  5
114DC
  8
0
 62
     5
 10
184.097
 20
142.373
 30
0.0
 70
    32
  0
VERTEX
  5
114DD
  8
0
 62
     5
 10
184.096
 20
142.373
 30
0.0
 70
    32
  0
VERTEX
  5
114DE
  8
0
 62
     5
 10
184.096
 20
142.373
 30
0.0
 70
    32
  0
VERTEX
  5
114DF
  8
0
 62
     5
 10
184.095
 20
142.373
 30
0.0
 70
    32
  0
VERTEX
  5
114E0
  8
0
 62
     5
 10
184.094
 20
142.373
 30
0.0
 70
    32
  0
VERTEX
  5
114E1
  8
0
 62
     5
 10
184.094
 20
142.373
 30
0.0
 70
    32
  0
VERTEX
  5
114E2
  8
0
 62
     5
 10
184.093
 20
142.373
 30
0.0
 70
    32
  0
VERTEX
  5
114E3
  8
0
 62
     5
 10
184.092
 20
142.373
 30
0.0
 70
    32
  0
VERTEX
  5
114E4
  8
0
 62
     5
 10
184.092
 20
142.373
 30
0.0
 70
    32
  0
VERTEX
  5
114E5
  8
0
 62
     5
 10
184.091
 20
142.373
 30
0.0
 70
    32
  0
VERTEX
  5
114E6
  8
0
 62
     5
 10
184.09
 20
142.373
 30
0.0
 70
    32
  0
VERTEX
  5
114E7
  8
0
 62
     5
 10
184.09
 20
142.373
 30
0.0
 70
    32
  0
VERTEX
  5
114E8
  8
0
 62
     5
 10
184.089
 20
142.373
 30
0.0
 70
    32
  0
VERTEX
  5
114E9
  8
0
 62
     5
 10
184.088
 20
142.373
 30
0.0
 70
    32
  0
VERTEX
  5
114EA
  8
0
 62
     5
 10
184.088
 20
142.373
 30
0.0
 70
    32
  0
VERTEX
  5
114EB
  8
0
 62
     5
 10
184.087
 20
142.372
 30
0.0
 70
    32
  0
VERTEX
  5
114EC
  8
0
 62
     5
 10
184.086
 20
142.372
 30
0.0
 70
    32
  0
VERTEX
  5
114ED
  8
0
 62
     5
 10
184.086
 20
142.372
 30
0.0
 70
    32
  0
VERTEX
  5
114EE
  8
0
 62
     5
 10
184.085
 20
142.372
 30
0.0
 70
    32
  0
VERTEX
  5
114EF
  8
0
 62
     5
 10
184.084
 20
142.372
 30
0.0
 70
    32
  0
VERTEX
  5
114F0
  8
0
 62
     5
 10
184.084
 20
142.372
 30
0.0
 70
    32
  0
VERTEX
  5
114F1
  8
0
 62
     5
 10
184.083
 20
142.372
 30
0.0
 70
    32
  0
VERTEX
  5
114F2
  8
0
 62
     5
 10
184.082
 20
142.372
 30
0.0
 70
    32
  0
VERTEX
  5
114F3
  8
0
 62
     5
 10
184.082
 20
142.372
 30
0.0
 70
    32
  0
VERTEX
  5
114F4
  8
0
 62
     5
 10
184.081
 20
142.372
 30
0.0
 70
    32
  0
VERTEX
  5
114F5
  8
0
 62
     5
 10
184.08
 20
142.372
 30
0.0
 70
    32
  0
VERTEX
  5
114F6
  8
0
 62
     5
 10
184.08
 20
142.372
 30
0.0
 70
    32
  0
VERTEX
  5
114F7
  8
0
 62
     5
 10
184.079
 20
142.372
 30
0.0
 70
    32
  0
VERTEX
  5
114F8
  8
0
 62
     5
 10
184.078
 20
142.372
 30
0.0
 70
    32
  0
VERTEX
  5
114F9
  8
0
 62
     5
 10
184.078
 20
142.372
 30
0.0
 70
    32
  0
VERTEX
  5
114FA
  8
0
 62
     5
 10
184.077
 20
142.372
 30
0.0
 70
    32
  0
VERTEX
  5
114FB
  8
0
 62
     5
 10
184.076
 20
142.372
 30
0.0
 70
    32
  0
VERTEX
  5
114FC
  8
0
 62
     5
 10
184.076
 20
142.372
 30
0.0
 70
    32
  0
VERTEX
  5
114FD
  8
0
 62
     5
 10
184.075
 20
142.372
 30
0.0
 70
    32
  0
VERTEX
  5
114FE
  8
0
 62
     5
 10
184.074
 20
142.372
 30
0.0
 70
    32
  0
VERTEX
  5
114FF
  8
0
 62
     5
 10
184.074
 20
142.372
 30
0.0
 70
    32
  0
VERTEX
  5
11500
  8
0
 62
     5
 10
184.073
 20
142.372
 30
0.0
 70
    32
  0
VERTEX
  5
11501
  8
0
 62
     5
 10
184.072
 20
142.372
 30
0.0
 70
    32
  0
VERTEX
  5
11502
  8
0
 62
     5
 10
184.072
 20
142.372
 30
0.0
 70
    32
  0
VERTEX
  5
11503
  8
0
 62
     5
 10
184.071
 20
142.372
 30
0.0
 70
    32
  0
VERTEX
  5
11504
  8
0
 62
     5
 10
184.07
 20
142.372
 30
0.0
 70
    32
  0
VERTEX
  5
11505
  8
0
 62
     5
 10
184.07
 20
142.372
 30
0.0
 70
    32
  0
VERTEX
  5
11506
  8
0
 62
     5
 10
184.069
 20
142.372
 30
0.0
 70
    32
  0
VERTEX
  5
11507
  8
0
 62
     5
 10
184.068
 20
142.372
 30
0.0
 70
    32
  0
SEQEND
  5
11508
  8
0
 62
     5
  0
POLYLINE
  5
11509
  8
0
 62
     5
 66
     1
 10
0.0
 20
0.0
 30
0.0
 70
     8
  0
VERTEX
  5
1150A
  8
0
 62
     5
 10
184.068
 20
142.372
 30
0.0
 70
    32
  0
VERTEX
  5
1150B
  8
0
 62
     5
 10
184.068
 20
142.372
 30
0.0
 70
    32
  0
VERTEX
  5
1150C
  8
0
 62
     5
 10
184.068
 20
142.372
 30
0.0
 70
    32
  0
VERTEX
  5
1150D
  8
0
 62
     5
 10
184.068
 20
142.372
 30
0.0
 70
    32
  0
VERTEX
  5
1150E
  8
0
 62
     5
 10
184.068
 20
142.372
 30
0.0
 70
    32
  0
VERTEX
  5
1150F
  8
0
 62
     5
 10
184.068
 20
142.372
 30
0.0
 70
    32
  0
VERTEX
  5
11510
  8
0
 62
     5
 10
184.068
 20
142.372
 30
0.0
 70
    32
  0
VERTEX
  5
11511
  8
0
 62
     5
 10
184.068
 20
142.372
 30
0.0
 70
    32
  0
VERTEX
  5
11512
  8
0
 62
     5
 10
184.068
 20
142.372
 30
0.0
 70
    32
  0
VERTEX
  5
11513
  8
0
 62
     5
 10
184.068
 20
142.372
 30
0.0
 70
    32
  0
VERTEX
  5
11514
  8
0
 62
     5
 10
184.068
 20
142.372
 30
0.0
 70
    32
  0
VERTEX
  5
11515
  8
0
 62
     5
 10
184.068
 20
142.372
 30
0.0
 70
    32
  0
VERTEX
  5
11516
  8
0
 62
     5
 10
184.068
 20
142.372
 30
0.0
 70
    32
  0
VERTEX
  5
11517
  8
0
 62
     5
 10
184.068
 20
142.372
 30
0.0
 70
    32
  0
VERTEX
  5
11518
  8
0
 62
     5
 10
184.068
 20
142.372
 30
0.0
 70
    32
  0
VERTEX
  5
11519
  8
0
 62
     5
 10
184.068
 20
142.372
 30
0.0
 70
    32
  0
VERTEX
  5
1151A
  8
0
 62
     5
 10
184.068
 20
142.372
 30
0.0
 70
    32
  0
VERTEX
  5
1151B
  8
0
 62
     5
 10
184.068
 20
142.372
 30
0.0
 70
    32
  0
VERTEX
  5
1151C
  8
0
 62
     5
 10
184.068
 20
142.372
 30
0.0
 70
    32
  0
VERTEX
  5
1151D
  8
0
 62
     5
 10
184.068
 20
142.372
 30
0.0
 70
    32
  0
VERTEX
  5
1151E
  8
0
 62
     5
 10
184.068
 20
142.372
 30
0.0
 70
    32
  0
VERTEX
  5
1151F
  8
0
 62
     5
 10
184.068
 20
142.372
 30
0.0
 70
    32
  0
VERTEX
  5
11520
  8
0
 62
     5
 10
184.068
 20
142.372
 30
0.0
 70
    32
  0
VERTEX
  5
11521
  8
0
 62
     5
 10
184.068
 20
142.372
 30
0.0
 70
    32
  0
VERTEX
  5
11522
  8
0
 62
     5
 10
184.068
 20
142.372
 30
0.0
 70
    32
  0
VERTEX
  5
11523
  8
0
 62
     5
 10
184.068
 20
142.372
 30
0.0
 70
    32
  0
VERTEX
  5
11524
  8
0
 62
     5
 10
184.068
 20
142.372
 30
0.0
 70
    32
  0
VERTEX
  5
11525
  8
0
 62
     5
 10
184.068
 20
142.372
 30
0.0
 70
    32
  0
VERTEX
  5
11526
  8
0
 62
     5
 10
184.068
 20
142.372
 30
0.0
 70
    32
  0
VERTEX
  5
11527
  8
0
 62
     5
 10
184.068
 20
142.372
 30
0.0
 70
    32
  0
VERTEX
  5
11528
  8
0
 62
     5
 10
184.068
 20
142.372
 30
0.0
 70
    32
  0
VERTEX
  5
11529
  8
0
 62
     5
 10
184.068
 20
142.372
 30
0.0
 70
    32
  0
VERTEX
  5
1152A
  8
0
 62
     5
 10
184.068
 20
142.372
 30
0.0
 70
    32
  0
VERTEX
  5
1152B
  8
0
 62
     5
 10
184.068
 20
142.372
 30
0.0
 70
    32
  0
VERTEX
  5
1152C
  8
0
 62
     5
 10
184.068
 20
142.372
 30
0.0
 70
    32
  0
VERTEX
  5
1152D
  8
0
 62
     5
 10
184.068
 20
142.372
 30
0.0
 70
    32
  0
VERTEX
  5
1152E
  8
0
 62
     5
 10
184.068
 20
142.372
 30
0.0
 70
    32
  0
VERTEX
  5
1152F
  8
0
 62
     5
 10
184.068
 20
142.372
 30
0.0
 70
    32
  0
VERTEX
  5
11530
  8
0
 62
     5
 10
184.068
 20
142.372
 30
0.0
 70
    32
  0
VERTEX
  5
11531
  8
0
 62
     5
 10
184.068
 20
142.372
 30
0.0
 70
    32
  0
VERTEX
  5
11532
  8
0
 62
     5
 10
184.068
 20
142.372
 30
0.0
 70
    32
  0
VERTEX
  5
11533
  8
0
 62
     5
 10
184.068
 20
142.372
 30
0.0
 70
    32
  0
VERTEX
  5
11534
  8
0
 62
     5
 10
184.068
 20
142.372
 30
0.0
 70
    32
  0
VERTEX
  5
11535
  8
0
 62
     5
 10
184.068
 20
142.372
 30
0.0
 70
    32
  0
VERTEX
  5
11536
  8
0
 62
     5
 10
184.068
 20
142.372
 30
0.0
 70
    32
  0
VERTEX
  5
11537
  8
0
 62
     5
 10
184.068
 20
142.372
 30
0.0
 70
    32
  0
VERTEX
  5
11538
  8
0
 62
     5
 10
184.068
 20
142.372
 30
0.0
 70
    32
  0
VERTEX
  5
11539
  8
0
 62
     5
 10
184.068
 20
142.372
 30
0.0
 70
    32
  0
VERTEX
  5
1153A
  8
0
 62
     5
 10
184.068
 20
142.372
 30
0.0
 70
    32
  0
VERTEX
  5
1153B
  8
0
 62
     5
 10
184.068
 20
142.372
 30
0.0
 70
    32
  0
VERTEX
  5
1153C
  8
0
 62
     5
 10
184.068
 20
142.372
 30
0.0
 70
    32
  0
VERTEX
  5
1153D
  8
0
 62
     5
 10
184.068
 20
142.372
 30
0.0
 70
    32
  0
VERTEX
  5
1153E
  8
0
 62
     5
 10
184.068
 20
142.372
 30
0.0
 70
    32
  0
VERTEX
  5
1153F
  8
0
 62
     5
 10
184.068
 20
142.372
 30
0.0
 70
    32
  0
VERTEX
  5
11540
  8
0
 62
     5
 10
184.068
 20
142.372
 30
0.0
 70
    32
  0
VERTEX
  5
11541
  8
0
 62
     5
 10
184.068
 20
142.372
 30
0.0
 70
    32
  0
VERTEX
  5
11542
  8
0
 62
     5
 10
184.068
 20
142.372
 30
0.0
 70
    32
  0
VERTEX
  5
11543
  8
0
 62
     5
 10
184.068
 20
142.372
 30
0.0
 70
    32
  0
VERTEX
  5
11544
  8
0
 62
     5
 10
184.068
 20
142.372
 30
0.0
 70
    32
  0
VERTEX
  5
11545
  8
0
 62
     5
 10
184.068
 20
142.372
 30
0.0
 70
    32
  0
VERTEX
  5
11546
  8
0
 62
     5
 10
184.068
 20
142.372
 30
0.0
 70
    32
  0
VERTEX
  5
11547
  8
0
 62
     5
 10
184.068
 20
142.372
 30
0.0
 70
    32
  0
VERTEX
  5
11548
  8
0
 62
     5
 10
184.068
 20
142.372
 30
0.0
 70
    32
  0
VERTEX
  5
11549
  8
0
 62
     5
 10
184.068
 20
142.372
 30
0.0
 70
    32
  0
VERTEX
  5
1154A
  8
0
 62
     5
 10
184.068
 20
142.372
 30
0.0
 70
    32
  0
VERTEX
  5
1154B
  8
0
 62
     5
 10
184.068
 20
142.372
 30
0.0
 70
    32
  0
VERTEX
  5
1154C
  8
0
 62
     5
 10
184.068
 20
142.372
 30
0.0
 70
    32
  0
VERTEX
  5
1154D
  8
0
 62
     5
 10
184.068
 20
142.372
 30
0.0
 70
    32
  0
VERTEX
  5
1154E
  8
0
 62
     5
 10
184.068
 20
142.372
 30
0.0
 70
    32
  0
VERTEX
  5
1154F
  8
0
 62
     5
 10
184.068
 20
142.372
 30
0.0
 70
    32
  0
VERTEX
  5
11550
  8
0
 62
     5
 10
184.068
 20
142.372
 30
0.0
 70
    32
  0
VERTEX
  5
11551
  8
0
 62
     5
 10
184.068
 20
142.372
 30
0.0
 70
    32
  0
VERTEX
  5
11552
  8
0
 62
     5
 10
184.068
 20
142.372
 30
0.0
 70
    32
  0
VERTEX
  5
11553
  8
0
 62
     5
 10
184.068
 20
142.372
 30
0.0
 70
    32
  0
VERTEX
  5
11554
  8
0
 62
     5
 10
184.068
 20
142.372
 30
0.0
 70
    32
  0
VERTEX
  5
11555
  8
0
 62
     5
 10
184.068
 20
142.372
 30
0.0
 70
    32
  0
VERTEX
  5
11556
  8
0
 62
     5
 10
184.068
 20
142.372
 30
0.0
 70
    32
  0
VERTEX
  5
11557
  8
0
 62
     5
 10
184.068
 20
142.372
 30
0.0
 70
    32
  0
VERTEX
  5
11558
  8
0
 62
     5
 10
184.068
 20
142.372
 30
0.0
 70
    32
  0
VERTEX
  5
11559
  8
0
 62
     5
 10
184.068
 20
142.372
 30
0.0
 70
    32
  0
VERTEX
  5
1155A
  8
0
 62
     5
 10
184.068
 20
142.372
 30
0.0
 70
    32
  0
VERTEX
  5
1155B
  8
0
 62
     5
 10
184.068
 20
142.372
 30
0.0
 70
    32
  0
VERTEX
  5
1155C
  8
0
 62
     5
 10
184.068
 20
142.372
 30
0.0
 70
    32
  0
VERTEX
  5
1155D
  8
0
 62
     5
 10
184.068
 20
142.372
 30
0.0
 70
    32
  0
VERTEX
  5
1155E
  8
0
 62
     5
 10
184.068
 20
142.372
 30
0.0
 70
    32
  0
VERTEX
  5
1155F
  8
0
 62
     5
 10
184.068
 20
142.372
 30
0.0
 70
    32
  0
VERTEX
  5
11560
  8
0
 62
     5
 10
184.068
 20
142.372
 30
0.0
 70
    32
  0
VERTEX
  5
11561
  8
0
 62
     5
 10
184.068
 20
142.372
 30
0.0
 70
    32
  0
VERTEX
  5
11562
  8
0
 62
     5
 10
184.068
 20
142.372
 30
0.0
 70
    32
  0
VERTEX
  5
11563
  8
0
 62
     5
 10
184.068
 20
142.372
 30
0.0
 70
    32
  0
VERTEX
  5
11564
  8
0
 62
     5
 10
184.068
 20
142.372
 30
0.0
 70
    32
  0
VERTEX
  5
11565
  8
0
 62
     5
 10
184.068
 20
142.372
 30
0.0
 70
    32
  0
VERTEX
  5
11566
  8
0
 62
     5
 10
184.068
 20
142.372
 30
0.0
 70
    32
  0
VERTEX
  5
11567
  8
0
 62
     5
 10
184.068
 20
142.372
 30
0.0
 70
    32
  0
VERTEX
  5
11568
  8
0
 62
     5
 10
184.068
 20
142.372
 30
0.0
 70
    32
  0
VERTEX
  5
11569
  8
0
 62
     5
 10
184.068
 20
142.372
 30
0.0
 70
    32
  0
VERTEX
  5
1156A
  8
0
 62
     5
 10
184.068
 20
142.372
 30
0.0
 70
    32
  0
VERTEX
  5
1156B
  8
0
 62
     5
 10
184.068
 20
142.372
 30
0.0
 70
    32
  0
VERTEX
  5
1156C
  8
0
 62
     5
 10
184.068
 20
142.372
 30
0.0
 70
    32
  0
VERTEX
  5
1156D
  8
0
 62
     5
 10
184.068
 20
142.372
 30
0.0
 70
    32
  0
VERTEX
  5
1156E
  8
0
 62
     5
 10
184.068
 20
142.372
 30
0.0
 70
    32
  0
VERTEX
  5
1156F
  8
0
 62
     5
 10
184.068
 20
142.372
 30
0.0
 70
    32
  0
VERTEX
  5
11570
  8
0
 62
     5
 10
184.068
 20
142.372
 30
0.0
 70
    32
  0
VERTEX
  5
11571
  8
0
 62
     5
 10
184.068
 20
142.372
 30
0.0
 70
    32
  0
VERTEX
  5
11572
  8
0
 62
     5
 10
184.068
 20
142.372
 30
0.0
 70
    32
  0
VERTEX
  5
11573
  8
0
 62
     5
 10
184.068
 20
142.372
 30
0.0
 70
    32
  0
VERTEX
  5
11574
  8
0
 62
     5
 10
184.068
 20
142.372
 30
0.0
 70
    32
  0
VERTEX
  5
11575
  8
0
 62
     5
 10
184.068
 20
142.372
 30
0.0
 70
    32
  0
VERTEX
  5
11576
  8
0
 62
     5
 10
184.068
 20
142.372
 30
0.0
 70
    32
  0
VERTEX
  5
11577
  8
0
 62
     5
 10
184.068
 20
142.372
 30
0.0
 70
    32
  0
VERTEX
  5
11578
  8
0
 62
     5
 10
184.068
 20
142.372
 30
0.0
 70
    32
  0
VERTEX
  5
11579
  8
0
 62
     5
 10
184.068
 20
142.372
 30
0.0
 70
    32
  0
VERTEX
  5
1157A
  8
0
 62
     5
 10
184.068
 20
142.372
 30
0.0
 70
    32
  0
VERTEX
  5
1157B
  8
0
 62
     5
 10
184.068
 20
142.372
 30
0.0
 70
    32
  0
VERTEX
  5
1157C
  8
0
 62
     5
 10
184.068
 20
142.372
 30
0.0
 70
    32
  0
VERTEX
  5
1157D
  8
0
 62
     5
 10
184.068
 20
142.372
 30
0.0
 70
    32
  0
VERTEX
  5
1157E
  8
0
 62
     5
 10
184.068
 20
142.372
 30
0.0
 70
    32
  0
VERTEX
  5
1157F
  8
0
 62
     5
 10
184.068
 20
142.372
 30
0.0
 70
    32
  0
VERTEX
  5
11580
  8
0
 62
     5
 10
184.068
 20
142.372
 30
0.0
 70
    32
  0
VERTEX
  5
11581
  8
0
 62
     5
 10
184.068
 20
142.372
 30
0.0
 70
    32
  0
VERTEX
  5
11582
  8
0
 62
     5
 10
184.068
 20
142.372
 30
0.0
 70
    32
  0
VERTEX
  5
11583
  8
0
 62
     5
 10
184.068
 20
142.372
 30
0.0
 70
    32
  0
VERTEX
  5
11584
  8
0
 62
     5
 10
184.067
 20
142.372
 30
0.0
 70
    32
  0
VERTEX
  5
11585
  8
0
 62
     5
 10
184.067
 20
142.372
 30
0.0
 70
    32
  0
VERTEX
  5
11586
  8
0
 62
     5
 10
184.067
 20
142.372
 30
0.0
 70
    32
  0
VERTEX
  5
11587
  8
0
 62
     5
 10
184.067
 20
142.372
 30
0.0
 70
    32
  0
VERTEX
  5
11588
  8
0
 62
     5
 10
184.067
 20
142.372
 30
0.0
 70
    32
  0
VERTEX
  5
11589
  8
0
 62
     5
 10
184.067
 20
142.372
 30
0.0
 70
    32
  0
SEQEND
  5
1158A
  8
0
 62
     5
  0
ARC
  5
1158B
  8
0
 62
     5
 10
187.128346
 20
143.976258
 30
0.0
 40
1.0
 50
196.957715
 51
269.999986
  0
POLYLINE
  5
1158C
  8
0
 62
     5
 66
     1
 10
0.0
 20
0.0
 30
0.0
  0
VERTEX
  5
1182A
  8
0
 62
     5
 10
192.867466
 20
142.063545
 30
0.0
  0
VERTEX
  5
1182B
  8
0
 62
     5
 10
192.883158
 20
142.06416
 30
0.0
  0
VERTEX
  5
1182C
  8
0
 62
     5
 10
192.898753
 20
142.066002
 30
0.0
  0
VERTEX
  5
1182D
  8
0
 62
     5
 10
192.914155
 20
142.069059
 30
0.0
  0
VERTEX
  5
1182E
  8
0
 62
     5
 10
192.92927
 20
142.073313
 30
0.0
  0
VERTEX
  5
1182F
  8
0
 62
     5
 10
192.944003
 20
142.078737
 30
0.0
  0
VERTEX
  5
11830
  8
0
 62
     5
 10
192.958265
 20
142.085298
 30
0.0
  0
VERTEX
  5
11831
  8
0
 62
     5
 10
192.971966
 20
142.092956
 30
0.0
  0
VERTEX
  5
11832
  8
0
 62
     5
 10
192.985023
 20
142.101662
 30
0.0
  0
VERTEX
  5
11833
  8
0
 62
     5
 10
192.997356
 20
142.111364
 30
0.0
  0
VERTEX
  5
11834
  8
0
 62
     5
 10
193.008888
 20
142.122002
 30
0.0
  0
VERTEX
  5
11835
  8
0
 62
     5
 10
193.019548
 20
142.13351
 30
0.0
  0
VERTEX
  5
11836
  8
0
 62
     5
 10
193.02927
 20
142.145817
 30
0.0
  0
VERTEX
  5
11837
  8
0
 62
     5
 10
193.037994
 20
142.158847
 30
0.0
  0
VERTEX
  5
11838
  8
0
 62
     5
 10
193.045668
 20
142.172521
 30
0.0
  0
VERTEX
  5
11839
  8
0
 62
     5
 10
193.052242
 20
142.186752
 30
0.0
  0
VERTEX
  5
1183A
  8
0
 62
     5
 10
193.057678
 20
142.201455
 30
0.0
  0
VERTEX
  5
1183B
  8
0
 62
     5
 10
193.06194
 20
142.216538
 30
0.0
  0
VERTEX
  5
1183C
  8
0
 62
     5
 10
193.065004
 20
142.231909
 30
0.0
  0
VERTEX
  5
1183D
  8
0
 62
     5
 10
193.06685
 20
142.247471
 30
0.0
  0
VERTEX
  5
1183E
  8
0
 62
     5
 10
193.067466
 20
142.263131
 30
0.0
  0
SEQEND
  5
1183F
  8
0
 62
     5
  0
LINE
  5
115A3
  8
0
 62
     5
 10
188.567466
 20
142.063545
 30
0.0
 11
192.867466
 21
142.063545
 31
0.0
  0
LINE
  5
115A4
  8
0
 62
     5
 10
188.567466
 20
148.676258
 30
0.0
 11
187.867466
 21
148.676258
 31
0.0
  0
LINE
  5
115A5
  8
0
 62
     5
 10
188.567466
 20
149.22222
 30
0.0
 11
184.367466
 21
149.22222
 31
0.0
  0
LINE
  5
115A6
  8
0
 62
     5
 10
186.116355
 20
147.576258
 30
0.0
 11
186.116355
 21
147.554946
 31
0.0
  0
LINE
  5
115A7
  8
0
 62
     5
 10
186.116355
 20
146.006258
 30
0.0
 11
186.116355
 21
145.446258
 31
0.0
  0
LINE
  5
115A8
  8
0
 62
     5
 10
186.116355
 20
147.576258
 30
0.0
 11
186.171826
 21
147.767924
 31
0.0
  0
LINE
  5
115A9
  8
0
 62
     5
 10
186.116355
 20
145.446258
 30
0.0
 11
185.989092
 21
145.446258
 31
0.0
  0
LINE
  5
115AA
  8
0
 62
     5
 10
185.989092
 20
146.006258
 30
0.0
 11
186.116355
 21
146.006258
 31
0.0
  0
LINE
  5
115AB
  8
0
 62
     5
 10
187.128346
 20
148.476258
 30
0.0
 11
187.867466
 21
148.476258
 31
0.0
  0
ARC
  5
115AC
  8
0
 62
     5
 10
187.128346
 20
147.476258
 30
0.0
 40
1.0
 50
90.000014
 51
163.042285
  0
ARC
  5
115AD
  8
0
 62
     5
 10
184.367466
 20
148.92222
 30
0.0
 40
0.3
 50
90.0
 51
180.0
  0
LINE
  5
115AE
  8
0
 62
     5
 10
183.567466
 20
174.52222
 30
0.0
 11
165.567466
 21
174.52222
 31
0.0
  0
ARC
  5
115AF
  8
0
 62
     5
 10
165.567466
 20
173.52222
 30
0.0
 40
1.0
 50
90.0
 51
180.0
  0
LINE
  5
115B0
  8
0
 62
     5
 10
183.567466
 20
175.389018
 30
0.0
 11
182.867466
 21
175.389018
 31
0.0
  0
LINE
  5
115B1
  8
0
 62
     5
 10
180.958903
 20
178.685951
 30
0.0
 11
180.958903
 21
179.38425
 31
0.0
  0
LINE
  5
115B2
  8
0
 62
     5
 10
181.202605
 20
180.118182
 30
0.0
 11
181.202605
 21
180.096271
 31
0.0
  0
LINE
  5
115B3
  8
0
 62
     5
 10
180.982899
 20
178.598182
 30
0.0
 11
181.202605
 21
178.598182
 31
0.0
  0
LINE
  5
115B4
  8
0
 62
     5
 10
180.958903
 20
177.950412
 30
0.0
 11
180.958903
 21
177.24598
 31
0.0
  0
LINE
  5
115B5
  8
0
 62
     5
 10
181.202605
 20
176.540093
 30
0.0
 11
181.202605
 21
176.518182
 31
0.0
  0
LINE
  5
115B6
  8
0
 62
     5
 10
181.202605
 20
178.038182
 30
0.0
 11
180.982899
 21
178.038182
 31
0.0
  0
ARC
  5
115B7
  8
0
 62
     5
 10
182.867466
 20
177.502005
 30
0.0
 40
1.933824
 50
210.580287
 51
270.0
  0
LINE
  5
115B8
  8
0
 62
     5
 10
181.202605
 20
178.598182
 30
0.0
 11
181.202605
 21
178.038182
 31
0.0
  0
LINE
  5
115B9
  8
0
 62
     5
 10
183.567466
 20
175.318182
 30
0.0
 11
184.067466
 21
175.318182
 31
0.0
  0
ARC
  5
115BA
  8
0
 62
     5
 10
183.567466
 20
175.02222
 30
0.0
 40
0.5
 50
270.0
 51
0.0
  0
ARC
  5
115BB
  8
0
 62
     5
 10
116.411118
 20
187.52222
 30
0.0
 40
4.5
 50
0.0
 51
90.0
  0
ARC
  5
115BC
  8
CENTER
 10
90.911118
 20
162.02222
 30
0.0
 40
35.0
 50
36.254023
 51
54.381034
  0
CIRCLE
  5
115BD
  8
0
 62
     5
 10
115.659855
 20
186.770957
 30
0.0
 40
2.9
  0
ARC
  5
115BE
  8
0
 62
     5
 10
90.911118
 20
-197.23235
 30
0.0
 40
380.266164
 50
85.574357
 51
86.312428
  0
ARC
  5
115BF
  8
0
 62
     5
 10
90.911118
 20
-197.23235
 30
0.0
 40
380.0
 50
85.611601
 51
86.312428
  0
ARC
  5
115C0
  8
0
 62
     5
 10
112.411118
 20
181.966199
 30
0.0
 40
1.0
 50
0.0
 51
55.93541
  0
LINE
  5
115C1
  8
0
 62
     5
 10
120.911118
 20
187.52222
 30
0.0
 11
120.911118
 21
181.581589
 31
0.0
  0
LINE
  5
115C2
  8
0
 62
     5
 10
165.567466
 20
185.02222
 30
0.0
 11
180.56836
 21
185.02222
 31
0.0
  0
LINE
  5
115C3
  8
0
 62
     5
 10
164.567466
 20
181.966199
 30
0.0
 11
184.067466
 21
181.966199
 31
0.0
  0
LINE
  5
115C4
  8
0
 62
     5
 10
165.567466
 20
192.02222
 30
0.0
 11
188.567466
 21
192.02222
 31
0.0
  0
ARC
  5
115C5
  8
0
 62
     5
 10
165.567466
 20
184.02222
 30
0.0
 40
1.0
 50
90.0
 51
180.0
  0
ARC
  5
115C6
  8
0
 62
     5
 10
165.567466
 20
191.02222
 30
0.0
 40
1.0
 50
90.0
 51
180.0
  0
LINE
  5
115C7
  8
0
 62
     5
 10
183.567466
 20
181.268182
 30
0.0
 11
182.867466
 21
181.268182
 31
0.0
  0
LINE
  5
115C8
  8
0
 62
     5
 10
181.067466
 20
185.52222
 30
0.0
 11
181.067466
 21
191.52222
 31
0.0
  0
ARC
  5
115C9
  8
0
 62
     5
 10
180.567466
 20
185.52222
 30
0.0
 40
0.5
 50
270.0
 51
0.0
  0
ARC
  5
115CA
  8
0
 62
     5
 10
181.567466
 20
191.52222
 30
0.0
 40
0.5
 50
90.0
 51
180.0
  0
LINE
  5
115CB
  8
0
 62
     5
 10
186.116355
 20
188.790928
 30
0.0
 11
186.116355
 21
188.230928
 31
0.0
  0
LINE
  5
115CC
  8
0
 62
     5
 10
184.067466
 20
185.322188
 30
0.0
 11
184.067466
 21
191.52222
 31
0.0
  0
LINE
  5
115CD
  8
0
 62
     5
 10
187.867466
 20
185.581764
 30
0.0
 11
187.867466
 21
191.459126
 31
0.0
  0
LINE
  5
115CE
  8
0
 62
     5
 10
188.567466
 20
185.581764
 30
0.0
 11
187.867466
 21
185.581764
 31
0.0
  0
LINE
  5
115CF
  8
0
 62
     5
 10
184.367466
 20
185.02222
 30
0.0
 11
188.067466
 21
185.02222
 31
0.0
  0
LINE
  5
115D0
  8
0
 62
     5
 10
188.067466
 20
181.980895
 30
0.0
 11
184.267466
 21
181.980895
 31
0.0
  0
LINE
  5
115D1
  8
0
 62
     5
 10
186.116355
 20
186.68224
 30
0.0
 11
186.116355
 21
186.660928
 31
0.0
  0
LINE
  5
115D2
  8
0
 62
     5
 10
186.116355
 20
186.660928
 30
0.0
 11
186.171826
 21
186.469262
 31
0.0
  0
LINE
  5
115D3
  8
0
 62
     5
 10
187.128346
 20
185.760928
 30
0.0
 11
187.867466
 21
185.760928
 31
0.0
  0
LINE
  5
115D4
  8
0
 62
     5
 10
186.116355
 20
188.230928
 30
0.0
 11
185.989092
 21
188.230928
 31
0.0
  0
ARC
  5
115D5
  8
0
 62
     5
 10
187.128346
 20
186.760928
 30
0.0
 40
1.0
 50
196.957715
 51
269.999986
  0
ARC
  5
115D6
  8
0
 62
     5
 10
184.367466
 20
185.32222
 30
0.0
 40
0.3
 50
180.0
 51
270.0
  0
LINE
  5
115D7
  8
0
 62
     5
 10
183.567466
 20
181.318182
 30
0.0
 11
184.067466
 21
181.318182
 31
0.0
  0
POLYLINE
  5
115D8
  8
0
 62
     5
 66
     1
 10
0.0
 20
0.0
 30
0.0
  0
VERTEX
  5
11840
  8
0
 62
     5
 10
192.867466
 20
181.980895
 30
0.0
  0
VERTEX
  5
11841
  8
0
 62
     5
 10
192.883158
 20
181.98028
 30
0.0
  0
VERTEX
  5
11842
  8
0
 62
     5
 10
192.898753
 20
181.978438
 30
0.0
  0
VERTEX
  5
11843
  8
0
 62
     5
 10
192.914155
 20
181.975381
 30
0.0
  0
VERTEX
  5
11844
  8
0
 62
     5
 10
192.92927
 20
181.971127
 30
0.0
  0
VERTEX
  5
11845
  8
0
 62
     5
 10
192.944003
 20
181.965703
 30
0.0
  0
VERTEX
  5
11846
  8
0
 62
     5
 10
192.958265
 20
181.959142
 30
0.0
  0
VERTEX
  5
11847
  8
0
 62
     5
 10
192.971966
 20
181.951484
 30
0.0
  0
VERTEX
  5
11848
  8
0
 62
     5
 10
192.985023
 20
181.942778
 30
0.0
  0
VERTEX
  5
11849
  8
0
 62
     5
 10
192.997356
 20
181.933076
 30
0.0
  0
VERTEX
  5
1184A
  8
0
 62
     5
 10
193.008888
 20
181.922438
 30
0.0
  0
VERTEX
  5
1184B
  8
0
 62
     5
 10
193.019548
 20
181.91093
 30
0.0
  0
VERTEX
  5
1184C
  8
0
 62
     5
 10
193.02927
 20
181.898623
 30
0.0
  0
VERTEX
  5
1184D
  8
0
 62
     5
 10
193.037994
 20
181.885593
 30
0.0
  0
VERTEX
  5
1184E
  8
0
 62
     5
 10
193.045668
 20
181.871919
 30
0.0
  0
VERTEX
  5
1184F
  8
0
 62
     5
 10
193.052242
 20
181.857688
 30
0.0
  0
VERTEX
  5
11850
  8
0
 62
     5
 10
193.057678
 20
181.842985
 30
0.0
  0
VERTEX
  5
11851
  8
0
 62
     5
 10
193.06194
 20
181.827902
 30
0.0
  0
VERTEX
  5
11852
  8
0
 62
     5
 10
193.065004
 20
181.812531
 30
0.0
  0
VERTEX
  5
11853
  8
0
 62
     5
 10
193.06685
 20
181.796969
 30
0.0
  0
VERTEX
  5
11854
  8
0
 62
     5
 10
193.067466
 20
181.781309
 30
0.0
  0
SEQEND
  5
11855
  8
0
 62
     5
  0
POLYLINE
  5
115EF
  8
0
 62
     5
 66
     1
 10
0.0
 20
0.0
 30
0.0
  0
VERTEX
  5
11856
  8
0
 62
     5
 10
188.767466
 20
181.980895
 30
0.0
  0
VERTEX
  5
11857
  8
0
 62
     5
 10
188.751775
 20
181.98028
 30
0.0
  0
VERTEX
  5
11858
  8
0
 62
     5
 10
188.73618
 20
181.978438
 30
0.0
  0
VERTEX
  5
11859
  8
0
 62
     5
 10
188.720777
 20
181.975381
 30
0.0
  0
VERTEX
  5
1185A
  8
0
 62
     5
 10
188.705663
 20
181.971127
 30
0.0
  0
VERTEX
  5
1185B
  8
0
 62
     5
 10
188.69093
 20
181.965703
 30
0.0
  0
VERTEX
  5
1185C
  8
0
 62
     5
 10
188.676668
 20
181.959142
 30
0.0
  0
VERTEX
  5
1185D
  8
0
 62
     5
 10
188.662967
 20
181.951484
 30
0.0
  0
VERTEX
  5
1185E
  8
0
 62
     5
 10
188.649909
 20
181.942778
 30
0.0
  0
VERTEX
  5
1185F
  8
0
 62
     5
 10
188.637577
 20
181.933076
 30
0.0
  0
VERTEX
  5
11860
  8
0
 62
     5
 10
188.626045
 20
181.922438
 30
0.0
  0
VERTEX
  5
11861
  8
0
 62
     5
 10
188.615385
 20
181.91093
 30
0.0
  0
VERTEX
  5
11862
  8
0
 62
     5
 10
188.605663
 20
181.898623
 30
0.0
  0
VERTEX
  5
11863
  8
0
 62
     5
 10
188.596938
 20
181.885593
 30
0.0
  0
VERTEX
  5
11864
  8
0
 62
     5
 10
188.589265
 20
181.871919
 30
0.0
  0
VERTEX
  5
11865
  8
0
 62
     5
 10
188.582691
 20
181.857688
 30
0.0
  0
VERTEX
  5
11866
  8
0
 62
     5
 10
188.577255
 20
181.842985
 30
0.0
  0
VERTEX
  5
11867
  8
0
 62
     5
 10
188.572992
 20
181.827902
 30
0.0
  0
VERTEX
  5
11868
  8
0
 62
     5
 10
188.569929
 20
181.812531
 30
0.0
  0
VERTEX
  5
11869
  8
0
 62
     5
 10
188.568083
 20
181.796969
 30
0.0
  0
VERTEX
  5
1186A
  8
0
 62
     5
 10
188.567466
 20
181.781309
 30
0.0
  0
SEQEND
  5
1186B
  8
0
 62
     5
  0
LINE
  5
11606
  8
0
 62
     5
 10
188.567466
 20
181.908831
 30
0.0
 11
188.067466
 21
181.908831
 31
0.0
  0
LINE
  5
11607
  8
0
 62
     5
 10
188.567466
 20
181.909961
 30
0.0
 11
188.067466
 21
181.909961
 31
0.0
  0
LINE
  5
11608
  8
0
 62
     5
 10
188.767466
 20
181.980895
 30
0.0
 11
192.867466
 21
181.980895
 31
0.0
  0
LINE
  5
11609
  8
0
 62
     5
 10
188.067466
 20
181.908831
 30
0.0
 11
188.067466
 21
185.581764
 31
0.0
  0
LINE
  5
1160A
  8
0
 62
     5
 10
188.567466
 20
191.460928
 30
0.0
 11
187.867466
 21
191.460928
 31
0.0
  0
LINE
  5
1160B
  8
0
 62
     5
 10
186.116355
 20
190.360928
 30
0.0
 11
186.171826
 21
190.552594
 31
0.0
  0
LINE
  5
1160C
  8
0
 62
     5
 10
186.116355
 20
190.360928
 30
0.0
 11
186.116355
 21
190.339616
 31
0.0
  0
LINE
  5
1160D
  8
0
 62
     5
 10
187.128346
 20
191.260928
 30
0.0
 11
187.867466
 21
191.260928
 31
0.0
  0
ARC
  5
1160E
  8
0
 62
     5
 10
187.128346
 20
190.260928
 30
0.0
 40
1.0
 50
90.000014
 51
163.042285
  0
ARC
  5
1160F
  8
0
 62
     5
 10
183.567466
 20
191.52222
 30
0.0
 40
0.5
 50
0.0
 51
90.0
  0
LINE
  5
11610
  8
0
 62
     5
 10
185.989092
 20
188.790928
 30
0.0
 11
186.116355
 21
188.790928
 31
0.0
  0
ARC
  5
11611
  8
0
 62
     5
 10
192.867466
 20
191.82222
 30
0.0
 40
0.2
 50
0.0
 51
90.0
  0
LINE
  5
11612
  8
0
 62
     5
 10
188.067466
 20
192.02222
 30
0.0
 11
188.067466
 21
191.460928
 31
0.0
  0
LINE
  5
11613
  8
0
 62
     5
 10
188.567466
 20
192.02222
 30
0.0
 11
188.567466
 21
191.830578
 31
0.0
  0
ARC
  5
11614
  8
0
 62
     5
 10
188.767466
 20
191.82222
 30
0.0
 40
0.2
 50
90.0
 51
180.0
  0
LINE
  5
11615
  8
0
 62
     5
 10
188.767466
 20
192.02222
 30
0.0
 11
192.867466
 21
192.02222
 31
0.0
  0
LINE
  5
11616
  8
0
 62
     5
 10
232.167466
 20
132.02222
 30
0.0
 11
232.167466
 21
192.02222
 31
0.0
  0
LINE
  5
11617
  8
0
 62
     5
 10
241.167466
 20
192.02222
 30
0.0
 11
241.167466
 21
132.02222
 31
0.0
  0
LINE
  5
11618
  8
0
 62
     5
 10
243.967466
 20
187.02222
 30
0.0
 11
243.967466
 21
137.02222
 31
0.0
  0
LINE
  5
11619
  8
0
 62
     5
 10
244.167466
 20
186.82222
 30
0.0
 11
244.167466
 21
137.22222
 31
0.0
  0
LINE
  5
1161A
  8
HIDDEN
 10
220.83599
 20
124.72222
 30
0.0
 11
236.643851
 21
124.72222
 31
0.0
  0
LINE
  5
1161B
  8
0
 62
     5
 10
241.167466
 20
132.02222
 30
0.0
 11
232.167466
 21
132.02222
 31
0.0
  0
LINE
  5
1161C
  8
0
 62
     5
 10
232.167466
 20
132.02222
 30
0.0
 11
211.864868
 21
131.933633
 31
0.0
  0
LINE
  5
1161D
  8
HIDDEN
 10
216.864733
 20
128.021454
 30
0.0
 11
210.821169
 21
128.021454
 31
0.0
  0
LINE
  5
1161E
  8
0
 62
     5
 10
198.334167
 20
123.22222
 30
0.0
 11
205.400766
 21
123.22222
 31
0.0
  0
LINE
  5
1161F
  8
0
 62
     5
 10
210.867466
 20
128.62222
 30
0.0
 11
193.717466
 21
128.62222
 31
0.0
  0
LINE
  5
11620
  8
0
 62
     5
 10
193.719648
 20
132.011811
 30
0.0
 11
211.04492
 21
132.014799
 31
0.0
  0
LINE
  5
11621
  8
0
 62
     5
 10
193.217466
 20
131.852267
 30
0.0
 11
193.217466
 21
129.12222
 31
0.0
  0
LINE
  5
11622
  8
0
 62
     5
 10
198.334167
 20
123.22222
 30
0.0
 11
198.164465
 21
128.62222
 31
0.0
  0
LINE
  5
11623
  8
HIDDEN
 10
193.867466
 20
126.62222
 30
0.0
 11
193.867466
 21
127.72222
 31
0.0
  0
ARC
  5
11624
  8
HIDDEN
 10
194.367466
 20
126.62222
 30
0.0
 40
0.5
 50
180.0
 51
270.0
  0
LINE
  5
11625
  8
HIDDEN
 10
194.367466
 20
126.12222
 30
0.0
 11
195.517466
 21
126.12222
 31
0.0
  0
LINE
  5
11626
  8
0
 62
     5
 10
198.951578
 20
128.62222
 30
0.0
 11
199.021871
 21
123.22222
 31
0.0
  0
LINE
  5
11627
  8
0
 62
     5
 10
211.367466
 20
131.405001
 30
0.0
 11
211.367466
 21
129.12222
 31
0.0
  0
LINE
  5
11628
  8
0
 62
     5
 10
204.713062
 20
123.22222
 30
0.0
 11
204.783354
 21
128.62222
 31
0.0
  0
LINE
  5
11629
  8
0
 62
     5
 10
205.570468
 20
128.62222
 30
0.0
 11
205.400766
 21
123.22222
 31
0.0
  0
ARC
  5
1162A
  8
0
 62
     5
 10
210.867466
 20
129.12222
 30
0.0
 40
0.5
 50
270.0
 51
0.0
  0
POLYLINE
  5
1162B
  8
0
 62
     5
 66
     1
 10
0.0
 20
0.0
 30
0.0
 70
     8
  0
VERTEX
  5
1162C
  8
0
 62
     5
 10
211.066
 20
132.009
 30
0.0
 70
    32
  0
VERTEX
  5
1162D
  8
0
 62
     5
 10
211.066
 20
132.009
 30
0.0
 70
    32
  0
VERTEX
  5
1162E
  8
0
 62
     5
 10
211.066
 20
132.01
 30
0.0
 70
    32
  0
VERTEX
  5
1162F
  8
0
 62
     5
 10
211.065
 20
132.01
 30
0.0
 70
    32
  0
VERTEX
  5
11630
  8
0
 62
     5
 10
211.065
 20
132.01
 30
0.0
 70
    32
  0
VERTEX
  5
11631
  8
0
 62
     5
 10
211.065
 20
132.01
 30
0.0
 70
    32
  0
VERTEX
  5
11632
  8
0
 62
     5
 10
211.065
 20
132.01
 30
0.0
 70
    32
  0
VERTEX
  5
11633
  8
0
 62
     5
 10
211.065
 20
132.01
 30
0.0
 70
    32
  0
VERTEX
  5
11634
  8
0
 62
     5
 10
211.065
 20
132.01
 30
0.0
 70
    32
  0
VERTEX
  5
11635
  8
0
 62
     5
 10
211.065
 20
132.01
 30
0.0
 70
    32
  0
VERTEX
  5
11636
  8
0
 62
     5
 10
211.065
 20
132.01
 30
0.0
 70
    32
  0
VERTEX
  5
11637
  8
0
 62
     5
 10
211.065
 20
132.01
 30
0.0
 70
    32
  0
VERTEX
  5
11638
  8
0
 62
     5
 10
211.065
 20
132.01
 30
0.0
 70
    32
  0
VERTEX
  5
11639
  8
0
 62
     5
 10
211.064
 20
132.01
 30
0.0
 70
    32
  0
VERTEX
  5
1163A
  8
0
 62
     5
 10
211.064
 20
132.01
 30
0.0
 70
    32
  0
VERTEX
  5
1163B
  8
0
 62
     5
 10
211.064
 20
132.01
 30
0.0
 70
    32
  0
VERTEX
  5
1163C
  8
0
 62
     5
 10
211.064
 20
132.01
 30
0.0
 70
    32
  0
VERTEX
  5
1163D
  8
0
 62
     5
 10
211.064
 20
132.01
 30
0.0
 70
    32
  0
VERTEX
  5
1163E
  8
0
 62
     5
 10
211.064
 20
132.01
 30
0.0
 70
    32
  0
VERTEX
  5
1163F
  8
0
 62
     5
 10
211.064
 20
132.01
 30
0.0
 70
    32
  0
VERTEX
  5
11640
  8
0
 62
     5
 10
211.064
 20
132.01
 30
0.0
 70
    32
  0
VERTEX
  5
11641
  8
0
 62
     5
 10
211.064
 20
132.011
 30
0.0
 70
    32
  0
VERTEX
  5
11642
  8
0
 62
     5
 10
211.064
 20
132.011
 30
0.0
 70
    32
  0
VERTEX
  5
11643
  8
0
 62
     5
 10
211.063
 20
132.011
 30
0.0
 70
    32
  0
VERTEX
  5
11644
  8
0
 62
     5
 10
211.063
 20
132.011
 30
0.0
 70
    32
  0
VERTEX
  5
11645
  8
0
 62
     5
 10
211.063
 20
132.011
 30
0.0
 70
    32
  0
VERTEX
  5
11646
  8
0
 62
     5
 10
211.063
 20
132.011
 30
0.0
 70
    32
  0
VERTEX
  5
11647
  8
0
 62
     5
 10
211.063
 20
132.011
 30
0.0
 70
    32
  0
VERTEX
  5
11648
  8
0
 62
     5
 10
211.063
 20
132.011
 30
0.0
 70
    32
  0
VERTEX
  5
11649
  8
0
 62
     5
 10
211.063
 20
132.011
 30
0.0
 70
    32
  0
VERTEX
  5
1164A
  8
0
 62
     5
 10
211.063
 20
132.011
 30
0.0
 70
    32
  0
VERTEX
  5
1164B
  8
0
 62
     5
 10
211.063
 20
132.011
 30
0.0
 70
    32
  0
VERTEX
  5
1164C
  8
0
 62
     5
 10
211.063
 20
132.011
 30
0.0
 70
    32
  0
VERTEX
  5
1164D
  8
0
 62
     5
 10
211.062
 20
132.011
 30
0.0
 70
    32
  0
VERTEX
  5
1164E
  8
0
 62
     5
 10
211.062
 20
132.011
 30
0.0
 70
    32
  0
VERTEX
  5
1164F
  8
0
 62
     5
 10
211.062
 20
132.011
 30
0.0
 70
    32
  0
VERTEX
  5
11650
  8
0
 62
     5
 10
211.062
 20
132.011
 30
0.0
 70
    32
  0
VERTEX
  5
11651
  8
0
 62
     5
 10
211.062
 20
132.011
 30
0.0
 70
    32
  0
VERTEX
  5
11652
  8
0
 62
     5
 10
211.062
 20
132.011
 30
0.0
 70
    32
  0
VERTEX
  5
11653
  8
0
 62
     5
 10
211.062
 20
132.011
 30
0.0
 70
    32
  0
VERTEX
  5
11654
  8
0
 62
     5
 10
211.062
 20
132.011
 30
0.0
 70
    32
  0
VERTEX
  5
11655
  8
0
 62
     5
 10
211.062
 20
132.012
 30
0.0
 70
    32
  0
VERTEX
  5
11656
  8
0
 62
     5
 10
211.061
 20
132.012
 30
0.0
 70
    32
  0
VERTEX
  5
11657
  8
0
 62
     5
 10
211.061
 20
132.012
 30
0.0
 70
    32
  0
VERTEX
  5
11658
  8
0
 62
     5
 10
211.061
 20
132.012
 30
0.0
 70
    32
  0
VERTEX
  5
11659
  8
0
 62
     5
 10
211.061
 20
132.012
 30
0.0
 70
    32
  0
VERTEX
  5
1165A
  8
0
 62
     5
 10
211.061
 20
132.012
 30
0.0
 70
    32
  0
VERTEX
  5
1165B
  8
0
 62
     5
 10
211.061
 20
132.012
 30
0.0
 70
    32
  0
VERTEX
  5
1165C
  8
0
 62
     5
 10
211.061
 20
132.012
 30
0.0
 70
    32
  0
VERTEX
  5
1165D
  8
0
 62
     5
 10
211.061
 20
132.012
 30
0.0
 70
    32
  0
VERTEX
  5
1165E
  8
0
 62
     5
 10
211.061
 20
132.012
 30
0.0
 70
    32
  0
VERTEX
  5
1165F
  8
0
 62
     5
 10
211.061
 20
132.012
 30
0.0
 70
    32
  0
VERTEX
  5
11660
  8
0
 62
     5
 10
211.06
 20
132.012
 30
0.0
 70
    32
  0
VERTEX
  5
11661
  8
0
 62
     5
 10
211.06
 20
132.012
 30
0.0
 70
    32
  0
VERTEX
  5
11662
  8
0
 62
     5
 10
211.06
 20
132.012
 30
0.0
 70
    32
  0
VERTEX
  5
11663
  8
0
 62
     5
 10
211.06
 20
132.012
 30
0.0
 70
    32
  0
VERTEX
  5
11664
  8
0
 62
     5
 10
211.06
 20
132.012
 30
0.0
 70
    32
  0
VERTEX
  5
11665
  8
0
 62
     5
 10
211.06
 20
132.012
 30
0.0
 70
    32
  0
VERTEX
  5
11666
  8
0
 62
     5
 10
211.06
 20
132.012
 30
0.0
 70
    32
  0
VERTEX
  5
11667
  8
0
 62
     5
 10
211.06
 20
132.012
 30
0.0
 70
    32
  0
VERTEX
  5
11668
  8
0
 62
     5
 10
211.06
 20
132.012
 30
0.0
 70
    32
  0
VERTEX
  5
11669
  8
0
 62
     5
 10
211.059
 20
132.012
 30
0.0
 70
    32
  0
VERTEX
  5
1166A
  8
0
 62
     5
 10
211.059
 20
132.012
 30
0.0
 70
    32
  0
VERTEX
  5
1166B
  8
0
 62
     5
 10
211.059
 20
132.013
 30
0.0
 70
    32
  0
VERTEX
  5
1166C
  8
0
 62
     5
 10
211.059
 20
132.013
 30
0.0
 70
    32
  0
VERTEX
  5
1166D
  8
0
 62
     5
 10
211.059
 20
132.013
 30
0.0
 70
    32
  0
VERTEX
  5
1166E
  8
0
 62
     5
 10
211.059
 20
132.013
 30
0.0
 70
    32
  0
VERTEX
  5
1166F
  8
0
 62
     5
 10
211.059
 20
132.013
 30
0.0
 70
    32
  0
VERTEX
  5
11670
  8
0
 62
     5
 10
211.059
 20
132.013
 30
0.0
 70
    32
  0
VERTEX
  5
11671
  8
0
 62
     5
 10
211.059
 20
132.013
 30
0.0
 70
    32
  0
VERTEX
  5
11672
  8
0
 62
     5
 10
211.059
 20
132.013
 30
0.0
 70
    32
  0
VERTEX
  5
11673
  8
0
 62
     5
 10
211.058
 20
132.013
 30
0.0
 70
    32
  0
VERTEX
  5
11674
  8
0
 62
     5
 10
211.058
 20
132.013
 30
0.0
 70
    32
  0
VERTEX
  5
11675
  8
0
 62
     5
 10
211.058
 20
132.013
 30
0.0
 70
    32
  0
VERTEX
  5
11676
  8
0
 62
     5
 10
211.058
 20
132.013
 30
0.0
 70
    32
  0
VERTEX
  5
11677
  8
0
 62
     5
 10
211.058
 20
132.013
 30
0.0
 70
    32
  0
VERTEX
  5
11678
  8
0
 62
     5
 10
211.058
 20
132.013
 30
0.0
 70
    32
  0
VERTEX
  5
11679
  8
0
 62
     5
 10
211.058
 20
132.013
 30
0.0
 70
    32
  0
VERTEX
  5
1167A
  8
0
 62
     5
 10
211.058
 20
132.013
 30
0.0
 70
    32
  0
VERTEX
  5
1167B
  8
0
 62
     5
 10
211.058
 20
132.013
 30
0.0
 70
    32
  0
VERTEX
  5
1167C
  8
0
 62
     5
 10
211.057
 20
132.013
 30
0.0
 70
    32
  0
VERTEX
  5
1167D
  8
0
 62
     5
 10
211.057
 20
132.013
 30
0.0
 70
    32
  0
VERTEX
  5
1167E
  8
0
 62
     5
 10
211.057
 20
132.013
 30
0.0
 70
    32
  0
VERTEX
  5
1167F
  8
0
 62
     5
 10
211.057
 20
132.013
 30
0.0
 70
    32
  0
VERTEX
  5
11680
  8
0
 62
     5
 10
211.057
 20
132.013
 30
0.0
 70
    32
  0
VERTEX
  5
11681
  8
0
 62
     5
 10
211.057
 20
132.013
 30
0.0
 70
    32
  0
VERTEX
  5
11682
  8
0
 62
     5
 10
211.057
 20
132.013
 30
0.0
 70
    32
  0
VERTEX
  5
11683
  8
0
 62
     5
 10
211.057
 20
132.013
 30
0.0
 70
    32
  0
VERTEX
  5
11684
  8
0
 62
     5
 10
211.057
 20
132.013
 30
0.0
 70
    32
  0
VERTEX
  5
11685
  8
0
 62
     5
 10
211.056
 20
132.013
 30
0.0
 70
    32
  0
VERTEX
  5
11686
  8
0
 62
     5
 10
211.056
 20
132.013
 30
0.0
 70
    32
  0
VERTEX
  5
11687
  8
0
 62
     5
 10
211.056
 20
132.013
 30
0.0
 70
    32
  0
VERTEX
  5
11688
  8
0
 62
     5
 10
211.056
 20
132.013
 30
0.0
 70
    32
  0
VERTEX
  5
11689
  8
0
 62
     5
 10
211.056
 20
132.014
 30
0.0
 70
    32
  0
VERTEX
  5
1168A
  8
0
 62
     5
 10
211.056
 20
132.014
 30
0.0
 70
    32
  0
VERTEX
  5
1168B
  8
0
 62
     5
 10
211.056
 20
132.014
 30
0.0
 70
    32
  0
VERTEX
  5
1168C
  8
0
 62
     5
 10
211.056
 20
132.014
 30
0.0
 70
    32
  0
VERTEX
  5
1168D
  8
0
 62
     5
 10
211.056
 20
132.014
 30
0.0
 70
    32
  0
VERTEX
  5
1168E
  8
0
 62
     5
 10
211.055
 20
132.014
 30
0.0
 70
    32
  0
VERTEX
  5
1168F
  8
0
 62
     5
 10
211.055
 20
132.014
 30
0.0
 70
    32
  0
VERTEX
  5
11690
  8
0
 62
     5
 10
211.055
 20
132.014
 30
0.0
 70
    32
  0
VERTEX
  5
11691
  8
0
 62
     5
 10
211.055
 20
132.014
 30
0.0
 70
    32
  0
VERTEX
  5
11692
  8
0
 62
     5
 10
211.055
 20
132.014
 30
0.0
 70
    32
  0
VERTEX
  5
11693
  8
0
 62
     5
 10
211.055
 20
132.014
 30
0.0
 70
    32
  0
VERTEX
  5
11694
  8
0
 62
     5
 10
211.055
 20
132.014
 30
0.0
 70
    32
  0
VERTEX
  5
11695
  8
0
 62
     5
 10
211.055
 20
132.014
 30
0.0
 70
    32
  0
VERTEX
  5
11696
  8
0
 62
     5
 10
211.055
 20
132.014
 30
0.0
 70
    32
  0
VERTEX
  5
11697
  8
0
 62
     5
 10
211.054
 20
132.014
 30
0.0
 70
    32
  0
VERTEX
  5
11698
  8
0
 62
     5
 10
211.054
 20
132.014
 30
0.0
 70
    32
  0
VERTEX
  5
11699
  8
0
 62
     5
 10
211.054
 20
132.014
 30
0.0
 70
    32
  0
VERTEX
  5
1169A
  8
0
 62
     5
 10
211.054
 20
132.014
 30
0.0
 70
    32
  0
VERTEX
  5
1169B
  8
0
 62
     5
 10
211.054
 20
132.014
 30
0.0
 70
    32
  0
VERTEX
  5
1169C
  8
0
 62
     5
 10
211.054
 20
132.014
 30
0.0
 70
    32
  0
VERTEX
  5
1169D
  8
0
 62
     5
 10
211.054
 20
132.014
 30
0.0
 70
    32
  0
VERTEX
  5
1169E
  8
0
 62
     5
 10
211.054
 20
132.014
 30
0.0
 70
    32
  0
VERTEX
  5
1169F
  8
0
 62
     5
 10
211.054
 20
132.014
 30
0.0
 70
    32
  0
VERTEX
  5
116A0
  8
0
 62
     5
 10
211.053
 20
132.014
 30
0.0
 70
    32
  0
VERTEX
  5
116A1
  8
0
 62
     5
 10
211.053
 20
132.014
 30
0.0
 70
    32
  0
VERTEX
  5
116A2
  8
0
 62
     5
 10
211.053
 20
132.014
 30
0.0
 70
    32
  0
VERTEX
  5
116A3
  8
0
 62
     5
 10
211.053
 20
132.014
 30
0.0
 70
    32
  0
VERTEX
  5
116A4
  8
0
 62
     5
 10
211.053
 20
132.014
 30
0.0
 70
    32
  0
VERTEX
  5
116A5
  8
0
 62
     5
 10
211.053
 20
132.014
 30
0.0
 70
    32
  0
VERTEX
  5
116A6
  8
0
 62
     5
 10
211.053
 20
132.014
 30
0.0
 70
    32
  0
VERTEX
  5
116A7
  8
0
 62
     5
 10
211.053
 20
132.014
 30
0.0
 70
    32
  0
VERTEX
  5
116A8
  8
0
 62
     5
 10
211.053
 20
132.014
 30
0.0
 70
    32
  0
VERTEX
  5
116A9
  8
0
 62
     5
 10
211.052
 20
132.014
 30
0.0
 70
    32
  0
VERTEX
  5
116AA
  8
0
 62
     5
 10
211.052
 20
132.014
 30
0.0
 70
    32
  0
VERTEX
  5
116AB
  8
0
 62
     5
 10
211.052
 20
132.014
 30
0.0
 70
    32
  0
VERTEX
  5
116AC
  8
0
 62
     5
 10
211.052
 20
132.014
 30
0.0
 70
    32
  0
VERTEX
  5
116AD
  8
0
 62
     5
 10
211.052
 20
132.014
 30
0.0
 70
    32
  0
VERTEX
  5
116AE
  8
0
 62
     5
 10
211.052
 20
132.014
 30
0.0
 70
    32
  0
VERTEX
  5
116AF
  8
0
 62
     5
 10
211.052
 20
132.014
 30
0.0
 70
    32
  0
VERTEX
  5
116B0
  8
0
 62
     5
 10
211.052
 20
132.014
 30
0.0
 70
    32
  0
VERTEX
  5
116B1
  8
0
 62
     5
 10
211.051
 20
132.014
 30
0.0
 70
    32
  0
VERTEX
  5
116B2
  8
0
 62
     5
 10
211.051
 20
132.014
 30
0.0
 70
    32
  0
VERTEX
  5
116B3
  8
0
 62
     5
 10
211.051
 20
132.014
 30
0.0
 70
    32
  0
VERTEX
  5
116B4
  8
0
 62
     5
 10
211.051
 20
132.014
 30
0.0
 70
    32
  0
VERTEX
  5
116B5
  8
0
 62
     5
 10
211.051
 20
132.014
 30
0.0
 70
    32
  0
VERTEX
  5
116B6
  8
0
 62
     5
 10
211.051
 20
132.014
 30
0.0
 70
    32
  0
VERTEX
  5
116B7
  8
0
 62
     5
 10
211.051
 20
132.014
 30
0.0
 70
    32
  0
VERTEX
  5
116B8
  8
0
 62
     5
 10
211.051
 20
132.014
 30
0.0
 70
    32
  0
VERTEX
  5
116B9
  8
0
 62
     5
 10
211.051
 20
132.014
 30
0.0
 70
    32
  0
VERTEX
  5
116BA
  8
0
 62
     5
 10
211.05
 20
132.014
 30
0.0
 70
    32
  0
VERTEX
  5
116BB
  8
0
 62
     5
 10
211.05
 20
132.014
 30
0.0
 70
    32
  0
VERTEX
  5
116BC
  8
0
 62
     5
 10
211.05
 20
132.014
 30
0.0
 70
    32
  0
VERTEX
  5
116BD
  8
0
 62
     5
 10
211.05
 20
132.014
 30
0.0
 70
    32
  0
VERTEX
  5
116BE
  8
0
 62
     5
 10
211.05
 20
132.014
 30
0.0
 70
    32
  0
VERTEX
  5
116BF
  8
0
 62
     5
 10
211.05
 20
132.015
 30
0.0
 70
    32
  0
VERTEX
  5
116C0
  8
0
 62
     5
 10
211.05
 20
132.015
 30
0.0
 70
    32
  0
VERTEX
  5
116C1
  8
0
 62
     5
 10
211.05
 20
132.015
 30
0.0
 70
    32
  0
VERTEX
  5
116C2
  8
0
 62
     5
 10
211.05
 20
132.015
 30
0.0
 70
    32
  0
VERTEX
  5
116C3
  8
0
 62
     5
 10
211.049
 20
132.015
 30
0.0
 70
    32
  0
VERTEX
  5
116C4
  8
0
 62
     5
 10
211.049
 20
132.015
 30
0.0
 70
    32
  0
VERTEX
  5
116C5
  8
0
 62
     5
 10
211.049
 20
132.015
 30
0.0
 70
    32
  0
VERTEX
  5
116C6
  8
0
 62
     5
 10
211.049
 20
132.015
 30
0.0
 70
    32
  0
VERTEX
  5
116C7
  8
0
 62
     5
 10
211.049
 20
132.015
 30
0.0
 70
    32
  0
VERTEX
  5
116C8
  8
0
 62
     5
 10
211.049
 20
132.015
 30
0.0
 70
    32
  0
VERTEX
  5
116C9
  8
0
 62
     5
 10
211.049
 20
132.015
 30
0.0
 70
    32
  0
VERTEX
  5
116CA
  8
0
 62
     5
 10
211.049
 20
132.015
 30
0.0
 70
    32
  0
VERTEX
  5
116CB
  8
0
 62
     5
 10
211.049
 20
132.015
 30
0.0
 70
    32
  0
VERTEX
  5
116CC
  8
0
 62
     5
 10
211.048
 20
132.015
 30
0.0
 70
    32
  0
VERTEX
  5
116CD
  8
0
 62
     5
 10
211.048
 20
132.015
 30
0.0
 70
    32
  0
VERTEX
  5
116CE
  8
0
 62
     5
 10
211.048
 20
132.015
 30
0.0
 70
    32
  0
VERTEX
  5
116CF
  8
0
 62
     5
 10
211.048
 20
132.015
 30
0.0
 70
    32
  0
VERTEX
  5
116D0
  8
0
 62
     5
 10
211.048
 20
132.015
 30
0.0
 70
    32
  0
VERTEX
  5
116D1
  8
0
 62
     5
 10
211.048
 20
132.015
 30
0.0
 70
    32
  0
VERTEX
  5
116D2
  8
0
 62
     5
 10
211.048
 20
132.015
 30
0.0
 70
    32
  0
VERTEX
  5
116D3
  8
0
 62
     5
 10
211.048
 20
132.015
 30
0.0
 70
    32
  0
VERTEX
  5
116D4
  8
0
 62
     5
 10
211.047
 20
132.015
 30
0.0
 70
    32
  0
VERTEX
  5
116D5
  8
0
 62
     5
 10
211.047
 20
132.015
 30
0.0
 70
    32
  0
VERTEX
  5
116D6
  8
0
 62
     5
 10
211.047
 20
132.015
 30
0.0
 70
    32
  0
VERTEX
  5
116D7
  8
0
 62
     5
 10
211.047
 20
132.015
 30
0.0
 70
    32
  0
VERTEX
  5
116D8
  8
0
 62
     5
 10
211.047
 20
132.015
 30
0.0
 70
    32
  0
VERTEX
  5
116D9
  8
0
 62
     5
 10
211.047
 20
132.015
 30
0.0
 70
    32
  0
VERTEX
  5
116DA
  8
0
 62
     5
 10
211.047
 20
132.015
 30
0.0
 70
    32
  0
VERTEX
  5
116DB
  8
0
 62
     5
 10
211.047
 20
132.015
 30
0.0
 70
    32
  0
VERTEX
  5
116DC
  8
0
 62
     5
 10
211.047
 20
132.015
 30
0.0
 70
    32
  0
VERTEX
  5
116DD
  8
0
 62
     5
 10
211.046
 20
132.015
 30
0.0
 70
    32
  0
VERTEX
  5
116DE
  8
0
 62
     5
 10
211.046
 20
132.015
 30
0.0
 70
    32
  0
VERTEX
  5
116DF
  8
0
 62
     5
 10
211.046
 20
132.015
 30
0.0
 70
    32
  0
VERTEX
  5
116E0
  8
0
 62
     5
 10
211.046
 20
132.015
 30
0.0
 70
    32
  0
VERTEX
  5
116E1
  8
0
 62
     5
 10
211.046
 20
132.015
 30
0.0
 70
    32
  0
VERTEX
  5
116E2
  8
0
 62
     5
 10
211.046
 20
132.015
 30
0.0
 70
    32
  0
VERTEX
  5
116E3
  8
0
 62
     5
 10
211.046
 20
132.015
 30
0.0
 70
    32
  0
VERTEX
  5
116E4
  8
0
 62
     5
 10
211.046
 20
132.015
 30
0.0
 70
    32
  0
VERTEX
  5
116E5
  8
0
 62
     5
 10
211.046
 20
132.015
 30
0.0
 70
    32
  0
VERTEX
  5
116E6
  8
0
 62
     5
 10
211.045
 20
132.015
 30
0.0
 70
    32
  0
VERTEX
  5
116E7
  8
0
 62
     5
 10
211.045
 20
132.015
 30
0.0
 70
    32
  0
VERTEX
  5
116E8
  8
0
 62
     5
 10
211.045
 20
132.015
 30
0.0
 70
    32
  0
VERTEX
  5
116E9
  8
0
 62
     5
 10
211.045
 20
132.015
 30
0.0
 70
    32
  0
VERTEX
  5
116EA
  8
0
 62
     5
 10
211.045
 20
132.015
 30
0.0
 70
    32
  0
VERTEX
  5
116EB
  8
0
 62
     5
 10
211.045
 20
132.015
 30
0.0
 70
    32
  0
SEQEND
  5
116EC
  8
0
 62
     5
  0
ARC
  5
116ED
  8
0
 62
     5
 10
211.867049
 20
131.433637
 30
0.0
 40
0.5
 50
90.25
 51
180.0
  0
LINE
  5
116EE
  8
0
 62
     5
 10
234.167466
 20
132.02222
 30
0.0
 11
234.167466
 21
142.462851
 31
0.0
  0
LINE
  5
116EF
  8
0
 62
     5
 10
232.167466
 20
132.02222
 30
0.0
 11
214.504801
 21
131.945152
 31
0.0
  0
LINE
  5
116F0
  8
HIDDEN
 10
220.569254
 20
125.86115
 30
0.0
 11
216.864733
 21
128.021454
 31
0.0
  0
LINE
  5
116F1
  8
0
 62
     5
 10
234.167466
 20
142.462851
 30
0.0
 11
232.167466
 21
142.462851
 31
0.0
  0
LINE
  5
116F2
  8
0
 62
     5
 10
241.367466
 20
137.02222
 30
0.0
 11
243.967466
 21
137.02222
 31
0.0
  0
LINE
  5
116F3
  8
0
 62
     5
 10
243.967466
 20
137.02222
 30
0.0
 11
244.167466
 21
137.22222
 31
0.0
  0
ARC
  5
116F4
  8
0
 62
     5
 10
241.367466
 20
136.82222
 30
0.0
 40
0.2
 50
90.0
 51
180.0
  0
LINE
  5
116F5
  8
0
 62
     5
 10
244.567466
 20
169.02222
 30
0.0
 11
270.767466
 21
169.02222
 31
0.0
  0
LINE
  5
116F6
  8
0
 62
     5
 10
244.567466
 20
155.02222
 30
0.0
 11
270.767466
 21
155.02222
 31
0.0
  0
ARC
  5
116F7
  8
0
 62
     5
 10
244.567466
 20
154.62222
 30
0.0
 40
0.4
 50
90.0
 51
180.0
  0
ARC
  5
116F8
  8
0
 62
     5
 10
244.567466
 20
169.42222
 30
0.0
 40
0.4
 50
180.0
 51
270.0
  0
LINE
  5
116F9
  8
0
 62
     5
 10
270.767466
 20
169.02222
 30
0.0
 11
270.767466
 21
155.02222
 31
0.0
  0
LINE
  5
116FA
  8
0
 62
     5
 10
271.167466
 20
168.622217
 30
0.0
 11
271.167466
 21
155.422223
 31
0.0
  0
LINE
  5
116FB
  8
0
 62
     5
 10
270.767466
 20
155.02222
 30
0.0
 11
271.167466
 21
155.42222
 31
0.0
  0
LINE
  5
116FC
  8
0
 62
     5
 10
270.767466
 20
169.02222
 30
0.0
 11
271.167466
 21
168.62222
 31
0.0
  0
LINE
  5
116FD
  8
0
 62
     5
 10
241.167466
 20
192.02222
 30
0.0
 11
232.167466
 21
192.02222
 31
0.0
  0
LINE
  5
116FE
  8
0
 62
     5
 10
234.167466
 20
181.581589
 30
0.0
 11
234.167466
 21
192.02222
 31
0.0
  0
LINE
  5
116FF
  8
0
 62
     5
 10
234.167466
 20
181.581589
 30
0.0
 11
232.167466
 21
181.581589
 31
0.0
  0
LINE
  5
11700
  8
0
 62
     5
 10
241.367466
 20
187.02222
 30
0.0
 11
243.967466
 21
187.02222
 31
0.0
  0
LINE
  5
11701
  8
0
 62
     5
 10
243.967466
 20
187.02222
 30
0.0
 11
244.167466
 21
186.82222
 31
0.0
  0
ARC
  5
11702
  8
0
 62
     5
 10
241.367466
 20
187.22222
 30
0.0
 40
0.2
 50
180.0
 51
270.0
  0
LINE
  5
11703
  8
HIDDEN
 10
382.365631
 20
123.02222
 30
0.0
 11
382.365631
 21
120.410595
 31
0.0
  0
LINE
  5
11704
  8
HIDDEN
 10
368.445825
 20
126.12222
 30
0.0
 11
368.445825
 21
118.92222
 31
0.0
  0
LINE
  5
11705
  8
HIDDEN
 10
349.545825
 20
126.12222
 30
0.0
 11
349.545825
 21
118.92222
 31
0.0
  0
LINE
  5
11706
  8
CENTER
 10
374.895825
 20
133.593017
 30
0.0
 11
374.895825
 21
114.355592
 31
0.0
  0
LINE
  5
11707
  8
CENTER
 10
358.995825
 20
133.593017
 30
0.0
 11
358.995825
 21
111.278901
 31
0.0
  0
LINE
  5
11708
  8
CENTER
 10
364.895825
 20
198.659912
 30
0.0
 11
364.895825
 21
113.878221
 31
0.0
  0
LINE
  5
11709
  8
HIDDEN
 10
353.545825
 20
114.92222
 30
0.0
 11
364.445825
 21
114.92222
 31
0.0
  0
ARC
  5
1170A
  8
HIDDEN
 10
353.547157
 20
118.923553
 30
0.0
 40
4.001333
 50
180.019082
 51
269.980918
  0
LINE
  5
1170B
  8
HIDDEN
 10
378.431385
 20
116.022222
 30
0.0
 11
370.660733
 21
116.02222
 31
0.0
  0
ARC
  5
1170C
  8
HIDDEN
 10
364.445825
 20
118.92222
 30
0.0
 40
4.0
 50
270.0
 51
360.0
  0
ARC
  5
1170D
  8
HIDDEN
 10
378.096159
 20
120.280501
 30
0.0
 40
4.271453
 50
274.501232
 51
1.74531
  0
LINE
  5
1170E
  8
0
 62
     5
 10
346.015073
 20
192.288384
 30
0.0
 11
383.776577
 21
192.288384
 31
0.0
  0
LINE
  5
1170F
  8
CENTER
 10
330.552924
 20
162.02222
 30
0.0
 11
399.238726
 21
162.02222
 31
0.0
  0
LINE
  5
11710
  8
0
 62
     5
 10
362.505213
 20
128.92222
 30
0.0
 11
355.486437
 21
128.92222
 31
0.0
  0
LINE
  5
11711
  8
0
 62
     5
 10
351.637525
 20
123.22222
 30
0.0
 11
366.354125
 21
123.22222
 31
0.0
  0
LINE
  5
11712
  8
0
 62
     5
 10
345.573133
 20
128.62222
 30
0.0
 11
372.336456
 21
128.62222
 31
0.0
  0
LINE
  5
11713
  8
0
 62
     5
 10
339.395825
 20
132.02222
 30
0.0
 11
390.395825
 21
132.02222
 31
0.0
  0
LINE
  5
11714
  8
0
 62
     5
 10
390.395825
 20
192.02222
 30
0.0
 11
339.395825
 21
192.02222
 31
0.0
  0
CIRCLE
  5
11715
  8
0
 62
     5
 10
364.895825
 20
162.02222
 30
0.0
 40
8.5
  0
CIRCLE
  5
11716
  8
0
 62
     5
 10
364.895825
 20
162.02222
 30
0.0
 40
25.0
  0
LINE
  5
11717
  8
CENTER
 10
346.193343
 20
180.724702
 30
0.0
 11
334.452232
 21
192.465813
 31
0.0
  0
LINE
  5
11718
  8
0
 62
     5
 10
334.895825
 20
187.52222
 30
0.0
 11
334.895825
 21
136.52222
 31
0.0
  0
LINE
  5
11719
  8
0
 62
     5
 10
334.62966
 20
143.141468
 30
0.0
 11
334.62966
 21
180.902972
 31
0.0
  0
ARC
  5
1171A
  8
CENTER
 10
364.895825
 20
162.02222
 30
0.0
 40
35.0
 50
216.254023
 51
234.381034
  0
LINE
  5
1171B
  8
CENTER
 10
346.193343
 20
143.319738
 30
0.0
 11
334.452232
 21
131.578627
 31
0.0
  0
ARC
  5
1171C
  8
0
 62
     5
 10
339.395825
 20
136.52222
 30
0.0
 40
4.5
 50
180.0
 51
270.0
  0
CIRCLE
  5
1171D
  8
0
 62
     5
 10
340.147088
 20
137.273483
 30
0.0
 40
2.9
  0
ARC
  5
1171E
  8
HIDDEN
 10
347.245825
 20
126.62222
 30
0.0
 40
0.5
 50
180.0
 51
270.0
  0
LINE
  5
1171F
  8
0
 62
     5
 10
345.073339
 20
132.02222
 30
0.0
 11
345.073133
 21
129.12222
 31
0.0
  0
LINE
  5
11720
  8
HIDDEN
 10
346.745825
 20
127.72222
 30
0.0
 11
346.745825
 21
126.62222
 31
0.0
  0
LINE
  5
11721
  8
0
 62
     5
 10
345.07405
 20
129.092031
 30
0.0
 11
345.073138
 21
129.12222
 31
0.0
  0
LINE
  5
11722
  8
0
 62
     5
 10
345.073138
 20
132.011811
 30
0.0
 11
345.073133
 21
132.011566
 31
0.0
  0
LINE
  5
11723
  8
HIDDEN
 10
347.245825
 20
126.12222
 30
0.0
 11
349.545825
 21
126.12222
 31
0.0
  0
LINE
  5
11724
  8
0
 62
     5
 10
351.637525
 20
123.22222
 30
0.0
 11
351.467823
 21
128.62222
 31
0.0
  0
LINE
  5
11725
  8
0
 62
     5
 10
355.495825
 20
128.82222
 30
0.0
 11
355.495825
 21
128.92222
 31
0.0
  0
ARC
  5
11726
  8
0
 62
     5
 10
355.295825
 20
128.82222
 30
0.0
 40
0.2
 50
270.0
 51
0.0
  0
LINE
  5
11727
  8
0
 62
     5
 10
352.254937
 20
128.62222
 30
0.0
 11
352.32523
 21
123.22222
 31
0.0
  0
CIRCLE
  5
11728
  8
0
 62
     5
 10
338.407117
 20
145.726258
 30
0.0
 40
1.25
  0
ARC
  5
11729
  8
CENTER
 10
364.895825
 20
162.02222
 30
0.0
 40
35.0
 50
126.254023
 51
144.381034
  0
ARC
  5
1172A
  8
0
 62
     5
 10
339.395825
 20
187.52222
 30
0.0
 40
4.5
 50
90.0
 51
180.0
  0
CIRCLE
  5
1172B
  8
0
 62
     5
 10
340.147088
 20
186.770957
 30
0.0
 40
2.9
  0
CIRCLE
  5
1172C
  8
0
 62
     5
 10
348.599863
 20
188.510928
 30
0.0
 40
1.25
  0
LINE
  5
1172D
  8
CENTER
 10
383.598307
 20
180.724702
 30
0.0
 11
395.339418
 21
192.465813
 31
0.0
  0
LINE
  5
1172E
  8
0
 62
     5
 10
394.895825
 20
136.52222
 30
0.0
 11
394.895825
 21
187.52222
 31
0.0
  0
LINE
  5
1172F
  8
0
 62
     5
 10
395.161989
 20
180.902972
 30
0.0
 11
395.161989
 21
143.141468
 31
0.0
  0
LINE
  5
11730
  8
0
 62
     5
 10
371.530625
 20
127.82222
 30
0.0
 11
380.41982
 21
127.82222
 31
0.0
  0
LINE
  5
11731
  8
0
 62
     5
 10
381.558116
 20
124.52222
 30
0.0
 11
366.394979
 21
124.52222
 31
0.0
  0
LINE
  5
11732
  8
0
 62
     5
 10
372.826354
 20
129.02222
 30
0.0
 11
387.085655
 21
129.02222
 31
0.0
  0
LINE
  5
11733
  8
0
 62
     5
 10
372.836456
 20
130.02222
 30
0.0
 11
388.395825
 21
130.02222
 31
0.0
  0
LINE
  5
11734
  8
0
 62
     5
 10
373.334312
 20
131.758892
 30
0.0
 11
383.776577
 21
131.756056
 31
0.0
  0
LINE
  5
11735
  8
0
 62
     5
 10
366.413835
 20
125.12222
 30
0.0
 11
370.345399
 21
125.12222
 31
0.0
  0
LINE
  5
11736
  8
0
 62
     5
 10
366.523826
 20
128.62222
 30
0.0
 11
366.354125
 21
123.22222
 31
0.0
  0
LINE
  5
11737
  8
0
 62
     5
 10
362.495825
 20
128.82222
 30
0.0
 11
362.495825
 21
128.92222
 31
0.0
  0
ARC
  5
11738
  8
0
 62
     5
 10
362.695825
 20
128.82222
 30
0.0
 40
0.2
 50
180.0
 51
270.0
  0
LINE
  5
11739
  8
0
 62
     5
 10
365.66642
 20
123.22222
 30
0.0
 11
365.736713
 21
128.62222
 31
0.0
  0
LINE
  5
1173A
  8
0
 62
     5
 10
372.836456
 20
131.258887
 30
0.0
 11
372.836456
 21
129.12222
 31
0.0
  0
ARC
  5
1173B
  8
0
 62
     5
 10
372.336456
 20
129.12222
 30
0.0
 40
0.5
 50
270.0
 51
0.0
  0
LINE
  5
1173C
  8
HIDDEN
 10
368.445825
 20
126.12222
 30
0.0
 11
370.745825
 21
126.12222
 31
0.0
  0
LINE
  5
1173D
  8
HIDDEN
 10
371.245825
 20
127.72222
 30
0.0
 11
371.245825
 21
126.62222
 31
0.0
  0
ARC
  5
1173E
  8
HIDDEN
 10
370.745825
 20
126.62222
 30
0.0
 40
0.5
 50
270.0
 51
0.0
  0
LINE
  5
1173F
  8
0
 62
     5
 10
371.483695
 20
124.52222
 30
0.0
 11
371.530625
 21
124.82222
 31
0.0
  0
LINE
  5
11740
  8
0
 62
     5
 10
370.345399
 20
125.12222
 30
0.0
 11
370.345399
 21
124.82222
 31
0.0
  0
LINE
  5
11741
  8
0
 62
     5
 10
370.298469
 20
124.52222
 30
0.0
 11
370.345399
 21
124.82222
 31
0.0
  0
LINE
  5
11742
  8
0
 62
     5
 10
370.345399
 20
124.82222
 30
0.0
 11
371.530625
 21
124.82222
 31
0.0
  0
LINE
  5
11743
  8
0
 62
     5
 10
371.530625
 20
124.82222
 30
0.0
 11
371.530625
 21
127.82222
 31
0.0
  0
LINE
  5
11744
  8
0
 62
     5
 10
374.336456
 20
131.758901
 30
0.0
 11
374.334312
 21
131.758892
 31
0.0
  0
ARC
  5
11745
  8
CENTER
 10
364.895825
 20
162.02222
 30
0.0
 40
35.0
 50
306.254023
 51
324.381034
  0
LINE
  5
11746
  8
CENTER
 10
383.598307
 20
143.319738
 30
0.0
 11
395.339418
 21
131.578627
 31
0.0
  0
CIRCLE
  5
11747
  8
0
 62
     5
 10
389.644562
 20
137.273483
 30
0.0
 40
2.9
  0
LINE
  5
11748
  8
HIDDEN
 10
387.08566
 20
124.52222
 30
0.0
 11
387.08566
 21
130.02222
 31
0.0
  0
LINE
  5
11749
  8
0
 62
     5
 10
387.08566
 20
129.02222
 30
0.0
 11
387.08566
 21
130.02222
 31
0.0
  0
LINE
  5
1174A
  8
HIDDEN
 10
382.365631
 20
123.02222
 30
0.0
 11
385.585698
 21
123.02222
 31
0.0
  0
LINE
  5
1174B
  8
0
 62
     5
 10
384.384379
 20
124.52222
 30
0.0
 11
381.558116
 21
124.52222
 31
0.0
  0
LINE
  5
1174C
  8
0
 62
     5
 10
381.605046
 20
125.12222
 30
0.0
 11
384.985611
 21
125.12222
 31
0.0
  0
LINE
  5
1174D
  8
0
 62
     5
 10
380.41982
 20
124.82222
 30
0.0
 11
381.605046
 21
124.82222
 31
0.0
  0
LINE
  5
1174E
  8
0
 62
     5
 10
381.605046
 20
124.82222
 30
0.0
 11
381.605046
 21
125.12222
 31
0.0
  0
LINE
  5
1174F
  8
0
 62
     5
 10
380.41982
 20
124.82222
 30
0.0
 11
380.37289
 21
124.52222
 31
0.0
  0
LINE
  5
11750
  8
0
 62
     5
 10
381.605046
 20
124.82222
 30
0.0
 11
381.558116
 21
124.52222
 31
0.0
  0
LINE
  5
11751
  8
0
 62
     5
 10
380.060021
 20
124.52222
 30
0.0
 11
380.060021
 21
127.82222
 31
0.0
  0
LINE
  5
11752
  8
0
 62
     5
 10
380.41982
 20
127.82222
 30
0.0
 11
380.41982
 21
124.82222
 31
0.0
  0
ARC
  5
11753
  8
HIDDEN
 10
385.58566
 20
124.52222
 30
0.0
 40
1.5
 50
270.0
 51
0.0
  0
LINE
  5
11754
  8
0
 62
     5
 10
384.680686
 20
125.12222
 30
0.0
 11
384.680686
 21
124.82222
 31
0.0
  0
LINE
  5
11755
  8
0
 62
     5
 10
384.384379
 20
124.52222
 30
0.0
 11
384.680686
 21
124.82222
 31
0.0
  0
LINE
  5
11756
  8
0
 62
     5
 10
384.98566
 20
129.02222
 30
0.0
 11
384.98566
 21
125.12222
 31
0.0
  0
CIRCLE
  5
11757
  8
0
 62
     5
 10
381.191787
 20
135.533512
 30
0.0
 40
1.25
  0
ARC
  5
11758
  8
0
 62
     5
 10
390.395825
 20
136.52222
 30
0.0
 40
4.5
 50
270.0
 51
0.0
  0
ARC
  5
11759
  8
0
 62
     5
 10
388.395825
 20
130.22222
 30
0.0
 40
0.2
 50
270.0
 51
0.0
  0
LINE
  5
1175A
  8
0
 62
     5
 10
388.595825
 20
132.02222
 30
0.0
 11
388.595825
 21
130.22222
 31
0.0
  0
CIRCLE
  5
1175B
  8
0
 62
     5
 10
364.895825
 20
162.02222
 30
0.0
 40
7.0
  0
CIRCLE
  5
1175C
  8
0
 62
     5
 10
391.384533
 20
178.318182
 30
0.0
 40
1.25
  0
ARC
  5
1175D
  8
CENTER
 10
364.895825
 20
162.02222
 30
0.0
 40
35.0
 50
36.254023
 51
54.381034
  0
CIRCLE
  5
1175E
  8
0
 62
     5
 10
389.644562
 20
186.770957
 30
0.0
 40
2.9
  0
LINE
  5
1175F
  8
0
 62
     5
 10
387.236212
 20
185.156368
 30
0.0
 11
387.237322
 21
185.157518
 31
0.0
  0
ARC
  5
11760
  8
0
 62
     5
 10
390.395825
 20
187.52222
 30
0.0
 40
4.5
 50
0.0
 51
90.0
  0
POLYLINE
  5
11761
  8
HIDDEN
 66
     1
 10
0.0
 20
0.0
 30
0.0
 70
     2
  0
VERTEX
  5
11762
  8
HIDDEN
 10
75.0057
 20
120.414
 30
0.0
 42
0.007337
  0
VERTEX
  5
11763
  8
HIDDEN
 10
75.150194
 20
119.815329
 30
0.0
 42
0.013157
 70
     1
  0
VERTEX
  5
11764
  8
HIDDEN
 10
75.2444
 20
119.485
 30
0.0
 42
0.001718
  0
VERTEX
  5
11765
  8
HIDDEN
 10
75.486838
 20
118.721755
 30
0.0
 42
0.007459
 70
     1
  0
VERTEX
  5
11766
  8
HIDDEN
 10
75.5459
 20
118.547
 30
0.0
 42
0.024431
  0
VERTEX
  5
11767
  8
HIDDEN
 10
75.704376
 20
118.16112
 30
0.0
 42
0.017111
 70
     1
  0
VERTEX
  5
11768
  8
HIDDEN
 10
75.9755
 20
117.631
 30
0.0
 42
0.030525
  0
VERTEX
  5
11769
  8
HIDDEN
 10
76.184093
 20
117.304132
 30
0.0
 42
0.033624
 70
     1
  0
VERTEX
  5
1176A
  8
HIDDEN
 10
76.4099
 20
117.034
 30
0.0
 42
0.045307
  0
VERTEX
  5
1176B
  8
HIDDEN
 10
76.689333
 20
116.790514
 30
0.0
 42
0.043826
 70
     1
  0
VERTEX
  5
1176C
  8
HIDDEN
 10
77.0182
 20
116.594
 30
0.0
 42
0.019431
  0
VERTEX
  5
1176D
  8
HIDDEN
 10
77.443389
 20
116.408104
 30
0.0
 42
0.0281
 70
     1
  0
VERTEX
  5
1176E
  8
HIDDEN
 10
77.7484
 20
116.308
 30
0.0
 42
0.005088
  0
VERTEX
  5
1176F
  8
HIDDEN
 10
77.924493
 20
116.262893
 30
0.0
 42
0.001726
 70
     1
  0
VERTEX
  5
11770
  8
HIDDEN
 10
78.4454
 20
116.137
 30
0.0
 42
0.010686
  0
VERTEX
  5
11771
  8
HIDDEN
 10
78.642742
 20
116.094461
 30
0.0
 42
0.005588
 70
     1
  0
VERTEX
  5
11772
  8
HIDDEN
 10
79.022514
 20
116.025446
 30
0.0
  0
SEQEND
  5
11773
  8
HIDDEN
  0
POLYLINE
  5
11774
  8
HIDDEN
 66
     1
 10
0.0
 20
0.0
 30
0.0
 70
     2
  0
VERTEX
  5
11775
  8
HIDDEN
 10
85.2051
 20
116.028
 30
0.0
 42
0.021902
  0
VERTEX
  5
11776
  8
HIDDEN
 10
85.638238
 20
116.051388
 30
0.0
 42
0.039022
 70
     1
  0
VERTEX
  5
11777
  8
HIDDEN
 10
85.8782
 20
116.094
 30
0.0
 42
0.012407
  0
VERTEX
  5
11778
  8
HIDDEN
 10
86.450736
 20
116.257745
 30
0.0
 42
0.023426
 70
     1
  0
VERTEX
  5
11779
  8
HIDDEN
 10
86.7471
 20
116.366
 30
0.0
 42
0.036455
  0
VERTEX
  5
1177A
  8
HIDDEN
 10
87.184344
 20
116.588073
 30
0.0
 42
0.034845
 70
     1
  0
VERTEX
  5
1177B
  8
HIDDEN
 10
87.6041
 20
116.883
 30
0.0
 42
0.038321
  0
VERTEX
  5
1177C
  8
HIDDEN
 10
87.939777
 20
117.201244
 30
0.0
 42
0.03995
 70
     1
  0
VERTEX
  5
1177D
  8
HIDDEN
 10
88.2103
 20
117.553
 30
0.0
 42
0.0333
  0
VERTEX
  5
1177E
  8
HIDDEN
 10
88.454356
 20
117.990179
 30
0.0
 42
0.035825
 70
     1
  0
VERTEX
  5
1177F
  8
HIDDEN
 10
88.6231
 20
118.424
 30
0.0
 42
0.021098
  0
VERTEX
  5
11780
  8
HIDDEN
 10
88.807221
 20
119.124145
 30
0.0
 42
0.02805
 70
     1
  0
VERTEX
  5
11781
  8
HIDDEN
 10
88.8934
 20
119.662
 30
0.0
 42
0.004462
  0
VERTEX
  5
11782
  8
HIDDEN
 10
88.933246
 20
120.085247
 30
0.0
 42
0.002125
 70
     1
  0
VERTEX
  5
11783
  8
HIDDEN
 10
89.0052
 20
120.975
 30
0.0
 42
0.006526
  0
VERTEX
  5
11784
  8
HIDDEN
 10
89.014308
 20
121.118493
 30
0.0
 42
0.002463
 70
     1
  0
VERTEX
  5
11785
  8
HIDDEN
 10
89.0316
 20
121.499
 30
0.0
  0
SEQEND
  5
11786
  8
HIDDEN
  0
POLYLINE
  5
11787
  8
HIDDEN
 66
     1
 10
0.0
 20
0.0
 30
0.0
 70
     2
  0
VERTEX
  5
11788
  8
HIDDEN
 10
192.596
 20
129.622
 30
0.0
 42
-0.016948
  0
VERTEX
  5
11789
  8
HIDDEN
 10
192.731332
 20
129.617288
 30
0.0
 42
-0.027563
 70
     1
  0
VERTEX
  5
1178A
  8
HIDDEN
 10
192.814
 20
129.607
 30
0.0
 42
-0.002254
  0
VERTEX
  5
1178B
  8
HIDDEN
 10
192.955962
 20
129.580664
 30
0.0
 42
-0.015109
 70
     1
  0
VERTEX
  5
1178C
  8
HIDDEN
 10
192.977
 20
129.576
 30
0.0
 42
-0.011937
  0
VERTEX
  5
1178D
  8
HIDDEN
 10
193.029481
 20
129.561349
 30
0.0
 42
-0.00498
 70
     1
  0
VERTEX
  5
1178E
  8
HIDDEN
 10
193.154
 20
129.522
 30
0.0
 42
-0.016119
  0
VERTEX
  5
1178F
  8
HIDDEN
 10
193.169371
 20
129.516419
 30
0.0
 42
-0.005458
 70
     1
  0
VERTEX
  5
11790
  8
HIDDEN
 10
193.214
 20
129.498
 30
0.0
  0
SEQEND
  5
11791
  8
HIDDEN
  0
POLYLINE
  5
11792
  8
HIDDEN
 66
     1
 10
0.0
 20
0.0
 30
0.0
 70
     2
  0
VERTEX
  5
11793
  8
HIDDEN
 10
192.595
 20
116.023
 30
0.0
 42
0.028601
  0
VERTEX
  5
11794
  8
HIDDEN
 10
192.818654
 20
116.03524
 30
0.0
 42
0.044465
 70
     1
  0
VERTEX
  5
11795
  8
HIDDEN
 10
192.96
 20
116.064
 30
0.0
 42
0.006073
  0
VERTEX
  5
11796
  8
HIDDEN
 10
193.18797
 20
116.134957
 30
0.0
 42
0.03366
 70
     1
  0
VERTEX
  5
11797
  8
HIDDEN
 10
193.228
 20
116.151
 30
0.0
 42
0.011365
  0
VERTEX
  5
11798
  8
HIDDEN
 10
193.303488
 20
116.18946
 30
0.0
 42
0.005317
 70
     1
  0
VERTEX
  5
11799
  8
HIDDEN
 10
193.462
 20
116.277
 30
0.0
 42
0.012712
  0
VERTEX
  5
1179A
  8
HIDDEN
 10
193.491089
 20
116.294462
 30
0.0
 42
0.005402
 70
     1
  0
VERTEX
  5
1179B
  8
HIDDEN
 10
193.558
 20
116.338
 30
0.0
  0
SEQEND
  5
1179C
  8
HIDDEN
  0
POLYLINE
  5
1179D
  8
HIDDEN
 66
     1
 10
0.0
 20
0.0
 30
0.0
 70
     2
  0
VERTEX
  5
1179E
  8
HIDDEN
 10
196.121
 20
117.222
 30
0.0
 42
0.015338
  0
VERTEX
  5
1179F
  8
HIDDEN
 10
196.238221
 20
117.23065
 30
0.0
 42
0.02416
 70
     1
  0
VERTEX
  5
117A0
  8
HIDDEN
 10
196.312
 20
117.242
 30
0.0
 42
0.002284
  0
VERTEX
  5
117A1
  8
HIDDEN
 10
196.4319
 20
117.266995
 30
0.0
 42
0.016865
 70
     1
  0
VERTEX
  5
117A2
  8
HIDDEN
 10
196.448
 20
117.271
 30
0.0
 42
0.015927
  0
VERTEX
  5
117A3
  8
HIDDEN
 10
196.464727
 20
117.276347
 30
0.0
 42
0.002913
 70
     1
  0
VERTEX
  5
117A4
  8
HIDDEN
 10
196.555
 20
117.309
 30
0.0
 42
0.027695
  0
VERTEX
  5
117A5
  8
HIDDEN
 10
196.604144
 20
117.330259
 30
0.0
 42
0.016947
 70
     1
  0
VERTEX
  5
117A6
  8
HIDDEN
 10
196.681
 20
117.372
 30
0.0
  0
SEQEND
  5
117A7
  8
HIDDEN
  0
POLYLINE
  5
117A8
  8
HIDDEN
 66
     1
 10
0.0
 20
0.0
 30
0.0
 70
     2
  0
VERTEX
  5
117A9
  8
HIDDEN
 10
370.661
 20
116.022
 30
0.0
 42
-0.011425
  0
VERTEX
  5
117AA
  8
HIDDEN
 10
370.372473
 20
116.034958
 30
0.0
 42
-0.01948
 70
     1
  0
VERTEX
  5
117AB
  8
HIDDEN
 10
370.204
 20
116.053
 30
0.0
 42
-0.002169
  0
VERTEX
  5
117AC
  8
HIDDEN
 10
369.853665
 20
116.105941
 30
0.0
 42
-0.013832
 70
     1
  0
VERTEX
  5
117AD
  8
HIDDEN
 10
369.799
 20
116.116
 30
0.0
 42
-0.017401
  0
VERTEX
  5
117AE
  8
HIDDEN
 10
369.607814
 20
116.163687
 30
0.0
 42
-0.014157
 70
     1
  0
VERTEX
  5
117AF
  8
HIDDEN
 10
369.377
 20
116.237
 30
0.0
 42
-0.011275
  0
VERTEX
  5
117B0
  8
HIDDEN
 10
369.301814
 20
116.265164
 30
0.0
 42
-0.002732
 70
     1
  0
VERTEX
  5
117B1
  8
HIDDEN
 10
368.995
 20
116.39
 30
0.0
 42
-0.023793
  0
VERTEX
  5
117B2
  8
HIDDEN
 10
368.882076
 20
116.443089
 30
0.0
 42
-0.012434
 70
     1
  0
VERTEX
  5
117B3
  8
HIDDEN
 10
368.674
 20
116.56
 30
0.0
  0
SEQEND
  5
117B4
  8
HIDDEN
  0
LINE
  5
117B5
  8
0
 62
     5
 10
193.067466
 20
181.781309
 30
0.0
 11
232.167466
 21
181.581589
 31
0.0
  0
LINE
  5
117B6
  8
0
 62
     5
 10
193.067466
 20
142.144004
 30
0.0
 11
232.167466
 21
142.462851
 31
0.0
  0
ARC
  5
117B7
  8
0
 62
     5
 10
183.33594
 20
136.183569
 30
0.0
 40
2.413046
 50
152.139029
 51
180.535898
  0
ARC
  5
117B8
  8
0
 62
     5
 10
182.514821
 20
136.257045
 30
0.0
 40
1.594838
 50
183.524558
 51
196.147142
  0
ARC
  5
117B9
  8
0
 62
     5
 10
182.244547
 20
134.861422
 30
0.0
 40
1.321171
 50
162.736012
 51
178.239973
  0
ARC
  5
117BA
  8
0
 62
     5
 10
183.312027
 20
134.875125
 30
0.0
 40
2.388178
 50
179.355226
 51
207.959801
  0
ARC
  5
117BB
  8
0
 62
     5
 10
190.741867
 20
146.208454
 30
0.0
 40
4.817509
 50
163.769655
 51
178.102137
  0
ARC
  5
117BC
  8
0
 62
     5
 10
188.326837
 20
146.593728
 30
0.0
 40
2.410429
 50
185.373408
 51
194.10619
  0
ARC
  5
117BD
  8
0
 62
     5
 10
187.785127
 20
144.951961
 30
0.0
 40
1.862812
 50
164.612261
 51
175.918905
  0
ARC
  5
117BE
  8
0
 62
     5
 10
190.749561
 20
145.245133
 30
0.0
 40
4.825196
 50
181.907341
 51
196.217012
  0
ARC
  5
117BF
  8
0
 62
     5
 10
187.786374
 20
187.736296
 30
0.0
 40
1.864103
 50
164.612511
 51
175.91771
  0
ARC
  5
117C0
  8
0
 62
     5
 10
190.738389
 20
188.028202
 30
0.0
 40
4.814022
 50
181.895143
 51
196.235859
  0
ARC
  5
117C1
  8
0
 62
     5
 10
190.908013
 20
188.966566
 30
0.0
 40
4.984501
 50
164.010343
 51
177.856481
  0
ARC
  5
117C2
  8
0
 62
     5
 10
187.773078
 20
189.283226
 30
0.0
 40
1.850666
 50
184.035077
 51
195.42707
  0
ARC
  5
117C3
  8
0
 62
     5
 10
182.434551
 20
177.594146
 30
0.0
 40
1.518045
 50
162.992023
 51
174.141981
  0
ARC
  5
117C4
  8
0
 62
     5
 10
183.299643
 20
177.659089
 30
0.0
 40
2.376914
 50
177.830146
 51
208.084727
  0
ARC
  5
117C5
  8
0
 62
     5
 10
182.293313
 20
179.003604
 30
0.0
 40
1.371697
 50
182.574062
 51
197.19127
  0
ARC
  5
117C6
  8
0
 62
     5
 10
183.33476
 20
178.968788
 30
0.0
 40
2.411909
 50
152.130135
 51
180.636366
  0
ARC
  5
117C7
  8
0
 62
     5
 10
184.267315
 20
181.781026
 30
0.0
 40
0.199869
 50
89.956596
 51
179.183693
  0
ARC
  5
117C8
  8
0
 62
     5
 10
109.790643
 20
191.287068
 30
0.0
 40
1.001317
 50
4.495871
 51
89.929773
  0
ARC
  5
117C9
  8
0
 62
     5
 10
72.031593
 20
191.287068
 30
0.0
 40
1.001317
 50
90.070227
 51
175.504129
  0
ARC
  5
117CA
  8
0
 62
     5
 10
61.64627
 20
180.901745
 30
0.0
 40
1.001317
 50
94.495871
 51
179.929773
  0
ARC
  5
117CB
  8
0
 62
     5
 10
61.64627
 20
143.142695
 30
0.0
 40
1.001317
 50
180.070227
 51
265.504129
  0
ARC
  5
117CC
  8
0
 62
     5
 10
110.234348
 20
129.121682
 30
0.0
 40
0.499462
 50
269.938297
 51
0.061703
  0
ARC
  5
117CD
  8
0
 62
     5
 10
120.175966
 20
143.142695
 30
0.0
 40
1.001317
 50
274.495871
 51
359.929773
  0
ARC
  5
117CE
  8
0
 62
     5
 10
120.175966
 20
180.901745
 30
0.0
 40
1.001317
 50
0.070227
 51
85.504129
  0
ARC
  5
117CF
  8
0
 62
     5
 10
373.33618
 20
131.259171
 30
0.0
 40
0.499724
 50
90.214199
 51
180.032592
  0
ARC
  5
117D0
  8
0
 62
     5
 10
345.572729
 20
129.121786
 30
0.0
 40
0.499566
 50
183.414716
 51
270.046278
  0
ARC
  5
117D1
  8
0
 62
     5
 10
383.773243
 20
132.765426
 30
0.0
 40
1.009376
 50
270.189266
 51
312.582607
  0
LINE
  5
117D2
  8
0
 62
     5
 10
211.066
 20
132.009
 30
0.0
 11
211.461
 21
131.779
 31
0.0
  0
ARC
  5
117D3
  8
0
 62
     5
 10
212.064136
 20
131.429466
 30
0.0
 40
0.697099
 50
149.906532
 51
182.011202
  0
ARC
  5
117D4
  8
0
 62
     5
 10
346.012819
 20
191.294779
 30
0.0
 40
0.993608
 50
89.870012
 51
132.93553
  0
ARC
  5
117D5
  8
0
 62
     5
 10
383.778831
 20
191.294779
 30
0.0
 40
0.993608
 50
47.06447
 51
90.129988
  0
ARC
  5
117D6
  8
0
 62
     5
 10
335.632253
 20
180.901569
 30
0.0
 40
1.002593
 50
137.266926
 51
179.919822
  0
ARC
  5
117D7
  8
0
 62
     5
 10
335.632253
 20
143.142871
 30
0.0
 40
1.002593
 50
180.080178
 51
222.733074
  0
ARC
  5
117D8
  8
0
 62
     5
 10
394.159397
 20
180.901569
 30
0.0
 40
1.002593
 50
0.080178
 51
42.733074
  0
ARC
  5
117D9
  8
0
 62
     5
 10
394.159397
 20
143.142871
 30
0.0
 40
1.002593
 50
317.266926
 51
359.919822
  0
ARC
  5
117DA
  8
0
 62
     5
 10
193.727102
 20
131.946773
 30
0.0
 40
0.065464
 50
96.537739
 51
142.813725
  0
ARC
  5
117DB
  8
0
 62
     5
 10
194.001504
 20
131.739172
 30
0.0
 40
0.40955
 50
142.878141
 51
163.721202
  0
ENDSEC
  0
EOF
