  0
SECTION
  2
HEADER
  9
$ACADVER
  1
AC1009
  9
$INSBASE
 10
0.0
 20
0.0
 30
0.0
  9
$EXTMIN
 10
102.07509
 20
159.97726
 30
0.0
  9
$EXTMAX
 10
724.00513
 20
440.01114
 30
0.0
  9
$LIMMIN
 10
0.0
 20
0.0
  9
$LIMMAX
 10
12.0
 20
9.0
  9
$ORTHOMODE
 70
     1
  9
$REGENMODE
 70
     1
  9
$FILLMODE
 70
     1
  9
$QTEXTMODE
 70
     0
  9
$MIRRTEXT
 70
     1
  9
$DRAGMODE
 70
     2
  9
$LTSCALE
 40
1.0
  9
$OSMODE
 70
     1
  9
$ATTMODE
 70
     1
  9
$TEXTSIZE
 40
0.2
  9
$TRACEWID
 40
0.05
  9
$TEXTSTYLE
  7
STANDARD
  9
$CLAYER
  8
0
  9
$CELTYPE
  6
CONTINUOUS
  9
$CECOLOR
 62
   256
  9
$DIMSCALE
 40
1.0
  9
$DIMASZ
 40
0.18
  9
$DIMEXO
 40
0.0625
  9
$DIMDLI
 40
0.38
  9
$DIMRND
 40
0.0
  9
$DIMDLE
 40
0.0
  9
$DIMEXE
 40
0.18
  9
$DIMTP
 40
0.0
  9
$DIMTM
 40
0.0
  9
$DIMTXT
 40
5.0
  9
$DIMCEN
 40
0.09
  9
$DIMTSZ
 40
0.0
  9
$DIMTOL
 70
     0
  9
$DIMLIM
 70
     0
  9
$DIMTIH
 70
     1
  9
$DIMTOH
 70
     1
  9
$DIMSE1
 70
     0
  9
$DIMSE2
 70
     0
  9
$DIMTAD
 70
     0
  9
$DIMZIN
 70
     0
  9
$DIMBLK
  1

  9
$DIMASO
 70
     1
  9
$DIMSHO
 70
     1
  9
$DIMPOST
  1

  9
$DIMAPOST
  1

  9
$DIMALT
 70
     0
  9
$DIMALTD
 70
     2
  9
$DIMALTF
 40
25.4
  9
$DIMLFAC
 40
1.0
  9
$DIMTOFL
 70
     0
  9
$DIMTVP
 40
0.0
  9
$DIMTIX
 70
     0
  9
$DIMSOXD
 70
     0
  9
$DIMSAH
 70
     0
  9
$DIMBLK1
  1

  9
$DIMBLK2
  1

  9
$DIMSTYLE
  2
STANDARD
  9
$DIMCLRD
 70
     0
  9
$DIMCLRE
 70
     0
  9
$DIMCLRT
 70
     0
  9
$DIMTFAC
 40
1.0
  9
$DIMGAP
 40
5.0
  9
$LUNITS
 70
     2
  9
$LUPREC
 70
     4
  9
$SKETCHINC
 40
0.1
  9
$FILLETRAD
 40
0.0
  9
$AUNITS
 70
     0
  9
$AUPREC
 70
     0
  9
$MENU
  1
.
  9
$ELEVATION
 40
0.0
  9
$PELEVATION
 40
0.0
  9
$THICKNESS
 40
0.0
  9
$LIMCHECK
 70
     0
  9
$BLIPMODE
 70
     0
  9
$CHAMFERA
 40
0.0
  9
$CHAMFERB
 40
0.0
  9
$SKPOLY
 70
     0
  9
$TDCREATE
 40
2450795.566865
  9
$TDUPDATE
 40
2450795.566865
  9
$TDINDWG
 40
0.0
  9
$TDUSRTIMER
 40
0.0
  9
$USRTIMER
 70
     1
  9
$ANGBASE
 50
0.0
  9
$ANGDIR
 70
     0
  9
$PDMODE
 70
     0
  9
$PDSIZE
 40
0.0
  9
$PLINEWID
 40
0.0
  9
$COORDS
 70
     1
  9
$SPLFRAME
 70
     0
  9
$SPLINETYPE
 70
     6
  9
$SPLINESEGS
 70
     8
  9
$ATTDIA
 70
     0
  9
$ATTREQ
 70
     1
  9
$HANDLING
 70
     1
  9
$HANDSEED
  5
212
  9
$SURFTAB1
 70
     6
  9
$SURFTAB2
 70
     6
  9
$SURFTYPE
 70
     6
  9
$SURFU
 70
     6
  9
$SURFV
 70
     6
  9
$UCSNAME
  2

  9
$UCSORG
 10
0.0
 20
0.0
 30
0.0
  9
$UCSXDIR
 10
1.0
 20
0.0
 30
0.0
  9
$UCSYDIR
 10
0.0
 20
1.0
 30
0.0
  9
$PUCSNAME
  2

  9
$PUCSORG
 10
0.0
 20
0.0
 30
0.0
  9
$PUCSXDIR
 10
1.0
 20
0.0
 30
0.0
  9
$PUCSYDIR
 10
0.0
 20
1.0
 30
0.0
  9
$USERI1
 70
     0
  9
$USERI2
 70
     0
  9
$USERI3
 70
     0
  9
$USERI4
 70
     0
  9
$USERI5
 70
     0
  9
$USERR1
 40
0.0
  9
$USERR2
 40
0.0
  9
$USERR3
 40
0.0
  9
$USERR4
 40
0.0
  9
$USERR5
 40
0.0
  9
$WORLDVIEW
 70
     1
  9
$SHADEDGE
 70
     3
  9
$SHADEDIF
 70
    70
  9
$TILEMODE
 70
     1
  9
$MAXACTVP
 70
    48
  9
$PLIMCHECK
 70
     0
  9
$PEXTMIN
 10
1.000000E+020
 20
1.000000E+020
 30
1.000000E+020
  9
$PEXTMAX
 10
-1.000000E+020
 20
-1.000000E+020
 30
-1.000000E+020
  9
$PLIMMIN
 10
0.0
 20
0.0
  9
$PLIMMAX
 10
12.0
 20
9.0
  9
$UNITMODE
 70
     0
  9
$VISRETAIN
 70
     1
  9
$PLINEGEN
 70
     0
  9
$PSLTSCALE
 70
     1
  0
ENDSEC
  0
SECTION
  2
TABLES
  0
TABLE
  2
VPORT
 70
     2
  0
VPORT
  2
*ACTIVE
 70
     0
 10
0.0
 20
0.0
 11
1.0
 21
1.0
 12
448.490537
 22
233.491443
 13
0.0
 23
0.0
 14
1.0
 24
1.0
 15
0.0
 25
0.0
 16
0.0
 26
0.0
 36
1.0
 17
0.0
 27
0.0
 37
0.0
 40
542.642292
 41
1.602828
 42
50.0
 43
0.0
 44
0.0
 50
0.0
 51
0.0
 71
     0
 72
   100
 73
     1
 74
     1
 75
     0
 76
     0
 77
     0
 78
     0
  0
ENDTAB
  0
TABLE
  2
LTYPE
 70
     5
  0
LTYPE
  2
CONTINUOUS
 70
     0
  3
Solid line
 72
    65
 73
     0
 40
0.0
  0
LTYPE
  2
DASHED
 70
     0
  3
__ __ __ __ __ __ __ __ __ __ __ __ __ __ __
 72
    65
 73
     2
 40
3.5
 49
2.0
 49
-1.5
  0
LTYPE
  2
CENTER
 70
     0
  3
____ _ ____ _ ____ _ ____ _ ____ _ ____ _ ____
 72
    65
 73
     4
 40
17.5
 49
13.0
 49
-1.5
 49
1.5
 49
-1.5
  0
LTYPE
  2
PHANTOM
 70
     0
  3
_____ _ _ _____ _ _ _____ _ _ _____ _ _ ____  
 72
    65
 73
     6
 40
15.5
 49
8.0
 49
-1.5
 49
1.5
 49
-1.5
 49
1.5
 49
-1.5
  0
LTYPE
  2
DOT
 70
     0
  3
. . . . . . . . . . . . . . . . . . . . . . . .
 72
    65
 73
     2
 40
0.25
 49
0.0
 49
-0.25
  0
ENDTAB
  0
TABLE
  2
LAYER
 70
     2
  0
LAYER
  2
0
 70
     0
 62
     7
  6
CONTINUOUS
  0
LAYER
  2
DEFPOINTS
 70
     0
 62
     7
  6
CONTINUOUS
  0
ENDTAB
  0
TABLE
  2
STYLE
 70
     1
  0
STYLE
  2
STANDARD
 70
     0
 40
0.0
 41
1.0
 50
0.0
 71
     0
 42
0.2
  3
txt
  4

  0
ENDTAB
  0
TABLE
  2
VIEW
 70
     0
  0
ENDTAB
  0
TABLE
  2
UCS
 70
     0
  0
ENDTAB
  0
TABLE
  2
APPID
 70
     1
  0
APPID
  2
ACAD
 70
     0
  0
ENDTAB
  0
TABLE
  2
DIMSTYLE
 70
     1
  0
DIMSTYLE
  2
STANDARD
 70
     0
  3

  4

  5

  6

  7

 40
1.0
 41
0.18
 42
0.0625
 43
0.38
 44
0.18
 45
0.0
 46
0.0
 47
0.0
 48
0.0
140
0.18
141
0.09
142
0.0
143
25.4
144
1.0
145
0.0
146
1.0
147
0.09
 71
     0
 72
     0
 73
     1
 74
     1
 75
     0
 76
     0
 77
     0
 78
     0
170
     0
171
     2
172
     0
173
     0
174
     0
175
     0
176
     0
177
     0
178
     0
  0
ENDTAB
  0
ENDSEC
  0
SECTION
  2
BLOCKS
  0
BLOCK
  8
0
  2
$MODEL_SPACE
 70
     0
 10
0.0
 20
0.0
 30
0.0
  3
$MODEL_SPACE
  1

  0
ENDBLK
  5
20C
  8
0
  0
BLOCK
 67
     1
  8
0
  2
$PAPER_SPACE
 70
     0
 10
0.0
 20
0.0
 30
0.0
  3
$PAPER_SPACE
  1

  0
ENDBLK
  5
20A
 67
     1
  8
0
  0
BLOCK
  8
0
  2
*D2
 70
     1
 10
0.0
 20
0.0
 30
0.0
  3
*D2
  1

  0
LINE
  5
17E
  8
0
  6
BYBLOCK
 62
     0
 10
581.798319
 20
336.888122
 30
0.0
 11
581.798854
 21
403.570381
 31
0.0
  0
LINE
  5
17F
  8
0
  6
BYBLOCK
 62
     0
 10
711.794801
 20
336.88708
 30
0.0
 11
711.795335
 21
403.569339
 31
0.0
  0
LINE
  5
180
  8
0
  6
BYBLOCK
 62
     0
 10
581.978852
 20
403.39038
 30
0.0
 11
646.107093
 21
403.389866
 31
0.0
  0
LINE
  5
181
  8
0
  6
BYBLOCK
 62
     0
 10
711.615334
 20
403.38934
 30
0.0
 11
647.487093
 21
403.389855
 31
0.0
  0
SOLID
  5
182
  8
0
  6
BYBLOCK
 62
     0
 10
581.978853
 20
403.42038
 30
0.0
 11
581.978852
 21
403.36038
 31
0.0
 12
581.798852
 22
403.390381
 32
0.0
 13
581.798852
 23
403.390381
 33
0.0
  0
SOLID
  5
183
  8
0
  6
BYBLOCK
 62
     0
 10
711.615334
 20
403.41934
 30
0.0
 11
711.615333
 21
403.35934
 31
0.0
 12
711.795334
 22
403.389339
 32
0.0
 13
711.795334
 23
403.389339
 33
0.0
  0
TEXT
  5
18C
  8
0
 62
     0
 10
646.437
 20
403.071
 30
0.0
 40
0.18
  1
129.9965
  0
POINT
  5
186
  8
DEFPOINTS
  6
BYBLOCK
 62
     0
 10
581.798319
 20
336.825622
 30
0.0
  0
POINT
  5
187
  8
DEFPOINTS
  6
BYBLOCK
 62
     0
 10
711.7948
 20
336.82458
 30
0.0
  0
POINT
  5
188
  8
DEFPOINTS
  6
BYBLOCK
 62
     0
 10
711.795334
 20
403.389339
 30
0.0
  0
ENDBLK
  5
189
  8
0
  0
BLOCK
  8
0
  2
*D3
 70
     1
 10
0.0
 20
0.0
 30
0.0
  3
*D3
  1

  0
LINE
  5
1B9
  8
0
  6
BYBLOCK
 62
     0
 10
469.89185
 20
341.01889
 30
0.0
 11
549.821082
 21
341.01889
 31
0.0
  0
LINE
  5
1BA
  8
0
  6
BYBLOCK
 62
     0
 10
469.89185
 20
231.01889
 30
0.0
 11
549.821082
 21
231.01889
 31
0.0
  0
LINE
  5
1BB
  8
0
  6
BYBLOCK
 62
     0
 10
549.641082
 20
340.83889
 30
0.0
 11
549.641082
 21
293.51889
 31
0.0
  0
LINE
  5
1BC
  8
0
  6
BYBLOCK
 62
     0
 10
549.641082
 20
231.19889
 30
0.0
 11
549.641082
 21
278.51889
 31
0.0
  0
SOLID
  5
1BD
  8
0
  6
BYBLOCK
 62
     0
 10
549.611082
 20
340.83889
 30
0.0
 11
549.671082
 21
340.83889
 31
0.0
 12
549.641082
 22
341.01889
 32
0.0
 13
549.641082
 23
341.01889
 33
0.0
  0
SOLID
  5
1BE
  8
0
  6
BYBLOCK
 62
     0
 10
549.611082
 20
231.19889
 30
0.0
 11
549.671082
 21
231.19889
 31
0.0
 12
549.641082
 22
231.01889
 32
0.0
 13
549.641082
 23
231.01889
 33
0.0
  0
TEXT
  5
1BF
  8
0
  6
BYBLOCK
 62
     0
 10
535.891082
 20
283.51889
 30
0.0
 40
5.0
  1
110.0000
  0
POINT
  5
1C0
  8
DEFPOINTS
  6
BYBLOCK
 62
     0
 10
469.82935
 20
341.01889
 30
0.0
  0
POINT
  5
1C1
  8
DEFPOINTS
  6
BYBLOCK
 62
     0
 10
469.82935
 20
231.01889
 30
0.0
  0
POINT
  5
1C2
  8
DEFPOINTS
  6
BYBLOCK
 62
     0
 10
549.641082
 20
231.01889
 30
0.0
  0
ENDBLK
  5
1C3
  8
0
  0
BLOCK
  8
0
  2
*D4
 70
     1
 10
0.0
 20
0.0
 30
0.0
  3
*D4
  1

  0
LINE
  5
1C7
  8
0
  6
BYBLOCK
 62
     0
 10
521.89185
 20
298.01889
 30
0.0
 11
553.935962
 21
298.01889
 31
0.0
  0
LINE
  5
1C8
  8
0
  6
BYBLOCK
 62
     0
 10
521.89185
 20
274.01889
 30
0.0
 11
553.935962
 21
274.01889
 31
0.0
  0
LINE
  5
1C9
  8
0
  6
BYBLOCK
 62
     0
 10
553.755962
 20
298.19889
 30
0.0
 11
553.755962
 21
298.37889
 31
0.0
  0
LINE
  5
1CA
  8
0
  6
BYBLOCK
 62
     0
 10
553.755962
 20
273.83889
 30
0.0
 11
553.755962
 21
273.65889
 31
0.0
  0
SOLID
  5
1CB
  8
0
  6
BYBLOCK
 62
     0
 10
553.725962
 20
298.19889
 30
0.0
 11
553.785962
 21
298.19889
 31
0.0
 12
553.755962
 22
298.01889
 32
0.0
 13
553.755962
 23
298.01889
 33
0.0
  0
SOLID
  5
1CC
  8
0
  6
BYBLOCK
 62
     0
 10
553.725962
 20
273.83889
 30
0.0
 11
553.785962
 21
273.83889
 31
0.0
 12
553.755962
 22
274.01889
 32
0.0
 13
553.755962
 23
274.01889
 33
0.0
  0
TEXT
  5
1CD
  8
0
  6
BYBLOCK
 62
     0
 10
540.422628
 20
283.51889
 30
0.0
 40
5.0
  1
24.0000
  0
POINT
  5
1CE
  8
DEFPOINTS
  6
BYBLOCK
 62
     0
 10
521.82935
 20
298.01889
 30
0.0
  0
POINT
  5
1CF
  8
DEFPOINTS
  6
BYBLOCK
 62
     0
 10
521.82935
 20
274.01889
 30
0.0
  0
POINT
  5
1D0
  8
DEFPOINTS
  6
BYBLOCK
 62
     0
 10
553.755962
 20
274.01889
 30
0.0
  0
ENDBLK
  5
1D1
  8
0
  0
BLOCK
  8
0
  2
*D5
 70
     1
 10
0.0
 20
0.0
 30
0.0
  3
*D5
  1

  0
LINE
  5
1D5
  8
0
  6
BYBLOCK
 62
     0
 10
595.929541
 20
351.019117
 30
0.0
 11
547.81513
 21
351.019117
 31
0.0
  0
LINE
  5
1D6
  8
0
  6
BYBLOCK
 62
     0
 10
595.928384
 20
221.019567
 30
0.0
 11
547.81513
 21
221.019567
 31
0.0
  0
LINE
  5
1D7
  8
0
  6
BYBLOCK
 62
     0
 10
547.99513
 20
350.839117
 30
0.0
 11
547.99513
 21
293.519342
 31
0.0
  0
LINE
  5
1D8
  8
0
  6
BYBLOCK
 62
     0
 10
547.99513
 20
221.199567
 30
0.0
 11
547.99513
 21
278.519342
 31
0.0
  0
SOLID
  5
1D9
  8
0
  6
BYBLOCK
 62
     0
 10
547.96513
 20
350.839117
 30
0.0
 11
548.02513
 21
350.839117
 31
0.0
 12
547.99513
 22
351.019117
 32
0.0
 13
547.99513
 23
351.019117
 33
0.0
  0
SOLID
  5
1DA
  8
0
  6
BYBLOCK
 62
     0
 10
547.96513
 20
221.199567
 30
0.0
 11
548.02513
 21
221.199567
 31
0.0
 12
547.99513
 22
221.019567
 32
0.0
 13
547.99513
 23
221.019567
 33
0.0
  0
TEXT
  5
1DB
  8
0
  6
BYBLOCK
 62
     0
 10
531.328463
 20
283.519342
 30
0.0
 40
5.0
  1
129.9996
  0
POINT
  5
1DC
  8
DEFPOINTS
  6
BYBLOCK
 62
     0
 10
595.992041
 20
351.019117
 30
0.0
  0
POINT
  5
1DD
  8
DEFPOINTS
  6
BYBLOCK
 62
     0
 10
595.990884
 20
221.019567
 30
0.0
  0
POINT
  5
1DE
  8
DEFPOINTS
  6
BYBLOCK
 62
     0
 10
547.99513
 20
221.019567
 30
0.0
  0
ENDBLK
  5
1DF
  8
0
  0
ENDSEC
  0
SECTION
  2
ENTITIES
  0
LINE
  5
23
  8
0
  6
CENTER
 62
     6
 10
102.07509
 20
286.01901
 30
0.0
 11
255.99844
 21
286.01901
 31
0.0
  0
LINE
  5
24
  8
0
  6
CENTER
 62
     6
 10
180.78474
 20
159.97726
 30
0.0
 11
180.78474
 21
361.39188
 31
0.0
  0
LINE
  5
25
  8
0
  6
CONTINUOUS
 62
     5
 10
129.97874
 20
221.01904
 30
0.0
 11
165.98473
 21
221.01904
 31
0.0
  0
LINE
  5
26
  8
0
  6
CONTINUOUS
 62
     5
 10
195.58473
 20
221.01904
 30
0.0
 11
231.59074
 21
221.01904
 31
0.0
  0
LINE
  5
27
  8
0
  6
CONTINUOUS
 62
     5
 10
245.78473
 20
235.21304
 30
0.0
 11
245.78473
 21
336.82504
 31
0.0
  0
LINE
  5
28
  8
0
  6
CONTINUOUS
 62
     5
 10
115.78474
 20
235.21304
 30
0.0
 11
115.78474
 21
336.82504
 31
0.0
  0
LINE
  5
29
  8
0
  6
CONTINUOUS
 62
     5
 10
129.97882
 20
351.01904
 30
0.0
 11
231.59067
 21
351.01904
 31
0.0
  0
LINE
  5
2A
  8
0
  6
CONTINUOUS
 62
     5
 10
160.28474
 20
227.61899
 30
0.0
 11
201.28474
 21
227.61899
 31
0.0
  0
LINE
  5
2B
  8
0
  6
CONTINUOUS
 62
     5
 10
160.28474
 20
227.61899
 30
0.0
 11
160.28474
 21
251.67169
 31
0.0
  0
LINE
  5
2C
  8
0
  6
CONTINUOUS
 62
     5
 10
161.78474
 20
227.61899
 30
0.0
 11
161.78474
 21
252.53418
 31
0.0
  0
LINE
  5
2D
  8
0
  6
CONTINUOUS
 62
     5
 10
138.28474
 20
258.51547
 30
0.0
 11
138.28474
 21
313.52261
 31
0.0
  0
LINE
  5
2E
  8
0
  6
CONTINUOUS
 62
     5
 10
153.27171
 20
328.50958
 30
0.0
 11
208.29774
 21
328.50958
 31
0.0
  0
LINE
  5
2F
  8
0
  6
CONTINUOUS
 62
     5
 10
223.28473
 20
258.51547
 30
0.0
 11
223.28473
 21
313.52261
 31
0.0
  0
LINE
  5
30
  8
0
  6
CONTINUOUS
 62
     5
 10
197.18468
 20
175.0186
 30
0.0
 11
198.18471
 21
176.01863
 31
0.0
  0
LINE
  5
31
  8
0
  6
CONTINUOUS
 62
     5
 10
164.38474
 20
175.01859
 30
0.0
 11
197.18474
 21
175.01859
 31
0.0
  0
LINE
  5
32
  8
0
  6
CONTINUOUS
 62
     5
 10
164.38472
 20
175.01855
 30
0.0
 11
163.38472
 21
176.01855
 31
0.0
  0
LINE
  5
33
  8
0
  6
CONTINUOUS
 62
     5
 10
163.38472
 20
176.01859
 30
0.0
 11
163.38472
 21
194.01859
 31
0.0
  0
LINE
  5
34
  8
0
  6
CONTINUOUS
 62
     5
 10
164.38472
 20
175.01859
 30
0.0
 11
164.38472
 21
191.01859
 31
0.0
  0
LINE
  5
35
  8
0
  6
CONTINUOUS
 62
     5
 10
163.38472
 20
176.01859
 30
0.0
 11
198.18474
 21
176.01859
 31
0.0
  0
LINE
  5
36
  8
0
  6
CONTINUOUS
 62
     5
 10
197.18474
 20
175.01859
 30
0.0
 11
197.18474
 21
191.01859
 31
0.0
  0
LINE
  5
37
  8
0
  6
CONTINUOUS
 62
     5
 10
198.18474
 20
176.01859
 30
0.0
 11
198.18474
 21
194.01859
 31
0.0
  0
LINE
  5
38
  8
0
  6
CONTINUOUS
 62
     5
 10
163.38472
 20
191.01859
 30
0.0
 11
198.18474
 21
191.01859
 31
0.0
  0
LINE
  5
39
  8
0
  6
CONTINUOUS
 62
     5
 10
160.28474
 20
194.01859
 30
0.0
 11
201.28474
 21
194.01859
 31
0.0
  0
LINE
  5
3A
  8
0
  6
CONTINUOUS
 62
     5
 10
201.28474
 20
194.01859
 30
0.0
 11
201.28474
 21
197.81857
 31
0.0
  0
LINE
  5
3B
  8
0
  6
CONTINUOUS
 62
     5
 10
160.28474
 20
194.01859
 30
0.0
 11
160.28474
 21
197.81857
 31
0.0
  0
LINE
  5
3C
  8
0
  6
CONTINUOUS
 62
     5
 10
160.28474
 20
196.81859
 30
0.0
 11
201.28474
 21
196.81859
 31
0.0
  0
LINE
  5
3D
  8
0
  6
CONTINUOUS
 62
     5
 10
160.28474
 20
197.81859
 30
0.0
 11
201.28474
 21
197.81859
 31
0.0
  0
LINE
  5
3E
  8
0
  6
CONTINUOUS
 62
     5
 10
201.28474
 20
197.81857
 30
0.0
 11
201.28474
 21
221.00958
 31
0.0
  0
LINE
  5
3F
  8
0
  6
CONTINUOUS
 62
     5
 10
160.28474
 20
197.81857
 30
0.0
 11
160.28474
 21
221.00958
 31
0.0
  0
LINE
  5
40
  8
0
  6
CONTINUOUS
 62
     5
 10
165.9847
 20
205.51895
 30
0.0
 11
166.9847
 21
204.51895
 31
0.0
  0
LINE
  5
41
  8
0
  6
CONTINUOUS
 62
     5
 10
165.98473
 20
205.51898
 30
0.0
 11
165.98473
 21
223.81897
 31
0.0
  0
LINE
  5
42
  8
0
  6
CONTINUOUS
 62
     5
 10
166.98473
 20
204.51898
 30
0.0
 11
166.98473
 21
220.819
 31
0.0
  0
LINE
  5
43
  8
0
  6
CONTINUOUS
 62
     5
 10
166.98473
 20
204.51898
 30
0.0
 11
194.58473
 21
204.51898
 31
0.0
  0
LINE
  5
44
  8
0
  6
CONTINUOUS
 62
     5
 10
165.98474
 20
205.51898
 30
0.0
 11
195.58473
 21
205.51898
 31
0.0
  0
LINE
  5
45
  8
0
  6
CONTINUOUS
 62
     5
 10
194.58473
 20
204.51898
 30
0.0
 11
194.58473
 21
220.819
 31
0.0
  0
LINE
  5
46
  8
0
  6
CONTINUOUS
 62
     5
 10
194.58473
 20
204.51897
 30
0.0
 11
195.58475
 21
205.51898
 31
0.0
  0
LINE
  5
47
  8
0
  6
CONTINUOUS
 62
     5
 10
195.58473
 20
205.51898
 30
0.0
 11
195.58473
 21
223.81897
 31
0.0
  0
LINE
  5
48
  8
0
  6
CONTINUOUS
 62
     5
 10
165.98473
 20
220.819
 30
0.0
 11
195.58473
 21
220.819
 31
0.0
  0
LINE
  5
49
  8
0
  6
CONTINUOUS
 62
     5
 10
161.78474
 20
223.81897
 30
0.0
 11
199.78474
 21
223.81897
 31
0.0
  0
LINE
  5
4A
  8
0
  6
CONTINUOUS
 62
     5
 10
161.78474
 20
226.61899
 30
0.0
 11
199.78474
 21
226.61899
 31
0.0
  0
LINE
  5
4B
  8
0
  6
CONTINUOUS
 62
     5
 10
199.83473
 20
223.81897
 30
0.0
 11
199.83473
 21
227.61899
 31
0.0
  0
LINE
  5
4C
  8
0
  6
CONTINUOUS
 62
     5
 10
161.73473
 20
223.81897
 30
0.0
 11
161.73473
 21
227.61899
 31
0.0
  0
LINE
  5
4D
  8
0
  6
CONTINUOUS
 62
     5
 10
199.78474
 20
227.61899
 30
0.0
 11
199.78474
 21
252.53384
 31
0.0
  0
LINE
  5
4E
  8
0
  6
CONTINUOUS
 62
     5
 10
201.28474
 20
227.61899
 30
0.0
 11
201.28474
 21
251.67151
 31
0.0
  0
LINE
  5
4F
  8
0
  6
CONTINUOUS
 62
     5
 10
153.2906
 20
243.50958
 30
0.0
 11
160.28474
 21
243.50958
 31
0.0
  0
LINE
  5
50
  8
0
  6
CONTINUOUS
 62
     5
 10
372.92935
 20
194.01877
 30
0.0
 11
372.92935
 21
176.01877
 31
0.0
  0
LINE
  5
51
  8
0
  6
CONTINUOUS
 62
     5
 10
372.92929
 20
176.01871
 30
0.0
 11
373.92929
 21
175.01872
 31
0.0
  0
LINE
  5
52
  8
0
  6
CONTINUOUS
 62
     5
 10
373.92935
 20
175.01878
 30
0.0
 11
406.72934
 21
175.01878
 31
0.0
  0
LINE
  5
53
  8
0
  6
CONTINUOUS
 62
     5
 10
406.72922
 20
175.01889
 30
0.0
 11
407.72925
 21
176.01892
 31
0.0
  0
LINE
  5
54
  8
0
  6
CONTINUOUS
 62
     5
 10
407.72934
 20
176.01877
 30
0.0
 11
407.72934
 21
194.01877
 31
0.0
  0
LINE
  5
55
  8
0
  6
CONTINUOUS
 62
     5
 10
407.72934
 20
194.01877
 30
0.0
 11
407.72934
 21
191.01877
 31
0.0
  0
LINE
  5
56
  8
0
  6
CONTINUOUS
 62
     5
 10
407.72934
 20
191.01878
 30
0.0
 11
372.92935
 21
191.01878
 31
0.0
  0
LINE
  5
57
  8
0
  6
CONTINUOUS
 62
     5
 10
373.92935
 20
191.01877
 30
0.0
 11
373.92935
 21
175.01877
 31
0.0
  0
LINE
  5
58
  8
0
  6
CONTINUOUS
 62
     5
 10
372.92935
 20
176.01878
 30
0.0
 11
407.72934
 21
176.01878
 31
0.0
  0
LINE
  5
59
  8
0
  6
CONTINUOUS
 62
     5
 10
406.72934
 20
175.01877
 30
0.0
 11
406.72934
 21
191.01877
 31
0.0
  0
LINE
  5
5A
  8
0
  6
CONTINUOUS
 62
     5
 10
410.82938
 20
197.81876
 30
0.0
 11
410.82938
 21
194.01877
 31
0.0
  0
LINE
  5
5B
  8
0
  6
CONTINUOUS
 62
     5
 10
410.82938
 20
194.01878
 30
0.0
 11
369.82938
 21
194.01878
 31
0.0
  0
LINE
  5
5C
  8
0
  6
CONTINUOUS
 62
     5
 10
369.82938
 20
194.01877
 30
0.0
 11
369.82938
 21
197.81876
 31
0.0
  0
LINE
  5
5D
  8
0
  6
CONTINUOUS
 62
     5
 10
369.82938
 20
196.81877
 30
0.0
 11
410.82938
 21
196.81877
 31
0.0
  0
LINE
  5
5E
  8
0
  6
CONTINUOUS
 62
     5
 10
412.82925
 20
197.8197
 30
0.0
 11
367.82938
 21
197.8197
 31
0.0
  0
LINE
  5
5F
  8
0
  6
CONTINUOUS
 62
     5
 10
367.82938
 20
220.99673
 30
0.0
 11
367.82938
 21
197.81876
 31
0.0
  0
LINE
  5
60
  8
0
  6
CONTINUOUS
 62
     5
 10
422.82938
 20
220.01891
 30
0.0
 11
422.82938
 21
221.01891
 31
0.0
  0
LINE
  5
61
  8
0
  6
CENTER
 62
     6
 10
390.32938
 20
168.07867
 30
0.0
 11
390.32938
 21
204.95322
 31
0.0
  0
LINE
  5
62
  8
0
  6
CONTINUOUS
 62
     5
 10
581.79517
 20
336.82571
 30
0.0
 11
581.79517
 21
235.21323
 31
0.0
  0
LINE
  5
63
  8
0
  6
CENTER
 62
     6
 10
589.89337
 20
229.11411
 30
0.0
 11
601.01135
 21
240.23213
 31
0.0
  0
LINE
  5
64
  8
0
  6
CENTER
 62
     6
 10
590.03711
 20
342.78021
 30
0.0
 11
601.85065
 21
330.96667
 31
0.0
  0
LINE
  5
65
  8
0
  6
CENTER
 62
     6
 10
692.28943
 20
240.52789
 30
0.0
 11
703.87109
 21
228.94623
 31
0.0
  0
LINE
  5
66
  8
0
  6
CENTER
 62
     6
 10
691.79779
 20
331.01859
 30
0.0
 11
703.72742
 21
342.94815
 31
0.0
  0
LINE
  5
67
  8
0
  6
CONTINUOUS
 62
     5
 10
595.99097
 20
221.02505
 30
0.0
 11
697.60339
 21
221.02505
 31
0.0
  0
LINE
  5
68
  8
0
  6
CONTINUOUS
 62
     5
 10
711.7948
 20
235.21207
 30
0.0
 11
711.7948
 21
336.82458
 31
0.0
  0
LINE
  5
69
  8
0
  6
CONTINUOUS
 62
     5
 10
697.60461
 20
351.02466
 30
0.0
 11
595.99207
 21
351.02466
 31
0.0
  0
LINE
  5
6A
  8
0
  6
CENTER
 62
     6
 10
571.84717
 20
286.01889
 30
0.0
 11
724.00513
 21
286.01889
 31
0.0
  0
LINE
  5
6B
  8
0
  6
CENTER
 62
     6
 10
646.79773
 20
164.35779
 30
0.0
 11
646.79773
 21
366.65335
 31
0.0
  0
LINE
  5
6C
  8
0
  6
CONTINUOUS
 62
     5
 10
626.29773
 20
220.01889
 30
0.0
 11
667.29773
 21
220.01889
 31
0.0
  0
LINE
  5
6D
  8
0
  6
CONTINUOUS
 62
     5
 10
626.29773
 20
197.81889
 30
0.0
 11
667.29773
 21
197.81889
 31
0.0
  0
LINE
  5
6E
  8
0
  6
CONTINUOUS
 62
     5
 10
626.29773
 20
196.81889
 30
0.0
 11
667.29773
 21
196.81889
 31
0.0
  0
LINE
  5
6F
  8
0
  6
CONTINUOUS
 62
     5
 10
626.29773
 20
194.01891
 30
0.0
 11
667.29773
 21
194.01891
 31
0.0
  0
LINE
  5
70
  8
0
  6
CONTINUOUS
 62
     5
 10
667.29773
 20
194.01889
 30
0.0
 11
667.29773
 21
221.01889
 31
0.0
  0
LINE
  5
71
  8
0
  6
CONTINUOUS
 62
     5
 10
626.29773
 20
221.01889
 30
0.0
 11
626.29773
 21
194.01889
 31
0.0
  0
LINE
  5
72
  8
0
  6
CONTINUOUS
 62
     5
 10
629.39771
 20
194.01889
 30
0.0
 11
629.39771
 21
176.01889
 31
0.0
  0
LINE
  5
73
  8
0
  6
CONTINUOUS
 62
     5
 10
629.39752
 20
176.01868
 30
0.0
 11
630.39752
 21
175.01871
 31
0.0
  0
LINE
  5
74
  8
0
  6
CONTINUOUS
 62
     5
 10
630.39771
 20
175.01891
 30
0.0
 11
663.19775
 21
175.01891
 31
0.0
  0
LINE
  5
75
  8
0
  6
CONTINUOUS
 62
     5
 10
663.19757
 20
175.01909
 30
0.0
 11
664.19757
 21
176.01912
 31
0.0
  0
LINE
  5
76
  8
0
  6
CONTINUOUS
 62
     5
 10
664.19775
 20
176.01889
 30
0.0
 11
664.19775
 21
194.01889
 31
0.0
  0
LINE
  5
77
  8
0
  6
CONTINUOUS
 62
     5
 10
664.19775
 20
191.01891
 30
0.0
 11
629.39771
 21
191.01891
 31
0.0
  0
LINE
  5
78
  8
0
  6
CONTINUOUS
 62
     5
 10
630.39771
 20
191.01889
 30
0.0
 11
630.39771
 21
175.01889
 31
0.0
  0
LINE
  5
79
  8
0
  6
CONTINUOUS
 62
     5
 10
629.39771
 20
176.01891
 30
0.0
 11
664.19775
 21
176.01891
 31
0.0
  0
LINE
  5
7A
  8
0
  6
CONTINUOUS
 62
     5
 10
663.19775
 20
175.01889
 30
0.0
 11
663.19775
 21
191.01889
 31
0.0
  0
LINE
  5
7B
  8
0
  6
CENTER
 62
     6
 10
611.75159
 20
225.3159
 30
0.0
 11
614.79871
 21
230.5938
 31
0.0
  0
LINE
  5
7C
  8
0
  6
CENTER
 62
     6
 10
707.50049
 20
250.97214
 30
0.0
 11
702.22253
 21
254.01936
 31
0.0
  0
LINE
  5
7D
  8
0
  6
CENTER
 62
     6
 10
678.79761
 20
341.44363
 30
0.0
 11
681.84485
 21
346.72147
 31
0.0
  0
LINE
  5
7E
  8
0
  6
CONTINUOUS
 62
     5
 10
616.95239
 20
301.78021
 30
0.0
 11
616.02069
 21
305.25757
 31
0.0
  0
LINE
  5
7F
  8
0
  6
CONTINUOUS
 62
     5
 10
614.74811
 20
303.05307
 30
0.0
 11
618.2254
 21
303.9848
 31
0.0
  0
LINE
  5
80
  8
0
  6
CONTINUOUS
 62
     5
 10
675.36987
 20
303.98477
 30
0.0
 11
678.84729
 21
303.05301
 31
0.0
  0
LINE
  5
81
  8
0
  6
CONTINUOUS
 62
     5
 10
676.64325
 20
301.78012
 30
0.0
 11
677.57501
 21
305.25748
 31
0.0
  0
LINE
  5
82
  8
0
  6
CONTINUOUS
 62
     5
 10
645.52484
 20
249.74628
 30
0.0
 11
648.07037
 21
252.29189
 31
0.0
  0
LINE
  5
83
  8
0
  6
CONTINUOUS
 62
     5
 10
645.52521
 20
252.29201
 30
0.0
 11
648.0708
 21
249.74635
 31
0.0
  0
LINE
  5
84
  8
0
  6
CENTER
 62
     6
 10
612.09064
 20
306.05692
 30
0.0
 11
620.63672
 21
301.12289
 31
0.0
  0
LINE
  5
85
  8
0
  6
CENTER
 62
     6
 10
672.73608
 20
300.99454
 30
0.0
 11
681.75739
 21
306.20294
 31
0.0
  0
LINE
  5
86
  8
0
  6
CONTINUOUS
 62
     5
 10
138.28467
 20
258.51535
 30
0.0
 11
153.29053
 21
243.50945
 31
0.0
  0
LINE
  5
87
  8
0
  6
CONTINUOUS
 62
     5
 10
208.27885
 20
243.50961
 30
0.0
 11
223.28476
 21
258.51553
 31
0.0
  0
LINE
  5
88
  8
0
  6
CENTER
 62
     6
 10
197.80159
 20
240.50958
 30
0.0
 11
192.89726
 21
240.50958
 31
0.0
  0
LINE
  5
89
  8
0
  6
CENTER
 62
     6
 10
195.48473
 20
238.2258
 30
0.0
 11
195.48473
 21
243.2258
 31
0.0
  0
LINE
  5
8A
  8
0
  6
CENTER
 62
     6
 10
163.55388
 20
240.50958
 30
0.0
 11
168.26643
 21
240.50958
 31
0.0
  0
LINE
  5
8B
  8
0
  6
CENTER
 62
     6
 10
166.08473
 20
238.41757
 30
0.0
 11
166.08473
 21
243.41757
 31
0.0
  0
LINE
  5
8C
  8
0
  6
CENTER
 62
     6
 10
211.50943
 20
232.80296
 30
0.0
 11
216.4816
 21
224.19095
 31
0.0
  0
LINE
  5
8D
  8
0
  6
CENTER
 62
     6
 10
123.75175
 20
228.9861
 30
0.0
 11
136.11775
 21
241.35208
 31
0.0
  0
LINE
  5
8E
  8
0
  6
CENTER
 62
     6
 10
118.95647
 20
250.32268
 30
0.0
 11
127.56848
 21
255.29485
 31
0.0
  0
LINE
  5
8F
  8
0
  6
CONTINUOUS
 62
     5
 10
119.43433
 20
243.51901
 30
0.0
 11
126.28474
 21
243.51901
 31
0.0
  0
LINE
  5
90
  8
0
  6
CONTINUOUS
 62
     5
 10
138.28474
 20
231.51901
 30
0.0
 11
138.28474
 21
223.01904
 31
0.0
  0
LINE
  5
91
  8
0
  6
CONTINUOUS
 62
     5
 10
122.08806
 20
250.0076
 30
0.0
 11
123.43392
 21
255.03043
 31
0.0
  0
LINE
  5
92
  8
0
  6
CONTINUOUS
 62
     5
 10
120.24963
 20
253.19208
 30
0.0
 11
125.27246
 21
251.84622
 31
0.0
  0
LINE
  5
93
  8
0
  6
CONTINUOUS
 62
     5
 10
146.61182
 20
341.53137
 30
0.0
 11
147.95767
 21
346.5542
 31
0.0
  0
LINE
  5
94
  8
0
  6
CONTINUOUS
 62
     5
 10
144.77335
 20
344.71579
 30
0.0
 11
149.79614
 21
343.36993
 31
0.0
  0
LINE
  5
95
  8
0
  6
CENTER
 62
     6
 10
150.06036
 20
339.23517
 30
0.0
 11
145.0882
 21
347.84726
 31
0.0
  0
LINE
  5
96
  8
0
  6
CENTER
 62
     6
 10
124.36352
 20
342.44022
 30
0.0
 11
134.89838
 21
331.9054
 31
0.0
  0
LINE
  5
97
  8
0
  6
CONTINUOUS
 62
     5
 10
145.37241
 20
254.4584
 30
0.0
 11
145.72104
 21
258.44318
 31
0.0
  0
LINE
  5
98
  8
0
  6
CENTER
 62
     6
 10
148.67641
 20
259.06903
 30
0.0
 11
143.02448
 21
254.32652
 31
0.0
  0
LINE
  5
99
  8
0
  6
CONTINUOUS
 62
     5
 10
153.27171
 20
328.50946
 30
0.0
 11
138.28474
 21
313.52252
 31
0.0
  0
LINE
  5
9A
  8
0
  6
CONTINUOUS
 62
     5
 10
208.2977
 20
328.50949
 30
0.0
 11
223.2847
 21
313.52249
 31
0.0
  0
LINE
  5
9B
  8
0
  6
CENTER
 62
     6
 10
234.00098
 20
316.7435
 30
0.0
 11
242.61299
 21
321.71561
 31
0.0
  0
LINE
  5
9C
  8
0
  6
CONTINUOUS
 62
     5
 10
239.48141
 20
322.0304
 30
0.0
 11
238.13554
 21
317.00757
 31
0.0
  0
LINE
  5
9D
  8
0
  6
CONTINUOUS
 62
     5
 10
241.31981
 20
318.84592
 30
0.0
 11
236.29701
 21
320.19177
 31
0.0
  0
LINE
  5
9E
  8
0
  6
CENTER
 62
     6
 10
225.94975
 20
331.18405
 30
0.0
 11
237.69521
 21
342.92953
 31
0.0
  0
LINE
  5
9F
  8
0
  6
CENTER
 62
     6
 10
237.24803
 20
229.55566
 30
0.0
 11
226.97084
 21
239.83282
 31
0.0
  0
LINE
  5
A0
  8
0
  6
CONTINUOUS
 62
     5
 10
211.77332
 20
228.66835
 30
0.0
 11
216.79614
 21
227.32253
 31
0.0
  0
LINE
  5
A1
  8
0
  6
CONTINUOUS
 62
     5
 10
213.61188
 20
225.48389
 30
0.0
 11
214.95773
 21
230.50671
 31
0.0
  0
LINE
  5
A2
  8
0
  6
CONTINUOUS
 62
     5
 10
208.27885
 20
243.50958
 30
0.0
 11
201.28474
 21
243.50958
 31
0.0
  0
LINE
  5
A3
  8
0
  6
CONTINUOUS
 62
     5
 10
235.28473
 20
243.51901
 30
0.0
 11
242.13339
 21
243.51901
 31
0.0
  0
LINE
  5
A4
  8
0
  6
CONTINUOUS
 62
     5
 10
223.28473
 20
231.51901
 30
0.0
 11
223.28473
 21
223.01904
 31
0.0
  0
LINE
  5
A5
  8
0
  6
CONTINUOUS
 62
     5
 10
223.28473
 20
349.01904
 30
0.0
 11
223.28473
 21
340.51901
 31
0.0
  0
LINE
  5
A6
  8
0
  6
CONTINUOUS
 62
     5
 10
235.28473
 20
328.51901
 30
0.0
 11
242.13376
 21
328.51901
 31
0.0
  0
LINE
  5
A7
  8
0
  6
CONTINUOUS
 62
     5
 10
119.43433
 20
328.51901
 30
0.0
 11
126.28474
 21
328.51901
 31
0.0
  0
LINE
  5
A8
  8
0
  6
CONTINUOUS
 62
     5
 10
138.28474
 20
340.51901
 30
0.0
 11
138.28474
 21
349.01904
 31
0.0
  0
LINE
  5
A9
  8
0
  6
CONTINUOUS
 62
     5
 10
147.53909
 20
256.27652
 30
0.0
 11
143.55438
 21
256.62515
 31
0.0
  0
LINE
  5
AA
  8
0
  6
CONTINUOUS
 62
     5
 10
148.44315
 20
252.99896
 30
0.0
 11
145.91914
 21
250.88107
 31
0.0
  0
LINE
  5
AB
  8
0
  6
CONTINUOUS
 62
     5
 10
142.65808
 20
259.89337
 30
0.0
 11
139.53087
 21
257.26932
 31
0.0
  0
LINE
  5
AC
  8
0
  6
CONTINUOUS
 62
     5
 10
216.19713
 20
317.57968
 30
0.0
 11
215.8485
 21
313.59482
 31
0.0
  0
LINE
  5
AD
  8
0
  6
CENTER
 62
     6
 10
212.89311
 20
312.96906
 30
0.0
 11
218.54503
 21
317.71158
 31
0.0
  0
LINE
  5
AE
  8
0
  6
CONTINUOUS
 62
     5
 10
214.03038
 20
315.76172
 30
0.0
 11
218.01512
 21
315.41309
 31
0.0
  0
LINE
  5
AF
  8
0
  6
CONTINUOUS
 62
     5
 10
213.12633
 20
319.03906
 30
0.0
 11
215.65034
 21
321.15695
 31
0.0
  0
LINE
  5
B0
  8
0
  6
CONTINUOUS
 62
     5
 10
218.91144
 20
312.14471
 30
0.0
 11
222.0386
 21
314.76871
 31
0.0
  0
LINE
  5
B1
  8
0
  6
CENTER
 62
     6
 10
586.09546
 20
321.06656
 30
0.0
 11
591.37329
 21
318.01929
 31
0.0
  0
LINE
  5
B2
  8
0
  6
CONTINUOUS
 62
     5
 10
212.3454
 20
250.60667
 30
0.0
 11
208.36055
 21
250.95531
 31
0.0
  0
LINE
  5
B3
  8
0
  6
CENTER
 62
     6
 10
207.73476
 20
253.91072
 30
0.0
 11
212.47728
 21
248.25879
 31
0.0
  0
LINE
  5
B4
  8
0
  6
CONTINUOUS
 62
     5
 10
210.5273
 20
252.77336
 30
0.0
 11
210.17867
 21
248.78862
 31
0.0
  0
LINE
  5
B5
  8
0
  6
CONTINUOUS
 62
     5
 10
213.80479
 20
253.67747
 30
0.0
 11
215.92268
 21
251.15346
 31
0.0
  0
LINE
  5
B6
  8
0
  6
CONTINUOUS
 62
     5
 10
206.91043
 20
247.89235
 30
0.0
 11
209.53445
 21
244.76515
 31
0.0
  0
LINE
  5
B7
  8
0
  6
CONTINUOUS
 62
     5
 10
149.22412
 20
321.43137
 30
0.0
 11
153.20892
 21
321.08273
 31
0.0
  0
LINE
  5
B8
  8
0
  6
CENTER
 62
     6
 10
153.83476
 20
318.12735
 30
0.0
 11
149.09222
 21
323.7793
 31
0.0
  0
LINE
  5
B9
  8
0
  6
CONTINUOUS
 62
     5
 10
151.04222
 20
319.26468
 30
0.0
 11
151.39084
 21
323.24939
 31
0.0
  0
LINE
  5
BA
  8
0
  6
CONTINUOUS
 62
     5
 10
147.76468
 20
318.36069
 30
0.0
 11
145.64679
 21
320.8847
 31
0.0
  0
LINE
  5
BB
  8
0
  6
CONTINUOUS
 62
     5
 10
154.65907
 20
324.14566
 30
0.0
 11
152.03505
 21
327.27289
 31
0.0
  0
LINE
  5
BC
  8
0
  6
CONTINUOUS
 62
     5
 10
422.82938
 20
220.01891
 30
0.0
 11
367.82938
 21
220.01891
 31
0.0
  0
LINE
  5
BD
  8
0
  6
CONTINUOUS
 62
     5
 10
469.82935
 20
301.01889
 30
0.0
 11
471.82935
 21
301.01889
 31
0.0
  0
LINE
  5
BE
  8
0
  6
CONTINUOUS
 62
     5
 10
471.82935
 20
301.01889
 30
0.0
 11
471.82935
 21
271.01889
 31
0.0
  0
LINE
  5
BF
  8
0
  6
CONTINUOUS
 62
     5
 10
471.82935
 20
271.01889
 30
0.0
 11
469.82935
 21
271.01889
 31
0.0
  0
LINE
  5
C0
  8
0
  6
CONTINUOUS
 62
     5
 10
471.82935
 20
298.01889
 30
0.0
 11
521.82935
 21
298.01889
 31
0.0
  0
LINE
  5
C1
  8
0
  6
CONTINUOUS
 62
     5
 10
521.82935
 20
298.01889
 30
0.0
 11
521.82935
 21
274.01889
 31
0.0
  0
LINE
  5
C2
  8
0
  6
CONTINUOUS
 62
     5
 10
521.82935
 20
274.01889
 30
0.0
 11
471.82935
 21
274.01889
 31
0.0
  0
LINE
  5
C3
  8
0
  6
CENTER
 62
     6
 10
532.358587
 20
286.01889
 30
0.0
 11
276.58615
 21
286.01889
 31
0.0
  0
LINE
  5
C4
  8
0
  6
CONTINUOUS
 62
     5
 10
366.02939
 20
351.01889
 30
0.0
 11
366.02939
 21
221.01891
 31
0.0
  0
LINE
  5
C5
  8
0
  6
CONTINUOUS
 62
     5
 10
361.52939
 20
221.01891
 30
0.0
 11
361.52939
 21
351.01889
 31
0.0
  0
LINE
  5
C6
  8
0
  6
CONTINUOUS
 62
     5
 10
450.82935
 20
351.01889
 30
0.0
 11
450.82935
 21
221.01891
 31
0.0
  0
LINE
  5
C7
  8
0
  6
CONTINUOUS
 62
     5
 10
454.82935
 20
221.01891
 30
0.0
 11
454.82935
 21
351.01889
 31
0.0
  0
LINE
  5
C8
  8
0
  6
CONTINUOUS
 62
     5
 10
466.82935
 20
351.01889
 30
0.0
 11
466.82935
 21
221.01891
 31
0.0
  0
LINE
  5
C9
  8
0
  6
CONTINUOUS
 62
     5
 10
466.82935
 20
235.21292
 30
0.0
 11
454.82935
 21
235.21292
 31
0.0
  0
LINE
  5
CA
  8
0
  6
CONTINUOUS
 62
     5
 10
450.82935
 20
258.01889
 30
0.0
 11
366.02939
 21
258.01889
 31
0.0
  0
LINE
  5
CB
  8
0
  6
CONTINUOUS
 62
     5
 10
450.82935
 20
261.01889
 30
0.0
 11
366.02939
 21
261.01889
 31
0.0
  0
LINE
  5
CC
  8
0
  6
CONTINUOUS
 62
     5
 10
450.82935
 20
264.01889
 30
0.0
 11
366.02939
 21
264.01889
 31
0.0
  0
LINE
  5
CD
  8
0
  6
CONTINUOUS
 62
     5
 10
450.82935
 20
267.01889
 30
0.0
 11
366.02939
 21
267.01889
 31
0.0
  0
LINE
  5
CE
  8
0
  6
CONTINUOUS
 62
     5
 10
450.82935
 20
305.01889
 30
0.0
 11
366.02939
 21
305.01889
 31
0.0
  0
LINE
  5
CF
  8
0
  6
CONTINUOUS
 62
     5
 10
450.82935
 20
308.01889
 30
0.0
 11
366.02939
 21
308.01889
 31
0.0
  0
LINE
  5
D0
  8
0
  6
CONTINUOUS
 62
     5
 10
450.82935
 20
311.01889
 30
0.0
 11
366.02939
 21
311.01889
 31
0.0
  0
LINE
  5
D1
  8
0
  6
CONTINUOUS
 62
     5
 10
450.82935
 20
314.01889
 30
0.0
 11
366.02939
 21
314.01889
 31
0.0
  0
LINE
  5
D2
  8
0
  6
CONTINUOUS
 62
     5
 10
466.82935
 20
341.01889
 30
0.0
 11
469.82935
 21
341.01889
 31
0.0
  0
LINE
  5
D3
  8
0
  6
CONTINUOUS
 62
     5
 10
469.82935
 20
341.01889
 30
0.0
 11
469.82935
 21
231.01889
 31
0.0
  0
LINE
  5
D4
  8
0
  6
CONTINUOUS
 62
     5
 10
469.82935
 20
231.01889
 30
0.0
 11
466.82935
 21
231.01889
 31
0.0
  0
LINE
  5
D5
  8
0
  6
CONTINUOUS
 62
     5
 10
466.82935
 20
336.82492
 30
0.0
 11
454.82935
 21
336.82492
 31
0.0
  0
LINE
  5
D6
  8
0
  6
CONTINUOUS
 62
     5
 10
293.52939
 20
223.81891
 30
0.0
 11
293.52939
 21
205.51892
 31
0.0
  0
LINE
  5
D7
  8
0
  6
CONTINUOUS
 62
     5
 10
293.52933
 20
205.51891
 30
0.0
 11
294.52933
 21
204.51892
 31
0.0
  0
LINE
  5
D8
  8
0
  6
CONTINUOUS
 62
     5
 10
294.52939
 20
204.51892
 30
0.0
 11
322.12936
 21
204.51892
 31
0.0
  0
LINE
  5
D9
  8
0
  6
CONTINUOUS
 62
     5
 10
322.12933
 20
204.51895
 30
0.0
 11
323.12933
 21
205.51895
 31
0.0
  0
LINE
  5
DA
  8
0
  6
CONTINUOUS
 62
     5
 10
323.12936
 20
205.51892
 30
0.0
 11
323.12936
 21
223.81891
 31
0.0
  0
LINE
  5
DB
  8
0
  6
CENTER
 62
     6
 10
308.32938
 20
231.07809
 30
0.0
 11
308.32938
 21
197.77615
 31
0.0
  0
LINE
  5
DC
  8
0
  6
CONTINUOUS
 62
     5
 10
323.12936
 20
205.51892
 30
0.0
 11
293.52939
 21
205.51892
 31
0.0
  0
LINE
  5
DD
  8
0
  6
CONTINUOUS
 62
     5
 10
294.52939
 20
204.51892
 30
0.0
 11
294.52939
 21
220.81891
 31
0.0
  0
LINE
  5
DE
  8
0
  6
CONTINUOUS
 62
     5
 10
293.52939
 20
220.81891
 30
0.0
 11
323.12936
 21
220.81891
 31
0.0
  0
LINE
  5
DF
  8
0
  6
CONTINUOUS
 62
     5
 10
322.12936
 20
220.81891
 30
0.0
 11
322.12936
 21
204.51892
 31
0.0
  0
LINE
  5
E0
  8
0
  6
CONTINUOUS
 62
     5
 10
327.37936
 20
227.61891
 30
0.0
 11
327.37936
 21
223.81891
 31
0.0
  0
LINE
  5
E1
  8
0
  6
CONTINUOUS
 62
     5
 10
327.37936
 20
223.81891
 30
0.0
 11
289.27939
 21
223.81891
 31
0.0
  0
LINE
  5
E2
  8
0
  6
CONTINUOUS
 62
     5
 10
289.27939
 20
223.81891
 30
0.0
 11
289.27939
 21
227.61891
 31
0.0
  0
LINE
  5
E3
  8
0
  6
CONTINUOUS
 62
     5
 10
466.82935
 20
221.01891
 30
0.0
 11
334.52939
 21
221.01891
 31
0.0
  0
LINE
  5
E4
  8
0
  6
CONTINUOUS
 62
     5
 10
332.32938
 20
222.00285
 30
0.0
 11
333.52939
 21
222.00285
 31
0.0
  0
LINE
  5
E5
  8
0
  6
CONTINUOUS
 62
     5
 10
333.52939
 20
350.01889
 30
0.0
 11
333.52939
 21
222.01891
 31
0.0
  0
LINE
  5
E6
  8
0
  6
CONTINUOUS
 62
     5
 10
334.52939
 20
351.01889
 30
0.0
 11
466.82935
 21
351.01889
 31
0.0
  0
LINE
  5
E7
  8
0
  6
CONTINUOUS
 62
     5
 10
332.32938
 20
350.05087
 30
0.0
 11
333.52988
 21
350.05087
 31
0.0
  0
LINE
  5
E8
  8
0
  6
CONTINUOUS
 62
     5
 10
332.32938
 20
348.55087
 30
0.0
 11
330.62936
 21
348.55087
 31
0.0
  0
LINE
  5
E9
  8
0
  6
CENTER
 62
     6
 10
335.72012
 20
344.05026
 30
0.0
 11
329.84811
 21
344.05026
 31
0.0
  0
LINE
  5
EA
  8
0
  6
CONTINUOUS
 62
     5
 10
329.02939
 20
346.95087
 30
0.0
 11
329.02939
 21
341.15085
 31
0.0
  0
LINE
  5
EB
  8
0
  6
CONTINUOUS
 62
     5
 10
330.62943
 20
339.55084
 30
0.0
 11
332.32938
 21
339.55087
 31
0.0
  0
LINE
  5
EC
  8
0
  6
CONTINUOUS
 62
     5
 10
332.32938
 20
338.05087
 30
0.0
 11
332.32938
 21
350.05087
 31
0.0
  0
LINE
  5
ED
  8
0
  6
CONTINUOUS
 62
     5
 10
333.52939
 20
338.05087
 30
0.0
 11
332.32938
 21
338.05087
 31
0.0
  0
LINE
  5
EE
  8
0
  6
CONTINUOUS
 62
     5
 10
330.62936
 20
314.98184
 30
0.0
 11
332.32938
 21
314.98184
 31
0.0
  0
LINE
  5
EF
  8
0
  6
CONTINUOUS
 62
     5
 10
332.32938
 20
313.48184
 30
0.0
 11
332.32938
 21
325.48184
 31
0.0
  0
LINE
  5
F0
  8
0
  6
CONTINUOUS
 62
     5
 10
332.32938
 20
325.48184
 30
0.0
 11
333.52939
 21
325.48184
 31
0.0
  0
LINE
  5
F1
  8
0
  6
CONTINUOUS
 62
     5
 10
332.32938
 20
313.48184
 30
0.0
 11
333.52939
 21
313.48184
 31
0.0
  0
LINE
  5
F2
  8
0
  6
CONTINUOUS
 62
     5
 10
333.52939
 20
313.52258
 30
0.0
 11
315.32938
 21
313.52258
 31
0.0
  0
LINE
  5
F3
  8
0
  6
CONTINUOUS
 62
     5
 10
329.02939
 20
316.58185
 30
0.0
 11
329.02939
 21
322.38187
 31
0.0
  0
LINE
  5
F4
  8
0
  6
CENTER
 62
     6
 10
329.60904
 20
319.48145
 30
0.0
 11
335.72012
 21
319.48145
 31
0.0
  0
LINE
  5
F5
  8
0
  6
CONTINUOUS
 62
     5
 10
330.62939
 20
323.98187
 30
0.0
 11
332.32941
 21
323.98184
 31
0.0
  0
LINE
  5
F6
  8
0
  6
CONTINUOUS
 62
     5
 10
319.32938
 20
314.9993
 30
0.0
 11
319.32938
 21
317.13138
 31
0.0
  0
LINE
  5
F7
  8
0
  6
CONTINUOUS
 62
     5
 10
320.32938
 20
318.13138
 30
0.0
 11
321.32938
 21
318.13138
 31
0.0
  0
LINE
  5
F8
  8
0
  6
CENTER
 62
     6
 10
317.00021
 20
315.63138
 30
0.0
 11
323.8215
 21
315.63138
 31
0.0
  0
LINE
  5
F9
  8
0
  6
CONTINUOUS
 62
     5
 10
321.32938
 20
314.9993
 30
0.0
 11
315.32938
 21
314.9993
 31
0.0
  0
LINE
  5
FA
  8
0
  6
CONTINUOUS
 62
     5
 10
321.32938
 20
321.36325
 30
0.0
 11
315.32938
 21
321.36325
 31
0.0
  0
LINE
  5
FB
  8
0
  6
CONTINUOUS
 62
     5
 10
315.32935
 20
326.05368
 30
0.0
 11
290.97348
 21
325.20316
 31
0.0
  0
LINE
  5
FC
  8
0
  6
CONTINUOUS
 62
     5
 10
315.32938
 20
328.51889
 30
0.0
 11
454.82935
 21
328.51889
 31
0.0
  0
LINE
  5
FD
  8
0
  6
CONTINUOUS
 62
     5
 10
315.32938
 20
328.51889
 30
0.0
 11
315.32938
 21
243.51889
 31
0.0
  0
LINE
  5
FE
  8
0
  6
CONTINUOUS
 62
     5
 10
315.32938
 20
244.99573
 30
0.0
 11
321.32938
 21
244.99573
 31
0.0
  0
LINE
  5
FF
  8
0
  6
CONTINUOUS
 62
     5
 10
315.32938
 20
258.51544
 30
0.0
 11
333.52939
 21
258.51544
 31
0.0
  0
LINE
  5
100
  8
0
  6
CENTER
 62
     6
 10
323.8215
 20
250.84384
 30
0.0
 11
317.00021
 21
250.84384
 31
0.0
  0
LINE
  5
101
  8
0
  6
CONTINUOUS
 62
     5
 10
315.32938
 20
251.35968
 30
0.0
 11
321.32938
 21
251.35968
 31
0.0
  0
LINE
  5
102
  8
0
  6
CONTINUOUS
 62
     5
 10
319.32938
 20
249.34384
 30
0.0
 11
319.32938
 21
251.35968
 31
0.0
  0
LINE
  5
103
  8
0
  6
CONTINUOUS
 62
     5
 10
320.32938
 20
248.34384
 30
0.0
 11
321.32938
 21
248.34384
 31
0.0
  0
LINE
  5
104
  8
0
  6
CONTINUOUS
 62
     5
 10
333.52939
 20
234.00284
 30
0.0
 11
332.32938
 21
234.00284
 31
0.0
  0
LINE
  5
105
  8
0
  6
CONTINUOUS
 62
     5
 10
332.32938
 20
234.00284
 30
0.0
 11
332.32938
 21
222.00285
 31
0.0
  0
LINE
  5
106
  8
0
  6
CENTER
 62
     6
 10
328.24905
 20
228.00285
 30
0.0
 11
334.59183
 21
228.00285
 31
0.0
  0
LINE
  5
107
  8
0
  6
CONTINUOUS
 62
     5
 10
330.62939
 20
232.50285
 30
0.0
 11
332.32938
 21
232.50282
 31
0.0
  0
LINE
  5
108
  8
0
  6
CONTINUOUS
 62
     5
 10
329.02939
 20
230.90286
 30
0.0
 11
329.02939
 21
225.10286
 31
0.0
  0
LINE
  5
109
  8
0
  6
CONTINUOUS
 62
     5
 10
330.62936
 20
223.50285
 30
0.0
 11
332.32938
 21
223.50285
 31
0.0
  0
LINE
  5
10A
  8
0
  6
CONTINUOUS
 62
     5
 10
327.37936
 20
226.61891
 30
0.0
 11
289.27939
 21
226.61891
 31
0.0
  0
LINE
  5
10B
  8
0
  6
CONTINUOUS
 62
     5
 10
288.82938
 20
227.61891
 30
0.0
 11
327.82938
 21
227.61891
 31
0.0
  0
LINE
  5
10C
  8
0
  6
CONTINUOUS
 62
     5
 10
327.82938
 20
227.61891
 30
0.0
 11
327.82938
 21
243.51889
 31
0.0
  0
LINE
  5
10D
  8
0
  6
CONTINUOUS
 62
     5
 10
288.82938
 20
227.61891
 30
0.0
 11
288.82938
 21
316.01889
 31
0.0
  0
LINE
  5
10E
  8
0
  6
CONTINUOUS
 62
     5
 10
290.32938
 20
324.93793
 30
0.0
 11
290.32938
 21
227.61891
 31
0.0
  0
LINE
  5
10F
  8
0
  6
CONTINUOUS
 62
     5
 10
288.82941
 20
252.53391
 30
0.0
 11
290.32938
 21
251.67149
 31
0.0
  0
LINE
  5
110
  8
0
  6
CONTINUOUS
 62
     5
 10
315.32938
 20
251.67151
 30
0.0
 11
290.32938
 21
251.67151
 31
0.0
  0
LINE
  5
111
  8
0
  6
CONTINUOUS
 62
     5
 10
315.32938
 20
243.51889
 30
0.0
 11
454.82935
 21
243.51889
 31
0.0
  0
LINE
  5
112
  8
0
  6
CONTINUOUS
 62
     5
 10
321.32938
 20
328.51889
 30
0.0
 11
321.32938
 21
243.51889
 31
0.0
  0
LINE
  5
113
  8
0
  6
CONTINUOUS
 62
     5
 10
328.32938
 20
328.51889
 30
0.0
 11
328.32938
 21
243.51889
 31
0.0
  0
CIRCLE
  5
114
  8
0
  6
CONTINUOUS
 62
     5
 10
646.79773
 20
286.01889
 30
0.0
 40
55.0
  0
CIRCLE
  5
115
  8
0
  6
CONTINUOUS
 62
     5
 10
646.79773
 20
286.01889
 30
0.0
 40
44.0
  0
ARC
  5
116
  8
0
  6
CENTER
 62
     6
 10
646.79773
 20
286.01889
 30
0.0
 40
72.5
 50
217.9236
 51
231.96879
  0
ARC
  5
117
  8
0
  6
CENTER
 62
     6
 10
646.79773
 20
286.01889
 30
0.0
 40
72.5
 50
308.05982
 51
321.96997
  0
ARC
  5
118
  8
0
  6
CENTER
 62
     6
 10
646.79773
 20
286.01889
 30
0.0
 40
72.5
 50
38.077478
 51
52.031654
  0
ARC
  5
119
  8
0
  6
CENTER
 62
     6
 10
646.79773
 20
286.01889
 30
0.0
 40
72.5
 50
127.94029
 51
142.02883
  0
ARC
  5
11A
  8
0
  6
CONTINUOUS
 62
     5
 10
646.79773
 20
286.01889
 30
0.0
 40
82.499985
 50
218.01196
 51
231.98697
  0
ARC
  5
11B
  8
0
  6
CONTINUOUS
 62
     5
 10
646.79773
 20
286.01889
 30
0.0
 40
82.499985
 50
308.01199
 51
321.98704
  0
ARC
  5
11C
  8
0
  6
CONTINUOUS
 62
     5
 10
646.79773
 20
286.01889
 30
0.0
 40
82.499985
 50
38.011997
 51
51.987046
  0
ARC
  5
11D
  8
0
  6
CONTINUOUS
 62
     5
 10
646.79773
 20
286.01889
 30
0.0
 40
82.499985
 50
128.01201
 51
141.98707
  0
CIRCLE
  5
11E
  8
0
  6
CONTINUOUS
 62
     5
 10
646.79773
 20
286.01889
 30
0.0
 40
22.5
  0
CIRCLE
  5
11F
  8
0
  6
CONTINUOUS
 62
     5
 10
646.79773
 20
286.01889
 30
0.0
 40
15.0
  0
CIRCLE
  5
120
  8
0
  6
CONTINUOUS
 62
     5
 10
646.79773
 20
286.01889
 30
0.0
 40
12.0
  0
ARC
  5
121
  8
0
  6
CENTER
 62
     6
 10
646.79773
 20
286.01889
 30
0.0
 40
67.0
 50
327.71599
 51
332.40398
  0
CIRCLE
  5
122
  8
0
  6
CONTINUOUS
 62
     5
 10
613.29773
 20
227.99521
 30
0.0
 40
2.5
  0
CIRCLE
  5
123
  8
0
  6
CONTINUOUS
 62
     5
 10
613.29773
 20
227.99521
 30
0.0
 40
1.5
  0
CIRCLE
  5
124
  8
0
  6
CONTINUOUS
 62
     5
 10
704.8197
 20
252.51889
 30
0.0
 40
2.5
  0
CIRCLE
  5
125
  8
0
  6
CONTINUOUS
 62
     5
 10
704.8197
 20
252.51889
 30
0.0
 40
1.5
  0
CIRCLE
  5
126
  8
0
  6
CONTINUOUS
 62
     5
 10
588.77576
 20
319.51889
 30
0.0
 40
2.5
  0
CIRCLE
  5
127
  8
0
  6
CONTINUOUS
 62
     5
 10
588.77576
 20
319.51889
 30
0.0
 40
1.5
  0
CIRCLE
  5
128
  8
0
  6
CONTINUOUS
 62
     5
 10
680.29773
 20
344.04089
 30
0.0
 40
2.5
  0
CIRCLE
  5
129
  8
0
  6
CONTINUOUS
 62
     5
 10
680.29773
 20
344.04089
 30
0.0
 40
1.5
  0
ARC
  5
12A
  8
0
  6
CENTER
 62
     6
 10
646.79773
 20
286.01889
 30
0.0
 40
67.0
 50
237.71601
 51
242.40398
  0
ARC
  5
12B
  8
0
  6
CENTER
 62
     6
 10
646.79773
 20
286.01889
 30
0.0
 40
67.0
 50
147.71598
 51
152.40402
  0
ARC
  5
12C
  8
0
  6
CENTER
 62
     6
 10
646.79773
 20
286.01889
 30
0.0
 40
67.0
 50
57.716021
 51
62.404003
  0
ARC
  5
12D
  8
0
  6
CENTER
 62
     6
 10
646.79773
 20
286.01889
 30
0.0
 40
35.000034
 50
261.22792
 51
278.70201
  0
CIRCLE
  5
12E
  8
0
  6
CONTINUOUS
 62
     5
 10
646.79773
 20
251.01886
 30
0.0
 40
2.5
  0
ARC
  5
12F
  8
0
  6
CENTER
 62
     6
 10
646.79773
 20
286.01889
 30
0.0
 40
35.000034
 50
141.00307
 51
158.88207
  0
ARC
  5
130
  8
0
  6
CENTER
 62
     6
 10
646.79773
 20
286.01889
 30
0.0
 40
35.000034
 50
21.79151
 51
38.7194
  0
CIRCLE
  5
131
  8
0
  6
CONTINUOUS
 62
     5
 10
616.48694
 20
303.51892
 30
0.0
 40
2.5
  0
CIRCLE
  5
132
  8
0
  6
CONTINUOUS
 62
     5
 10
677.10864
 20
303.51889
 30
0.0
 40
2.5
  0
CIRCLE
  5
133
  8
0
  6
CONTINUOUS
 62
     5
 10
595.53247
 20
234.75363
 30
0.0
 40
4.5
  0
CIRCLE
  5
134
  8
0
  6
CONTINUOUS
 62
     5
 10
595.53259
 20
337.28415
 30
0.0
 40
4.5
  0
CIRCLE
  5
135
  8
0
  6
CONTINUOUS
 62
     5
 10
698.06299
 20
337.28412
 30
0.0
 40
4.5
  0
CIRCLE
  5
136
  8
0
  6
CONTINUOUS
 62
     5
 10
698.06299
 20
234.75366
 30
0.0
 40
4.5
  0
ARC
  5
137
  8
0
  6
CONTINUOUS
 62
     5
 10
180.78474
 20
286.01901
 30
0.0
 40
82.499977
 50
218.01224
 51
231.98769
  0
ARC
  5
138
  8
0
  6
CONTINUOUS
 62
     5
 10
180.78474
 20
286.01901
 30
0.0
 40
82.499977
 50
128.01224
 51
141.98776
  0
ARC
  5
139
  8
0
  6
CONTINUOUS
 62
     5
 10
180.78474
 20
286.01901
 30
0.0
 40
82.499977
 50
38.012284
 51
51.987777
  0
ARC
  5
13A
  8
0
  6
CONTINUOUS
 62
     5
 10
180.78474
 20
286.01901
 30
0.0
 40
82.499977
 50
308.01229
 51
321.98772
  0
CIRCLE
  5
13B
  8
0
  6
CONTINUOUS
 62
     5
 10
166.08473
 20
240.50958
 30
0.0
 40
2.0
  0
CIRCLE
  5
13C
  8
0
  6
CONTINUOUS
 62
     5
 10
195.48473
 20
240.50958
 30
0.0
 40
2.0
  0
ARC
  5
13D
  8
0
  6
CONTINUOUS
 62
     5
 10
180.78474
 20
286.01901
 30
0.0
 40
38.5
 50
299.57129
 51
240.42867
  0
ARC
  5
13E
  8
0
  6
CONTINUOUS
 62
     5
 10
180.78474
 20
286.01901
 30
0.0
 40
40.0
 50
300.83048
 51
239.16948
  0
ARC
  5
13F
  8
0
  6
CONTINUOUS
 62
     5
 10
126.28474
 20
231.51901
 30
0.0
 40
12.0
 50
0.0
 51
89.999982
  0
ARC
  5
140
  8
0
  6
CONTINUOUS
 62
     5
 10
235.28473
 20
231.51901
 30
0.0
 40
12.0
 50
89.999982
 51
179.99996
  0
ARC
  5
141
  8
0
  6
CONTINUOUS
 62
     5
 10
235.28473
 20
340.51901
 30
0.0
 40
12.0
 50
179.99998
 51
270.00003
  0
ARC
  5
142
  8
0
  6
CONTINUOUS
 62
     5
 10
126.28474
 20
340.51901
 30
0.0
 40
12.0
 50
270.00002
 51
0.0
  0
ARC
  5
143
  8
0
  6
CENTER
 62
     6
 10
180.78474
 20
286.01901
 30
0.0
 40
72.5
 50
309.18399
 51
320.44141
  0
ARC
  5
144
  8
0
  6
CENTER
 62
     6
 10
180.78474
 20
286.01901
 30
0.0
 40
72.5
 50
38.808011
 51
51.292409
  0
ARC
  5
145
  8
0
  6
CENTER
 62
     6
 10
180.78474
 20
286.01901
 30
0.0
 40
72.5
 50
129.12303
 51
141.07644
  0
ARC
  5
146
  8
0
  6
CENTER
 62
     6
 10
180.78474
 20
286.01901
 30
0.0
 40
72.5
 50
218.56098
 51
231.88942
  0
ARC
  5
147
  8
0
  6
CONTINUOUS
 62
     5
 10
242.13339
 20
245.51901
 30
0.0
 40
2.0
 50
270.00002
 51
357.66769
  0
ARC
  5
148
  8
0
  6
CONTINUOUS
 62
     5
 10
140.28474
 20
223.01904
 30
0.0
 40
2.0
 50
179.99998
 51
270.00003
  0
ARC
  5
149
  8
0
  6
CONTINUOUS
 62
     5
 10
221.28473
 20
223.01904
 30
0.0
 40
2.0
 50
270.00002
 51
0.0
  0
ARC
  5
14A
  8
0
  6
CONTINUOUS
 62
     5
 10
-254.21318
 20
286.01904
 30
0.0
 40
499.99789
 50
355.33498
 51
4.66402
  0
ARC
  5
14B
  8
0
  6
CONTINUOUS
 62
     5
 10
615.78583
 20
286.01913
 30
0.0
 40
500.00101
 50
175.33529
 51
184.66472
  0
ARC
  5
14C
  8
0
  6
CONTINUOUS
 62
     5
 10
119.43433
 20
245.51901
 30
0.0
 40
2.0
 50
184.66497
 51
270.00002
  0
ARC
  5
14D
  8
0
  6
CONTINUOUS
 62
     5
 10
119.43433
 20
326.51901
 30
0.0
 40
2.0
 50
89.999982
 51
175.33503
  0
ARC
  5
14E
  8
0
  6
CONTINUOUS
 62
     5
 10
242.13376
 20
326.51901
 30
0.0
 40
2.0
 50
2.332314
 51
89.999982
  0
ARC
  5
14F
  8
0
  6
CONTINUOUS
 62
     5
 10
221.28473
 20
349.01904
 30
0.0
 40
2.0
 50
0.0
 51
89.999982
  0
ARC
  5
150
  8
0
  6
CONTINUOUS
 62
     5
 10
140.28474
 20
349.01904
 30
0.0
 40
2.0
 50
89.999982
 51
179.99996
  0
ARC
  5
151
  8
0
  6
CENTER
 62
     6
 10
180.78474
 20
286.01901
 30
0.0
 40
66.999985
 50
294.99922
 51
305.162
  0
ARC
  5
152
  8
0
  6
CENTER
 62
     6
 10
180.78474
 20
286.01901
 30
0.0
 40
66.999985
 50
24.999239
 51
35.162015
  0
ARC
  5
153
  8
0
  6
CENTER
 62
     6
 10
180.78474
 20
286.01901
 30
0.0
 40
66.999985
 50
114.99925
 51
125.16201
  0
ARC
  5
154
  8
0
  6
CENTER
 62
     6
 10
180.78474
 20
286.01901
 30
0.0
 40
66.999985
 50
204.99923
 51
215.162
  0
ARC
  5
155
  8
0
  6
CENTER
 62
     6
 10
180.78474
 20
286.01901
 30
0.0
 40
46.0
 50
215.39151
 51
223.96947
  0
ARC
  5
156
  8
0
  6
CONTINUOUS
 62
     5
 10
145.55061
 20
256.44614
 30
0.0
 40
4.5
 50
310.00009
 51
129.99999
  0
ARC
  5
157
  8
0
  6
CENTER
 62
     6
 10
180.78474
 20
286.01901
 30
0.0
 40
46.0
 50
35.391581
 51
43.969548
  0
ARC
  5
158
  8
0
  6
CONTINUOUS
 62
     5
 10
216.01888
 20
315.59189
 30
0.0
 40
4.5
 50
130.00015
 51
310.00005
  0
ARC
  5
159
  8
0
  6
CENTER
 62
     6
 10
180.78474
 20
286.01901
 30
0.0
 40
46.0
 50
305.39159
 51
313.96955
  0
ARC
  5
15A
  8
0
  6
CONTINUOUS
 62
     5
 10
210.35764
 20
250.78488
 30
0.0
 40
4.5
 50
40.000156
 51
220.00005
  0
ARC
  5
15B
  8
0
  6
CENTER
 62
     6
 10
180.78474
 20
286.01901
 30
0.0
 40
46.0
 50
125.3915
 51
133.96946
  0
ARC
  5
15C
  8
0
  6
CONTINUOUS
 62
     5
 10
151.21185
 20
321.25314
 30
0.0
 40
4.5
 50
220.0001
 51
39.999995
  0
CIRCLE
  5
15D
  8
0
  6
CONTINUOUS
 62
     5
 10
214.28485
 20
227.99539
 30
0.0
 40
4.5
  0
CIRCLE
  5
15E
  8
0
  6
CONTINUOUS
 62
     5
 10
214.28485
 20
227.99539
 30
0.0
 40
6.0
  0
CIRCLE
  5
15F
  8
0
  6
CONTINUOUS
 62
     5
 10
232.04996
 20
234.75375
 30
0.0
 40
4.750061
  0
CIRCLE
  5
160
  8
0
  6
CONTINUOUS
 62
     5
 10
129.51947
 20
234.75381
 30
0.0
 40
4.750061
  0
CIRCLE
  5
161
  8
0
  6
CONTINUOUS
 62
     5
 10
232.04997
 20
337.28427
 30
0.0
 40
4.750061
  0
CIRCLE
  5
162
  8
0
  6
CONTINUOUS
 62
     5
 10
129.51952
 20
337.28427
 30
0.0
 40
4.750061
  0
CIRCLE
  5
163
  8
0
  6
CONTINUOUS
 62
     5
 10
238.80844
 20
319.51892
 30
0.0
 40
4.5
  0
CIRCLE
  5
164
  8
0
  6
CONTINUOUS
 62
     5
 10
238.80844
 20
319.51892
 30
0.0
 40
6.0
  0
CIRCLE
  5
165
  8
0
  6
CONTINUOUS
 62
     5
 10
147.2847
 20
344.04266
 30
0.0
 40
6.0
  0
CIRCLE
  5
166
  8
0
  6
CONTINUOUS
 62
     5
 10
147.2847
 20
344.04266
 30
0.0
 40
4.5
  0
CIRCLE
  5
167
  8
0
  6
CONTINUOUS
 62
     5
 10
122.76102
 20
252.5191
 30
0.0
 40
4.5
  0
CIRCLE
  5
168
  8
0
  6
CONTINUOUS
 62
     5
 10
122.76102
 20
252.5191
 30
0.0
 40
6.0
  0
CIRCLE
  5
169
  8
0
  6
CONTINUOUS
 62
     5
 10
210.35297
 20
250.78101
 30
0.0
 40
3.5
  0
CIRCLE
  5
16A
  8
0
  6
CONTINUOUS
 62
     5
 10
216.01889
 20
315.59189
 30
0.0
 40
3.5
  0
CIRCLE
  5
16B
  8
0
  6
CONTINUOUS
 62
     5
 10
145.55525
 20
256.4501
 30
0.0
 40
3.5
  0
CIRCLE
  5
16C
  8
0
  6
CONTINUOUS
 62
     5
 10
151.21654
 20
321.25708
 30
0.0
 40
3.5
  0
ARC
  5
16D
  8
0
  6
CONTINUOUS
 62
     5
 10
334.52939
 20
222.01891
 30
0.0
 40
1.0
 50
179.99998
 51
270.00003
  0
ARC
  5
16E
  8
0
  6
CONTINUOUS
 62
     5
 10
334.52939
 20
350.01889
 30
0.0
 40
1.0
 50
89.999982
 51
179.99996
  0
ARC
  5
16F
  8
0
  6
CONTINUOUS
 62
     5
 10
330.62936
 20
341.15085
 30
0.0
 40
1.6
 50
179.99998
 51
270.00109
  0
ARC
  5
170
  8
0
  6
CONTINUOUS
 62
     5
 10
330.62936
 20
346.95087
 30
0.0
 40
1.6
 50
89.999982
 51
179.99996
  0
ARC
  5
171
  8
0
  6
CONTINUOUS
 62
     5
 10
330.62936
 20
316.58185
 30
0.0
 40
1.6
 50
179.99998
 51
270.00003
  0
ARC
  5
172
  8
0
  6
CONTINUOUS
 62
     5
 10
330.62936
 20
322.38187
 30
0.0
 40
1.6
 50
89.99891
 51
179.99996
  0
ARC
  5
173
  8
0
  6
CONTINUOUS
 62
     5
 10
320.32938
 20
317.13138
 30
0.0
 40
1.0
 50
89.999982
 51
179.99996
  0
ARC
  5
174
  8
0
  6
CONTINUOUS
 62
     5
 10
320.32938
 20
249.34384
 30
0.0
 40
1.0
 50
179.99998
 51
270.00003
  0
ARC
  5
175
  8
0
  6
CONTINUOUS
 62
     5
 10
330.62936
 20
225.10286
 30
0.0
 40
1.6
 50
179.99998
 51
270.00003
  0
ARC
  5
176
  8
0
  6
CONTINUOUS
 62
     5
 10
330.62936
 20
230.90286
 30
0.0
 40
1.6
 50
89.99891
 51
179.99996
  0
ARC
  5
177
  8
0
  6
CONTINUOUS
 62
     5
 10
318.87753
 20
316.01196
 30
0.0
 40
30.048155
 50
163.61989
 51
179.9868
  0
ARC
  5
178
  8
0
  6
CONTINUOUS
 62
     5
 10
291.00839
 20
324.2038
 30
0.0
 40
1.0
 50
92.000742
 51
163.61965
  0
ARC
  5
179
  8
0
  6
CONTINUOUS
 62
     5
 10
364.26157
 20
233.05008
 30
0.0
 40
60.0
 50
324.04333
 51
347.45615
  0
TEXT
  5
17A
  8
0
  6
CONTINUOUS
 62
     7
 10
112.07217
 20
427.31114
 30
0.0
 40
12.7
  1
HC-SF103B
  0
ENDSEC
  0
EOF
