  0
SECTION
  2
HEADER
  9
$ACADVER
  1
AC1009
  9
$INSBASE
 10
0.0
 20
0.0
 30
0.0
  9
$EXTMIN
 10
12.042157
 20
85.572579
 30
-4.88819
  9
$EXTMAX
 10
285.638384
 20
193.601756
 30
14.11748
  9
$LIMMIN
 10
0.0
 20
0.0
  9
$LIMMAX
 10
12.0
 20
9.0
  9
$ORTHOMODE
 70
     0
  9
$REGENMODE
 70
     1
  9
$FILLMODE
 70
     1
  9
$QTEXTMODE
 70
     0
  9
$MIRRTEXT
 70
     1
  9
$DRAGMODE
 70
     2
  9
$LTSCALE
 40
0.5
  9
$OSMODE
 70
   256
  9
$ATTMODE
 70
     1
  9
$TEXTSIZE
 40
0.2
  9
$TRACEWID
 40
0.05
  9
$TEXTSTYLE
  7
STANDARD
  9
$CLAYER
  8
0
  9
$CELTYPE
  6
BYLAYER
  9
$CECOLOR
 62
   256
  9
$DIMSCALE
 40
1.0
  9
$DIMASZ
 40
0.18
  9
$DIMEXO
 40
0.0625
  9
$DIMDLI
 40
0.38
  9
$DIMRND
 40
0.0
  9
$DIMDLE
 40
0.0
  9
$DIMEXE
 40
0.18
  9
$DIMTP
 40
0.0
  9
$DIMTM
 40
0.0
  9
$DIMTXT
 40
2.5
  9
$DIMCEN
 40
0.09
  9
$DIMTSZ
 40
0.0
  9
$DIMTOL
 70
     0
  9
$DIMLIM
 70
     0
  9
$DIMTIH
 70
     1
  9
$DIMTOH
 70
     1
  9
$DIMSE1
 70
     0
  9
$DIMSE2
 70
     0
  9
$DIMTAD
 70
     0
  9
$DIMZIN
 70
     0
  9
$DIMBLK
  1

  9
$DIMASO
 70
     1
  9
$DIMSHO
 70
     1
  9
$DIMPOST
  1

  9
$DIMAPOST
  1

  9
$DIMALT
 70
     0
  9
$DIMALTD
 70
     2
  9
$DIMALTF
 40
25.4
  9
$DIMLFAC
 40
1.0
  9
$DIMTOFL
 70
     0
  9
$DIMTVP
 40
0.0
  9
$DIMTIX
 70
     0
  9
$DIMSOXD
 70
     0
  9
$DIMSAH
 70
     0
  9
$DIMBLK1
  1

  9
$DIMBLK2
  1

  9
$DIMSTYLE
  2
STANDARD
  9
$DIMCLRD
 70
     0
  9
$DIMCLRE
 70
     0
  9
$DIMCLRT
 70
     0
  9
$DIMTFAC
 40
1.0
  9
$DIMGAP
 40
0.09
  9
$LUNITS
 70
     2
  9
$LUPREC
 70
     4
  9
$SKETCHINC
 40
0.1
  9
$FILLETRAD
 40
0.0
  9
$AUNITS
 70
     0
  9
$AUPREC
 70
     0
  9
$MENU
  1
.
  9
$ELEVATION
 40
0.0
  9
$PELEVATION
 40
0.0
  9
$THICKNESS
 40
0.0
  9
$LIMCHECK
 70
     0
  9
$BLIPMODE
 70
     0
  9
$CHAMFERA
 40
0.0
  9
$CHAMFERB
 40
0.0
  9
$SKPOLY
 70
     0
  9
$TDCREATE
 40
2451614.563615
  9
$TDUPDATE
 40
2452949.382138
  9
$TDINDWG
 40
0.11694
  9
$TDUSRTIMER
 40
0.11694
  9
$USRTIMER
 70
     1
  9
$ANGBASE
 50
0.0
  9
$ANGDIR
 70
     0
  9
$PDMODE
 70
     0
  9
$PDSIZE
 40
0.0
  9
$PLINEWID
 40
0.0
  9
$COORDS
 70
     1
  9
$SPLFRAME
 70
     0
  9
$SPLINETYPE
 70
     6
  9
$SPLINESEGS
 70
     8
  9
$ATTDIA
 70
     0
  9
$ATTREQ
 70
     1
  9
$HANDLING
 70
     1
  9
$HANDSEED
  5
13D6B
  9
$SURFTAB1
 70
     6
  9
$SURFTAB2
 70
     6
  9
$SURFTYPE
 70
     6
  9
$SURFU
 70
     6
  9
$SURFV
 70
     6
  9
$UCSNAME
  2

  9
$UCSORG
 10
0.0
 20
0.0
 30
0.0
  9
$UCSXDIR
 10
1.0
 20
0.0
 30
0.0
  9
$UCSYDIR
 10
0.0
 20
1.0
 30
0.0
  9
$PUCSNAME
  2

  9
$PUCSORG
 10
0.0
 20
0.0
 30
0.0
  9
$PUCSXDIR
 10
1.0
 20
0.0
 30
0.0
  9
$PUCSYDIR
 10
0.0
 20
1.0
 30
0.0
  9
$USERI1
 70
     0
  9
$USERI2
 70
     0
  9
$USERI3
 70
     0
  9
$USERI4
 70
     0
  9
$USERI5
 70
     0
  9
$USERR1
 40
0.0
  9
$USERR2
 40
0.0
  9
$USERR3
 40
0.0
  9
$USERR4
 40
0.0
  9
$USERR5
 40
0.0
  9
$WORLDVIEW
 70
     1
  9
$SHADEDGE
 70
     3
  9
$SHADEDIF
 70
    70
  9
$TILEMODE
 70
     1
  9
$MAXACTVP
 70
    48
  9
$PLIMCHECK
 70
     0
  9
$PEXTMIN
 10
1.000000E+020
 20
1.000000E+020
 30
1.000000E+020
  9
$PEXTMAX
 10
-1.000000E+020
 20
-1.000000E+020
 30
-1.000000E+020
  9
$PLIMMIN
 10
0.0
 20
0.0
  9
$PLIMMAX
 10
12.0
 20
9.0
  9
$UNITMODE
 70
     0
  9
$VISRETAIN
 70
     1
  9
$PLINEGEN
 70
     0
  9
$PSLTSCALE
 70
     1
  0
ENDSEC
  0
SECTION
  2
TABLES
  0
TABLE
  2
VPORT
 70
     4
  0
VPORT
  2
*ACTIVE
 70
     0
 10
0.0
 20
0.0
 11
1.0
 21
1.0
 12
148.840271
 22
139.587167
 13
0.0
 23
0.0
 14
1.0
 24
1.0
 15
0.0
 25
0.0
 16
0.0
 26
0.0
 36
1.0
 17
0.0
 27
0.0
 37
0.0
 40
170.009365
 41
1.616967
 42
50.0
 43
0.0
 44
0.0
 50
0.0
 51
0.0
 71
     0
 72
   100
 73
     1
 74
     1
 75
     0
 76
     0
 77
     0
 78
     0
  0
ENDTAB
  0
TABLE
  2
LTYPE
 70
     6
  0
LTYPE
  2
CONTINUOUS
 70
     0
  3
Solid line
 72
    65
 73
     0
 40
0.0
  0
LTYPE
  2
CENTER
 70
     0
  3
____ _ ____ _ ____ _ ____ _ ____ _ ____ _ ____
 72
    65
 73
     4
 40
17.5
 49
13.0
 49
-1.5
 49
1.5
 49
-1.5
  0
LTYPE
  2
HIDDEN
 70
     0
  3
Hidden __ __ __ __ __ __ __ __ __ __ __ __ __ _
 72
    65
 73
     2
 40
9.525
 49
6.35
 49
-3.175
  0
ENDTAB
  0
TABLE
  2
LAYER
 70
     5
  0
LAYER
  2
0
 70
     0
 62
     7
  6
CONTINUOUS
  0
LAYER
  2
DEFPOINTS
 70
     0
 62
     7
  6
CONTINUOUS
  0
LAYER
  2
CENTER
 70
     0
 62
     1
  6
CENTER
  0
LAYER
  2
HIDDEN
 70
     0
 62
     6
  6
HIDDEN
  0
ENDTAB
  0
TABLE
  2
STYLE
 70
     2
  0
STYLE
  2
STANDARD
 70
     0
 40
0.0
 41
1.0
 50
0.0
 71
     0
 42
0.2
  3
txt
  4

  0
ENDTAB
  0
TABLE
  2
VIEW
 70
     0
  0
ENDTAB
  0
TABLE
  2
UCS
 70
     0
  0
ENDTAB
  0
TABLE
  2
APPID
 70
     1
  0
APPID
  2
ACAD
 70
     0
  0
ENDTAB
  0
TABLE
  2
DIMSTYLE
 70
     4
  0
DIMSTYLE
  2
STANDARD
 70
     0
  3

  4

  5

  6

  7

 40
1.0
 41
0.18
 42
0.0625
 43
0.38
 44
0.18
 45
0.0
 46
0.0
 47
0.0
 48
0.0
140
2.5
141
0.09
142
0.0
143
25.4
144
1.0
145
0.0
146
1.0
147
0.09
 71
     0
 72
     0
 73
     1
 74
     1
 75
     0
 76
     0
 77
     0
 78
     0
170
     0
171
     2
172
     0
173
     0
174
     0
175
     0
176
     0
177
     0
178
     0
  0
ENDTAB
  0
ENDSEC
  0
SECTION
  2
BLOCKS
  0
BLOCK
  8
0
  2
$MODEL_SPACE
 70
     0
 10
0.0
 20
0.0
 30
0.0
  3
$MODEL_SPACE
  1

  0
ENDBLK
  5
13D45
  8
0
  0
BLOCK
 67
     1
  8
0
  2
$PAPER_SPACE
 70
     0
 10
0.0
 20
0.0
 30
0.0
  3
$PAPER_SPACE
  1

  0
ENDBLK
  5
13D42
 67
     1
  8
0
  0
ENDSEC
  0
SECTION
  2
ENTITIES
  0
TEXT
  5
13165
  8
0
  6
CONTINUOUS
 62
     7
 10
12.047027
 20
185.12918
 30
0.0
 40
8.466667
  1
HF-KP053
 41
1.022222
  0
LINE
  5
13166
  8
0
 62
     5
 10
174.095915
 20
132.74867
 30
0.0
 11
194.795915
 21
132.74867
 31
0.0
  0
LINE
  5
13167
  8
0
 62
     5
 10
174.095915
 20
124.74867
 30
0.0
 11
194.795915
 21
124.74867
 31
0.0
  0
LINE
  5
13168
  8
CENTER
 10
101.795914
 20
128.74867
 30
0.0
 11
196.695915
 21
128.74867
 31
0.0
  0
LINE
  5
13169
  8
CENTER
 10
43.8619
 20
153.776635
 30
0.0
 11
43.8619
 21
86.109379
 31
0.0
  0
LINE
  5
1316A
  8
0
 62
     5
 10
56.4699
 20
149.04867
 30
0.0
 11
46.718471
 21
149.04867
 31
0.0
  0
ARC
  5
1316B
  8
0
 62
     5
 10
55.8619
 20
108.74867
 30
0.0
 40
1.0
 50
270.0
 51
0.0
  0
LINE
  5
1316C
  8
0
 62
     5
 10
53.1619
 20
107.74867
 30
0.0
 11
61.6619
 21
107.74867
 31
0.0
  0
LINE
  5
1316D
  8
CENTER
 10
18.830664
 20
128.74867
 30
0.0
 11
68.226825
 21
128.74867
 31
0.0
  0
LINE
  5
1316E
  8
0
 62
     5
 10
63.656021
 20
105.34867
 30
0.0
 11
49.137767
 21
105.34867
 31
0.0
  0
LINE
  5
1316F
  8
0
 62
     5
 10
42.9036
 20
99.94867
 30
0.0
 11
57.6202
 21
99.94867
 31
0.0
  0
LINE
  5
13170
  8
0
 62
     5
 10
23.5619
 20
146.54867
 30
0.0
 11
23.5619
 21
131.605241
 31
0.0
  0
ARC
  5
13171
  8
0
 62
     5
 10
43.8619
 20
128.74867
 30
0.0
 40
20.5
 50
171.990057
 51
188.009943
  0
ARC
  5
13172
  8
0
 62
     5
 10
24.5619
 20
122.04867
 30
0.0
 40
1.0
 50
180.0
 51
270.0
  0
ARC
  5
13173
  8
0
 62
     5
 10
24.5619
 20
115.55067
 30
0.0
 40
1.0
 50
180.0
 51
270.0
  0
ARC
  5
13174
  8
0
 62
     5
 10
26.3619
 20
111.24867
 30
0.0
 40
2.5
 50
180.0
 51
245.306169
  0
ARC
  5
13175
  8
CENTER
 10
43.8619
 20
128.74867
 30
0.0
 40
23.0
 50
213.220953
 51
235.846632
  0
LINE
  5
13176
  8
CENTER
 10
30.216126
 20
115.102896
 30
0.0
 11
24.051202
 21
108.937972
 31
0.0
  0
LINE
  5
13177
  8
0
 62
     5
 10
30.2539
 20
111.24867
 30
0.0
 11
30.2539
 21
117.94867
 31
0.0
  0
LINE
  5
13178
  8
0
 62
     5
 10
23.8619
 20
111.24867
 30
0.0
 11
23.8619
 21
114.836845
 31
0.0
  0
ARC
  5
13179
  8
0
 62
     5
 10
27.598444
 20
112.485214
 30
0.0
 40
2.25
 50
113.33323
 51
358.610178
  0
ARC
  5
1317A
  8
0
 62
     5
 10
25.6539
 20
110.54067
 30
0.0
 40
4.6
 50
5.325005
 51
60.661371
  0
LINE
  5
1317B
  8
0
 62
     5
 10
26.762688
 20
105.74867
 30
0.0
 11
51.161112
 21
105.74867
 31
0.0
  0
LINE
  5
1317C
  8
0
 62
     5
 10
35.605788
 20
104.54867
 30
0.0
 11
44.494983
 21
104.54867
 31
0.0
  0
LINE
  5
1317D
  8
0
 62
     5
 10
48.378371
 20
101.24867
 30
0.0
 11
29.545429
 21
101.24867
 31
0.0
  0
LINE
  5
1317E
  8
0
 62
     5
 10
52.4619
 20
106.74867
 30
0.0
 11
25.4619
 21
106.74867
 31
0.0
  0
LINE
  5
1317F
  8
CENTER
 10
38.9619
 20
107.935163
 30
0.0
 11
38.9619
 21
89.584873
 31
0.0
  0
LINE
  5
13180
  8
0
 62
     5
 10
30.198322
 20
101.84867
 30
0.0
 11
34.504582
 21
101.84867
 31
0.0
  0
LINE
  5
13181
  8
0
 62
     5
 10
26.762684
 20
105.74867
 30
0.0
 11
26.675195
 21
106.74867
 31
0.0
  0
LINE
  5
13182
  8
0
 62
     5
 10
29.228428
 20
101.84867
 30
0.0
 11
28.908269
 21
101.84867
 31
0.0
  0
LINE
  5
13183
  8
0
 62
     5
 10
29.238782
 20
101.548487
 30
0.0
 11
30.208675
 21
101.548487
 31
0.0
  0
LINE
  5
13184
  8
0
 62
     5
 10
30.515323
 20
101.24867
 30
0.0
 11
30.208675
 21
101.548487
 31
0.0
  0
LINE
  5
13185
  8
0
 62
     5
 10
29.545429
 20
101.24867
 30
0.0
 11
29.238782
 21
101.548487
 31
0.0
  0
LINE
  5
13186
  8
0
 62
     5
 10
30.208675
 20
101.548487
 30
0.0
 11
30.198322
 21
101.84867
 31
0.0
  0
LINE
  5
13187
  8
0
 62
     5
 10
29.228428
 20
101.84867
 30
0.0
 11
29.238782
 21
101.548487
 31
0.0
  0
LINE
  5
13188
  8
0
 62
     5
 10
28.772065
 20
105.74867
 30
0.0
 11
28.908256
 21
101.84867
 31
0.0
  0
LINE
  5
13189
  8
0
 62
     5
 10
25.7619
 20
109.24867
 30
0.0
 11
28.2539
 21
109.24867
 31
0.0
  0
ARC
  5
1318A
  8
0
 62
     5
 10
25.7619
 20
108.74867
 30
0.0
 40
0.5
 50
90.0
 51
180.0
  0
ARC
  5
1318B
  8
0
 62
     5
 10
25.4619
 20
106.94867
 30
0.0
 40
0.2
 50
180.0
 51
270.0
  0
LINE
  5
1318C
  8
0
 62
     5
 10
25.2619
 20
106.94867
 30
0.0
 11
25.2619
 21
108.74867
 31
0.0
  0
ARC
  5
1318D
  8
0
 62
     5
 10
28.2539
 20
111.24867
 30
0.0
 40
2.0
 50
270.0
 51
0.0
  0
LINE
  5
1318E
  8
0
 62
     5
 10
34.502942
 20
101.548487
 30
0.0
 11
35.589399
 21
101.548487
 31
0.0
  0
LINE
  5
1318F
  8
0
 62
     5
 10
35.589399
 20
101.548487
 30
0.0
 11
35.540831
 21
101.24867
 31
0.0
  0
LINE
  5
13190
  8
0
 62
     5
 10
34.454374
 20
101.24867
 30
0.0
 11
34.502942
 21
101.548487
 31
0.0
  0
LINE
  5
13191
  8
0
 62
     5
 10
34.504582
 20
101.84867
 30
0.0
 11
34.502942
 21
101.548487
 31
0.0
  0
LINE
  5
13192
  8
0
 62
     5
 10
35.589399
 20
101.548487
 30
0.0
 11
35.605788
 21
104.54867
 31
0.0
  0
LINE
  5
13193
  8
0
 62
     5
 10
43.574382
 20
101.24867
 30
0.0
 11
43.591305
 21
99.94867
 31
0.0
  0
LINE
  5
13194
  8
0
 62
     5
 10
42.9036
 20
99.94867
 30
0.0
 11
42.862746
 21
101.24867
 31
0.0
  0
LINE
  5
13195
  8
CENTER
 10
50.2619
 20
108.003188
 30
0.0
 11
50.2619
 21
89.584873
 31
0.0
  0
LINE
  5
13196
  8
0
 62
     5
 10
45.566691
 20
101.84867
 30
0.0
 11
49.015531
 21
101.84867
 31
0.0
  0
LINE
  5
13197
  8
0
 62
     5
 10
44.478594
 20
101.548487
 30
0.0
 11
45.565051
 21
101.548487
 31
0.0
  0
LINE
  5
13198
  8
0
 62
     5
 10
45.516483
 20
101.24867
 30
0.0
 11
45.565051
 21
101.548487
 31
0.0
  0
LINE
  5
13199
  8
0
 62
     5
 10
44.430026
 20
101.24867
 30
0.0
 11
44.478594
 21
101.548487
 31
0.0
  0
LINE
  5
1319A
  8
0
 62
     5
 10
45.565051
 20
101.548487
 30
0.0
 11
45.566691
 21
101.84867
 31
0.0
  0
LINE
  5
1319B
  8
0
 62
     5
 10
44.494983
 20
104.54867
 30
0.0
 11
44.478594
 21
101.548487
 31
0.0
  0
LINE
  5
1319C
  8
0
 62
     5
 10
44.126096
 20
101.24867
 30
0.0
 11
44.126096
 21
104.54867
 31
0.0
  0
LINE
  5
1319D
  8
0
 62
     5
 10
51.161116
 20
105.74867
 30
0.0
 11
51.248605
 21
106.74867
 31
0.0
  0
LINE
  5
1319E
  8
0
 62
     5
 10
53.7619
 20
105.64867
 30
0.0
 11
49.148243
 21
105.64867
 31
0.0
  0
LINE
  5
1319F
  8
0
 62
     5
 10
53.7619
 20
105.3717
 30
0.0
 11
49.138571
 21
105.3717
 31
0.0
  0
LINE
  5
131A0
  8
0
 62
     5
 10
48.378371
 20
101.24867
 30
0.0
 11
48.685018
 21
101.548487
 31
0.0
  0
LINE
  5
131A1
  8
0
 62
     5
 10
48.695372
 20
101.84867
 30
0.0
 11
48.685018
 21
101.548487
 31
0.0
  0
LINE
  5
131A2
  8
0
 62
     5
 10
49.151735
 20
105.74867
 30
0.0
 11
49.015544
 21
101.84867
 31
0.0
  0
LINE
  5
131A3
  8
0
 62
     5
 10
53.7619
 20
105.3717
 30
0.0
 11
53.7619
 21
105.64867
 31
0.0
  0
ARC
  5
131A4
  8
0
 62
     5
 10
53.1619
 20
107.24867
 30
0.0
 40
0.5
 50
90.0
 51
180.0
  0
ARC
  5
131A5
  8
0
 62
     5
 10
52.4619
 20
106.94867
 30
0.0
 40
0.2
 50
270.0
 51
0.0
  0
LINE
  5
131A6
  8
0
 62
     5
 10
52.6619
 20
107.24867
 30
0.0
 11
52.6619
 21
106.94867
 31
0.0
  0
LINE
  5
131A7
  8
0
 62
     5
 10
23.5619
 20
115.55067
 30
0.0
 11
23.5619
 21
125.892099
 31
0.0
  0
ARC
  5
131A8
  8
0
 62
     5
 10
27.046555
 20
117.828657
 30
0.0
 40
1.3
 50
347.561907
 51
12.438093
  0
LINE
  5
131A9
  8
0
 62
     5
 10
28.316043
 20
118.108657
 30
0.0
 11
27.813888
 21
117.968657
 31
0.0
  0
LINE
  5
131AA
  8
0
 62
     5
 10
27.756043
 20
118.108657
 30
0.0
 11
27.757888
 21
117.968657
 31
0.0
  0
ARC
  5
131AB
  8
0
 62
     5
 10
27.046555
 20
117.828657
 30
0.0
 40
1.3
 50
167.561907
 51
192.438093
  0
LINE
  5
131AC
  8
0
 62
     5
 10
25.777067
 20
118.108657
 30
0.0
 11
26.279222
 21
117.968657
 31
0.0
  0
LINE
  5
131AD
  8
0
 62
     5
 10
26.697433
 20
118.17778
 30
0.0
 11
26.335222
 21
117.968657
 31
0.0
  0
LINE
  5
131AE
  8
0
 62
     5
 10
26.609352
 20
117.391454
 30
0.0
 11
27.483759
 21
118.265861
 31
0.0
  0
LINE
  5
131AF
  8
0
 62
     5
 10
27.483759
 20
117.391454
 30
0.0
 11
26.609352
 21
118.265861
 31
0.0
  0
LINE
  5
131B0
  8
0
 62
     5
 10
26.906555
 20
117.117324
 30
0.0
 11
27.186555
 21
118.53999
 31
0.0
  0
LINE
  5
131B1
  8
0
 62
     5
 10
26.906555
 20
117.061324
 30
0.0
 11
27.186555
 21
118.59599
 31
0.0
  0
LINE
  5
131B2
  8
0
 62
     5
 10
27.186555
 20
117.061324
 30
0.0
 11
26.906555
 21
118.59599
 31
0.0
  0
LINE
  5
131B3
  8
0
 62
     5
 10
27.186555
 20
117.117324
 30
0.0
 11
26.906555
 21
118.53999
 31
0.0
  0
LINE
  5
131B4
  8
0
 62
     5
 10
26.337067
 20
118.108657
 30
0.0
 11
26.335222
 21
117.968657
 31
0.0
  0
CIRCLE
  5
131B5
  8
0
 62
     5
 10
27.046555
 20
117.828657
 30
0.0
 40
3.0
  0
CIRCLE
  5
131B6
  8
0
 62
     5
 10
27.046555
 20
117.828657
 30
0.0
 40
2.25
  0
ARC
  5
131B7
  8
0
 62
     5
 10
27.1539
 20
117.94867
 30
0.0
 40
3.1
 50
0.0
 51
90.0
  0
LINE
  5
131B8
  8
0
 62
     5
 10
27.757888
 20
117.968657
 30
0.0
 11
27.395678
 21
118.17778
 31
0.0
  0
LINE
  5
131B9
  8
0
 62
     5
 10
27.907764
 20
114.55067
 30
0.0
 11
24.5619
 21
114.55067
 31
0.0
  0
LINE
  5
131BA
  8
0
 62
     5
 10
26.335222
 20
117.688657
 30
0.0
 11
27.757888
 21
117.968657
 31
0.0
  0
LINE
  5
131BB
  8
0
 62
     5
 10
26.279222
 20
117.688657
 30
0.0
 11
27.813888
 21
117.968657
 31
0.0
  0
LINE
  5
131BC
  8
0
 62
     5
 10
27.756043
 20
117.548657
 30
0.0
 11
27.483759
 21
117.391454
 31
0.0
  0
LINE
  5
131BD
  8
0
 62
     5
 10
27.395678
 20
117.479535
 30
0.0
 11
27.757888
 21
117.688657
 31
0.0
  0
LINE
  5
131BE
  8
0
 62
     5
 10
26.335222
 20
117.968657
 30
0.0
 11
27.757888
 21
117.688657
 31
0.0
  0
LINE
  5
131BF
  8
0
 62
     5
 10
26.279222
 20
117.968657
 30
0.0
 11
27.813888
 21
117.688657
 31
0.0
  0
ARC
  5
131C0
  8
0
 62
     5
 10
27.046555
 20
117.828657
 30
0.0
 40
1.3
 50
257.561907
 51
282.438093
  0
ARC
  5
131C1
  8
0
 62
     5
 10
27.046555
 20
117.828657
 30
0.0
 40
0.78
 50
259.660109
 51
280.339891
  0
ARC
  5
131C2
  8
0
 62
     5
 10
27.046555
 20
117.828657
 30
0.0
 40
0.78
 50
169.660109
 51
190.339891
  0
LINE
  5
131C3
  8
0
 62
     5
 10
25.777067
 20
117.548657
 30
0.0
 11
26.279222
 21
117.688657
 31
0.0
  0
LINE
  5
131C4
  8
0
 62
     5
 10
26.766555
 20
117.119169
 30
0.0
 11
26.906555
 21
117.117324
 31
0.0
  0
LINE
  5
131C5
  8
0
 62
     5
 10
26.335222
 20
117.968657
 30
0.0
 11
26.279222
 21
117.968657
 31
0.0
  0
LINE
  5
131C6
  8
0
 62
     5
 10
26.279222
 20
117.688657
 30
0.0
 11
26.335222
 21
117.688657
 31
0.0
  0
LINE
  5
131C7
  8
0
 62
     5
 10
26.337067
 20
117.548657
 30
0.0
 11
25.777067
 21
117.548657
 31
0.0
  0
LINE
  5
131C8
  8
0
 62
     5
 10
27.326555
 20
117.119169
 30
0.0
 11
27.186555
 21
117.117324
 31
0.0
  0
LINE
  5
131C9
  8
0
 62
     5
 10
26.335222
 20
117.688657
 30
0.0
 11
26.697433
 21
117.479535
 31
0.0
  0
LINE
  5
131CA
  8
0
 62
     5
 10
26.609352
 20
117.391454
 30
0.0
 11
26.337067
 21
117.548657
 31
0.0
  0
LINE
  5
131CB
  8
0
 62
     5
 10
27.483759
 20
117.391454
 30
0.0
 11
27.326555
 21
117.119169
 31
0.0
  0
LINE
  5
131CC
  8
0
 62
     5
 10
27.186555
 20
117.117324
 30
0.0
 11
27.395678
 21
117.479535
 31
0.0
  0
LINE
  5
131CD
  8
0
 62
     5
 10
26.766555
 20
116.559169
 30
0.0
 11
26.906555
 21
117.061324
 31
0.0
  0
LINE
  5
131CE
  8
0
 62
     5
 10
27.326555
 20
116.559169
 30
0.0
 11
27.186555
 21
117.061324
 31
0.0
  0
LINE
  5
131CF
  8
0
 62
     5
 10
26.697433
 20
117.479535
 30
0.0
 11
26.906555
 21
117.117324
 31
0.0
  0
LINE
  5
131D0
  8
0
 62
     5
 10
26.766555
 20
117.119169
 30
0.0
 11
26.609352
 21
117.391454
 31
0.0
  0
LINE
  5
131D1
  8
0
 62
     5
 10
27.326555
 20
117.119169
 30
0.0
 11
27.326555
 21
116.559169
 31
0.0
  0
LINE
  5
131D2
  8
0
 62
     5
 10
27.186555
 20
117.061324
 30
0.0
 11
27.186555
 21
117.117324
 31
0.0
  0
LINE
  5
131D3
  8
0
 62
     5
 10
26.906555
 20
117.117324
 30
0.0
 11
26.906555
 21
117.061324
 31
0.0
  0
LINE
  5
131D4
  8
0
 62
     5
 10
26.766555
 20
116.559169
 30
0.0
 11
26.766555
 21
117.119169
 31
0.0
  0
LINE
  5
131D5
  8
0
 62
     5
 10
26.337067
 20
117.548657
 30
0.0
 11
26.335222
 21
117.688657
 31
0.0
  0
ARC
  5
131D6
  8
0
 62
     5
 10
27.046555
 20
117.828657
 30
0.0
 40
0.78
 50
349.660109
 51
10.339891
  0
LINE
  5
131D7
  8
0
 62
     5
 10
27.813888
 20
117.968657
 30
0.0
 11
27.757888
 21
117.968657
 31
0.0
  0
LINE
  5
131D8
  8
0
 62
     5
 10
27.757888
 20
117.688657
 30
0.0
 11
27.813888
 21
117.688657
 31
0.0
  0
LINE
  5
131D9
  8
0
 62
     5
 10
28.316043
 20
117.548657
 30
0.0
 11
27.756043
 21
117.548657
 31
0.0
  0
LINE
  5
131DA
  8
0
 62
     5
 10
28.316043
 20
117.548657
 30
0.0
 11
27.813888
 21
117.688657
 31
0.0
  0
LINE
  5
131DB
  8
0
 62
     5
 10
27.756043
 20
117.548657
 30
0.0
 11
27.757888
 21
117.688657
 31
0.0
  0
LINE
  5
131DC
  8
0
 62
     5
 10
27.483759
 20
118.265861
 30
0.0
 11
27.756043
 21
118.108657
 31
0.0
  0
LINE
  5
131DD
  8
0
 62
     5
 10
27.1539
 20
121.04867
 30
0.0
 11
24.5619
 21
121.04867
 31
0.0
  0
ARC
  5
131DE
  8
0
 62
     5
 10
27.046555
 20
117.828657
 30
0.0
 40
1.3
 50
77.561907
 51
102.438093
  0
ARC
  5
131DF
  8
0
 62
     5
 10
27.046555
 20
117.828657
 30
0.0
 40
0.78
 50
79.660109
 51
100.339891
  0
LINE
  5
131E0
  8
0
 62
     5
 10
27.326555
 20
118.538145
 30
0.0
 11
27.186555
 21
118.53999
 31
0.0
  0
LINE
  5
131E1
  8
0
 62
     5
 10
25.777067
 20
118.108657
 30
0.0
 11
26.337067
 21
118.108657
 31
0.0
  0
LINE
  5
131E2
  8
0
 62
     5
 10
26.766555
 20
118.538145
 30
0.0
 11
26.906555
 21
118.53999
 31
0.0
  0
LINE
  5
131E3
  8
0
 62
     5
 10
26.337067
 20
118.108657
 30
0.0
 11
26.609352
 21
118.265861
 31
0.0
  0
LINE
  5
131E4
  8
0
 62
     5
 10
26.906555
 20
118.53999
 30
0.0
 11
26.697433
 21
118.17778
 31
0.0
  0
LINE
  5
131E5
  8
0
 62
     5
 10
26.609352
 20
118.265861
 30
0.0
 11
26.766555
 21
118.538145
 31
0.0
  0
LINE
  5
131E6
  8
0
 62
     5
 10
27.326555
 20
118.538145
 30
0.0
 11
27.483759
 21
118.265861
 31
0.0
  0
LINE
  5
131E7
  8
0
 62
     5
 10
27.326555
 20
119.098145
 30
0.0
 11
27.186555
 21
118.59599
 31
0.0
  0
LINE
  5
131E8
  8
0
 62
     5
 10
26.766555
 20
119.098145
 30
0.0
 11
26.906555
 21
118.59599
 31
0.0
  0
LINE
  5
131E9
  8
0
 62
     5
 10
27.395678
 20
118.17778
 30
0.0
 11
27.186555
 21
118.53999
 31
0.0
  0
LINE
  5
131EA
  8
0
 62
     5
 10
27.326555
 20
119.098145
 30
0.0
 11
27.326555
 21
118.538145
 31
0.0
  0
LINE
  5
131EB
  8
0
 62
     5
 10
27.186555
 20
118.53999
 30
0.0
 11
27.186555
 21
118.59599
 31
0.0
  0
LINE
  5
131EC
  8
0
 62
     5
 10
26.906555
 20
118.59599
 30
0.0
 11
26.906555
 21
118.53999
 31
0.0
  0
LINE
  5
131ED
  8
0
 62
     5
 10
26.766555
 20
118.538145
 30
0.0
 11
26.766555
 21
119.098145
 31
0.0
  0
LINE
  5
131EE
  8
0
 62
     5
 10
27.756043
 20
118.108657
 30
0.0
 11
28.316043
 21
118.108657
 31
0.0
  0
LINE
  5
131EF
  8
0
 62
     5
 10
23.5619
 20
125.892099
 30
0.0
 11
23.566731
 21
125.892437
 31
0.0
  0
ARC
  5
131F0
  8
0
 62
     5
 10
24.5619
 20
140.74867
 30
0.0
 40
1.0
 50
90.0
 51
180.0
  0
ARC
  5
131F1
  8
0
 62
     5
 10
26.0619
 20
146.54867
 30
0.0
 40
2.5
 50
90.0
 51
180.0
  0
LINE
  5
131F2
  8
0
 62
     5
 10
41.005329
 20
149.04867
 30
0.0
 11
35.545389
 21
149.04867
 31
0.0
  0
LINE
  5
131F3
  8
0
 62
     5
 10
37.241467
 20
148.04867
 30
0.0
 11
37.241467
 21
146.284795
 31
0.0
  0
LINE
  5
131F4
  8
0
 62
     5
 10
33.861467
 20
147.554283
 30
0.0
 11
34.001467
 21
147.052128
 31
0.0
  0
LINE
  5
131F5
  8
0
 62
     5
 10
34.421467
 20
147.554283
 30
0.0
 11
34.281467
 21
147.052128
 31
0.0
  0
LINE
  5
131F6
  8
0
 62
     5
 10
34.421467
 20
147.554283
 30
0.0
 11
34.421467
 21
146.994283
 31
0.0
  0
LINE
  5
131F7
  8
0
 62
     5
 10
33.861467
 20
146.994283
 30
0.0
 11
33.861467
 21
147.554283
 31
0.0
  0
LINE
  5
131F8
  8
0
 62
     5
 10
30.8619
 20
144.734992
 30
0.0
 11
30.8619
 21
148.04867
 31
0.0
  0
LINE
  5
131F9
  8
0
 62
     5
 10
23.691505
 20
147.343294
 30
0.0
 11
23.657323
 21
147.232933
 31
0.0
  0
CIRCLE
  5
131FA
  8
0
 62
     5
 10
34.141467
 20
146.284795
 30
0.0
 40
2.25
  0
CIRCLE
  5
131FB
  8
0
 62
     5
 10
34.141467
 20
146.284795
 30
0.0
 40
3.0
  0
ARC
  5
131FC
  8
0
 62
     5
 10
31.624029
 20
143.04867
 30
0.0
 40
1.0
 50
52.120033
 51
90.0
  0
LINE
  5
131FD
  8
0
 62
     5
 10
27.875578
 20
141.74867
 30
0.0
 11
24.5619
 21
141.74867
 31
0.0
  0
LINE
  5
131FE
  8
0
 62
     5
 10
23.657323
 20
147.232933
 30
0.0
 11
23.628305
 21
147.121188
 31
0.0
  0
LINE
  5
131FF
  8
0
 62
     5
 10
23.604474
 20
147.008227
 30
0.0
 11
23.585882
 21
146.894223
 31
0.0
  0
LINE
  5
13200
  8
0
 62
     5
 10
23.585882
 20
146.894223
 30
0.0
 11
23.572563
 21
146.779475
 31
0.0
  0
LINE
  5
13201
  8
0
 62
     5
 10
23.572563
 20
146.779475
 30
0.0
 11
23.564576
 21
146.664382
 31
0.0
  0
LINE
  5
13202
  8
0
 62
     5
 10
23.564576
 20
146.664382
 30
0.0
 11
23.56347
 21
146.616622
 31
0.0
  0
LINE
  5
13203
  8
0
 62
     5
 10
23.628305
 20
147.121188
 30
0.0
 11
23.604474
 21
147.008227
 31
0.0
  0
ARC
  5
13204
  8
0
 62
     5
 10
30.974988
 20
143.04867
 30
0.0
 40
1.0
 50
90.0
 51
132.024628
  0
ARC
  5
13205
  8
0
 62
     5
 10
29.8619
 20
144.734992
 30
0.0
 40
1.0
 50
311.21021
 51
0.0
  0
LINE
  5
13206
  8
0
 62
     5
 10
31.624029
 20
144.04867
 30
0.0
 11
30.974988
 21
144.04867
 31
0.0
  0
LINE
  5
13207
  8
0
 62
     5
 10
30.520724
 20
143.982695
 30
0.0
 11
30.305538
 21
143.791527
 31
0.0
  0
ARC
  5
13208
  8
0
 62
     5
 10
27.875578
 20
142.74867
 30
0.0
 40
1.0
 50
270.0
 51
318.78979
  0
ARC
  5
13209
  8
0
 62
     5
 10
43.8619
 20
128.74867
 30
0.0
 40
20.25
 50
131.21021
 51
138.78979
  0
ARC
  5
1320A
  8
0
 62
     5
 10
34.141467
 20
146.284795
 30
0.0
 40
3.1
 50
232.120033
 51
0.0
  0
LINE
  5
1320B
  8
0
 62
     5
 10
32.871979
 20
146.004795
 30
0.0
 11
33.374134
 21
146.144795
 31
0.0
  0
LINE
  5
1320C
  8
0
 62
     5
 10
32.871979
 20
146.564795
 30
0.0
 11
33.431979
 21
146.564795
 31
0.0
  0
LINE
  5
1320D
  8
0
 62
     5
 10
33.431979
 20
146.004795
 30
0.0
 11
32.871979
 21
146.004795
 31
0.0
  0
LINE
  5
1320E
  8
0
 62
     5
 10
32.871979
 20
146.564795
 30
0.0
 11
33.374134
 21
146.424795
 31
0.0
  0
ARC
  5
1320F
  8
0
 62
     5
 10
34.141467
 20
146.284795
 30
0.0
 40
1.3
 50
167.561907
 51
192.438093
  0
LINE
  5
13210
  8
0
 62
     5
 10
34.421467
 20
145.015307
 30
0.0
 11
34.281467
 21
145.517462
 31
0.0
  0
LINE
  5
13211
  8
0
 62
     5
 10
33.861467
 20
145.015307
 30
0.0
 11
34.001467
 21
145.517462
 31
0.0
  0
LINE
  5
13212
  8
0
 62
     5
 10
34.421467
 20
145.575307
 30
0.0
 11
34.421467
 21
145.015307
 31
0.0
  0
LINE
  5
13213
  8
0
 62
     5
 10
33.861467
 20
145.015307
 30
0.0
 11
33.861467
 21
145.575307
 31
0.0
  0
ARC
  5
13214
  8
0
 62
     5
 10
34.141467
 20
146.284795
 30
0.0
 40
1.3
 50
257.561907
 51
282.438093
  0
ARC
  5
13215
  8
0
 62
     5
 10
34.141467
 20
146.284795
 30
0.0
 40
1.3
 50
347.561907
 51
12.438093
  0
ARC
  5
13216
  8
0
 62
     5
 10
34.141467
 20
146.284795
 30
0.0
 40
0.78
 50
79.660109
 51
100.339891
  0
ARC
  5
13217
  8
0
 62
     5
 10
34.141467
 20
146.284795
 30
0.0
 40
0.78
 50
349.660109
 51
10.339891
  0
ARC
  5
13218
  8
0
 62
     5
 10
34.141467
 20
146.284795
 30
0.0
 40
0.78
 50
259.660109
 51
280.339891
  0
ARC
  5
13219
  8
0
 62
     5
 10
34.141467
 20
146.284795
 30
0.0
 40
0.78
 50
169.660109
 51
190.339891
  0
LINE
  5
1321A
  8
0
 62
     5
 10
35.410955
 20
146.564795
 30
0.0
 11
34.9088
 21
146.424795
 31
0.0
  0
LINE
  5
1321B
  8
0
 62
     5
 10
33.374134
 20
146.144795
 30
0.0
 11
34.9088
 21
146.424795
 31
0.0
  0
LINE
  5
1321C
  8
0
 62
     5
 10
33.430134
 20
146.144795
 30
0.0
 11
34.8528
 21
146.424795
 31
0.0
  0
LINE
  5
1321D
  8
0
 62
     5
 10
34.421467
 20
146.994283
 30
0.0
 11
34.281467
 21
146.996128
 31
0.0
  0
LINE
  5
1321E
  8
0
 62
     5
 10
33.861467
 20
145.575307
 30
0.0
 11
34.001467
 21
145.573462
 31
0.0
  0
LINE
  5
1321F
  8
0
 62
     5
 10
34.850955
 20
146.564795
 30
0.0
 11
35.410955
 21
146.564795
 31
0.0
  0
LINE
  5
13220
  8
0
 62
     5
 10
33.430134
 20
146.424795
 30
0.0
 11
33.374134
 21
146.424795
 31
0.0
  0
LINE
  5
13221
  8
0
 62
     5
 10
34.9088
 20
146.424795
 30
0.0
 11
34.8528
 21
146.424795
 31
0.0
  0
LINE
  5
13222
  8
0
 62
     5
 10
34.8528
 20
146.144795
 30
0.0
 11
34.9088
 21
146.144795
 31
0.0
  0
LINE
  5
13223
  8
0
 62
     5
 10
33.374134
 20
146.144795
 30
0.0
 11
33.430134
 21
146.144795
 31
0.0
  0
LINE
  5
13224
  8
0
 62
     5
 10
35.410955
 20
146.004795
 30
0.0
 11
34.850955
 21
146.004795
 31
0.0
  0
LINE
  5
13225
  8
0
 62
     5
 10
33.861467
 20
146.994283
 30
0.0
 11
34.001467
 21
146.996128
 31
0.0
  0
LINE
  5
13226
  8
0
 62
     5
 10
34.421467
 20
145.575307
 30
0.0
 11
34.281467
 21
145.573462
 31
0.0
  0
LINE
  5
13227
  8
0
 62
     5
 10
35.410955
 20
146.004795
 30
0.0
 11
34.9088
 21
146.144795
 31
0.0
  0
LINE
  5
13228
  8
0
 62
     5
 10
33.430134
 20
146.424795
 30
0.0
 11
34.8528
 21
146.144795
 31
0.0
  0
LINE
  5
13229
  8
0
 62
     5
 10
33.374134
 20
146.424795
 30
0.0
 11
34.9088
 21
146.144795
 31
0.0
  0
LINE
  5
1322A
  8
0
 62
     5
 10
34.578671
 20
146.721999
 30
0.0
 11
34.850955
 21
146.564795
 31
0.0
  0
LINE
  5
1322B
  8
0
 62
     5
 10
34.8528
 20
146.424795
 30
0.0
 11
34.49059
 21
146.633918
 31
0.0
  0
LINE
  5
1322C
  8
0
 62
     5
 10
33.430134
 20
146.144795
 30
0.0
 11
33.792345
 21
145.935673
 31
0.0
  0
LINE
  5
1322D
  8
0
 62
     5
 10
33.704264
 20
145.847592
 30
0.0
 11
33.431979
 21
146.004795
 31
0.0
  0
LINE
  5
1322E
  8
0
 62
     5
 10
34.850955
 20
146.004795
 30
0.0
 11
34.578671
 21
145.847592
 31
0.0
  0
LINE
  5
1322F
  8
0
 62
     5
 10
34.49059
 20
145.935673
 30
0.0
 11
34.8528
 21
146.144795
 31
0.0
  0
LINE
  5
13230
  8
0
 62
     5
 10
33.792345
 20
146.633918
 30
0.0
 11
33.430134
 21
146.424795
 31
0.0
  0
LINE
  5
13231
  8
0
 62
     5
 10
33.431979
 20
146.564795
 30
0.0
 11
33.704264
 21
146.721999
 31
0.0
  0
LINE
  5
13232
  8
0
 62
     5
 10
34.578671
 20
145.847592
 30
0.0
 11
33.704264
 21
146.721999
 31
0.0
  0
LINE
  5
13233
  8
0
 62
     5
 10
33.704264
 20
145.847592
 30
0.0
 11
34.578671
 21
146.721999
 31
0.0
  0
LINE
  5
13234
  8
0
 62
     5
 10
34.421467
 20
146.994283
 30
0.0
 11
34.578671
 21
146.721999
 31
0.0
  0
LINE
  5
13235
  8
0
 62
     5
 10
34.49059
 20
146.633918
 30
0.0
 11
34.281467
 21
146.996128
 31
0.0
  0
LINE
  5
13236
  8
0
 62
     5
 10
33.792345
 20
145.935673
 30
0.0
 11
34.001467
 21
145.573462
 31
0.0
  0
LINE
  5
13237
  8
0
 62
     5
 10
33.861467
 20
145.575307
 30
0.0
 11
33.704264
 21
145.847592
 31
0.0
  0
LINE
  5
13238
  8
0
 62
     5
 10
34.281467
 20
145.517462
 30
0.0
 11
34.001467
 21
147.052128
 31
0.0
  0
LINE
  5
13239
  8
0
 62
     5
 10
34.281467
 20
145.573462
 30
0.0
 11
34.001467
 21
146.996128
 31
0.0
  0
LINE
  5
1323A
  8
0
 62
     5
 10
34.578671
 20
145.847592
 30
0.0
 11
34.421467
 21
145.575307
 31
0.0
  0
LINE
  5
1323B
  8
0
 62
     5
 10
34.281467
 20
145.573462
 30
0.0
 11
34.49059
 21
145.935673
 31
0.0
  0
LINE
  5
1323C
  8
0
 62
     5
 10
34.001467
 20
146.996128
 30
0.0
 11
33.792345
 21
146.633918
 31
0.0
  0
LINE
  5
1323D
  8
0
 62
     5
 10
33.704264
 20
146.721999
 30
0.0
 11
33.861467
 21
146.994283
 31
0.0
  0
LINE
  5
1323E
  8
0
 62
     5
 10
34.001467
 20
145.573462
 30
0.0
 11
34.281467
 21
146.996128
 31
0.0
  0
LINE
  5
1323F
  8
0
 62
     5
 10
34.001467
 20
145.517462
 30
0.0
 11
34.281467
 21
147.052128
 31
0.0
  0
LINE
  5
13240
  8
0
 62
     5
 10
34.850955
 20
146.004795
 30
0.0
 11
34.8528
 21
146.144795
 31
0.0
  0
LINE
  5
13241
  8
0
 62
     5
 10
33.431979
 20
146.564795
 30
0.0
 11
33.430134
 21
146.424795
 31
0.0
  0
LINE
  5
13242
  8
0
 62
     5
 10
34.281467
 20
146.996128
 30
0.0
 11
34.281467
 21
147.052128
 31
0.0
  0
LINE
  5
13243
  8
0
 62
     5
 10
34.281467
 20
145.517462
 30
0.0
 11
34.281467
 21
145.573462
 31
0.0
  0
LINE
  5
13244
  8
0
 62
     5
 10
34.001467
 20
145.573462
 30
0.0
 11
34.001467
 21
145.517462
 31
0.0
  0
LINE
  5
13245
  8
0
 62
     5
 10
34.001467
 20
147.052128
 30
0.0
 11
34.001467
 21
146.996128
 31
0.0
  0
LINE
  5
13246
  8
0
 62
     5
 10
34.850955
 20
146.564795
 30
0.0
 11
34.8528
 21
146.424795
 31
0.0
  0
LINE
  5
13247
  8
0
 62
     5
 10
33.431979
 20
146.004795
 30
0.0
 11
33.430134
 21
146.144795
 31
0.0
  0
LINE
  5
13248
  8
0
 62
     5
 10
26.0619
 20
149.04867
 30
0.0
 11
32.737546
 21
149.04867
 31
0.0
  0
ARC
  5
13249
  8
0
 62
     5
 10
31.8619
 20
148.04867
 30
0.0
 40
1.0
 50
90.0
 51
180.0
  0
LINE
  5
1324A
  8
0
 62
     5
 10
25.602343
 20
149.006096
 30
0.0
 11
25.489382
 21
148.982265
 31
0.0
  0
LINE
  5
1324B
  8
0
 62
     5
 10
25.489382
 20
148.982265
 30
0.0
 11
25.377637
 21
148.953247
 31
0.0
  0
LINE
  5
1324C
  8
0
 62
     5
 10
25.946188
 20
149.045994
 30
0.0
 11
25.831095
 21
149.038007
 31
0.0
  0
LINE
  5
1324D
  8
0
 62
     5
 10
25.831095
 20
149.038007
 30
0.0
 11
25.716347
 21
149.024688
 31
0.0
  0
LINE
  5
1324E
  8
0
 62
     5
 10
25.716347
 20
149.024688
 30
0.0
 11
25.602343
 21
149.006096
 31
0.0
  0
LINE
  5
1324F
  8
0
 62
     5
 10
25.993966
 20
149.0471
 30
0.0
 11
25.946188
 21
149.045994
 31
0.0
  0
LINE
  5
13250
  8
0
 62
     5
 10
25.377637
 20
148.953247
 30
0.0
 11
25.267276
 21
148.919065
 31
0.0
  0
LINE
  5
13251
  8
0
 62
     5
 10
25.267276
 20
148.919065
 30
0.0
 11
25.158613
 21
148.879837
 31
0.0
  0
LINE
  5
13252
  8
0
 62
     5
 10
25.051976
 20
148.835666
 30
0.0
 11
24.947489
 21
148.786618
 31
0.0
  0
LINE
  5
13253
  8
0
 62
     5
 10
24.947489
 20
148.786618
 30
0.0
 11
24.845278
 21
148.732734
 31
0.0
  0
LINE
  5
13254
  8
0
 62
     5
 10
24.845278
 20
148.732734
 30
0.0
 11
24.74566
 21
148.6742
 31
0.0
  0
LINE
  5
13255
  8
0
 62
     5
 10
24.74566
 20
148.6742
 30
0.0
 11
24.648968
 21
148.611195
 31
0.0
  0
LINE
  5
13256
  8
0
 62
     5
 10
24.648968
 20
148.611195
 30
0.0
 11
24.555286
 21
148.543792
 31
0.0
  0
LINE
  5
13257
  8
0
 62
     5
 10
24.555286
 20
148.543792
 30
0.0
 11
24.464712
 21
148.472039
 31
0.0
  0
LINE
  5
13258
  8
0
 62
     5
 10
24.464712
 20
148.472039
 30
0.0
 11
24.377539
 21
148.396193
 31
0.0
  0
LINE
  5
13259
  8
0
 62
     5
 10
24.377539
 20
148.396193
 30
0.0
 11
24.294074
 21
148.316496
 31
0.0
  0
LINE
  5
1325A
  8
0
 62
     5
 10
24.294074
 20
148.316496
 30
0.0
 11
24.214377
 21
148.233031
 31
0.0
  0
LINE
  5
1325B
  8
0
 62
     5
 10
24.214377
 20
148.233031
 30
0.0
 11
24.138531
 21
148.145858
 31
0.0
  0
LINE
  5
1325C
  8
0
 62
     5
 10
24.138531
 20
148.145858
 30
0.0
 11
24.066778
 21
148.055284
 31
0.0
  0
LINE
  5
1325D
  8
0
 62
     5
 10
24.066778
 20
148.055284
 30
0.0
 11
23.999375
 21
147.961602
 31
0.0
  0
LINE
  5
1325E
  8
0
 62
     5
 10
23.999375
 20
147.961602
 30
0.0
 11
23.93637
 21
147.86491
 31
0.0
  0
LINE
  5
1325F
  8
0
 62
     5
 10
23.93637
 20
147.86491
 30
0.0
 11
23.877836
 21
147.765292
 31
0.0
  0
LINE
  5
13260
  8
0
 62
     5
 10
23.877836
 20
147.765292
 30
0.0
 11
23.823952
 21
147.663081
 31
0.0
  0
LINE
  5
13261
  8
0
 62
     5
 10
23.823952
 20
147.663081
 30
0.0
 11
23.774904
 21
147.558594
 31
0.0
  0
LINE
  5
13262
  8
0
 62
     5
 10
23.774904
 20
147.558594
 30
0.0
 11
23.730733
 21
147.451957
 31
0.0
  0
LINE
  5
13263
  8
0
 62
     5
 10
23.730733
 20
147.451957
 30
0.0
 11
23.691505
 21
147.343294
 31
0.0
  0
LINE
  5
13264
  8
0
 62
     5
 10
25.158613
 20
148.879837
 30
0.0
 11
25.051976
 21
148.835666
 31
0.0
  0
ARC
  5
13265
  8
0
 62
     5
 10
34.141467
 20
146.284795
 30
0.0
 40
3.1
 50
63.071521
 51
116.928479
  0
LINE
  5
13266
  8
0
 62
     5
 10
32.762091
 20
148.94705
 30
0.0
 11
32.737546
 21
149.04867
 31
0.0
  0
LINE
  5
13267
  8
0
 62
     5
 10
35.520844
 20
148.94705
 30
0.0
 11
35.528461
 21
148.978393
 31
0.0
  0
LINE
  5
13268
  8
0
 62
     5
 10
35.528461
 20
148.978393
 30
0.0
 11
35.545389
 21
149.04867
 31
0.0
  0
ARC
  5
13269
  8
0
 62
     5
 10
34.141467
 20
146.284795
 30
0.0
 40
1.3
 50
77.561907
 51
102.438093
  0
ARC
  5
1326A
  8
0
 62
     5
 10
38.241467
 20
148.04867
 30
0.0
 40
1.0
 50
90.0
 51
180.0
  0
ARC
  5
1326B
  8
0
 62
     5
 10
43.8619
 20
128.74867
 30
0.0
 40
20.5
 50
81.990057
 51
98.009943
  0
LINE
  5
1326C
  8
0
 62
     5
 10
41.005667
 20
149.043839
 30
0.0
 11
41.005329
 21
149.04867
 31
0.0
  0
LINE
  5
1326D
  8
0
 62
     5
 10
129.495915
 20
149.384795
 30
0.0
 11
107.695915
 21
149.384795
 31
0.0
  0
LINE
  5
1326E
  8
0
 62
     5
 10
129.495915
 20
149.24867
 30
0.0
 11
104.795915
 21
149.24867
 31
0.0
  0
LINE
  5
1326F
  8
0
 62
     5
 10
104.795915
 20
149.04867
 30
0.0
 11
129.495915
 21
149.04867
 31
0.0
  0
LINE
  5
13270
  8
0
 62
     5
 10
107.695915
 20
115.74867
 30
0.0
 11
121.995915
 21
115.74867
 31
0.0
  0
LINE
  5
13271
  8
0
 62
     5
 10
104.795915
 20
107.74867
 30
0.0
 11
129.495915
 21
107.74867
 31
0.0
  0
LINE
  5
13272
  8
0
 62
     5
 10
126.995915
 20
106.74867
 30
0.0
 11
103.995915
 21
106.74867
 31
0.0
  0
LINE
  5
13273
  8
0
 62
     5
 10
105.374837
 20
105.74867
 30
0.0
 11
125.616992
 21
105.74867
 31
0.0
  0
LINE
  5
13274
  8
0
 62
     5
 10
122.834251
 20
101.24867
 30
0.0
 11
108.157578
 21
101.24867
 31
0.0
  0
LINE
  5
13275
  8
0
 62
     5
 10
123.471411
 20
101.84867
 30
0.0
 11
120.022571
 21
101.84867
 31
0.0
  0
LINE
  5
13276
  8
0
 62
     5
 10
107.695915
 20
142.94667
 30
0.0
 11
129.495915
 21
142.94667
 31
0.0
  0
ARC
  5
13277
  8
0
 62
     5
 10
104.795915
 20
135.44867
 30
0.0
 40
1.0
 50
90.0
 51
180.0
  0
LINE
  5
13278
  8
0
 62
     5
 10
103.795915
 20
106.94867
 30
0.0
 11
103.795915
 21
148.24867
 31
0.0
  0
ARC
  5
13279
  8
0
 62
     5
 10
63.1619
 20
135.44867
 30
0.0
 40
1.0
 50
0.0
 51
90.0
  0
LINE
  5
1327A
  8
0
 62
     5
 10
64.1619
 20
131.605241
 30
0.0
 11
64.1619
 21
141.94667
 31
0.0
  0
LINE
  5
1327B
  8
0
 62
     5
 10
56.8619
 20
112.762348
 30
0.0
 11
56.8619
 21
108.74867
 31
0.0
  0
LINE
  5
1327C
  8
0
 62
     5
 10
64.1619
 20
108.44867
 30
0.0
 11
64.1619
 21
117.624316
 31
0.0
  0
LINE
  5
1327D
  8
0
 62
     5
 10
57.789902
 20
105.34867
 30
0.0
 11
57.6202
 21
99.94867
 31
0.0
  0
LINE
  5
1327E
  8
0
 62
     5
 10
56.932495
 20
99.94867
 30
0.0
 11
57.002788
 21
105.34867
 31
0.0
  0
ARC
  5
1327F
  8
0
 62
     5
 10
61.6619
 20
110.24867
 30
0.0
 40
2.5
 50
270.0
 51
0.0
  0
LINE
  5
13280
  8
0
 62
     5
 10
64.156021
 20
108.44867
 30
0.0
 11
64.156021
 21
105.84867
 31
0.0
  0
LINE
  5
13281
  8
0
 62
     5
 10
63.782492
 20
105.364929
 30
0.0
 11
63.811676
 21
105.373516
 31
0.0
  0
LINE
  5
13282
  8
0
 62
     5
 10
63.811676
 20
105.373516
 30
0.0
 11
63.840108
 21
105.383792
 31
0.0
  0
LINE
  5
13283
  8
0
 62
     5
 10
63.840108
 20
105.383792
 30
0.0
 11
63.868613
 21
105.396117
 31
0.0
  0
LINE
  5
13284
  8
0
 62
     5
 10
63.868613
 20
105.396117
 30
0.0
 11
63.895954
 21
105.41
 31
0.0
  0
LINE
  5
13285
  8
0
 62
     5
 10
63.688532
 20
105.349728
 30
0.0
 11
63.720378
 21
105.352829
 31
0.0
  0
LINE
  5
13286
  8
0
 62
     5
 10
63.720378
 20
105.352829
 30
0.0
 11
63.751843
 21
105.357938
 31
0.0
  0
LINE
  5
13287
  8
0
 62
     5
 10
63.751843
 20
105.357938
 30
0.0
 11
63.782492
 21
105.364929
 31
0.0
  0
LINE
  5
13288
  8
0
 62
     5
 10
63.895954
 20
105.41
 30
0.0
 11
63.92061
 21
105.424415
 31
0.0
  0
LINE
  5
13289
  8
0
 62
     5
 10
63.92061
 20
105.424415
 30
0.0
 11
63.944326
 21
105.440161
 31
0.0
  0
LINE
  5
1328A
  8
0
 62
     5
 10
63.944326
 20
105.440161
 30
0.0
 11
63.96877
 21
105.458557
 31
0.0
  0
LINE
  5
1328B
  8
0
 62
     5
 10
63.656021
 20
105.34867
 30
0.0
 11
63.688532
 21
105.349728
 31
0.0
  0
LINE
  5
1328C
  8
0
 62
     5
 10
63.96877
 20
105.458557
 30
0.0
 11
63.992103
 21
105.47847
 31
0.0
  0
LINE
  5
1328D
  8
0
 62
     5
 10
63.992103
 20
105.47847
 30
0.0
 11
64.012914
 21
105.498489
 31
0.0
  0
LINE
  5
1328E
  8
0
 62
     5
 10
64.012914
 20
105.498489
 30
0.0
 11
64.032196
 21
105.519288
 31
0.0
  0
LINE
  5
1328F
  8
0
 62
     5
 10
64.032196
 20
105.519288
 30
0.0
 11
64.050282
 21
105.541167
 31
0.0
  0
LINE
  5
13290
  8
0
 62
     5
 10
64.050282
 20
105.541167
 30
0.0
 11
64.067385
 21
105.564453
 31
0.0
  0
LINE
  5
13291
  8
0
 62
     5
 10
64.067385
 20
105.564453
 30
0.0
 11
64.083941
 21
105.59005
 31
0.0
  0
LINE
  5
13292
  8
0
 62
     5
 10
64.083941
 20
105.59005
 30
0.0
 11
64.099095
 21
105.61697
 31
0.0
  0
LINE
  5
13293
  8
0
 62
     5
 10
64.099095
 20
105.61697
 30
0.0
 11
64.112324
 21
105.644251
 31
0.0
  0
LINE
  5
13294
  8
0
 62
     5
 10
64.112324
 20
105.644251
 30
0.0
 11
64.123784
 21
105.672042
 31
0.0
  0
LINE
  5
13295
  8
0
 62
     5
 10
64.123784
 20
105.672042
 30
0.0
 11
64.133402
 21
105.699987
 31
0.0
  0
LINE
  5
13296
  8
0
 62
     5
 10
64.133402
 20
105.699987
 30
0.0
 11
64.141404
 21
105.728656
 31
0.0
  0
LINE
  5
13297
  8
0
 62
     5
 10
64.141404
 20
105.728656
 30
0.0
 11
64.147861
 21
105.758706
 31
0.0
  0
LINE
  5
13298
  8
0
 62
     5
 10
64.147861
 20
105.758706
 30
0.0
 11
64.152534
 21
105.789729
 31
0.0
  0
LINE
  5
13299
  8
0
 62
     5
 10
64.152534
 20
105.789729
 30
0.0
 11
64.155284
 21
105.821534
 31
0.0
  0
LINE
  5
1329A
  8
0
 62
     5
 10
64.155284
 20
105.821534
 30
0.0
 11
64.156021
 21
105.84867
 31
0.0
  0
LINE
  5
1329B
  8
0
 62
     5
 10
63.395909
 20
108.44867
 30
0.0
 11
64.1619
 21
108.44867
 31
0.0
  0
LINE
  5
1329C
  8
0
 62
     5
 10
64.1619
 20
120.432159
 30
0.0
 11
64.1619
 21
125.892099
 31
0.0
  0
LINE
  5
1329D
  8
0
 62
     5
 10
61.118025
 20
117.758749
 30
0.0
 11
61.258025
 21
118.260904
 31
0.0
  0
LINE
  5
1329E
  8
0
 62
     5
 10
61.678025
 20
117.758749
 30
0.0
 11
61.538025
 21
118.260904
 31
0.0
  0
LINE
  5
1329F
  8
0
 62
     5
 10
61.678025
 20
118.318749
 30
0.0
 11
61.678025
 21
117.758749
 31
0.0
  0
LINE
  5
132A0
  8
0
 62
     5
 10
61.118025
 20
117.758749
 30
0.0
 11
61.118025
 21
118.318749
 31
0.0
  0
ARC
  5
132A1
  8
0
 62
     5
 10
61.398025
 20
119.028237
 30
0.0
 40
3.1
 50
333.071521
 51
26.928479
  0
CIRCLE
  5
132A2
  8
0
 62
     5
 10
61.398025
 20
119.028237
 30
0.0
 40
3.0
  0
ARC
  5
132A3
  8
0
 62
     5
 10
61.398025
 20
119.028237
 30
0.0
 40
3.1
 50
90.0
 51
217.879967
  0
CIRCLE
  5
132A4
  8
0
 62
     5
 10
61.398025
 20
119.028237
 30
0.0
 40
2.25
  0
LINE
  5
132A5
  8
0
 62
     5
 10
63.1619
 20
115.74867
 30
0.0
 11
59.848222
 21
115.74867
 31
0.0
  0
LINE
  5
132A6
  8
0
 62
     5
 10
59.1619
 20
116.510799
 30
0.0
 11
59.1619
 21
115.861758
 31
0.0
  0
ARC
  5
132A7
  8
0
 62
     5
 10
58.1619
 20
115.861758
 30
0.0
 40
1.0
 50
317.975372
 51
0.0
  0
ARC
  5
132A8
  8
0
 62
     5
 10
59.848222
 20
114.74867
 30
0.0
 40
1.0
 50
90.0
 51
138.78979
  0
LINE
  5
132A9
  8
0
 62
     5
 10
58.904757
 20
115.192308
 30
0.0
 11
59.095925
 21
115.407494
 31
0.0
  0
ARC
  5
132AA
  8
0
 62
     5
 10
58.1619
 20
116.510799
 30
0.0
 40
1.0
 50
0.0
 51
37.879967
  0
ARC
  5
132AB
  8
0
 62
     5
 10
57.8619
 20
112.762348
 30
0.0
 40
1.0
 50
131.21021
 51
180.0
  0
ARC
  5
132AC
  8
0
 62
     5
 10
43.8619
 20
128.74867
 30
0.0
 40
20.25
 50
311.21021
 51
318.78979
  0
ARC
  5
132AD
  8
0
 62
     5
 10
63.1619
 20
116.74867
 30
0.0
 40
1.0
 50
270.0
 51
0.0
  0
ARC
  5
132AE
  8
0
 62
     5
 10
61.398025
 20
119.028237
 30
0.0
 40
1.3
 50
257.561907
 51
282.438093
  0
LINE
  5
132AF
  8
0
 62
     5
 10
64.080466
 20
117.64395
 30
0.0
 11
64.06028
 21
117.648861
 31
0.0
  0
LINE
  5
132B0
  8
0
 62
     5
 10
64.1619
 20
117.624316
 30
0.0
 11
64.080466
 21
117.64395
 31
0.0
  0
LINE
  5
132B1
  8
0
 62
     5
 10
60.128537
 20
118.748237
 30
0.0
 11
60.630692
 21
118.888237
 31
0.0
  0
LINE
  5
132B2
  8
0
 62
     5
 10
60.128537
 20
119.308237
 30
0.0
 11
60.688537
 21
119.308237
 31
0.0
  0
LINE
  5
132B3
  8
0
 62
     5
 10
60.688537
 20
118.748237
 30
0.0
 11
60.128537
 21
118.748237
 31
0.0
  0
LINE
  5
132B4
  8
0
 62
     5
 10
60.128537
 20
119.308237
 30
0.0
 11
60.630692
 21
119.168237
 31
0.0
  0
ARC
  5
132B5
  8
0
 62
     5
 10
61.398025
 20
119.028237
 30
0.0
 40
1.3
 50
167.561907
 51
192.438093
  0
ARC
  5
132B6
  8
0
 62
     5
 10
63.1619
 20
123.128237
 30
0.0
 40
1.0
 50
270.0
 51
0.0
  0
LINE
  5
132B7
  8
0
 62
     5
 10
63.1619
 20
122.128237
 30
0.0
 11
61.398025
 21
122.128237
 31
0.0
  0
ARC
  5
132B8
  8
0
 62
     5
 10
61.398025
 20
119.028237
 30
0.0
 40
1.3
 50
77.561907
 51
102.438093
  0
ARC
  5
132B9
  8
0
 62
     5
 10
61.398025
 20
119.028237
 30
0.0
 40
0.78
 50
79.660109
 51
100.339891
  0
LINE
  5
132BA
  8
0
 62
     5
 10
61.678025
 20
119.737725
 30
0.0
 11
61.538025
 21
119.73957
 31
0.0
  0
LINE
  5
132BB
  8
0
 62
     5
 10
61.118025
 20
119.737725
 30
0.0
 11
61.258025
 21
119.73957
 31
0.0
  0
LINE
  5
132BC
  8
0
 62
     5
 10
61.678025
 20
120.297725
 30
0.0
 11
61.538025
 21
119.79557
 31
0.0
  0
LINE
  5
132BD
  8
0
 62
     5
 10
61.118025
 20
120.297725
 30
0.0
 11
61.258025
 21
119.79557
 31
0.0
  0
LINE
  5
132BE
  8
0
 62
     5
 10
61.678025
 20
120.297725
 30
0.0
 11
61.678025
 21
119.737725
 31
0.0
  0
LINE
  5
132BF
  8
0
 62
     5
 10
61.538025
 20
119.73957
 30
0.0
 11
61.538025
 21
119.79557
 31
0.0
  0
LINE
  5
132C0
  8
0
 62
     5
 10
61.258025
 20
119.79557
 30
0.0
 11
61.258025
 21
119.73957
 31
0.0
  0
LINE
  5
132C1
  8
0
 62
     5
 10
61.118025
 20
119.737725
 30
0.0
 11
61.118025
 21
120.297725
 31
0.0
  0
LINE
  5
132C2
  8
0
 62
     5
 10
64.06028
 20
120.407614
 30
0.0
 11
64.1619
 21
120.432159
 31
0.0
  0
LINE
  5
132C3
  8
0
 62
     5
 10
60.630692
 20
118.888237
 30
0.0
 11
62.165358
 21
119.168237
 31
0.0
  0
LINE
  5
132C4
  8
0
 62
     5
 10
60.686692
 20
118.888237
 30
0.0
 11
62.109358
 21
119.168237
 31
0.0
  0
LINE
  5
132C5
  8
0
 62
     5
 10
62.107513
 20
118.748237
 30
0.0
 11
61.835229
 21
118.591034
 31
0.0
  0
LINE
  5
132C6
  8
0
 62
     5
 10
61.747148
 20
118.679115
 30
0.0
 11
62.109358
 21
118.888237
 31
0.0
  0
LINE
  5
132C7
  8
0
 62
     5
 10
60.686692
 20
119.168237
 30
0.0
 11
62.109358
 21
118.888237
 31
0.0
  0
LINE
  5
132C8
  8
0
 62
     5
 10
60.630692
 20
119.168237
 30
0.0
 11
62.165358
 21
118.888237
 31
0.0
  0
LINE
  5
132C9
  8
0
 62
     5
 10
61.835229
 20
119.465441
 30
0.0
 11
62.107513
 21
119.308237
 31
0.0
  0
LINE
  5
132CA
  8
0
 62
     5
 10
62.109358
 20
119.168237
 30
0.0
 11
61.747148
 21
119.37736
 31
0.0
  0
ARC
  5
132CB
  8
0
 62
     5
 10
61.398025
 20
119.028237
 30
0.0
 40
0.78
 50
259.660109
 51
280.339891
  0
ARC
  5
132CC
  8
0
 62
     5
 10
61.398025
 20
119.028237
 30
0.0
 40
0.78
 50
169.660109
 51
190.339891
  0
LINE
  5
132CD
  8
0
 62
     5
 10
61.118025
 20
118.318749
 30
0.0
 11
61.258025
 21
118.316904
 31
0.0
  0
LINE
  5
132CE
  8
0
 62
     5
 10
60.686692
 20
119.168237
 30
0.0
 11
60.630692
 21
119.168237
 31
0.0
  0
LINE
  5
132CF
  8
0
 62
     5
 10
60.630692
 20
118.888237
 30
0.0
 11
60.686692
 21
118.888237
 31
0.0
  0
LINE
  5
132D0
  8
0
 62
     5
 10
61.678025
 20
118.318749
 30
0.0
 11
61.538025
 21
118.316904
 31
0.0
  0
LINE
  5
132D1
  8
0
 62
     5
 10
61.048903
 20
119.37736
 30
0.0
 11
60.686692
 21
119.168237
 31
0.0
  0
LINE
  5
132D2
  8
0
 62
     5
 10
60.688537
 20
119.308237
 30
0.0
 11
60.960822
 21
119.465441
 31
0.0
  0
LINE
  5
132D3
  8
0
 62
     5
 10
60.960822
 20
118.591034
 30
0.0
 11
61.835229
 21
119.465441
 31
0.0
  0
LINE
  5
132D4
  8
0
 62
     5
 10
60.686692
 20
118.888237
 30
0.0
 11
61.048903
 21
118.679115
 31
0.0
  0
LINE
  5
132D5
  8
0
 62
     5
 10
60.960822
 20
118.591034
 30
0.0
 11
60.688537
 21
118.748237
 31
0.0
  0
LINE
  5
132D6
  8
0
 62
     5
 10
61.835229
 20
118.591034
 30
0.0
 11
61.678025
 21
118.318749
 31
0.0
  0
LINE
  5
132D7
  8
0
 62
     5
 10
61.538025
 20
118.316904
 30
0.0
 11
61.747148
 21
118.679115
 31
0.0
  0
LINE
  5
132D8
  8
0
 62
     5
 10
61.048903
 20
118.679115
 30
0.0
 11
61.258025
 21
118.316904
 31
0.0
  0
LINE
  5
132D9
  8
0
 62
     5
 10
61.835229
 20
118.591034
 30
0.0
 11
60.960822
 21
119.465441
 31
0.0
  0
LINE
  5
132DA
  8
0
 62
     5
 10
61.118025
 20
118.318749
 30
0.0
 11
60.960822
 21
118.591034
 31
0.0
  0
LINE
  5
132DB
  8
0
 62
     5
 10
60.688537
 20
119.308237
 30
0.0
 11
60.686692
 21
119.168237
 31
0.0
  0
LINE
  5
132DC
  8
0
 62
     5
 10
61.538025
 20
118.260904
 30
0.0
 11
61.538025
 21
118.316904
 31
0.0
  0
LINE
  5
132DD
  8
0
 62
     5
 10
61.258025
 20
118.316904
 30
0.0
 11
61.258025
 21
118.260904
 31
0.0
  0
LINE
  5
132DE
  8
0
 62
     5
 10
60.688537
 20
118.748237
 30
0.0
 11
60.686692
 21
118.888237
 31
0.0
  0
ARC
  5
132DF
  8
0
 62
     5
 10
61.398025
 20
119.028237
 30
0.0
 40
1.3
 50
347.561907
 51
12.438093
  0
ARC
  5
132E0
  8
0
 62
     5
 10
61.398025
 20
119.028237
 30
0.0
 40
0.78
 50
349.660109
 51
10.339891
  0
LINE
  5
132E1
  8
0
 62
     5
 10
62.667513
 20
119.308237
 30
0.0
 11
62.165358
 21
119.168237
 31
0.0
  0
LINE
  5
132E2
  8
0
 62
     5
 10
62.107513
 20
119.308237
 30
0.0
 11
62.667513
 21
119.308237
 31
0.0
  0
LINE
  5
132E3
  8
0
 62
     5
 10
62.165358
 20
119.168237
 30
0.0
 11
62.109358
 21
119.168237
 31
0.0
  0
LINE
  5
132E4
  8
0
 62
     5
 10
62.109358
 20
118.888237
 30
0.0
 11
62.165358
 21
118.888237
 31
0.0
  0
LINE
  5
132E5
  8
0
 62
     5
 10
62.667513
 20
118.748237
 30
0.0
 11
62.107513
 21
118.748237
 31
0.0
  0
LINE
  5
132E6
  8
0
 62
     5
 10
62.667513
 20
118.748237
 30
0.0
 11
62.165358
 21
118.888237
 31
0.0
  0
LINE
  5
132E7
  8
0
 62
     5
 10
62.107513
 20
118.748237
 30
0.0
 11
62.109358
 21
118.888237
 31
0.0
  0
LINE
  5
132E8
  8
0
 62
     5
 10
62.107513
 20
119.308237
 30
0.0
 11
62.109358
 21
119.168237
 31
0.0
  0
LINE
  5
132E9
  8
0
 62
     5
 10
61.258025
 20
119.73957
 30
0.0
 11
61.048903
 21
119.37736
 31
0.0
  0
LINE
  5
132EA
  8
0
 62
     5
 10
60.960822
 20
119.465441
 30
0.0
 11
61.118025
 21
119.737725
 31
0.0
  0
LINE
  5
132EB
  8
0
 62
     5
 10
61.678025
 20
119.737725
 30
0.0
 11
61.835229
 21
119.465441
 31
0.0
  0
LINE
  5
132EC
  8
0
 62
     5
 10
61.747148
 20
119.37736
 30
0.0
 11
61.538025
 21
119.73957
 31
0.0
  0
LINE
  5
132ED
  8
0
 62
     5
 10
61.258025
 20
118.316904
 30
0.0
 11
61.538025
 21
119.73957
 31
0.0
  0
LINE
  5
132EE
  8
0
 62
     5
 10
61.258025
 20
118.260904
 30
0.0
 11
61.538025
 21
119.79557
 31
0.0
  0
LINE
  5
132EF
  8
0
 62
     5
 10
61.538025
 20
118.260904
 30
0.0
 11
61.258025
 21
119.79557
 31
0.0
  0
LINE
  5
132F0
  8
0
 62
     5
 10
61.538025
 20
118.316904
 30
0.0
 11
61.258025
 21
119.73957
 31
0.0
  0
ARC
  5
132F1
  8
0
 62
     5
 10
43.8619
 20
128.74867
 30
0.0
 40
20.5
 50
351.990057
 51
8.009943
  0
LINE
  5
132F2
  8
0
 62
     5
 10
64.1619
 20
131.605241
 30
0.0
 11
64.157069
 21
131.604903
 31
0.0
  0
LINE
  5
132F3
  8
0
 62
     5
 10
105.374833
 20
105.74867
 30
0.0
 11
105.287344
 21
106.74867
 31
0.0
  0
ARC
  5
132F4
  8
0
 62
     5
 10
103.995915
 20
106.94867
 30
0.0
 40
0.2
 50
180.0
 51
270.0
  0
ARC
  5
132F5
  8
0
 62
     5
 10
104.795915
 20
108.74867
 30
0.0
 40
1.0
 50
180.0
 51
270.0
  0
LINE
  5
132F6
  8
CENTER
 10
115.495915
 20
110.515502
 30
0.0
 11
115.495915
 21
89.4512
 31
0.0
  0
LINE
  5
132F7
  8
0
 62
     5
 10
109.592643
 20
101.84867
 30
0.0
 11
113.898903
 21
101.84867
 31
0.0
  0
LINE
  5
132F8
  8
0
 62
     5
 10
109.909644
 20
101.24867
 30
0.0
 11
109.602997
 21
101.548487
 31
0.0
  0
LINE
  5
132F9
  8
0
 62
     5
 10
109.737567
 20
101.24867
 30
0.0
 11
109.430919
 21
101.548487
 31
0.0
  0
LINE
  5
132FA
  8
0
 62
     5
 10
107.91953
 20
104.54867
 30
0.0
 11
109.32744
 21
104.54867
 31
0.0
  0
LINE
  5
132FB
  8
0
 62
     5
 10
109.430919
 20
101.548487
 30
0.0
 11
109.602997
 21
101.548487
 31
0.0
  0
LINE
  5
132FC
  8
0
 62
     5
 10
109.602997
 20
101.548487
 30
0.0
 11
109.592643
 21
101.84867
 31
0.0
  0
LINE
  5
132FD
  8
0
 62
     5
 10
107.520418
 20
101.84867
 30
0.0
 11
107.840577
 21
101.84867
 31
0.0
  0
LINE
  5
132FE
  8
0
 62
     5
 10
107.850931
 20
101.548487
 30
0.0
 11
108.023009
 21
101.548487
 31
0.0
  0
LINE
  5
132FF
  8
0
 62
     5
 10
107.840577
 20
101.84867
 30
0.0
 11
107.850931
 21
101.548487
 31
0.0
  0
LINE
  5
13300
  8
0
 62
     5
 10
108.023009
 20
101.548487
 30
0.0
 11
108.329656
 21
101.24867
 31
0.0
  0
LINE
  5
13301
  8
0
 62
     5
 10
108.157578
 20
101.24867
 30
0.0
 11
107.850931
 21
101.548487
 31
0.0
  0
LINE
  5
13302
  8
0
 62
     5
 10
107.384214
 20
105.74867
 30
0.0
 11
107.520405
 21
101.84867
 31
0.0
  0
LINE
  5
13303
  8
0
 62
     5
 10
109.32744
 20
104.54867
 30
0.0
 11
109.430919
 21
101.548487
 31
0.0
  0
LINE
  5
13304
  8
0
 62
     5
 10
108.023009
 20
101.548487
 30
0.0
 11
107.91953
 21
104.54867
 31
0.0
  0
LINE
  5
13305
  8
0
 62
     5
 10
113.897263
 20
101.548487
 30
0.0
 11
120.020931
 21
101.548487
 31
0.0
  0
LINE
  5
13306
  8
0
 62
     5
 10
113.848695
 20
101.24867
 30
0.0
 11
113.897263
 21
101.548487
 31
0.0
  0
LINE
  5
13307
  8
0
 62
     5
 10
113.898903
 20
101.84867
 30
0.0
 11
113.897263
 21
101.548487
 31
0.0
  0
LINE
  5
13308
  8
0
 62
     5
 10
119.972363
 20
101.24867
 30
0.0
 11
120.020931
 21
101.548487
 31
0.0
  0
LINE
  5
13309
  8
0
 62
     5
 10
120.020931
 20
101.548487
 30
0.0
 11
120.022571
 21
101.84867
 31
0.0
  0
ARC
  5
1330A
  8
0
 62
     5
 10
106.695915
 20
121.028237
 30
0.0
 40
1.0
 50
90.0
 51
180.0
  0
LINE
  5
1330B
  8
0
 62
     5
 10
105.127567
 20
121.278237
 30
0.0
 11
105.695915
 21
121.278237
 31
0.0
  0
ARC
  5
1330C
  8
0
 62
     5
 10
106.695915
 20
117.028237
 30
0.0
 40
1.0
 50
180.0
 51
270.0
  0
LINE
  5
1330D
  8
0
 62
     5
 10
105.127567
 20
116.778237
 30
0.0
 11
105.695915
 21
116.778237
 31
0.0
  0
LINE
  5
1330E
  8
0
 62
     5
 10
104.795915
 20
122.128237
 30
0.0
 11
107.495915
 21
122.128237
 31
0.0
  0
LINE
  5
1330F
  8
0
 62
     5
 10
104.057541
 20
118.144734
 30
0.0
 11
104.069825
 21
118.053078
 31
0.0
  0
LINE
  5
13310
  8
0
 62
     5
 10
104.069825
 20
118.053078
 30
0.0
 11
104.083845
 21
117.958237
 31
0.0
  0
LINE
  5
13311
  8
0
 62
     5
 10
104.083845
 20
117.958237
 30
0.0
 11
104.099824
 21
117.860117
 31
0.0
  0
LINE
  5
13312
  8
0
 62
     5
 10
104.099824
 20
117.860117
 30
0.0
 11
104.117688
 21
117.758749
 31
0.0
  0
LINE
  5
13313
  8
0
 62
     5
 10
104.117688
 20
117.728237
 30
0.0
 11
104.149509
 21
117.569904
 31
0.0
  0
LINE
  5
13314
  8
0
 62
     5
 10
104.117688
 20
117.758749
 30
0.0
 11
104.117688
 21
117.728237
 31
0.0
  0
ARC
  5
13315
  8
0
 62
     5
 10
105.127567
 20
117.778237
 30
0.0
 40
1.0
 50
192.024691
 51
269.999998
  0
ARC
  5
13316
  8
0
 62
     5
 10
104.795915
 20
123.128237
 30
0.0
 40
1.0
 50
180.0
 51
270.0
  0
LINE
  5
13317
  8
0
 62
     5
 10
104.117688
 20
120.328237
 30
0.0
 11
104.149509
 21
120.48657
 31
0.0
  0
LINE
  5
13318
  8
0
 62
     5
 10
104.117688
 20
120.297725
 30
0.0
 11
104.099542
 21
120.194596
 31
0.0
  0
LINE
  5
13319
  8
0
 62
     5
 10
104.099542
 20
120.194596
 30
0.0
 11
104.083409
 21
120.095415
 31
0.0
  0
LINE
  5
1331A
  8
0
 62
     5
 10
104.083409
 20
120.095415
 30
0.0
 11
104.069376
 21
120.000207
 31
0.0
  0
LINE
  5
1331B
  8
0
 62
     5
 10
104.069376
 20
120.000207
 30
0.0
 11
104.057179
 21
119.908893
 31
0.0
  0
LINE
  5
1331C
  8
0
 62
     5
 10
104.057179
 20
119.908893
 30
0.0
 11
104.046556
 21
119.82139
 31
0.0
  0
LINE
  5
1331D
  8
0
 62
     5
 10
104.046556
 20
119.82139
 30
0.0
 11
104.037594
 21
119.737725
 31
0.0
  0
LINE
  5
1331E
  8
0
 62
     5
 10
104.037594
 20
119.737725
 30
0.0
 11
104.032529
 21
119.666741
 31
0.0
  0
LINE
  5
1331F
  8
0
 62
     5
 10
104.117688
 20
120.328237
 30
0.0
 11
104.117688
 21
120.297725
 31
0.0
  0
LINE
  5
13320
  8
0
 62
     5
 10
104.037594
 20
119.308237
 30
0.0
 11
104.117688
 21
119.308237
 31
0.0
  0
LINE
  5
13321
  8
0
 62
     5
 10
104.117688
 20
118.748237
 30
0.0
 11
104.037594
 21
118.748237
 31
0.0
  0
LINE
  5
13322
  8
0
 62
     5
 10
104.046773
 20
118.233302
 30
0.0
 11
104.057541
 21
118.144734
 31
0.0
  0
LINE
  5
13323
  8
0
 62
     5
 10
104.032534
 20
119.349163
 30
0.0
 11
104.037594
 21
119.308237
 31
0.0
  0
LINE
  5
13324
  8
0
 62
     5
 10
104.037594
 20
118.748237
 30
0.0
 11
104.032606
 21
118.708115
 31
0.0
  0
LINE
  5
13325
  8
0
 62
     5
 10
104.032606
 20
118.708115
 30
0.0
 11
104.028557
 21
118.66854
 31
0.0
  0
LINE
  5
13326
  8
0
 62
     5
 10
104.028557
 20
118.66854
 30
0.0
 11
104.025447
 21
118.629513
 31
0.0
  0
LINE
  5
13327
  8
0
 62
     5
 10
104.025447
 20
118.629513
 30
0.0
 11
104.023275
 21
118.591034
 31
0.0
  0
LINE
  5
13328
  8
0
 62
     5
 10
104.028454
 20
119.597698
 30
0.0
 11
104.025369
 21
119.530598
 31
0.0
  0
LINE
  5
13329
  8
0
 62
     5
 10
104.025369
 20
119.530598
 30
0.0
 11
104.023275
 21
119.465441
 31
0.0
  0
LINE
  5
1332A
  8
0
 62
     5
 10
104.117688
 20
119.308237
 30
0.0
 11
104.117688
 21
118.748237
 31
0.0
  0
LINE
  5
1332B
  8
0
 62
     5
 10
104.023275
 20
118.591034
 30
0.0
 11
104.025354
 21
118.526175
 31
0.0
  0
LINE
  5
1332C
  8
0
 62
     5
 10
104.025354
 20
118.526175
 30
0.0
 11
104.028433
 21
118.459174
 31
0.0
  0
LINE
  5
1332D
  8
0
 62
     5
 10
104.023275
 20
119.465441
 30
0.0
 11
104.025374
 21
119.427765
 31
0.0
  0
LINE
  5
1332E
  8
0
 62
     5
 10
104.028433
 20
118.459174
 30
0.0
 11
104.032513
 21
118.390032
 31
0.0
  0
LINE
  5
1332F
  8
0
 62
     5
 10
104.032513
 20
118.390032
 30
0.0
 11
104.037594
 21
118.318749
 31
0.0
  0
LINE
  5
13330
  8
0
 62
     5
 10
104.025374
 20
119.427765
 30
0.0
 11
104.028461
 21
119.389006
 31
0.0
  0
LINE
  5
13331
  8
0
 62
     5
 10
104.028461
 20
119.389006
 30
0.0
 11
104.032534
 21
119.349163
 31
0.0
  0
LINE
  5
13332
  8
0
 62
     5
 10
104.037594
 20
118.318749
 30
0.0
 11
104.046773
 21
118.233302
 31
0.0
  0
LINE
  5
13333
  8
0
 62
     5
 10
104.032529
 20
119.666741
 30
0.0
 11
104.028454
 21
119.597698
 31
0.0
  0
ARC
  5
13334
  8
0
 62
     5
 10
105.127567
 20
120.278237
 30
0.0
 40
1.0
 50
90.000002
 51
167.975309
  0
LINE
  5
13335
  8
0
 62
     5
 10
107.495915
 20
115.94867
 30
0.0
 11
107.495915
 21
122.128237
 31
0.0
  0
LINE
  5
13336
  8
0
 62
     5
 10
105.695915
 20
116.778338
 30
0.0
 11
105.695915
 21
121.278136
 31
0.0
  0
ARC
  5
13337
  8
0
 62
     5
 10
107.695915
 20
115.94867
 30
0.0
 40
0.2
 50
180.0
 51
270.0
  0
LINE
  5
13338
  8
0
 62
     5
 10
106.695915
 20
116.028237
 30
0.0
 11
107.495915
 21
116.028237
 31
0.0
  0
LINE
  5
13339
  8
0
 62
     5
 10
106.695915
 20
122.028237
 30
0.0
 11
107.495915
 21
122.028237
 31
0.0
  0
ARC
  5
1333A
  8
CENTER
 10
43.8619
 20
128.74867
 30
0.0
 40
23.0
 50
34.153368
 51
56.779047
  0
LINE
  5
1333B
  8
CENTER
 10
57.507674
 20
142.394444
 30
0.0
 11
63.672598
 21
148.559368
 31
0.0
  0
LINE
  5
1333C
  8
0
 62
     5
 10
57.4699
 20
139.54867
 30
0.0
 11
57.4699
 21
148.04867
 31
0.0
  0
ARC
  5
1333D
  8
0
 62
     5
 10
61.3619
 20
146.24867
 30
0.0
 40
2.5
 50
0.0
 51
90.0
  0
CIRCLE
  5
1333E
  8
0
 62
     5
 10
60.677245
 20
139.668683
 30
0.0
 40
2.25
  0
CIRCLE
  5
1333F
  8
0
 62
     5
 10
60.677245
 20
139.668683
 30
0.0
 40
3.0
  0
ARC
  5
13340
  8
0
 62
     5
 10
60.677245
 20
139.668683
 30
0.0
 40
1.3
 50
257.561907
 51
282.438093
  0
LINE
  5
13341
  8
0
 62
     5
 10
60.397245
 20
138.959195
 30
0.0
 11
60.537245
 21
138.95735
 31
0.0
  0
LINE
  5
13342
  8
0
 62
     5
 10
60.328122
 20
139.31956
 30
0.0
 11
60.537245
 21
138.95735
 31
0.0
  0
LINE
  5
13343
  8
0
 62
     5
 10
60.397245
 20
138.399195
 30
0.0
 11
60.537245
 21
138.90135
 31
0.0
  0
LINE
  5
13344
  8
0
 62
     5
 10
59.965912
 20
139.528683
 30
0.0
 11
61.388578
 21
139.808683
 31
0.0
  0
LINE
  5
13345
  8
0
 62
     5
 10
59.909912
 20
139.528683
 30
0.0
 11
61.444578
 21
139.808683
 31
0.0
  0
LINE
  5
13346
  8
0
 62
     5
 10
59.965912
 20
139.808683
 30
0.0
 11
61.388578
 21
139.528683
 31
0.0
  0
LINE
  5
13347
  8
0
 62
     5
 10
59.909912
 20
139.808683
 30
0.0
 11
61.444578
 21
139.528683
 31
0.0
  0
LINE
  5
13348
  8
0
 62
     5
 10
61.114448
 20
139.231479
 30
0.0
 11
60.240041
 21
140.105886
 31
0.0
  0
LINE
  5
13349
  8
0
 62
     5
 10
60.240041
 20
139.231479
 30
0.0
 11
61.114448
 21
140.105886
 31
0.0
  0
ARC
  5
1334A
  8
0
 62
     5
 10
60.677245
 20
139.668683
 30
0.0
 40
1.3
 50
77.561907
 51
102.438093
  0
LINE
  5
1334B
  8
0
 62
     5
 10
60.397245
 20
140.378171
 30
0.0
 11
60.537245
 21
140.380016
 31
0.0
  0
LINE
  5
1334C
  8
0
 62
     5
 10
60.397245
 20
140.938171
 30
0.0
 11
60.537245
 21
140.436016
 31
0.0
  0
LINE
  5
1334D
  8
0
 62
     5
 10
60.537245
 20
140.380016
 30
0.0
 11
60.328122
 21
140.017805
 31
0.0
  0
ARC
  5
1334E
  8
0
 62
     5
 10
60.5699
 20
139.54867
 30
0.0
 40
3.1
 50
180.0
 51
270.0
  0
LINE
  5
1334F
  8
0
 62
     5
 10
59.407757
 20
139.388683
 30
0.0
 11
59.909912
 21
139.528683
 31
0.0
  0
LINE
  5
13350
  8
0
 62
     5
 10
59.909912
 20
139.528683
 30
0.0
 11
59.965912
 21
139.528683
 31
0.0
  0
LINE
  5
13351
  8
0
 62
     5
 10
59.967757
 20
139.388683
 30
0.0
 11
59.407757
 21
139.388683
 31
0.0
  0
LINE
  5
13352
  8
0
 62
     5
 10
59.965912
 20
139.528683
 30
0.0
 11
60.328122
 21
139.31956
 31
0.0
  0
LINE
  5
13353
  8
0
 62
     5
 10
60.240041
 20
139.231479
 30
0.0
 11
59.967757
 21
139.388683
 31
0.0
  0
LINE
  5
13354
  8
0
 62
     5
 10
60.397245
 20
138.959195
 30
0.0
 11
60.240041
 21
139.231479
 31
0.0
  0
LINE
  5
13355
  8
0
 62
     5
 10
60.397245
 20
138.399195
 30
0.0
 11
60.397245
 21
138.959195
 31
0.0
  0
LINE
  5
13356
  8
0
 62
     5
 10
59.967757
 20
139.388683
 30
0.0
 11
59.965912
 21
139.528683
 31
0.0
  0
ARC
  5
13357
  8
0
 62
     5
 10
60.677245
 20
139.668683
 30
0.0
 40
1.3
 50
167.561907
 51
192.438093
  0
ARC
  5
13358
  8
0
 62
     5
 10
60.677245
 20
139.668683
 30
0.0
 40
0.78
 50
169.660109
 51
190.339891
  0
LINE
  5
13359
  8
0
 62
     5
 10
59.407757
 20
139.948683
 30
0.0
 11
59.967757
 21
139.948683
 31
0.0
  0
LINE
  5
1335A
  8
0
 62
     5
 10
59.965912
 20
139.808683
 30
0.0
 11
59.909912
 21
139.808683
 31
0.0
  0
LINE
  5
1335B
  8
0
 62
     5
 10
59.407757
 20
139.948683
 30
0.0
 11
59.909912
 21
139.808683
 31
0.0
  0
LINE
  5
1335C
  8
0
 62
     5
 10
60.328122
 20
140.017805
 30
0.0
 11
59.965912
 21
139.808683
 31
0.0
  0
LINE
  5
1335D
  8
0
 62
     5
 10
59.967757
 20
139.948683
 30
0.0
 11
60.240041
 21
140.105886
 31
0.0
  0
LINE
  5
1335E
  8
0
 62
     5
 10
60.240041
 20
140.105886
 30
0.0
 11
60.397245
 21
140.378171
 31
0.0
  0
LINE
  5
1335F
  8
0
 62
     5
 10
59.967757
 20
139.948683
 30
0.0
 11
59.965912
 21
139.808683
 31
0.0
  0
LINE
  5
13360
  8
0
 62
     5
 10
60.397245
 20
140.378171
 30
0.0
 11
60.397245
 21
140.938171
 31
0.0
  0
ARC
  5
13361
  8
0
 62
     5
 10
60.677245
 20
139.668683
 30
0.0
 40
0.78
 50
259.660109
 51
280.339891
  0
LINE
  5
13362
  8
0
 62
     5
 10
61.388578
 20
139.528683
 30
0.0
 11
61.444578
 21
139.528683
 31
0.0
  0
LINE
  5
13363
  8
0
 62
     5
 10
61.946733
 20
139.388683
 30
0.0
 11
61.386733
 21
139.388683
 31
0.0
  0
LINE
  5
13364
  8
0
 62
     5
 10
60.957245
 20
138.959195
 30
0.0
 11
60.817245
 21
138.95735
 31
0.0
  0
LINE
  5
13365
  8
0
 62
     5
 10
61.946733
 20
139.388683
 30
0.0
 11
61.444578
 21
139.528683
 31
0.0
  0
LINE
  5
13366
  8
0
 62
     5
 10
61.386733
 20
139.388683
 30
0.0
 11
61.114448
 21
139.231479
 31
0.0
  0
LINE
  5
13367
  8
0
 62
     5
 10
61.026367
 20
139.31956
 30
0.0
 11
61.388578
 21
139.528683
 31
0.0
  0
LINE
  5
13368
  8
0
 62
     5
 10
60.957245
 20
138.399195
 30
0.0
 11
60.817245
 21
138.90135
 31
0.0
  0
LINE
  5
13369
  8
0
 62
     5
 10
61.114448
 20
139.231479
 30
0.0
 11
60.957245
 21
138.959195
 31
0.0
  0
LINE
  5
1336A
  8
0
 62
     5
 10
60.817245
 20
138.95735
 30
0.0
 11
61.026367
 21
139.31956
 31
0.0
  0
LINE
  5
1336B
  8
0
 62
     5
 10
61.386733
 20
139.388683
 30
0.0
 11
61.388578
 21
139.528683
 31
0.0
  0
LINE
  5
1336C
  8
0
 62
     5
 10
60.957245
 20
138.959195
 30
0.0
 11
60.957245
 21
138.399195
 31
0.0
  0
LINE
  5
1336D
  8
0
 62
     5
 10
60.817245
 20
138.90135
 30
0.0
 11
60.817245
 21
138.95735
 31
0.0
  0
LINE
  5
1336E
  8
0
 62
     5
 10
60.537245
 20
138.95735
 30
0.0
 11
60.537245
 21
138.90135
 31
0.0
  0
ARC
  5
1336F
  8
0
 62
     5
 10
60.677245
 20
139.668683
 30
0.0
 40
1.3
 50
347.561907
 51
12.438093
  0
ARC
  5
13370
  8
0
 62
     5
 10
60.677245
 20
139.668683
 30
0.0
 40
0.78
 50
349.660109
 51
10.339891
  0
LINE
  5
13371
  8
0
 62
     5
 10
60.817245
 20
138.95735
 30
0.0
 11
60.537245
 21
140.380016
 31
0.0
  0
LINE
  5
13372
  8
0
 62
     5
 10
60.537245
 20
138.95735
 30
0.0
 11
60.817245
 21
140.380016
 31
0.0
  0
LINE
  5
13373
  8
0
 62
     5
 10
60.817245
 20
138.90135
 30
0.0
 11
60.537245
 21
140.436016
 31
0.0
  0
LINE
  5
13374
  8
0
 62
     5
 10
60.537245
 20
138.90135
 30
0.0
 11
60.817245
 21
140.436016
 31
0.0
  0
ARC
  5
13375
  8
0
 62
     5
 10
60.677245
 20
139.668683
 30
0.0
 40
0.78
 50
79.660109
 51
100.339891
  0
LINE
  5
13376
  8
0
 62
     5
 10
61.946733
 20
139.948683
 30
0.0
 11
61.444578
 21
139.808683
 31
0.0
  0
LINE
  5
13377
  8
0
 62
     5
 10
60.957245
 20
140.378171
 30
0.0
 11
60.817245
 21
140.380016
 31
0.0
  0
LINE
  5
13378
  8
0
 62
     5
 10
61.386733
 20
139.948683
 30
0.0
 11
61.946733
 21
139.948683
 31
0.0
  0
LINE
  5
13379
  8
0
 62
     5
 10
61.444578
 20
139.808683
 30
0.0
 11
61.388578
 21
139.808683
 31
0.0
  0
LINE
  5
1337A
  8
0
 62
     5
 10
61.114448
 20
140.105886
 30
0.0
 11
61.386733
 21
139.948683
 31
0.0
  0
LINE
  5
1337B
  8
0
 62
     5
 10
61.388578
 20
139.808683
 30
0.0
 11
61.026367
 21
140.017805
 31
0.0
  0
LINE
  5
1337C
  8
0
 62
     5
 10
60.957245
 20
140.378171
 30
0.0
 11
61.114448
 21
140.105886
 31
0.0
  0
LINE
  5
1337D
  8
0
 62
     5
 10
61.026367
 20
140.017805
 30
0.0
 11
60.817245
 21
140.380016
 31
0.0
  0
LINE
  5
1337E
  8
0
 62
     5
 10
60.957245
 20
140.938171
 30
0.0
 11
60.817245
 21
140.436016
 31
0.0
  0
LINE
  5
1337F
  8
0
 62
     5
 10
60.957245
 20
140.938171
 30
0.0
 11
60.957245
 21
140.378171
 31
0.0
  0
LINE
  5
13380
  8
0
 62
     5
 10
60.817245
 20
140.380016
 30
0.0
 11
60.817245
 21
140.436016
 31
0.0
  0
LINE
  5
13381
  8
0
 62
     5
 10
60.537245
 20
140.436016
 30
0.0
 11
60.537245
 21
140.380016
 31
0.0
  0
LINE
  5
13382
  8
0
 62
     5
 10
61.386733
 20
139.948683
 30
0.0
 11
61.388578
 21
139.808683
 31
0.0
  0
LINE
  5
13383
  8
0
 62
     5
 10
63.1619
 20
136.44867
 30
0.0
 11
60.5699
 21
136.44867
 31
0.0
  0
ARC
  5
13384
  8
0
 62
     5
 10
60.125356
 20
145.012126
 30
0.0
 40
2.25
 50
293.33323
 51
178.625298
  0
LINE
  5
13385
  8
0
 62
     5
 10
59.816036
 20
142.94667
 30
0.0
 11
63.1619
 21
142.94667
 31
0.0
  0
LINE
  5
13386
  8
0
 62
     5
 10
59.816036
 20
142.94667
 30
0.0
 11
59.805351
 21
142.905757
 31
0.0
  0
LINE
  5
13387
  8
0
 62
     5
 10
59.805351
 20
142.905757
 30
0.0
 11
59.764276
 21
142.74667
 31
0.0
  0
ARC
  5
13388
  8
0
 62
     5
 10
62.0699
 20
146.95667
 30
0.0
 40
4.6
 50
180.0
 51
240.661371
  0
LINE
  5
13389
  8
0
 62
     5
 10
63.8619
 20
146.24867
 30
0.0
 11
63.8619
 21
142.660495
 31
0.0
  0
ARC
  5
1338A
  8
0
 62
     5
 10
63.1619
 20
141.94667
 30
0.0
 40
1.0
 50
0.0
 51
90.0
  0
LINE
  5
1338B
  8
0
 62
     5
 10
57.183696
 20
148.74867
 30
0.0
 11
61.3619
 21
148.74867
 31
0.0
  0
ARC
  5
1338C
  8
0
 62
     5
 10
56.4699
 20
148.04867
 30
0.0
 40
1.0
 50
0.0
 51
90.0
  0
LINE
  5
1338D
  8
0
 62
     5
 10
105.127567
 20
137.418683
 30
0.0
 11
105.695915
 21
137.418683
 31
0.0
  0
ARC
  5
1338E
  8
0
 62
     5
 10
106.695915
 20
141.668683
 30
0.0
 40
1.0
 50
90.0
 51
180.0
  0
LINE
  5
1338F
  8
0
 62
     5
 10
105.127567
 20
141.918683
 30
0.0
 11
105.695915
 21
141.918683
 31
0.0
  0
ARC
  5
13390
  8
0
 62
     5
 10
106.695915
 20
137.668683
 30
0.0
 40
1.0
 50
180.0
 51
270.0
  0
LINE
  5
13391
  8
0
 62
     5
 10
107.495915
 20
136.44867
 30
0.0
 11
104.795915
 21
136.44867
 31
0.0
  0
ARC
  5
13392
  8
0
 62
     5
 10
105.127567
 20
140.918683
 30
0.0
 40
1.0
 50
90.000002
 51
167.975309
  0
LINE
  5
13393
  8
0
 62
     5
 10
104.117688
 20
139.948683
 30
0.0
 11
104.117688
 21
139.388683
 31
0.0
  0
LINE
  5
13394
  8
0
 62
     5
 10
104.117688
 20
139.388683
 30
0.0
 11
104.037594
 21
139.388683
 31
0.0
  0
LINE
  5
13395
  8
0
 62
     5
 10
104.046773
 20
138.873747
 30
0.0
 11
104.057541
 21
138.78518
 31
0.0
  0
LINE
  5
13396
  8
0
 62
     5
 10
104.057541
 20
138.78518
 30
0.0
 11
104.069825
 21
138.693523
 31
0.0
  0
LINE
  5
13397
  8
0
 62
     5
 10
104.069825
 20
138.693523
 30
0.0
 11
104.083845
 21
138.598683
 31
0.0
  0
LINE
  5
13398
  8
0
 62
     5
 10
104.083845
 20
138.598683
 30
0.0
 11
104.099824
 21
138.500563
 31
0.0
  0
LINE
  5
13399
  8
0
 62
     5
 10
104.099824
 20
138.500563
 30
0.0
 11
104.117688
 21
138.399195
 31
0.0
  0
LINE
  5
1339A
  8
0
 62
     5
 10
104.117688
 20
138.368683
 30
0.0
 11
104.149509
 21
138.210349
 31
0.0
  0
LINE
  5
1339B
  8
0
 62
     5
 10
104.037594
 20
139.388683
 30
0.0
 11
104.032606
 21
139.34856
 31
0.0
  0
LINE
  5
1339C
  8
0
 62
     5
 10
104.032606
 20
139.34856
 30
0.0
 11
104.028557
 21
139.308986
 31
0.0
  0
LINE
  5
1339D
  8
0
 62
     5
 10
104.028557
 20
139.308986
 30
0.0
 11
104.025447
 21
139.269959
 31
0.0
  0
LINE
  5
1339E
  8
0
 62
     5
 10
104.025447
 20
139.269959
 30
0.0
 11
104.023275
 21
139.231479
 31
0.0
  0
LINE
  5
1339F
  8
0
 62
     5
 10
104.117688
 20
138.399195
 30
0.0
 11
104.117688
 21
138.368683
 31
0.0
  0
LINE
  5
133A0
  8
0
 62
     5
 10
104.023275
 20
139.231479
 30
0.0
 11
104.025354
 21
139.16662
 31
0.0
  0
LINE
  5
133A1
  8
0
 62
     5
 10
104.025354
 20
139.16662
 30
0.0
 11
104.028433
 21
139.09962
 31
0.0
  0
LINE
  5
133A2
  8
0
 62
     5
 10
104.028433
 20
139.09962
 30
0.0
 11
104.032513
 21
139.030478
 31
0.0
  0
LINE
  5
133A3
  8
0
 62
     5
 10
104.032513
 20
139.030478
 30
0.0
 11
104.037594
 21
138.959195
 31
0.0
  0
LINE
  5
133A4
  8
0
 62
     5
 10
104.037594
 20
138.959195
 30
0.0
 11
104.046773
 21
138.873747
 31
0.0
  0
LINE
  5
133A5
  8
0
 62
     5
 10
104.037594
 20
139.948683
 30
0.0
 11
104.117688
 21
139.948683
 31
0.0
  0
LINE
  5
133A6
  8
0
 62
     5
 10
104.032534
 20
139.989609
 30
0.0
 11
104.037594
 21
139.948683
 31
0.0
  0
LINE
  5
133A7
  8
0
 62
     5
 10
104.117688
 20
140.968683
 30
0.0
 11
104.149509
 21
141.127016
 31
0.0
  0
LINE
  5
133A8
  8
0
 62
     5
 10
104.117688
 20
140.938171
 30
0.0
 11
104.099542
 21
140.835042
 31
0.0
  0
LINE
  5
133A9
  8
0
 62
     5
 10
104.099542
 20
140.835042
 30
0.0
 11
104.083409
 21
140.73586
 31
0.0
  0
LINE
  5
133AA
  8
0
 62
     5
 10
104.083409
 20
140.73586
 30
0.0
 11
104.069376
 21
140.640653
 31
0.0
  0
LINE
  5
133AB
  8
0
 62
     5
 10
104.069376
 20
140.640653
 30
0.0
 11
104.057179
 21
140.549338
 31
0.0
  0
LINE
  5
133AC
  8
0
 62
     5
 10
104.057179
 20
140.549338
 30
0.0
 11
104.046556
 21
140.461835
 31
0.0
  0
LINE
  5
133AD
  8
0
 62
     5
 10
104.046556
 20
140.461835
 30
0.0
 11
104.037594
 21
140.378171
 31
0.0
  0
LINE
  5
133AE
  8
0
 62
     5
 10
104.037594
 20
140.378171
 30
0.0
 11
104.032529
 21
140.307186
 31
0.0
  0
LINE
  5
133AF
  8
0
 62
     5
 10
104.032529
 20
140.307186
 30
0.0
 11
104.028454
 21
140.238144
 31
0.0
  0
LINE
  5
133B0
  8
0
 62
     5
 10
104.028454
 20
140.238144
 30
0.0
 11
104.025369
 21
140.171044
 31
0.0
  0
LINE
  5
133B1
  8
0
 62
     5
 10
104.025369
 20
140.171044
 30
0.0
 11
104.023275
 21
140.105886
 31
0.0
  0
LINE
  5
133B2
  8
0
 62
     5
 10
104.117688
 20
140.968683
 30
0.0
 11
104.117688
 21
140.938171
 31
0.0
  0
LINE
  5
133B3
  8
0
 62
     5
 10
104.023275
 20
140.105886
 30
0.0
 11
104.025374
 21
140.068211
 31
0.0
  0
LINE
  5
133B4
  8
0
 62
     5
 10
104.025374
 20
140.068211
 30
0.0
 11
104.028461
 21
140.029452
 31
0.0
  0
LINE
  5
133B5
  8
0
 62
     5
 10
104.028461
 20
140.029452
 30
0.0
 11
104.032534
 21
139.989609
 31
0.0
  0
ARC
  5
133B6
  8
0
 62
     5
 10
105.127567
 20
138.418683
 30
0.0
 40
1.0
 50
192.024691
 51
269.999998
  0
ARC
  5
133B7
  8
0
 62
     5
 10
104.795915
 20
148.04867
 30
0.0
 40
1.0
 50
90.0
 51
180.0
  0
ARC
  5
133B8
  8
0
 62
     5
 10
104.795915
 20
148.24867
 30
0.0
 40
1.0
 50
90.0
 51
180.0
  0
LINE
  5
133B9
  8
0
 62
     5
 10
107.495915
 20
136.44867
 30
0.0
 11
107.495915
 21
149.04867
 31
0.0
  0
LINE
  5
133BA
  8
0
 62
     5
 10
105.695915
 20
137.418784
 30
0.0
 11
105.695915
 21
141.918582
 31
0.0
  0
LINE
  5
133BB
  8
0
 62
     5
 10
106.695915
 20
136.668683
 30
0.0
 11
107.495915
 21
136.668683
 31
0.0
  0
ARC
  5
133BC
  8
0
 62
     5
 10
107.695915
 20
142.74667
 30
0.0
 40
0.2
 50
90.0
 51
180.0
  0
LINE
  5
133BD
  8
0
 62
     5
 10
106.695915
 20
142.668683
 30
0.0
 11
107.495915
 21
142.668683
 31
0.0
  0
ARC
  5
133BE
  8
0
 62
     5
 10
106.695915
 20
148.284795
 30
0.0
 40
1.0
 50
90.0
 51
105.390908
  0
ARC
  5
133BF
  8
0
 62
     5
 10
107.695915
 20
149.184795
 30
0.0
 40
0.2
 50
90.0
 51
161.360907
  0
LINE
  5
133C0
  8
0
 62
     5
 10
106.695915
 20
149.284795
 30
0.0
 11
107.495915
 21
149.284795
 31
0.0
  0
LINE
  5
133C1
  8
0
 62
     5
 10
107.495915
 20
149.24867
 30
0.0
 11
107.495915
 21
149.284795
 31
0.0
  0
LINE
  5
133C2
  8
0
 62
     5
 10
165.195915
 20
108.74867
 30
0.0
 11
165.195915
 21
148.74867
 31
0.0
  0
LINE
  5
133C3
  8
0
 62
     5
 10
136.995915
 20
108.361091
 30
0.0
 11
136.995915
 21
149.384795
 31
0.0
  0
LINE
  5
133C4
  8
0
 62
     5
 10
172.695915
 20
143.548664
 30
0.0
 11
172.695915
 21
113.948676
 31
0.0
  0
LINE
  5
133C5
  8
0
 62
     5
 10
172.495915
 20
143.74867
 30
0.0
 11
172.495915
 21
113.74867
 31
0.0
  0
LINE
  5
133C6
  8
0
 62
     5
 10
170.195915
 20
148.74867
 30
0.0
 11
170.195915
 21
108.74867
 31
0.0
  0
LINE
  5
133C7
  8
0
 62
     5
 10
129.995915
 20
107.966932
 30
0.0
 11
129.995915
 21
149.184791
 31
0.0
  0
LINE
  5
133C8
  8
0
 62
     5
 10
129.495915
 20
114.798818
 30
0.0
 11
129.495915
 21
149.384795
 31
0.0
  0
LINE
  5
133C9
  8
0
 62
     5
 10
155.690596
 20
108.64755
 30
0.0
 11
136.995915
 21
108.64755
 31
0.0
  0
ARC
  5
133CA
  8
0
 62
     5
 10
154.695915
 20
105.84867
 30
0.0
 40
0.5
 50
270.0
 51
0.0
  0
LINE
  5
133CB
  8
0
 62
     5
 10
127.392839
 20
112.227809
 30
0.0
 11
127.40433
 21
112.179171
 31
0.0
  0
LINE
  5
133CC
  8
0
 62
     5
 10
125.495915
 20
115.334456
 30
0.0
 11
125.495915
 21
108.24867
 31
0.0
  0
LINE
  5
133CD
  8
0
 62
     5
 10
122.495915
 20
108.24867
 30
0.0
 11
122.495915
 21
115.334456
 31
0.0
  0
LINE
  5
133CE
  8
0
 62
     5
 10
129.295915
 20
108.919654
 30
0.0
 11
129.295915
 21
114.797016
 31
0.0
  0
LINE
  5
133CF
  8
0
 62
     5
 10
154.695915
 20
105.34867
 30
0.0
 11
137.545915
 21
105.34867
 31
0.0
  0
ARC
  5
133D0
  8
0
 62
     5
 10
130.195915
 20
107.966932
 30
0.0
 40
0.2
 50
180.0
 51
275.0
  0
LINE
  5
133D1
  8
0
 62
     5
 10
125.616996
 20
105.74867
 30
0.0
 11
125.704485
 21
106.74867
 31
0.0
  0
LINE
  5
133D2
  8
0
 62
     5
 10
122.834251
 20
101.24867
 30
0.0
 11
123.140898
 21
101.548487
 31
0.0
  0
LINE
  5
133D3
  8
0
 62
     5
 10
123.151252
 20
101.84867
 30
0.0
 11
123.140898
 21
101.548487
 31
0.0
  0
LINE
  5
133D4
  8
0
 62
     5
 10
123.607615
 20
105.74867
 30
0.0
 11
123.471424
 21
101.84867
 31
0.0
  0
ARC
  5
133D5
  8
0
 62
     5
 10
122.995915
 20
108.24867
 30
0.0
 40
0.5
 50
180.0
 51
270.0
  0
ARC
  5
133D6
  8
0
 62
     5
 10
124.995915
 20
108.24867
 30
0.0
 40
0.5
 50
270.0
 51
0.0
  0
LINE
  5
133D7
  8
0
 62
     5
 10
127.40005
 20
110.698691
 30
0.0
 11
127.41754
 21
110.58013
 31
0.0
  0
ARC
  5
133D8
  8
0
 62
     5
 10
128.556794
 20
110.098818
 30
0.0
 40
1.0
 50
196.957755
 51
269.999998
  0
LINE
  5
133D9
  8
0
 62
     5
 10
127.544804
 20
110.02013
 30
0.0
 11
127.544804
 21
109.998818
 31
0.0
  0
LINE
  5
133DA
  8
0
 62
     5
 10
127.41754
 20
110.58013
 30
0.0
 11
127.442702
 21
110.449503
 31
0.0
  0
LINE
  5
133DB
  8
0
 62
     5
 10
127.442702
 20
110.449503
 30
0.0
 11
127.4723
 21
110.312627
 31
0.0
  0
LINE
  5
133DC
  8
0
 62
     5
 10
127.4723
 20
110.312627
 30
0.0
 11
127.506334
 21
110.169503
 31
0.0
  0
LINE
  5
133DD
  8
0
 62
     5
 10
127.506334
 20
110.169503
 30
0.0
 11
127.544804
 21
110.02013
 31
0.0
  0
LINE
  5
133DE
  8
0
 62
     5
 10
127.544804
 20
109.998818
 30
0.0
 11
127.600274
 21
109.807151
 31
0.0
  0
LINE
  5
133DF
  8
0
 62
     5
 10
128.556794
 20
109.098818
 30
0.0
 11
129.295915
 21
109.098818
 31
0.0
  0
LINE
  5
133E0
  8
0
 62
     5
 10
127.41754
 20
111.568818
 30
0.0
 11
127.404343
 21
111.518521
 31
0.0
  0
LINE
  5
133E1
  8
0
 62
     5
 10
127.404343
 20
111.518521
 30
0.0
 11
127.39286
 21
111.469923
 31
0.0
  0
LINE
  5
133E2
  8
0
 62
     5
 10
127.39286
 20
111.469923
 30
0.0
 11
127.383175
 21
111.423134
 31
0.0
  0
LINE
  5
133E3
  8
0
 62
     5
 10
127.383175
 20
111.423134
 30
0.0
 11
127.375036
 21
111.377822
 31
0.0
  0
LINE
  5
133E4
  8
0
 62
     5
 10
127.375036
 20
111.377822
 30
0.0
 11
127.368248
 21
111.333764
 31
0.0
  0
LINE
  5
133E5
  8
0
 62
     5
 10
127.368248
 20
111.333764
 30
0.0
 11
127.362726
 21
111.290743
 31
0.0
  0
LINE
  5
133E6
  8
0
 62
     5
 10
127.362726
 20
111.290743
 30
0.0
 11
127.358299
 21
111.248429
 31
0.0
  0
LINE
  5
133E7
  8
0
 62
     5
 10
127.358299
 20
111.248429
 30
0.0
 11
127.355024
 21
111.206933
 31
0.0
  0
LINE
  5
133E8
  8
0
 62
     5
 10
127.544804
 20
112.128818
 30
0.0
 11
127.544804
 21
111.568818
 31
0.0
  0
LINE
  5
133E9
  8
0
 62
     5
 10
127.355024
 20
111.206933
 30
0.0
 11
127.359335
 21
111.114465
 31
0.0
  0
LINE
  5
133EA
  8
0
 62
     5
 10
127.359335
 20
111.114465
 30
0.0
 11
127.36587
 21
111.017676
 31
0.0
  0
LINE
  5
133EB
  8
0
 62
     5
 10
127.36587
 20
111.017676
 30
0.0
 11
127.374421
 21
110.917015
 31
0.0
  0
LINE
  5
133EC
  8
0
 62
     5
 10
127.374421
 20
110.917015
 30
0.0
 11
127.385608
 21
110.811135
 31
0.0
  0
LINE
  5
133ED
  8
0
 62
     5
 10
127.385608
 20
110.811135
 30
0.0
 11
127.40005
 21
110.698691
 31
0.0
  0
LINE
  5
133EE
  8
0
 62
     5
 10
127.40433
 20
112.179171
 30
0.0
 11
127.41754
 21
112.128818
 31
0.0
  0
LINE
  5
133EF
  8
0
 62
     5
 10
127.41754
 20
112.128818
 30
0.0
 11
127.544804
 21
112.128818
 31
0.0
  0
LINE
  5
133F0
  8
0
 62
     5
 10
127.544804
 20
111.568818
 30
0.0
 11
127.41754
 21
111.568818
 31
0.0
  0
ARC
  5
133F1
  8
0
 62
     5
 10
126.995915
 20
106.94867
 30
0.0
 40
0.2
 50
270.0
 51
0.0
  0
ARC
  5
133F2
  8
0
 62
     5
 10
127.695915
 20
107.24867
 30
0.0
 40
0.5
 50
90.0
 51
180.0
  0
LINE
  5
133F3
  8
0
 62
     5
 10
127.195915
 20
107.24867
 30
0.0
 11
127.195915
 21
106.94867
 31
0.0
  0
LINE
  5
133F4
  8
0
 62
     5
 10
129.495915
 20
108.919654
 30
0.0
 11
129.495915
 21
107.74867
 31
0.0
  0
LINE
  5
133F5
  8
0
 62
     5
 10
129.995915
 20
108.919654
 30
0.0
 11
129.295915
 21
108.919654
 31
0.0
  0
LINE
  5
133F6
  8
0
 62
     5
 10
129.495915
 20
107.99867
 30
0.0
 11
129.995915
 21
107.99867
 31
0.0
  0
LINE
  5
133F7
  8
0
 62
     5
 10
137.045915
 20
108.449202
 30
0.0
 11
137.045915
 21
105.84867
 31
0.0
  0
ARC
  5
133F8
  8
0
 62
     5
 10
137.545915
 20
105.84867
 30
0.0
 40
0.5
 50
180.0
 51
270.0
  0
LINE
  5
133F9
  8
0
 62
     5
 10
136.995915
 20
108.361091
 30
0.0
 11
130.213346
 21
107.767693
 31
0.0
  0
LINE
  5
133FA
  8
0
 62
     5
 10
136.995915
 20
108.44867
 30
0.0
 11
137.045915
 21
108.449202
 31
0.0
  0
LINE
  5
133FB
  8
0
 62
     5
 10
149.398916
 20
105.34867
 30
0.0
 11
149.229214
 21
99.94867
 31
0.0
  0
LINE
  5
133FC
  8
0
 62
     5
 10
148.54151
 20
99.94867
 30
0.0
 11
148.611803
 21
105.34867
 31
0.0
  0
LINE
  5
133FD
  8
CENTER
 10
145.695915
 20
109.726837
 30
0.0
 11
145.695915
 21
89.4512
 31
0.0
  0
LINE
  5
133FE
  8
0
 62
     5
 10
142.780027
 20
105.34867
 30
0.0
 11
142.850319
 21
99.94867
 31
0.0
  0
LINE
  5
133FF
  8
0
 62
     5
 10
142.162615
 20
99.94867
 30
0.0
 11
141.992913
 21
105.34867
 31
0.0
  0
LINE
  5
13400
  8
0
 62
     5
 10
142.162615
 20
99.94867
 30
0.0
 11
149.229214
 21
99.94867
 31
0.0
  0
LINE
  5
13401
  8
0
 62
     5
 10
125.995915
 20
115.74867
 30
0.0
 11
129.495915
 21
115.74867
 31
0.0
  0
ARC
  5
13402
  8
0
 62
     5
 10
121.995915
 20
115.24867
 30
0.0
 40
0.5
 50
0.0
 51
90.0
  0
ARC
  5
13403
  8
0
 62
     5
 10
125.995915
 20
115.24867
 30
0.0
 40
0.5
 50
90.0
 51
180.0
  0
ARC
  5
13404
  8
0
 62
     5
 10
128.556794
 20
113.598818
 30
0.0
 40
1.0
 50
90.000002
 51
163.042245
  0
LINE
  5
13405
  8
0
 62
     5
 10
128.556794
 20
114.598818
 30
0.0
 11
129.295915
 21
114.598818
 31
0.0
  0
LINE
  5
13406
  8
0
 62
     5
 10
129.495915
 20
115.99867
 30
0.0
 11
129.995915
 21
115.99867
 31
0.0
  0
LINE
  5
13407
  8
0
 62
     5
 10
129.995915
 20
114.798818
 30
0.0
 11
129.295915
 21
114.798818
 31
0.0
  0
LINE
  5
13408
  8
0
 62
     5
 10
127.544804
 20
113.677506
 30
0.0
 11
127.518311
 21
113.576424
 31
0.0
  0
LINE
  5
13409
  8
0
 62
     5
 10
127.518311
 20
113.576424
 30
0.0
 11
127.494017
 21
113.478476
 31
0.0
  0
LINE
  5
1340A
  8
0
 62
     5
 10
127.494017
 20
113.478476
 30
0.0
 11
127.472
 21
113.383694
 31
0.0
  0
LINE
  5
1340B
  8
0
 62
     5
 10
127.472
 20
113.383694
 30
0.0
 11
127.452021
 21
113.291981
 31
0.0
  0
LINE
  5
1340C
  8
0
 62
     5
 10
127.442702
 20
113.248133
 30
0.0
 11
127.449089
 21
113.277668
 31
0.0
  0
LINE
  5
1340D
  8
0
 62
     5
 10
127.452021
 20
113.291981
 30
0.0
 11
127.433841
 21
113.203241
 31
0.0
  0
LINE
  5
1340E
  8
0
 62
     5
 10
127.41754
 20
113.117506
 30
0.0
 11
127.442702
 21
113.248133
 31
0.0
  0
LINE
  5
1340F
  8
0
 62
     5
 10
127.433841
 20
113.203241
 30
0.0
 11
127.41754
 21
113.117506
 31
0.0
  0
LINE
  5
13410
  8
0
 62
     5
 10
127.41754
 20
113.117506
 30
0.0
 11
127.401115
 21
113.007651
 31
0.0
  0
LINE
  5
13411
  8
0
 62
     5
 10
127.401115
 20
113.007651
 30
0.0
 11
127.387148
 21
112.899678
 31
0.0
  0
LINE
  5
13412
  8
0
 62
     5
 10
127.387148
 20
112.899678
 30
0.0
 11
127.375693
 21
112.793331
 31
0.0
  0
LINE
  5
13413
  8
0
 62
     5
 10
127.375693
 20
112.793331
 30
0.0
 11
127.36659
 21
112.689378
 31
0.0
  0
LINE
  5
13414
  8
0
 62
     5
 10
127.36659
 20
112.689378
 30
0.0
 11
127.359683
 21
112.588588
 31
0.0
  0
LINE
  5
13415
  8
0
 62
     5
 10
127.359683
 20
112.588588
 30
0.0
 11
127.355024
 21
112.490703
 31
0.0
  0
LINE
  5
13416
  8
0
 62
     5
 10
127.544804
 20
113.698818
 30
0.0
 11
127.544804
 21
113.677506
 31
0.0
  0
LINE
  5
13417
  8
0
 62
     5
 10
127.355024
 20
112.490703
 30
0.0
 11
127.358294
 21
112.449256
 31
0.0
  0
LINE
  5
13418
  8
0
 62
     5
 10
127.358294
 20
112.449256
 30
0.0
 11
127.362716
 21
112.406981
 31
0.0
  0
LINE
  5
13419
  8
0
 62
     5
 10
127.362716
 20
112.406981
 30
0.0
 11
127.368232
 21
112.363987
 31
0.0
  0
LINE
  5
1341A
  8
0
 62
     5
 10
127.368232
 20
112.363987
 30
0.0
 11
127.375015
 21
112.319942
 31
0.0
  0
LINE
  5
1341B
  8
0
 62
     5
 10
127.375015
 20
112.319942
 30
0.0
 11
127.383152
 21
112.274623
 31
0.0
  0
LINE
  5
1341C
  8
0
 62
     5
 10
127.383152
 20
112.274623
 30
0.0
 11
127.392839
 21
112.227809
 31
0.0
  0
LINE
  5
1341D
  8
0
 62
     5
 10
127.544804
 20
113.698818
 30
0.0
 11
127.600274
 21
113.890484
 31
0.0
  0
LINE
  5
1341E
  8
0
 62
     5
 10
155.690596
 20
108.64755
 30
0.0
 11
165.195915
 21
108.74867
 31
0.0
  0
LINE
  5
1341F
  8
0
 62
     5
 10
155.195915
 20
108.147578
 30
0.0
 11
155.195915
 21
105.84867
 31
0.0
  0
ARC
  5
13420
  8
0
 62
     5
 10
155.695915
 20
108.147578
 30
0.0
 40
0.5
 50
90.609507
 51
180.0
  0
LINE
  5
13421
  8
0
 62
     5
 10
170.195915
 20
108.74867
 30
0.0
 11
165.195915
 21
108.74867
 31
0.0
  0
LINE
  5
13422
  8
0
 62
     5
 10
170.395915
 20
113.74867
 30
0.0
 11
172.495915
 21
113.74867
 31
0.0
  0
ARC
  5
13423
  8
0
 62
     5
 10
170.395915
 20
113.54867
 30
0.0
 40
0.2
 50
90.0
 51
180.0
  0
LINE
  5
13424
  8
0
 62
     5
 10
173.695915
 20
133.748667
 30
0.0
 11
173.695915
 21
123.748673
 31
0.0
  0
LINE
  5
13425
  8
0
 62
     5
 10
172.495915
 20
113.74867
 30
0.0
 11
172.695915
 21
113.94867
 31
0.0
  0
LINE
  5
13426
  8
0
 62
     5
 10
172.695915
 20
123.74867
 30
0.0
 11
173.695915
 21
123.74867
 31
0.0
  0
ARC
  5
13427
  8
0
 62
     5
 10
174.095915
 20
124.34867
 30
0.0
 40
0.4
 50
90.0
 51
180.0
  0
ARC
  5
13428
  8
0
 62
     5
 10
174.095915
 20
133.14867
 30
0.0
 40
0.4
 50
180.0
 51
270.0
  0
LINE
  5
13429
  8
0
 62
     5
 10
172.695915
 20
133.74867
 30
0.0
 11
173.695915
 21
133.74867
 31
0.0
  0
LINE
  5
1342A
  8
0
 62
     5
 10
155.027726
 20
141.348977
 30
0.0
 11
154.309293
 21
141.347535
 31
0.0
  0
LINE
  5
1342B
  8
0
 62
     5
 10
165.195915
 20
141.233623
 30
0.0
 11
136.995915
 21
141.35667
 31
0.0
  0
LINE
  5
1342C
  8
0
 62
     5
 10
153.72713
 20
146.114664
 30
0.0
 11
157.074415
 21
145.976817
 31
0.0
  0
LINE
  5
1342D
  8
0
 62
     5
 10
136.995915
 20
149.04867
 30
0.0
 11
165.195915
 21
148.74867
 31
0.0
  0
LINE
  5
1342E
  8
0
 62
     5
 10
139.983952
 20
141.352324
 30
0.0
 11
138.332776
 21
141.35645
 31
0.0
  0
LINE
  5
1342F
  8
0
 62
     5
 10
137.835235
 20
146.725322
 30
0.0
 11
142.405726
 21
146.554569
 31
0.0
  0
ARC
  5
13430
  8
0
 62
     5
 10
130.195915
 20
142.70169
 30
0.0
 40
0.2
 50
78.000014
 51
179.999933
  0
LINE
  5
13431
  8
0
 62
     5
 10
129.495915
 20
142.69667
 30
0.0
 11
129.995915
 21
142.69667
 31
0.0
  0
LINE
  5
13432
  8
0
 62
     5
 10
136.995915
 20
141.460774
 30
0.0
 11
130.237497
 21
142.89732
 31
0.0
  0
LINE
  5
13433
  8
0
 62
     5
 10
137.003769
 20
141.356663
 30
0.0
 11
137.00234
 21
141.356642
 31
0.0
  0
LINE
  5
13434
  8
0
 62
     5
 10
137.066556
 20
141.358807
 30
0.0
 11
137.04974
 21
141.358548
 31
0.0
  0
LINE
  5
13435
  8
0
 62
     5
 10
137.04974
 20
141.358548
 30
0.0
 11
137.042222
 21
141.358383
 31
0.0
  0
LINE
  5
13436
  8
0
 62
     5
 10
137.042222
 20
141.358383
 30
0.0
 11
137.035402
 21
141.358197
 31
0.0
  0
LINE
  5
13437
  8
0
 62
     5
 10
137.035402
 20
141.358197
 30
0.0
 11
137.029404
 21
141.357993
 31
0.0
  0
LINE
  5
13438
  8
0
 62
     5
 10
137.005568
 20
141.356733
 30
0.0
 11
137.003769
 21
141.356663
 31
0.0
  0
LINE
  5
13439
  8
0
 62
     5
 10
137.029404
 20
141.357993
 30
0.0
 11
137.024171
 21
141.357781
 31
0.0
  0
LINE
  5
1343A
  8
0
 62
     5
 10
137.024171
 20
141.357781
 30
0.0
 11
137.019736
 21
141.357567
 31
0.0
  0
LINE
  5
1343B
  8
0
 62
     5
 10
137.007613
 20
141.356845
 30
0.0
 11
137.005568
 21
141.356733
 31
0.0
  0
LINE
  5
1343C
  8
0
 62
     5
 10
137.019736
 20
141.357567
 30
0.0
 11
137.015959
 21
141.35736
 31
0.0
  0
LINE
  5
1343D
  8
0
 62
     5
 10
137.015959
 20
141.35736
 30
0.0
 11
137.007613
 21
141.356845
 31
0.0
  0
LINE
  5
1343E
  8
0
 62
     5
 10
137.449844
 20
141.358783
 30
0.0
 11
137.159718
 21
141.359228
 31
0.0
  0
LINE
  5
1343F
  8
0
 62
     5
 10
137.159718
 20
141.359228
 30
0.0
 11
137.096124
 21
141.359058
 31
0.0
  0
LINE
  5
13440
  8
0
 62
     5
 10
137.096124
 20
141.359058
 30
0.0
 11
137.066556
 21
141.358807
 31
0.0
  0
LINE
  5
13441
  8
0
 62
     5
 10
138.332776
 20
141.35645
 30
0.0
 11
137.449844
 21
141.358783
 31
0.0
  0
LINE
  5
13442
  8
0
 62
     5
 10
137.094015
 20
146.779487
 30
0.0
 11
137.104819
 21
146.776241
 31
0.0
  0
LINE
  5
13443
  8
0
 62
     5
 10
137.104819
 20
146.776241
 30
0.0
 11
137.116295
 21
146.773313
 31
0.0
  0
LINE
  5
13444
  8
0
 62
     5
 10
137.116295
 20
146.773313
 30
0.0
 11
137.128402
 21
146.770658
 31
0.0
  0
LINE
  5
13445
  8
0
 62
     5
 10
137.128402
 20
146.770658
 30
0.0
 11
137.141152
 21
146.768241
 31
0.0
  0
LINE
  5
13446
  8
0
 62
     5
 10
137.141152
 20
146.768241
 30
0.0
 11
137.15455
 21
146.766016
 31
0.0
  0
LINE
  5
13447
  8
0
 62
     5
 10
137.15455
 20
146.766016
 30
0.0
 11
137.168571
 21
146.763964
 31
0.0
  0
LINE
  5
13448
  8
0
 62
     5
 10
137.168571
 20
146.763964
 30
0.0
 11
137.183207
 21
146.762054
 31
0.0
  0
LINE
  5
13449
  8
0
 62
     5
 10
137.183207
 20
146.762054
 30
0.0
 11
137.198414
 21
146.760272
 31
0.0
  0
LINE
  5
1344A
  8
0
 62
     5
 10
137.198414
 20
146.760272
 30
0.0
 11
137.214127
 21
146.758602
 31
0.0
  0
LINE
  5
1344B
  8
0
 62
     5
 10
137.214127
 20
146.758602
 30
0.0
 11
137.230397
 21
146.757025
 31
0.0
  0
LINE
  5
1344C
  8
0
 62
     5
 10
137.230397
 20
146.757025
 30
0.0
 11
137.247241
 21
146.755521
 31
0.0
  0
LINE
  5
1344D
  8
0
 62
     5
 10
137.247241
 20
146.755521
 30
0.0
 11
137.264701
 21
146.754077
 31
0.0
  0
LINE
  5
1344E
  8
0
 62
     5
 10
137.264701
 20
146.754077
 30
0.0
 11
137.282815
 21
146.752679
 31
0.0
  0
LINE
  5
1344F
  8
0
 62
     5
 10
137.282815
 20
146.752679
 30
0.0
 11
137.32114
 21
146.749989
 31
0.0
  0
LINE
  5
13450
  8
0
 62
     5
 10
137.32114
 20
146.749989
 30
0.0
 11
137.362494
 21
146.747385
 31
0.0
  0
LINE
  5
13451
  8
0
 62
     5
 10
137.362494
 20
146.747385
 30
0.0
 11
137.407145
 21
146.74482
 31
0.0
  0
LINE
  5
13452
  8
0
 62
     5
 10
137.407145
 20
146.74482
 30
0.0
 11
137.480874
 21
146.740961
 31
0.0
  0
LINE
  5
13453
  8
0
 62
     5
 10
137.480874
 20
146.740961
 30
0.0
 11
137.593169
 21
146.735645
 31
0.0
  0
LINE
  5
13454
  8
0
 62
     5
 10
137.593169
 20
146.735645
 30
0.0
 11
137.835235
 21
146.725322
 31
0.0
  0
LINE
  5
13455
  8
0
 62
     5
 10
137.012579
 20
146.877594
 30
0.0
 11
137.015098
 21
146.866674
 31
0.0
  0
LINE
  5
13456
  8
0
 62
     5
 10
137.015098
 20
146.866674
 30
0.0
 11
137.017953
 21
146.856349
 31
0.0
  0
LINE
  5
13457
  8
0
 62
     5
 10
137.017953
 20
146.856349
 30
0.0
 11
137.021189
 21
146.84663
 31
0.0
  0
LINE
  5
13458
  8
0
 62
     5
 10
137.021189
 20
146.84663
 30
0.0
 11
137.024845
 21
146.837544
 31
0.0
  0
LINE
  5
13459
  8
0
 62
     5
 10
137.024845
 20
146.837544
 30
0.0
 11
137.028962
 21
146.829132
 31
0.0
  0
LINE
  5
1345A
  8
0
 62
     5
 10
137.028962
 20
146.829132
 30
0.0
 11
137.033582
 21
146.821369
 31
0.0
  0
LINE
  5
1345B
  8
0
 62
     5
 10
137.033582
 20
146.821369
 30
0.0
 11
137.038745
 21
146.814263
 31
0.0
  0
LINE
  5
1345C
  8
0
 62
     5
 10
137.038745
 20
146.814263
 30
0.0
 11
137.044508
 21
146.807763
 31
0.0
  0
LINE
  5
1345D
  8
0
 62
     5
 10
137.044508
 20
146.807763
 30
0.0
 11
137.050926
 21
146.801834
 31
0.0
  0
LINE
  5
1345E
  8
0
 62
     5
 10
137.050926
 20
146.801834
 30
0.0
 11
137.058039
 21
146.796438
 31
0.0
  0
LINE
  5
1345F
  8
0
 62
     5
 10
137.058039
 20
146.796438
 30
0.0
 11
137.065911
 21
146.791535
 31
0.0
  0
LINE
  5
13460
  8
0
 62
     5
 10
137.065911
 20
146.791535
 30
0.0
 11
137.074528
 21
146.787096
 31
0.0
  0
LINE
  5
13461
  8
0
 62
     5
 10
137.074528
 20
146.787096
 30
0.0
 11
137.08391
 21
146.783094
 31
0.0
  0
LINE
  5
13462
  8
0
 62
     5
 10
137.08391
 20
146.783094
 30
0.0
 11
137.094015
 21
146.779487
 31
0.0
  0
LINE
  5
13463
  8
0
 62
     5
 10
137.005034
 20
146.927074
 30
0.0
 11
137.006609
 21
146.913811
 31
0.0
  0
LINE
  5
13464
  8
0
 62
     5
 10
137.006609
 20
146.913811
 30
0.0
 11
137.008374
 21
146.901151
 31
0.0
  0
LINE
  5
13465
  8
0
 62
     5
 10
137.008374
 20
146.901151
 30
0.0
 11
137.010349
 21
146.88908
 31
0.0
  0
LINE
  5
13466
  8
0
 62
     5
 10
137.010349
 20
146.88908
 30
0.0
 11
137.012579
 21
146.877594
 31
0.0
  0
LINE
  5
13467
  8
0
 62
     5
 10
137.002344
 20
146.955451
 30
0.0
 11
137.003608
 21
146.940956
 31
0.0
  0
LINE
  5
13468
  8
0
 62
     5
 10
137.003608
 20
146.940956
 30
0.0
 11
137.005034
 21
146.927074
 31
0.0
  0
ARC
  5
13469
  8
0
 62
     5
 10
130.195915
 20
149.04867
 30
0.0
 40
0.2
 50
90.0
 51
180.0
  0
ARC
  5
1346A
  8
0
 62
     5
 10
130.195915
 20
149.184795
 30
0.0
 40
0.2
 50
90.0
 51
180.0
  0
ARC
  5
1346B
  8
0
 62
     5
 10
130.195915
 20
148.84867
 30
0.0
 40
0.2
 50
90.0
 51
179.999932
  0
LINE
  5
1346C
  8
0
 62
     5
 10
129.495915
 20
149.134795
 30
0.0
 11
129.995915
 21
149.134795
 31
0.0
  0
LINE
  5
1346D
  8
0
 62
     5
 10
129.495915
 20
148.99867
 30
0.0
 11
129.995915
 21
148.99867
 31
0.0
  0
LINE
  5
1346E
  8
0
 62
     5
 10
129.495915
 20
148.79867
 30
0.0
 11
129.995915
 21
148.79867
 31
0.0
  0
LINE
  5
1346F
  8
0
 62
     5
 10
136.995915
 20
149.384795
 30
0.0
 11
130.195915
 21
149.384795
 31
0.0
  0
LINE
  5
13470
  8
0
 62
     5
 10
136.995915
 20
149.24867
 30
0.0
 11
130.195915
 21
149.24867
 31
0.0
  0
LINE
  5
13471
  8
0
 62
     5
 10
130.195915
 20
149.04867
 30
0.0
 11
136.995915
 21
149.04867
 31
0.0
  0
LINE
  5
13472
  8
0
 62
     5
 10
146.398344
 20
146.40357
 30
0.0
 11
150.173998
 21
146.256833
 31
0.0
  0
LINE
  5
13473
  8
0
 62
     5
 10
147.284479
 20
141.342393
 30
0.0
 11
145.776804
 21
141.343252
 31
0.0
  0
LINE
  5
13474
  8
0
 62
     5
 10
142.676666
 20
141.347008
 30
0.0
 11
141.294008
 21
141.349508
 31
0.0
  0
LINE
  5
13475
  8
0
 62
     5
 10
142.395915
 20
141.347459
 30
0.0
 11
142.395915
 21
141.380548
 31
0.0
  0
LINE
  5
13476
  8
0
 62
     5
 10
141.294008
 20
141.349508
 30
0.0
 11
139.983952
 21
141.352324
 31
0.0
  0
LINE
  5
13477
  8
0
 62
     5
 10
143.92137
 20
141.345186
 30
0.0
 11
142.676666
 21
141.347008
 31
0.0
  0
LINE
  5
13478
  8
0
 62
     5
 10
145.776804
 20
141.343252
 30
0.0
 11
143.92137
 21
141.345186
 31
0.0
  0
LINE
  5
13479
  8
0
 62
     5
 10
142.405726
 20
146.554569
 30
0.0
 11
146.398344
 21
146.40357
 31
0.0
  0
LINE
  5
1347A
  8
0
 62
     5
 10
151.147537
 20
141.343276
 30
0.0
 11
150.058906
 21
141.342563
 31
0.0
  0
LINE
  5
1347B
  8
0
 62
     5
 10
149.057198
 20
141.342234
 30
0.0
 11
147.284479
 21
141.342393
 31
0.0
  0
LINE
  5
1347C
  8
0
 62
     5
 10
150.058906
 20
141.342563
 30
0.0
 11
149.057198
 21
141.342234
 31
0.0
  0
LINE
  5
1347D
  8
0
 62
     5
 10
152.331778
 20
141.344482
 30
0.0
 11
151.147537
 21
141.343276
 31
0.0
  0
LINE
  5
1347E
  8
0
 62
     5
 10
153.621447
 20
141.346323
 30
0.0
 11
152.331778
 21
141.344482
 31
0.0
  0
LINE
  5
1347F
  8
0
 62
     5
 10
154.309293
 20
141.347535
 30
0.0
 11
153.621447
 21
141.346323
 31
0.0
  0
LINE
  5
13480
  8
0
 62
     5
 10
150.173998
 20
146.256833
 30
0.0
 11
153.72713
 21
146.114664
 31
0.0
  0
LINE
  5
13481
  8
0
 62
     5
 10
170.395915
 20
143.74867
 30
0.0
 11
172.495915
 21
143.74867
 31
0.0
  0
LINE
  5
13482
  8
0
 62
     5
 10
163.195915
 20
141.379213
 30
0.0
 11
162.109926
 21
141.373616
 31
0.0
  0
LINE
  5
13483
  8
0
 62
     5
 10
160.232529
 20
145.843019
 30
0.0
 11
163.195915
 21
145.713515
 31
0.0
  0
LINE
  5
13484
  8
0
 62
     5
 10
159.142746
 20
141.360875
 30
0.0
 11
158.243331
 21
141.357724
 31
0.0
  0
LINE
  5
13485
  8
0
 62
     5
 10
155.778575
 20
141.35068
 30
0.0
 11
155.027726
 21
141.348977
 31
0.0
  0
LINE
  5
13486
  8
0
 62
     5
 10
156.563419
 20
141.352677
 30
0.0
 11
155.778575
 21
141.35068
 31
0.0
  0
LINE
  5
13487
  8
0
 62
     5
 10
157.384396
 20
141.35501
 30
0.0
 11
156.563419
 21
141.352677
 31
0.0
  0
LINE
  5
13488
  8
0
 62
     5
 10
158.243331
 20
141.357724
 30
0.0
 11
157.384396
 21
141.35501
 31
0.0
  0
LINE
  5
13489
  8
0
 62
     5
 10
160.084751
 20
141.364519
 30
0.0
 11
159.142746
 21
141.360875
 31
0.0
  0
LINE
  5
1348A
  8
0
 62
     5
 10
161.072402
 20
141.368734
 30
0.0
 11
160.084751
 21
141.364519
 31
0.0
  0
LINE
  5
1348B
  8
0
 62
     5
 10
162.109926
 20
141.373616
 30
0.0
 11
161.072402
 21
141.368734
 31
0.0
  0
LINE
  5
1348C
  8
0
 62
     5
 10
157.074415
 20
145.976817
 30
0.0
 11
160.232529
 21
145.843019
 31
0.0
  0
LINE
  5
1348D
  8
0
 62
     5
 10
163.195915
 20
141.267701
 30
0.0
 11
163.195915
 21
146.418997
 31
0.0
  0
LINE
  5
1348E
  8
0
 62
     5
 10
163.195915
 20
141.267701
 30
0.0
 11
165.195915
 21
141.260731
 31
0.0
  0
LINE
  5
1348F
  8
0
 62
     5
 10
165.195915
 20
146.400303
 30
0.0
 11
163.195915
 21
146.418997
 31
0.0
  0
ARC
  5
13490
  8
0
 62
     5
 10
170.395915
 20
143.94867
 30
0.0
 40
0.2
 50
180.0
 51
270.0
  0
LINE
  5
13491
  8
0
 62
     5
 10
170.195915
 20
148.74867
 30
0.0
 11
165.195915
 21
148.74867
 31
0.0
  0
LINE
  5
13492
  8
0
 62
     5
 10
172.495915
 20
143.74867
 30
0.0
 11
172.695915
 21
143.54867
 31
0.0
  0
LINE
  5
13493
  8
CENTER
 10
260.598431
 20
153.776635
 30
0.0
 11
260.598431
 21
85.574688
 31
0.0
  0
LINE
  5
13494
  8
0
 62
     5
 10
247.990431
 20
149.04867
 30
0.0
 11
278.398572
 21
149.04867
 31
0.0
  0
LINE
  5
13495
  8
0
 62
     5
 10
257.707818
 20
105.64867
 30
0.0
 11
250.689043
 21
105.64867
 31
0.0
  0
LINE
  5
13496
  8
0
 62
     5
 10
240.80431
 20
105.34867
 30
0.0
 11
267.298963
 21
105.34867
 31
0.0
  0
LINE
  5
13497
  8
0
 62
     5
 10
246.840131
 20
99.94867
 30
0.0
 11
261.556731
 21
99.94867
 31
0.0
  0
CIRCLE
  5
13498
  8
0
 62
     5
 10
260.598431
 20
128.74867
 30
0.0
 40
14.8
  0
CIRCLE
  5
13499
  8
0
 62
     5
 10
260.598431
 20
128.74867
 30
0.0
 40
15.0
  0
LINE
  5
1349A
  8
CENTER
 10
285.629667
 20
128.74867
 30
0.0
 11
236.233505
 21
128.74867
 31
0.0
  0
LINE
  5
1349B
  8
0
 62
     5
 10
243.098431
 20
108.74867
 30
0.0
 11
278.098431
 21
108.74867
 31
0.0
  0
LINE
  5
1349C
  8
0
 62
     5
 10
278.098431
 20
148.74867
 30
0.0
 11
243.098431
 21
148.74867
 31
0.0
  0
LINE
  5
1349D
  8
0
 62
     5
 10
240.598431
 20
146.24867
 30
0.0
 11
240.598431
 21
111.24867
 31
0.0
  0
LINE
  5
1349E
  8
0
 62
     5
 10
240.298431
 20
108.44867
 30
0.0
 11
240.298431
 21
141.94667
 31
0.0
  0
LINE
  5
1349F
  8
0
 62
     5
 10
195.195915
 20
125.14867
 30
0.0
 11
195.195915
 21
132.34867
 31
0.0
  0
LINE
  5
134A0
  8
0
 62
     5
 10
194.795915
 20
124.74867
 30
0.0
 11
194.795915
 21
132.74867
 31
0.0
  0
LINE
  5
134A1
  8
0
 62
     5
 10
194.795915
 20
124.74867
 30
0.0
 11
195.195915
 21
125.14867
 31
0.0
  0
LINE
  5
134A2
  8
0
 62
     5
 10
194.795915
 20
132.74867
 30
0.0
 11
195.195915
 21
132.34867
 31
0.0
  0
ARC
  5
134A3
  8
0
 62
     5
 10
243.698579
 20
111.848818
 30
0.0
 40
1.5
 50
255.0
 51
195.0
  0
CIRCLE
  5
134A4
  8
0
 62
     5
 10
243.698579
 20
111.848818
 30
0.0
 40
1.25
  0
LINE
  5
134A5
  8
0
 62
     5
 10
247.457543
 20
105.34867
 30
0.0
 11
247.527836
 21
99.94867
 31
0.0
  0
LINE
  5
134A6
  8
0
 62
     5
 10
246.840131
 20
99.94867
 30
0.0
 11
246.670429
 21
105.34867
 31
0.0
  0
LINE
  5
134A7
  8
0
 62
     5
 10
240.30431
 20
108.454521
 30
0.0
 11
240.30431
 21
105.84867
 31
0.0
  0
ARC
  5
134A8
  8
0
 62
     5
 10
243.098431
 20
111.24867
 30
0.0
 40
2.5
 50
180.0
 51
270.0
  0
LINE
  5
134A9
  8
0
 62
     5
 10
240.304313
 20
108.454521
 30
0.0
 11
240.304338
 21
108.454578
 31
0.0
  0
LINE
  5
134AA
  8
0
 62
     5
 10
240.298431
 20
108.44867
 30
0.0
 11
240.304338
 21
108.454578
 31
0.0
  0
LINE
  5
134AB
  8
0
 62
     5
 10
240.30431
 20
108.44867
 30
0.0
 11
240.298431
 21
108.44867
 31
0.0
  0
ARC
  5
134AC
  8
0
 62
     5
 10
250.498431
 20
105.54867
 30
0.0
 40
0.2
 50
270.0
 51
0.0
  0
LINE
  5
134AD
  8
0
 62
     5
 10
250.698431
 20
105.54867
 30
0.0
 11
250.698431
 21
105.64867
 31
0.0
  0
ARC
  5
134AE
  8
0
 62
     5
 10
243.062306
 20
119.028237
 30
0.0
 40
3.1
 50
153.071521
 51
206.928479
  0
ARC
  5
134AF
  8
0
 62
     5
 10
260.598431
 20
128.74867
 30
0.0
 40
20.5
 50
171.990057
 51
188.009943
  0
LINE
  5
134B0
  8
CENTER
 10
246.952656
 20
142.394444
 30
0.0
 11
240.787733
 21
148.559368
 31
0.0
  0
ARC
  5
134B1
  8
CENTER
 10
260.598431
 20
128.74867
 30
0.0
 40
23.0
 50
123.220953
 51
145.846632
  0
ARC
  5
134B2
  8
0
 62
     5
 10
243.098431
 20
146.24867
 30
0.0
 40
2.5
 50
90.0
 51
180.0
  0
CIRCLE
  5
134B3
  8
0
 62
     5
 10
244.334975
 20
145.012126
 30
0.0
 40
2.25
  0
ARC
  5
134B4
  8
0
 62
     5
 10
242.390431
 20
146.95667
 30
0.0
 40
4.630074
 50
298.859671
 51
334.959486
  0
ARC
  5
134B5
  8
0
 62
     5
 10
242.390431
 20
146.95667
 30
0.0
 40
4.6
 50
299.338629
 51
335.736956
  0
LINE
  5
134B6
  8
0
 62
     5
 10
244.625821
 20
142.899744
 30
0.0
 11
244.625879
 21
142.899407
 31
0.0
  0
LINE
  5
134B7
  8
0
 62
     5
 10
244.625821
 20
142.899744
 30
0.0
 11
244.625321
 21
142.901691
 31
0.0
  0
LINE
  5
134B8
  8
0
 62
     5
 10
244.567677
 20
142.774461
 30
0.0
 11
244.583101
 21
142.805785
 31
0.0
  0
LINE
  5
134B9
  8
0
 62
     5
 10
244.583101
 20
142.805785
 30
0.0
 11
244.625424
 21
142.89732
 31
0.0
  0
LINE
  5
134BA
  8
0
 62
     5
 10
244.625615
 20
142.897792
 30
0.0
 11
244.625424
 21
142.89732
 31
0.0
  0
LINE
  5
134BB
  8
0
 62
     5
 10
244.625756
 20
142.898236
 30
0.0
 11
244.625615
 21
142.897792
 31
0.0
  0
LINE
  5
134BC
  8
0
 62
     5
 10
244.625847
 20
142.898653
 30
0.0
 11
244.625756
 21
142.898236
 31
0.0
  0
LINE
  5
134BD
  8
0
 62
     5
 10
244.625888
 20
142.899043
 30
0.0
 11
244.625847
 21
142.898653
 31
0.0
  0
LINE
  5
134BE
  8
0
 62
     5
 10
244.625879
 20
142.899407
 30
0.0
 11
244.625888
 21
142.899043
 31
0.0
  0
LINE
  5
134BF
  8
0
 62
     5
 10
243.443998
 20
142.94667
 30
0.0
 11
244.644295
 21
142.94667
 31
0.0
  0
LINE
  5
134C0
  8
0
 62
     5
 10
244.625445
 20
142.901691
 30
0.0
 11
243.556144
 21
142.901691
 31
0.0
  0
ARC
  5
134C1
  8
0
 62
     5
 10
247.990431
 20
148.04867
 30
0.0
 40
1.0
 50
90.0
 51
135.559576
  0
LINE
  5
134C2
  8
0
 62
     5
 10
280.898431
 20
115.55067
 30
0.0
 11
280.898431
 21
146.548811
 31
0.0
  0
LINE
  5
134C3
  8
0
 62
     5
 10
280.598431
 20
111.24867
 30
0.0
 11
280.598431
 21
146.24867
 31
0.0
  0
ARC
  5
134C4
  8
CENTER
 10
260.598431
 20
128.74867
 30
0.0
 40
23.0
 50
304.153368
 51
326.779047
  0
LINE
  5
134C5
  8
CENTER
 10
274.244205
 20
115.102896
 30
0.0
 11
280.409129
 21
108.937972
 31
0.0
  0
CIRCLE
  5
134C6
  8
0
 62
     5
 10
276.861887
 20
112.485214
 30
0.0
 40
2.25
  0
LINE
  5
134C7
  8
0
 62
     5
 10
272.206467
 20
108.44867
 30
0.0
 11
268.22432
 21
108.44867
 31
0.0
  0
LINE
  5
134C8
  8
0
 62
     5
 10
268.008377
 20
108.361091
 30
0.0
 11
272.225066
 21
108.361091
 31
0.0
  0
LINE
  5
134C9
  8
0
 62
     5
 10
271.031514
 20
104.54867
 30
0.0
 11
262.142319
 21
104.54867
 31
0.0
  0
LINE
  5
134CA
  8
0
 62
     5
 10
273.178294
 20
107.766932
 30
0.0
 11
267.798963
 21
107.766932
 31
0.0
  0
LINE
  5
134CB
  8
0
 62
     5
 10
267.798963
 20
107.74867
 30
0.0
 11
273.20643
 21
107.74867
 31
0.0
  0
LINE
  5
134CC
  8
0
 62
     5
 10
278.998431
 20
106.74867
 30
0.0
 11
267.798963
 21
106.74867
 31
0.0
  0
LINE
  5
134CD
  8
0
 62
     5
 10
267.788783
 20
105.74867
 30
0.0
 11
277.697643
 21
105.74867
 31
0.0
  0
LINE
  5
134CE
  8
0
 62
     5
 10
274.914902
 20
101.24867
 30
0.0
 11
261.597585
 21
101.24867
 31
0.0
  0
LINE
  5
134CF
  8
0
 62
     5
 10
261.726432
 20
105.34867
 30
0.0
 11
261.556731
 21
99.94867
 31
0.0
  0
LINE
  5
134D0
  8
CENTER
 10
265.498431
 20
111.078344
 30
0.0
 11
265.498431
 21
89.852218
 31
0.0
  0
LINE
  5
134D1
  8
0
 62
     5
 10
260.869026
 20
99.94867
 30
0.0
 11
260.939319
 21
105.34867
 31
0.0
  0
LINE
  5
134D2
  8
CENTER
 10
254.198431
 20
110.992278
 30
0.0
 11
254.198431
 21
89.852218
 31
0.0
  0
ARC
  5
134D3
  8
0
 62
     5
 10
257.898431
 20
105.54867
 30
0.0
 40
0.2
 50
180.0
 51
270.0
  0
LINE
  5
134D4
  8
0
 62
     5
 10
257.732788
 20
105.659998
 30
0.0
 11
257.725472
 21
105.655171
 31
0.0
  0
LINE
  5
134D5
  8
0
 62
     5
 10
257.698431
 20
105.54867
 30
0.0
 11
257.698431
 21
105.64867
 31
0.0
  0
LINE
  5
134D6
  8
0
 62
     5
 10
267.798963
 20
108.13694
 30
0.0
 11
267.798963
 21
105.84867
 31
0.0
  0
LINE
  5
134D7
  8
0
 62
     5
 10
261.607007
 20
101.548487
 30
0.0
 11
262.12593
 21
101.548487
 31
0.0
  0
LINE
  5
134D8
  8
0
 62
     5
 10
262.12593
 20
101.548487
 30
0.0
 11
262.077362
 21
101.24867
 31
0.0
  0
LINE
  5
134D9
  8
0
 62
     5
 10
262.12593
 20
101.548487
 30
0.0
 11
262.142319
 21
104.54867
 31
0.0
  0
ARC
  5
134DA
  8
0
 62
     5
 10
267.298963
 20
105.84867
 30
0.0
 40
0.5
 50
270.0
 51
0.0
  0
LINE
  5
134DB
  8
0
 62
     5
 10
267.798991
 20
108.142259
 30
0.0
 11
267.798963
 21
108.13694
 31
0.0
  0
LINE
  5
134DC
  8
0
 62
     5
 10
277.697647
 20
105.74867
 30
0.0
 11
277.785136
 21
106.74867
 31
0.0
  0
LINE
  5
134DD
  8
0
 62
     5
 10
272.103222
 20
101.84867
 30
0.0
 11
275.552062
 21
101.84867
 31
0.0
  0
LINE
  5
134DE
  8
0
 62
     5
 10
272.101582
 20
101.548487
 30
0.0
 11
272.053014
 21
101.24867
 31
0.0
  0
LINE
  5
134DF
  8
0
 62
     5
 10
271.015125
 20
101.548487
 30
0.0
 11
270.966557
 21
101.24867
 31
0.0
  0
LINE
  5
134E0
  8
0
 62
     5
 10
272.101582
 20
101.548487
 30
0.0
 11
272.103222
 21
101.84867
 31
0.0
  0
LINE
  5
134E1
  8
0
 62
     5
 10
271.015125
 20
101.548487
 30
0.0
 11
272.101582
 21
101.548487
 31
0.0
  0
LINE
  5
134E2
  8
0
 62
     5
 10
271.031514
 20
104.54867
 30
0.0
 11
271.015125
 21
101.548487
 31
0.0
  0
LINE
  5
134E3
  8
0
 62
     5
 10
270.662627
 20
101.24867
 30
0.0
 11
270.662627
 21
104.54867
 31
0.0
  0
LINE
  5
134E4
  8
0
 62
     5
 10
275.231903
 20
101.84867
 30
0.0
 11
275.221549
 21
101.548487
 31
0.0
  0
LINE
  5
134E5
  8
0
 62
     5
 10
274.914902
 20
101.24867
 30
0.0
 11
275.221549
 21
101.548487
 31
0.0
  0
LINE
  5
134E6
  8
0
 62
     5
 10
275.688266
 20
105.74867
 30
0.0
 11
275.552075
 21
101.84867
 31
0.0
  0
ARC
  5
134E7
  8
0
 62
     5
 10
273.20643
 20
108.74867
 30
0.0
 40
1.0
 50
270.0
 51
0.0
  0
ARC
  5
134E8
  8
0
 62
     5
 10
278.698431
 20
108.74867
 30
0.0
 40
0.5
 50
0.0
 51
27.289401
  0
ARC
  5
134E9
  8
0
 62
     5
 10
278.998431
 20
106.94867
 30
0.0
 40
0.2
 50
270.0
 51
0.0
  0
LINE
  5
134EA
  8
0
 62
     5
 10
279.198431
 20
108.74867
 30
0.0
 11
279.198431
 21
106.94867
 31
0.0
  0
ARC
  5
134EB
  8
0
 62
     5
 10
278.098431
 20
111.24867
 30
0.0
 40
2.5
 50
270.0
 51
0.0
  0
CIRCLE
  5
134EC
  8
0
 62
     5
 10
260.598431
 20
128.74867
 30
0.0
 40
5.0
  0
CIRCLE
  5
134ED
  8
0
 62
     5
 10
260.598431
 20
128.74867
 30
0.0
 40
3.6
  0
CIRCLE
  5
134EE
  8
0
 62
     5
 10
260.598431
 20
128.74867
 30
0.0
 40
4.0
  0
LINE
  5
134EF
  8
0
 62
     5
 10
276.629185
 20
114.722879
 30
0.0
 11
276.613761
 21
114.691555
 31
0.0
  0
LINE
  5
134F0
  8
0
 62
     5
 10
276.613761
 20
114.691555
 30
0.0
 11
276.571437
 21
114.60002
 31
0.0
  0
LINE
  5
134F1
  8
0
 62
     5
 10
276.571246
 20
114.599548
 30
0.0
 11
276.571437
 21
114.60002
 31
0.0
  0
LINE
  5
134F2
  8
0
 62
     5
 10
276.571106
 20
114.599104
 30
0.0
 11
276.571246
 21
114.599548
 31
0.0
  0
LINE
  5
134F3
  8
0
 62
     5
 10
276.571015
 20
114.598687
 30
0.0
 11
276.571106
 21
114.599104
 31
0.0
  0
LINE
  5
134F4
  8
0
 62
     5
 10
276.570974
 20
114.598297
 30
0.0
 11
276.571015
 21
114.598687
 31
0.0
  0
LINE
  5
134F5
  8
0
 62
     5
 10
276.571041
 20
114.597596
 30
0.0
 11
276.570983
 21
114.597933
 31
0.0
  0
LINE
  5
134F6
  8
0
 62
     5
 10
276.571041
 20
114.597596
 30
0.0
 11
276.571541
 21
114.595649
 31
0.0
  0
LINE
  5
134F7
  8
0
 62
     5
 10
276.570983
 20
114.597933
 30
0.0
 11
276.570974
 21
114.598297
 31
0.0
  0
LINE
  5
134F8
  8
0
 62
     5
 10
276.571417
 20
114.595649
 30
0.0
 11
277.640718
 21
114.595649
 31
0.0
  0
LINE
  5
134F9
  8
0
 62
     5
 10
277.752863
 20
114.55067
 30
0.0
 11
276.552567
 21
114.55067
 31
0.0
  0
ARC
  5
134FA
  8
0
 62
     5
 10
278.80643
 20
110.54067
 30
0.0
 40
4.630074
 50
118.859671
 51
154.959486
  0
ARC
  5
134FB
  8
0
 62
     5
 10
278.80643
 20
110.54067
 30
0.0
 40
4.6
 50
119.338629
 51
155.736956
  0
ARC
  5
134FC
  8
0
 62
     5
 10
279.898431
 20
115.55067
 30
0.0
 40
1.0
 50
314.440424
 51
0.0
  0
ARC
  5
134FD
  8
0
 62
     5
 10
260.598431
 20
128.74867
 30
0.0
 40
20.5
 50
351.990057
 51
8.009943
  0
ARC
  5
134FE
  8
0
 62
     5
 10
270.318864
 20
146.284795
 30
0.0
 40
3.1
 50
63.071521
 51
116.928479
  0
ARC
  5
134FF
  8
0
 62
     5
 10
260.598431
 20
128.74867
 30
0.0
 40
20.5
 50
81.990057
 51
98.009943
  0
ARC
  5
13500
  8
0
 62
     5
 10
278.098431
 20
146.24867
 30
0.0
 40
2.5
 50
0.0
 51
90.0
  0
CIRCLE
  5
13501
  8
0
 62
     5
 10
277.498283
 20
145.648522
 30
0.0
 40
1.25
  0
ARC
  5
13502
  8
0
 62
     5
 10
277.498283
 20
145.648522
 30
0.0
 40
1.5
 50
255.0
 51
195.0
  0
LINE
  5
13503
  8
HIDDEN
 10
40.448027
 20
92.74867
 30
0.0
 11
35.42634
 21
92.748672
 31
0.0
  0
ARC
  5
13504
  8
HIDDEN
 10
28.272065
 20
101.24867
 30
0.0
 40
1.5
 50
180.0
 51
270.0
  0
LINE
  5
13505
  8
HIDDEN
 10
31.520615
 20
96.706909
 30
0.0
 11
31.520622
 21
96.706824
 31
0.0
  0
LINE
  5
13506
  8
HIDDEN
 10
31.492094
 20
99.74867
 30
0.0
 11
31.492094
 21
97.137045
 31
0.0
  0
LINE
  5
13507
  8
HIDDEN
 10
31.499228
 20
96.961011
 30
0.0
 11
31.499223
 21
96.961063
 31
0.0
  0
LINE
  5
13508
  8
HIDDEN
 10
28.272027
 20
99.74867
 30
0.0
 11
31.492094
 21
99.74867
 31
0.0
  0
LINE
  5
13509
  8
HIDDEN
 10
33.912584
 20
92.981837
 30
0.0
 11
33.912485
 21
92.981868
 31
0.0
  0
LINE
  5
1350A
  8
HIDDEN
 10
31.965055
 20
95.11383
 30
0.0
 11
31.965026
 21
95.113888
 31
0.0
  0
LINE
  5
1350B
  8
HIDDEN
 10
26.762688
 20
105.74867
 30
0.0
 11
37.689564
 21
105.74867
 31
0.0
  0
LINE
  5
1350C
  8
HIDDEN
 10
26.772065
 20
101.24867
 30
0.0
 11
26.772065
 21
105.74867
 31
0.0
  0
ARC
  5
1350D
  8
HIDDEN
 10
49.651735
 20
101.24867
 30
0.0
 40
1.5
 50
270.0
 51
0.0
  0
LINE
  5
1350E
  8
HIDDEN
 10
44.8119
 20
91.64867
 30
0.0
 11
50.731155
 21
91.64867
 31
0.0
  0
LINE
  5
1350F
  8
HIDDEN
 10
46.431706
 20
99.74867
 30
0.0
 11
49.651773
 21
99.74867
 31
0.0
  0
ARC
  5
13510
  8
HIDDEN
 10
44.8119
 20
95.64867
 30
0.0
 40
4.0
 50
226.49263
 51
270.0
  0
LINE
  5
13511
  8
HIDDEN
 10
44.011216
 20
92.981837
 30
0.0
 11
44.011315
 21
92.981868
 31
0.0
  0
LINE
  5
13512
  8
HIDDEN
 10
42.497465
 20
92.748675
 30
0.0
 11
40.448027
 21
92.74867
 31
0.0
  0
LINE
  5
13513
  8
HIDDEN
 10
44.212037
 20
93.100865
 30
0.0
 11
44.210924
 21
93.099812
 31
0.0
  0
LINE
  5
13514
  8
HIDDEN
 10
46.403185
 20
96.706909
 30
0.0
 11
46.403178
 21
96.706824
 31
0.0
  0
LINE
  5
13515
  8
HIDDEN
 10
46.424572
 20
96.961011
 30
0.0
 11
46.424577
 21
96.961063
 31
0.0
  0
LINE
  5
13516
  8
HIDDEN
 10
46.431706
 20
99.74867
 30
0.0
 11
46.431706
 21
97.137045
 31
0.0
  0
LINE
  5
13517
  8
HIDDEN
 10
51.698637
 20
91.64867
 30
0.0
 11
55.7119
 21
91.64867
 31
0.0
  0
POLYLINE
  5
13518
  8
HIDDEN
 66
     1
 10
0.0
 20
0.0
 30
0.0
  0
VERTEX
  5
13CE6
  8
HIDDEN
 10
51.386336
 20
91.649436
 30
0.0
  0
VERTEX
  5
13CE7
  8
HIDDEN
 10
51.43839
 20
91.648844
 30
0.0
  0
VERTEX
  5
13CE8
  8
HIDDEN
 10
51.48577
 20
91.64867
 30
0.0
  0
SEQEND
  5
13CE9
  8
HIDDEN
  0
LINE
  5
1351D
  8
HIDDEN
 10
51.409027
 20
91.649126
 30
0.0
 11
51.43839
 21
91.648844
 31
0.0
  0
LINE
  5
1351E
  8
HIDDEN
 10
51.386336
 20
91.649436
 30
0.0
 11
50.731155
 21
91.649436
 31
0.0
  0
POLYLINE
  5
1351F
  8
HIDDEN
 66
     1
 10
0.0
 20
0.0
 30
0.0
  0
VERTEX
  5
13CEA
  8
HIDDEN
 10
51.48577
 20
91.64867
 30
0.0
  0
VERTEX
  5
13CEB
  8
HIDDEN
 10
51.542503
 20
91.648919
 30
0.0
  0
VERTEX
  5
13CEC
  8
HIDDEN
 10
51.594556
 20
91.649587
 30
0.0
  0
VERTEX
  5
13CED
  8
HIDDEN
 10
51.646602
 20
91.650675
 30
0.0
  0
VERTEX
  5
13CEE
  8
HIDDEN
 10
51.698637
 20
91.652182
 30
0.0
  0
SEQEND
  5
13CEF
  8
HIDDEN
  0
LINE
  5
13526
  8
HIDDEN
 10
51.514718
 20
91.648735
 30
0.0
 11
51.542503
 21
91.648919
 31
0.0
  0
LINE
  5
13527
  8
HIDDEN
 10
51.161112
 20
105.74867
 30
0.0
 11
43.977987
 21
105.74867
 31
0.0
  0
LINE
  5
13528
  8
HIDDEN
 10
51.161116
 20
105.74867
 30
0.0
 11
51.248605
 21
106.74867
 31
0.0
  0
LINE
  5
13529
  8
HIDDEN
 10
51.151735
 20
101.24867
 30
0.0
 11
51.151735
 21
105.74867
 31
0.0
  0
LINE
  5
1352A
  8
HIDDEN
 10
59.7119
 20
95.64867
 30
0.0
 11
59.7119
 21
102.84867
 31
0.0
  0
LINE
  5
1352B
  8
HIDDEN
 10
62.0119
 20
102.84867
 30
0.0
 11
59.7119
 21
102.84867
 31
0.0
  0
LINE
  5
1352C
  8
HIDDEN
 10
62.5119
 20
105.34867
 30
0.0
 11
62.5119
 21
103.34867
 31
0.0
  0
ARC
  5
1352D
  8
HIDDEN
 10
62.0119
 20
103.34867
 30
0.0
 40
0.5
 50
270.0
 51
0.0
  0
LINE
  5
1352E
  8
HIDDEN
 10
112.040063
 20
92.748732
 30
0.0
 11
131.717665
 21
92.74869
 31
0.0
  0
ARC
  5
1352F
  8
HIDDEN
 10
112.022067
 20
98.988201
 30
0.0
 40
6.239561
 50
177.799927
 51
270.16526
  0
ARC
  5
13530
  8
HIDDEN
 10
106.884214
 20
101.24867
 30
0.0
 40
1.5
 50
180.0
 51
222.995554
  0
LINE
  5
13531
  8
HIDDEN
 10
105.374833
 20
105.74867
 30
0.0
 11
105.287344
 21
106.74867
 31
0.0
  0
LINE
  5
13532
  8
HIDDEN
 10
105.384214
 20
105.74867
 30
0.0
 11
105.384214
 21
101.24867
 31
0.0
  0
LINE
  5
13533
  8
HIDDEN
 10
105.787104
 20
99.227732
 30
0.0
 11
105.787104
 21
100.228797
 31
0.0
  0
LINE
  5
13534
  8
HIDDEN
 10
160.637401
 20
91.652182
 30
0.0
 11
145.345915
 21
91.64867
 31
0.0
  0
LINE
  5
13535
  8
HIDDEN
 10
160.651329
 20
104.747904
 30
0.0
 11
153.695915
 21
104.747904
 31
0.0
  0
LINE
  5
13536
  8
HIDDEN
 10
139.345915
 20
102.84867
 30
0.0
 11
138.195915
 21
102.84867
 31
0.0
  0
LINE
  5
13537
  8
HIDDEN
 10
136.705747
 20
95.89867
 30
0.0
 11
139.606412
 21
95.89867
 31
0.0
  0
LINE
  5
13538
  8
HIDDEN
 10
135.249681
 20
93.94867
 30
0.0
 11
133.866918
 21
93.94867
 31
0.0
  0
LINE
  5
13539
  8
HIDDEN
 10
133.916042
 20
93.94867
 30
0.0
 11
132.686129
 21
93.064129
 31
0.0
  0
LINE
  5
1353A
  8
HIDDEN
 10
131.717627
 20
106.34867
 30
0.0
 11
125.66949
 21
106.34867
 31
0.0
  0
LINE
  5
1353B
  8
HIDDEN
 10
135.249681
 20
105.14867
 30
0.0
 11
133.866918
 21
105.14867
 31
0.0
  0
LINE
  5
1353C
  8
HIDDEN
 10
133.916042
 20
105.14867
 30
0.0
 11
132.686129
 21
106.033211
 31
0.0
  0
LINE
  5
1353D
  8
HIDDEN
 10
137.695915
 20
103.34867
 30
0.0
 11
137.695915
 21
105.34867
 31
0.0
  0
ARC
  5
1353E
  8
HIDDEN
 10
138.195915
 20
103.34867
 30
0.0
 40
0.5
 50
180.0
 51
270.0
  0
LINE
  5
1353F
  8
HIDDEN
 10
136.713032
 20
103.19867
 30
0.0
 11
137.695915
 21
103.19867
 31
0.0
  0
LINE
  5
13540
  8
HIDDEN
 10
139.345915
 20
97.64867
 30
0.0
 11
139.345915
 21
102.84867
 31
0.0
  0
LINE
  5
13541
  8
HIDDEN
 10
153.695915
 20
105.34867
 30
0.0
 11
153.695915
 21
104.747904
 31
0.0
  0
LINE
  5
13542
  8
HIDDEN
 10
164.721994
 20
94.94867
 30
0.0
 11
179.247882
 21
94.94867
 31
0.0
  0
LINE
  5
13543
  8
HIDDEN
 10
164.721994
 20
101.44867
 30
0.0
 11
179.247882
 21
101.44867
 31
0.0
  0
POLYLINE
  5
13544
  8
HIDDEN
 66
     1
 10
0.0
 20
0.0
 30
0.0
 70
     8
  0
VERTEX
  5
13545
  8
0
 10
164.36
 20
93.7988
 30
0.0
 70
    32
  0
VERTEX
  5
13546
  8
0
 10
164.373
 20
93.8001
 30
0.0
 70
    32
  0
VERTEX
  5
13547
  8
0
 10
164.386
 20
93.8041
 30
0.0
 70
    32
  0
VERTEX
  5
13548
  8
0
 10
164.399
 20
93.8106
 30
0.0
 70
    32
  0
VERTEX
  5
13549
  8
0
 10
164.412
 20
93.8199
 30
0.0
 70
    32
  0
VERTEX
  5
1354A
  8
0
 10
164.425
 20
93.8317
 30
0.0
 70
    32
  0
VERTEX
  5
1354B
  8
0
 10
164.438
 20
93.8462
 30
0.0
 70
    32
  0
VERTEX
  5
1354C
  8
0
 10
164.451
 20
93.8632
 30
0.0
 70
    32
  0
VERTEX
  5
1354D
  8
0
 10
164.464
 20
93.8829
 30
0.0
 70
    32
  0
VERTEX
  5
1354E
  8
0
 10
164.477
 20
93.9051
 30
0.0
 70
    32
  0
VERTEX
  5
1354F
  8
0
 10
164.49
 20
93.9299
 30
0.0
 70
    32
  0
VERTEX
  5
13550
  8
0
 10
164.503
 20
93.9573
 30
0.0
 70
    32
  0
VERTEX
  5
13551
  8
0
 10
164.515
 20
93.9872
 30
0.0
 70
    32
  0
VERTEX
  5
13552
  8
0
 10
164.528
 20
94.0197
 30
0.0
 70
    32
  0
VERTEX
  5
13553
  8
0
 10
164.54
 20
94.0546
 30
0.0
 70
    32
  0
VERTEX
  5
13554
  8
0
 10
164.553
 20
94.092
 30
0.0
 70
    32
  0
VERTEX
  5
13555
  8
0
 10
164.565
 20
94.1319
 30
0.0
 70
    32
  0
VERTEX
  5
13556
  8
0
 10
164.577
 20
94.1742
 30
0.0
 70
    32
  0
VERTEX
  5
13557
  8
0
 10
164.589
 20
94.2189
 30
0.0
 70
    32
  0
VERTEX
  5
13558
  8
0
 10
164.601
 20
94.2661
 30
0.0
 70
    32
  0
VERTEX
  5
13559
  8
0
 10
164.612
 20
94.3155
 30
0.0
 70
    32
  0
VERTEX
  5
1355A
  8
0
 10
164.624
 20
94.3673
 30
0.0
 70
    32
  0
VERTEX
  5
1355B
  8
0
 10
164.635
 20
94.4214
 30
0.0
 70
    32
  0
VERTEX
  5
1355C
  8
0
 10
164.647
 20
94.4778
 30
0.0
 70
    32
  0
VERTEX
  5
1355D
  8
0
 10
164.658
 20
94.5364
 30
0.0
 70
    32
  0
VERTEX
  5
1355E
  8
0
 10
164.668
 20
94.5971
 30
0.0
 70
    32
  0
VERTEX
  5
1355F
  8
0
 10
164.679
 20
94.6601
 30
0.0
 70
    32
  0
VERTEX
  5
13560
  8
0
 10
164.69
 20
94.7251
 30
0.0
 70
    32
  0
VERTEX
  5
13561
  8
0
 10
164.7
 20
94.7923
 30
0.0
 70
    32
  0
VERTEX
  5
13562
  8
0
 10
164.71
 20
94.8614
 30
0.0
 70
    32
  0
VERTEX
  5
13563
  8
0
 10
164.72
 20
94.9326
 30
0.0
 70
    32
  0
VERTEX
  5
13564
  8
0
 10
164.729
 20
95.0057
 30
0.0
 70
    32
  0
VERTEX
  5
13565
  8
0
 10
164.739
 20
95.0808
 30
0.0
 70
    32
  0
VERTEX
  5
13566
  8
0
 10
164.748
 20
95.1577
 30
0.0
 70
    32
  0
VERTEX
  5
13567
  8
0
 10
164.757
 20
95.2364
 30
0.0
 70
    32
  0
VERTEX
  5
13568
  8
0
 10
164.766
 20
95.3169
 30
0.0
 70
    32
  0
VERTEX
  5
13569
  8
0
 10
164.774
 20
95.3992
 30
0.0
 70
    32
  0
VERTEX
  5
1356A
  8
0
 10
164.783
 20
95.4831
 30
0.0
 70
    32
  0
VERTEX
  5
1356B
  8
0
 10
164.791
 20
95.5686
 30
0.0
 70
    32
  0
VERTEX
  5
1356C
  8
0
 10
164.798
 20
95.6557
 30
0.0
 70
    32
  0
VERTEX
  5
1356D
  8
0
 10
164.806
 20
95.7444
 30
0.0
 70
    32
  0
VERTEX
  5
1356E
  8
0
 10
164.813
 20
95.8345
 30
0.0
 70
    32
  0
VERTEX
  5
1356F
  8
0
 10
164.82
 20
95.926
 30
0.0
 70
    32
  0
VERTEX
  5
13570
  8
0
 10
164.827
 20
96.0189
 30
0.0
 70
    32
  0
VERTEX
  5
13571
  8
0
 10
164.833
 20
96.1131
 30
0.0
 70
    32
  0
VERTEX
  5
13572
  8
0
 10
164.839
 20
96.2085
 30
0.0
 70
    32
  0
VERTEX
  5
13573
  8
0
 10
164.845
 20
96.3051
 30
0.0
 70
    32
  0
VERTEX
  5
13574
  8
0
 10
164.85
 20
96.4029
 30
0.0
 70
    32
  0
VERTEX
  5
13575
  8
0
 10
164.856
 20
96.5018
 30
0.0
 70
    32
  0
VERTEX
  5
13576
  8
0
 10
164.861
 20
96.6016
 30
0.0
 70
    32
  0
VERTEX
  5
13577
  8
0
 10
164.865
 20
96.7024
 30
0.0
 70
    32
  0
VERTEX
  5
13578
  8
0
 10
164.869
 20
96.8041
 30
0.0
 70
    32
  0
VERTEX
  5
13579
  8
0
 10
164.873
 20
96.9067
 30
0.0
 70
    32
  0
VERTEX
  5
1357A
  8
0
 10
164.877
 20
97.01
 30
0.0
 70
    32
  0
VERTEX
  5
1357B
  8
0
 10
164.881
 20
97.114
 30
0.0
 70
    32
  0
VERTEX
  5
1357C
  8
0
 10
164.884
 20
97.2187
 30
0.0
 70
    32
  0
VERTEX
  5
1357D
  8
0
 10
164.886
 20
97.324
 30
0.0
 70
    32
  0
VERTEX
  5
1357E
  8
0
 10
164.889
 20
97.4298
 30
0.0
 70
    32
  0
VERTEX
  5
1357F
  8
0
 10
164.891
 20
97.5361
 30
0.0
 70
    32
  0
VERTEX
  5
13580
  8
0
 10
164.893
 20
97.6427
 30
0.0
 70
    32
  0
VERTEX
  5
13581
  8
0
 10
164.894
 20
97.7497
 30
0.0
 70
    32
  0
VERTEX
  5
13582
  8
0
 10
164.896
 20
97.8569
 30
0.0
 70
    32
  0
VERTEX
  5
13583
  8
0
 10
164.896
 20
97.9644
 30
0.0
 70
    32
  0
VERTEX
  5
13584
  8
0
 10
164.897
 20
98.072
 30
0.0
 70
    32
  0
VERTEX
  5
13585
  8
0
 10
164.897
 20
98.1797
 30
0.0
 70
    32
  0
VERTEX
  5
13586
  8
0
 10
164.897
 20
98.2874
 30
0.0
 70
    32
  0
VERTEX
  5
13587
  8
0
 10
164.897
 20
98.395
 30
0.0
 70
    32
  0
VERTEX
  5
13588
  8
0
 10
164.896
 20
98.5025
 30
0.0
 70
    32
  0
VERTEX
  5
13589
  8
0
 10
164.895
 20
98.6098
 30
0.0
 70
    32
  0
VERTEX
  5
1358A
  8
0
 10
164.893
 20
98.7169
 30
0.0
 70
    32
  0
VERTEX
  5
1358B
  8
0
 10
164.892
 20
98.8237
 30
0.0
 70
    32
  0
VERTEX
  5
1358C
  8
0
 10
164.89
 20
98.9301
 30
0.0
 70
    32
  0
VERTEX
  5
1358D
  8
0
 10
164.887
 20
99.0361
 30
0.0
 70
    32
  0
VERTEX
  5
1358E
  8
0
 10
164.885
 20
99.1415
 30
0.0
 70
    32
  0
VERTEX
  5
1358F
  8
0
 10
164.882
 20
99.2464
 30
0.0
 70
    32
  0
VERTEX
  5
13590
  8
0
 10
164.878
 20
99.3507
 30
0.0
 70
    32
  0
VERTEX
  5
13591
  8
0
 10
164.875
 20
99.4543
 30
0.0
 70
    32
  0
VERTEX
  5
13592
  8
0
 10
164.871
 20
99.5571
 30
0.0
 70
    32
  0
VERTEX
  5
13593
  8
0
 10
164.867
 20
99.6591
 30
0.0
 70
    32
  0
VERTEX
  5
13594
  8
0
 10
164.862
 20
99.7603
 30
0.0
 70
    32
  0
VERTEX
  5
13595
  8
0
 10
164.857
 20
99.8605
 30
0.0
 70
    32
  0
VERTEX
  5
13596
  8
0
 10
164.852
 20
99.9597
 30
0.0
 70
    32
  0
VERTEX
  5
13597
  8
0
 10
164.847
 20
100.058
 30
0.0
 70
    32
  0
VERTEX
  5
13598
  8
0
 10
164.841
 20
100.155
 30
0.0
 70
    32
  0
VERTEX
  5
13599
  8
0
 10
164.835
 20
100.251
 30
0.0
 70
    32
  0
VERTEX
  5
1359A
  8
0
 10
164.829
 20
100.345
 30
0.0
 70
    32
  0
VERTEX
  5
1359B
  8
0
 10
164.822
 20
100.439
 30
0.0
 70
    32
  0
VERTEX
  5
1359C
  8
0
 10
164.815
 20
100.531
 30
0.0
 70
    32
  0
VERTEX
  5
1359D
  8
0
 10
164.808
 20
100.621
 30
0.0
 70
    32
  0
VERTEX
  5
1359E
  8
0
 10
164.801
 20
100.711
 30
0.0
 70
    32
  0
VERTEX
  5
1359F
  8
0
 10
164.793
 20
100.798
 30
0.0
 70
    32
  0
VERTEX
  5
135A0
  8
0
 10
164.785
 20
100.884
 30
0.0
 70
    32
  0
VERTEX
  5
135A1
  8
0
 10
164.777
 20
100.969
 30
0.0
 70
    32
  0
VERTEX
  5
135A2
  8
0
 10
164.769
 20
101.052
 30
0.0
 70
    32
  0
VERTEX
  5
135A3
  8
0
 10
164.76
 20
101.133
 30
0.0
 70
    32
  0
VERTEX
  5
135A4
  8
0
 10
164.751
 20
101.212
 30
0.0
 70
    32
  0
VERTEX
  5
135A5
  8
0
 10
164.742
 20
101.29
 30
0.0
 70
    32
  0
VERTEX
  5
135A6
  8
0
 10
164.733
 20
101.365
 30
0.0
 70
    32
  0
VERTEX
  5
135A7
  8
0
 10
164.723
 20
101.439
 30
0.0
 70
    32
  0
VERTEX
  5
135A8
  8
0
 10
164.713
 20
101.511
 30
0.0
 70
    32
  0
VERTEX
  5
135A9
  8
0
 10
164.703
 20
101.581
 30
0.0
 70
    32
  0
VERTEX
  5
135AA
  8
0
 10
164.693
 20
101.649
 30
0.0
 70
    32
  0
VERTEX
  5
135AB
  8
0
 10
164.683
 20
101.715
 30
0.0
 70
    32
  0
VERTEX
  5
135AC
  8
0
 10
164.672
 20
101.778
 30
0.0
 70
    32
  0
VERTEX
  5
135AD
  8
0
 10
164.661
 20
101.84
 30
0.0
 70
    32
  0
VERTEX
  5
135AE
  8
0
 10
164.65
 20
101.899
 30
0.0
 70
    32
  0
VERTEX
  5
135AF
  8
0
 10
164.639
 20
101.956
 30
0.0
 70
    32
  0
VERTEX
  5
135B0
  8
0
 10
164.628
 20
102.011
 30
0.0
 70
    32
  0
VERTEX
  5
135B1
  8
0
 10
164.617
 20
102.064
 30
0.0
 70
    32
  0
VERTEX
  5
135B2
  8
0
 10
164.605
 20
102.114
 30
0.0
 70
    32
  0
VERTEX
  5
135B3
  8
0
 10
164.593
 20
102.162
 30
0.0
 70
    32
  0
VERTEX
  5
135B4
  8
0
 10
164.581
 20
102.208
 30
0.0
 70
    32
  0
VERTEX
  5
135B5
  8
0
 10
164.569
 20
102.251
 30
0.0
 70
    32
  0
VERTEX
  5
135B6
  8
0
 10
164.557
 20
102.292
 30
0.0
 70
    32
  0
VERTEX
  5
135B7
  8
0
 10
164.545
 20
102.33
 30
0.0
 70
    32
  0
VERTEX
  5
135B8
  8
0
 10
164.532
 20
102.366
 30
0.0
 70
    32
  0
VERTEX
  5
135B9
  8
0
 10
164.52
 20
102.399
 30
0.0
 70
    32
  0
VERTEX
  5
135BA
  8
0
 10
164.507
 20
102.43
 30
0.0
 70
    32
  0
VERTEX
  5
135BB
  8
0
 10
164.494
 20
102.458
 30
0.0
 70
    32
  0
VERTEX
  5
135BC
  8
0
 10
164.482
 20
102.484
 30
0.0
 70
    32
  0
VERTEX
  5
135BD
  8
0
 10
164.469
 20
102.507
 30
0.0
 70
    32
  0
VERTEX
  5
135BE
  8
0
 10
164.456
 20
102.527
 30
0.0
 70
    32
  0
VERTEX
  5
135BF
  8
0
 10
164.443
 20
102.545
 30
0.0
 70
    32
  0
VERTEX
  5
135C0
  8
0
 10
164.43
 20
102.561
 30
0.0
 70
    32
  0
VERTEX
  5
135C1
  8
0
 10
164.417
 20
102.574
 30
0.0
 70
    32
  0
VERTEX
  5
135C2
  8
0
 10
164.404
 20
102.584
 30
0.0
 70
    32
  0
VERTEX
  5
135C3
  8
0
 10
164.391
 20
102.591
 30
0.0
 70
    32
  0
VERTEX
  5
135C4
  8
0
 10
164.377
 20
102.596
 30
0.0
 70
    32
  0
VERTEX
  5
135C5
  8
0
 10
164.364
 20
102.598
 30
0.0
 70
    32
  0
SEQEND
  5
135C6
  8
0
  0
LINE
  5
135C7
  8
HIDDEN
 10
164.397702
 20
93.80974
 30
0.0
 11
161.233275
 21
91.964394
 31
0.0
  0
LINE
  5
135C8
  8
HIDDEN
 10
161.233275
 20
91.964394
 30
0.0
 11
161.230938
 21
91.96306
 31
0.0
  0
LINE
  5
135C9
  8
HIDDEN
 10
161.230938
 20
91.96306
 30
0.0
 11
161.230675
 21
91.962914
 31
0.0
  0
LINE
  5
135CA
  8
HIDDEN
 10
161.230938
 20
91.96306
 30
0.0
 11
161.226884
 21
91.960888
 31
0.0
  0
POLYLINE
  5
135CB
  8
HIDDEN
 66
     1
 10
0.0
 20
0.0
 30
0.0
  0
VERTEX
  5
13CF0
  8
HIDDEN
 10
160.675746
 20
91.649436
 30
0.0
  0
VERTEX
  5
13CF1
  8
HIDDEN
 10
160.67296
 20
91.649126
 30
0.0
  0
VERTEX
  5
13CF2
  8
HIDDEN
 10
160.669994
 20
91.648884
 30
0.0
  0
SEQEND
  5
13CF3
  8
HIDDEN
  0
POLYLINE
  5
135D0
  8
HIDDEN
 66
     1
 10
0.0
 20
0.0
 30
0.0
  0
VERTEX
  5
13CF4
  8
HIDDEN
 10
160.675747
 20
91.649436
 30
0.0
  0
VERTEX
  5
13CF5
  8
HIDDEN
 10
160.669355
 20
91.648844
 30
0.0
  0
VERTEX
  5
13CF6
  8
HIDDEN
 10
160.663538
 20
91.64867
 30
0.0
  0
SEQEND
  5
13CF7
  8
HIDDEN
  0
LINE
  5
135D5
  8
HIDDEN
 10
160.669995
 20
91.648884
 30
0.0
 11
160.668145
 21
91.648779
 31
0.0
  0
LINE
  5
135D6
  8
HIDDEN
 10
160.664599
 20
91.648676
 30
0.0
 11
160.663538
 21
91.64867
 31
0.0
  0
POLYLINE
  5
135D7
  8
HIDDEN
 66
     1
 10
0.0
 20
0.0
 30
0.0
  0
VERTEX
  5
13CF8
  8
HIDDEN
 10
160.663537
 20
91.64867
 30
0.0
  0
VERTEX
  5
13CF9
  8
HIDDEN
 10
160.660751
 20
91.64871
 30
0.0
  0
VERTEX
  5
13CFA
  8
HIDDEN
 10
160.655178
 20
91.649029
 30
0.0
  0
SEQEND
  5
13CFB
  8
HIDDEN
  0
POLYLINE
  5
135DC
  8
HIDDEN
 66
     1
 10
0.0
 20
0.0
 30
0.0
  0
VERTEX
  5
13CFC
  8
HIDDEN
 10
160.663538
 20
91.64867
 30
0.0
  0
VERTEX
  5
13CFD
  8
HIDDEN
 10
160.656572
 20
91.648919
 30
0.0
  0
VERTEX
  5
13CFE
  8
HIDDEN
 10
160.65018
 20
91.649587
 30
0.0
  0
VERTEX
  5
13CFF
  8
HIDDEN
 10
160.64379
 20
91.650675
 30
0.0
  0
VERTEX
  5
13D00
  8
HIDDEN
 10
160.637401
 20
91.652182
 30
0.0
  0
SEQEND
  5
13D01
  8
HIDDEN
  0
POLYLINE
  5
135E3
  8
HIDDEN
 66
     1
 10
0.0
 20
0.0
 30
0.0
  0
VERTEX
  5
13D02
  8
HIDDEN
 10
160.652392
 20
91.649308
 30
0.0
  0
VERTEX
  5
13D03
  8
HIDDEN
 10
160.64682
 20
91.650106
 30
0.0
  0
VERTEX
  5
13D04
  8
HIDDEN
 10
160.644034
 20
91.650625
 30
0.0
  0
VERTEX
  5
13D05
  8
HIDDEN
 10
160.64379
 20
91.650675
 30
0.0
  0
SEQEND
  5
13D06
  8
HIDDEN
  0
POLYLINE
  5
135E9
  8
HIDDEN
 66
     1
 10
0.0
 20
0.0
 30
0.0
  0
VERTEX
  5
13D07
  8
HIDDEN
 10
164.397703
 20
93.80974
 30
0.0
  0
VERTEX
  5
13D08
  8
HIDDEN
 10
164.399569
 20
93.810855
 30
0.0
  0
VERTEX
  5
13D09
  8
HIDDEN
 10
164.401436
 20
93.812024
 30
0.0
  0
VERTEX
  5
13D0A
  8
HIDDEN
 10
164.403302
 20
93.813247
 30
0.0
  0
VERTEX
  5
13D0B
  8
HIDDEN
 10
164.405167
 20
93.814522
 30
0.0
  0
VERTEX
  5
13D0C
  8
HIDDEN
 10
164.407032
 20
93.815852
 30
0.0
  0
VERTEX
  5
13D0D
  8
HIDDEN
 10
164.410929
 20
93.818804
 30
0.0
  0
SEQEND
  5
13D0E
  8
HIDDEN
  0
LINE
  5
135F2
  8
HIDDEN
 10
164.397702
 20
102.5876
 30
0.0
 11
161.139587
 21
104.487581
 31
0.0
  0
POLYLINE
  5
135F3
  8
HIDDEN
 66
     1
 10
0.0
 20
0.0
 30
0.0
  0
VERTEX
  5
13D0F
  8
HIDDEN
 10
160.651329
 20
104.747904
 30
0.0
  0
VERTEX
  5
13D10
  8
HIDDEN
 10
160.65772
 20
104.748496
 30
0.0
  0
VERTEX
  5
13D11
  8
HIDDEN
 10
160.663538
 20
104.74867
 30
0.0
  0
SEQEND
  5
13D12
  8
HIDDEN
  0
LINE
  5
135F8
  8
HIDDEN
 10
160.663537
 20
104.74867
 30
0.0
 11
160.664305
 21
104.748667
 31
0.0
  0
POLYLINE
  5
135F9
  8
HIDDEN
 66
     1
 10
0.0
 20
0.0
 30
0.0
  0
VERTEX
  5
13D13
  8
HIDDEN
 10
160.664306
 20
104.748667
 30
0.0
  0
VERTEX
  5
13D14
  8
HIDDEN
 10
160.667092
 20
104.748605
 30
0.0
  0
VERTEX
  5
13D15
  8
HIDDEN
 10
160.669879
 20
104.748463
 30
0.0
  0
VERTEX
  5
13D16
  8
HIDDEN
 10
160.672665
 20
104.748242
 30
0.0
  0
VERTEX
  5
13D17
  8
HIDDEN
 10
160.676256
 20
104.747839
 30
0.0
  0
SEQEND
  5
13D18
  8
HIDDEN
  0
POLYLINE
  5
13600
  8
HIDDEN
 66
     1
 10
0.0
 20
0.0
 30
0.0
  0
VERTEX
  5
13D19
  8
HIDDEN
 10
160.663538
 20
104.74867
 30
0.0
  0
VERTEX
  5
13D1A
  8
HIDDEN
 10
160.670504
 20
104.748421
 30
0.0
  0
VERTEX
  5
13D1B
  8
HIDDEN
 10
160.676895
 20
104.747753
 30
0.0
  0
VERTEX
  5
13D1C
  8
HIDDEN
 10
160.683285
 20
104.746665
 30
0.0
  0
SEQEND
  5
13D1D
  8
HIDDEN
  0
LINE
  5
13606
  8
HIDDEN
 10
160.676256
 20
104.747839
 30
0.0
 11
160.67796
 21
104.747601
 31
0.0
  0
LINE
  5
13607
  8
HIDDEN
 10
160.682221
 20
104.746876
 30
0.0
 11
160.683925
 21
104.746533
 31
0.0
  0
LINE
  5
13608
  8
HIDDEN
 10
160.683285
 20
104.746665
 30
0.0
 11
160.689674
 21
104.745158
 31
0.0
  0
POLYLINE
  5
13609
  8
HIDDEN
 66
     1
 10
0.0
 20
0.0
 30
0.0
  0
VERTEX
  5
13D1E
  8
HIDDEN
 10
164.410928
 20
102.578536
 30
0.0
  0
VERTEX
  5
13D1F
  8
HIDDEN
 10
164.409065
 20
102.579977
 30
0.0
  0
VERTEX
  5
13D20
  8
HIDDEN
 10
164.4072
 20
102.581364
 30
0.0
  0
VERTEX
  5
13D21
  8
HIDDEN
 10
164.405336
 20
102.582699
 30
0.0
  0
VERTEX
  5
13D22
  8
HIDDEN
 10
164.40347
 20
102.583979
 30
0.0
  0
VERTEX
  5
13D23
  8
HIDDEN
 10
164.401605
 20
102.585207
 30
0.0
  0
VERTEX
  5
13D24
  8
HIDDEN
 10
164.397702
 20
102.5876
 30
0.0
  0
SEQEND
  5
13D25
  8
HIDDEN
  0
POLYLINE
  5
13612
  8
HIDDEN
 66
     1
 10
0.0
 20
0.0
 30
0.0
 70
     8
  0
VERTEX
  5
13613
  8
0
 10
179.248
 20
101.449
 30
0.0
 70
    32
  0
VERTEX
  5
13614
  8
0
 10
179.263
 20
101.448
 30
0.0
 70
    32
  0
VERTEX
  5
13615
  8
0
 10
179.278
 20
101.447
 30
0.0
 70
    32
  0
VERTEX
  5
13616
  8
0
 10
179.293
 20
101.444
 30
0.0
 70
    32
  0
VERTEX
  5
13617
  8
0
 10
179.309
 20
101.441
 30
0.0
 70
    32
  0
VERTEX
  5
13618
  8
0
 10
179.324
 20
101.436
 30
0.0
 70
    32
  0
VERTEX
  5
13619
  8
0
 10
179.339
 20
101.431
 30
0.0
 70
    32
  0
VERTEX
  5
1361A
  8
0
 10
179.354
 20
101.425
 30
0.0
 70
    32
  0
VERTEX
  5
1361B
  8
0
 10
179.369
 20
101.417
 30
0.0
 70
    32
  0
VERTEX
  5
1361C
  8
0
 10
179.384
 20
101.409
 30
0.0
 70
    32
  0
VERTEX
  5
1361D
  8
0
 10
179.398
 20
101.4
 30
0.0
 70
    32
  0
VERTEX
  5
1361E
  8
0
 10
179.413
 20
101.39
 30
0.0
 70
    32
  0
VERTEX
  5
1361F
  8
0
 10
179.428
 20
101.379
 30
0.0
 70
    32
  0
VERTEX
  5
13620
  8
0
 10
179.442
 20
101.367
 30
0.0
 70
    32
  0
VERTEX
  5
13621
  8
0
 10
179.456
 20
101.354
 30
0.0
 70
    32
  0
VERTEX
  5
13622
  8
0
 10
179.471
 20
101.34
 30
0.0
 70
    32
  0
VERTEX
  5
13623
  8
0
 10
179.485
 20
101.325
 30
0.0
 70
    32
  0
VERTEX
  5
13624
  8
0
 10
179.499
 20
101.309
 30
0.0
 70
    32
  0
VERTEX
  5
13625
  8
0
 10
179.513
 20
101.293
 30
0.0
 70
    32
  0
VERTEX
  5
13626
  8
0
 10
179.526
 20
101.275
 30
0.0
 70
    32
  0
VERTEX
  5
13627
  8
0
 10
179.54
 20
101.257
 30
0.0
 70
    32
  0
VERTEX
  5
13628
  8
0
 10
179.553
 20
101.238
 30
0.0
 70
    32
  0
VERTEX
  5
13629
  8
0
 10
179.566
 20
101.217
 30
0.0
 70
    32
  0
VERTEX
  5
1362A
  8
0
 10
179.579
 20
101.197
 30
0.0
 70
    32
  0
VERTEX
  5
1362B
  8
0
 10
179.592
 20
101.175
 30
0.0
 70
    32
  0
VERTEX
  5
1362C
  8
0
 10
179.604
 20
101.152
 30
0.0
 70
    32
  0
VERTEX
  5
1362D
  8
0
 10
179.617
 20
101.129
 30
0.0
 70
    32
  0
VERTEX
  5
1362E
  8
0
 10
179.629
 20
101.105
 30
0.0
 70
    32
  0
VERTEX
  5
1362F
  8
0
 10
179.641
 20
101.08
 30
0.0
 70
    32
  0
VERTEX
  5
13630
  8
0
 10
179.652
 20
101.054
 30
0.0
 70
    32
  0
VERTEX
  5
13631
  8
0
 10
179.664
 20
101.028
 30
0.0
 70
    32
  0
VERTEX
  5
13632
  8
0
 10
179.675
 20
101.001
 30
0.0
 70
    32
  0
VERTEX
  5
13633
  8
0
 10
179.686
 20
100.973
 30
0.0
 70
    32
  0
VERTEX
  5
13634
  8
0
 10
179.696
 20
100.944
 30
0.0
 70
    32
  0
VERTEX
  5
13635
  8
0
 10
179.707
 20
100.915
 30
0.0
 70
    32
  0
VERTEX
  5
13636
  8
0
 10
179.717
 20
100.885
 30
0.0
 70
    32
  0
VERTEX
  5
13637
  8
0
 10
179.727
 20
100.855
 30
0.0
 70
    32
  0
VERTEX
  5
13638
  8
0
 10
179.736
 20
100.823
 30
0.0
 70
    32
  0
VERTEX
  5
13639
  8
0
 10
179.745
 20
100.792
 30
0.0
 70
    32
  0
VERTEX
  5
1363A
  8
0
 10
179.754
 20
100.759
 30
0.0
 70
    32
  0
VERTEX
  5
1363B
  8
0
 10
179.763
 20
100.726
 30
0.0
 70
    32
  0
VERTEX
  5
1363C
  8
0
 10
179.771
 20
100.693
 30
0.0
 70
    32
  0
VERTEX
  5
1363D
  8
0
 10
179.779
 20
100.659
 30
0.0
 70
    32
  0
VERTEX
  5
1363E
  8
0
 10
179.787
 20
100.625
 30
0.0
 70
    32
  0
VERTEX
  5
1363F
  8
0
 10
179.794
 20
100.59
 30
0.0
 70
    32
  0
VERTEX
  5
13640
  8
0
 10
179.801
 20
100.554
 30
0.0
 70
    32
  0
VERTEX
  5
13641
  8
0
 10
179.808
 20
100.518
 30
0.0
 70
    32
  0
VERTEX
  5
13642
  8
0
 10
179.814
 20
100.482
 30
0.0
 70
    32
  0
VERTEX
  5
13643
  8
0
 10
179.82
 20
100.446
 30
0.0
 70
    32
  0
VERTEX
  5
13644
  8
0
 10
179.826
 20
100.408
 30
0.0
 70
    32
  0
VERTEX
  5
13645
  8
0
 10
179.831
 20
100.371
 30
0.0
 70
    32
  0
VERTEX
  5
13646
  8
0
 10
179.836
 20
100.333
 30
0.0
 70
    32
  0
VERTEX
  5
13647
  8
0
 10
179.84
 20
100.295
 30
0.0
 70
    32
  0
VERTEX
  5
13648
  8
0
 10
179.845
 20
100.257
 30
0.0
 70
    32
  0
VERTEX
  5
13649
  8
0
 10
179.849
 20
100.219
 30
0.0
 70
    32
  0
VERTEX
  5
1364A
  8
0
 10
179.852
 20
100.18
 30
0.0
 70
    32
  0
VERTEX
  5
1364B
  8
0
 10
179.855
 20
100.141
 30
0.0
 70
    32
  0
VERTEX
  5
1364C
  8
0
 10
179.858
 20
100.101
 30
0.0
 70
    32
  0
VERTEX
  5
1364D
  8
0
 10
179.86
 20
100.062
 30
0.0
 70
    32
  0
VERTEX
  5
1364E
  8
0
 10
179.862
 20
100.023
 30
0.0
 70
    32
  0
VERTEX
  5
1364F
  8
0
 10
179.864
 20
99.9829
 30
0.0
 70
    32
  0
VERTEX
  5
13650
  8
0
 10
179.865
 20
99.9432
 30
0.0
 70
    32
  0
VERTEX
  5
13651
  8
0
 10
179.866
 20
99.9034
 30
0.0
 70
    32
  0
VERTEX
  5
13652
  8
0
 10
179.867
 20
99.8635
 30
0.0
 70
    32
  0
VERTEX
  5
13653
  8
0
 10
179.867
 20
99.8237
 30
0.0
 70
    32
  0
VERTEX
  5
13654
  8
0
 10
179.867
 20
99.7838
 30
0.0
 70
    32
  0
VERTEX
  5
13655
  8
0
 10
179.866
 20
99.7439
 30
0.0
 70
    32
  0
VERTEX
  5
13656
  8
0
 10
179.865
 20
99.7041
 30
0.0
 70
    32
  0
VERTEX
  5
13657
  8
0
 10
179.864
 20
99.6644
 30
0.0
 70
    32
  0
VERTEX
  5
13658
  8
0
 10
179.862
 20
99.6248
 30
0.0
 70
    32
  0
VERTEX
  5
13659
  8
0
 10
179.86
 20
99.5852
 30
0.0
 70
    32
  0
VERTEX
  5
1365A
  8
0
 10
179.858
 20
99.5459
 30
0.0
 70
    32
  0
VERTEX
  5
1365B
  8
0
 10
179.855
 20
99.5066
 30
0.0
 70
    32
  0
VERTEX
  5
1365C
  8
0
 10
179.852
 20
99.4676
 30
0.0
 70
    32
  0
VERTEX
  5
1365D
  8
0
 10
179.849
 20
99.4288
 30
0.0
 70
    32
  0
VERTEX
  5
1365E
  8
0
 10
179.845
 20
99.3903
 30
0.0
 70
    32
  0
VERTEX
  5
1365F
  8
0
 10
179.84
 20
99.352
 30
0.0
 70
    32
  0
VERTEX
  5
13660
  8
0
 10
179.836
 20
99.3139
 30
0.0
 70
    32
  0
VERTEX
  5
13661
  8
0
 10
179.831
 20
99.2762
 30
0.0
 70
    32
  0
VERTEX
  5
13662
  8
0
 10
179.826
 20
99.2388
 30
0.0
 70
    32
  0
VERTEX
  5
13663
  8
0
 10
179.82
 20
99.2018
 30
0.0
 70
    32
  0
VERTEX
  5
13664
  8
0
 10
179.814
 20
99.1652
 30
0.0
 70
    32
  0
VERTEX
  5
13665
  8
0
 10
179.808
 20
99.1289
 30
0.0
 70
    32
  0
VERTEX
  5
13666
  8
0
 10
179.801
 20
99.0931
 30
0.0
 70
    32
  0
VERTEX
  5
13667
  8
0
 10
179.794
 20
99.0577
 30
0.0
 70
    32
  0
VERTEX
  5
13668
  8
0
 10
179.787
 20
99.0227
 30
0.0
 70
    32
  0
VERTEX
  5
13669
  8
0
 10
179.779
 20
98.9883
 30
0.0
 70
    32
  0
VERTEX
  5
1366A
  8
0
 10
179.771
 20
98.9543
 30
0.0
 70
    32
  0
VERTEX
  5
1366B
  8
0
 10
179.763
 20
98.9209
 30
0.0
 70
    32
  0
VERTEX
  5
1366C
  8
0
 10
179.754
 20
98.888
 30
0.0
 70
    32
  0
VERTEX
  5
1366D
  8
0
 10
179.745
 20
98.8557
 30
0.0
 70
    32
  0
VERTEX
  5
1366E
  8
0
 10
179.736
 20
98.8239
 30
0.0
 70
    32
  0
VERTEX
  5
1366F
  8
0
 10
179.727
 20
98.7928
 30
0.0
 70
    32
  0
VERTEX
  5
13670
  8
0
 10
179.717
 20
98.7623
 30
0.0
 70
    32
  0
VERTEX
  5
13671
  8
0
 10
179.707
 20
98.7324
 30
0.0
 70
    32
  0
VERTEX
  5
13672
  8
0
 10
179.696
 20
98.7032
 30
0.0
 70
    32
  0
VERTEX
  5
13673
  8
0
 10
179.686
 20
98.6746
 30
0.0
 70
    32
  0
VERTEX
  5
13674
  8
0
 10
179.675
 20
98.6468
 30
0.0
 70
    32
  0
VERTEX
  5
13675
  8
0
 10
179.664
 20
98.6196
 30
0.0
 70
    32
  0
VERTEX
  5
13676
  8
0
 10
179.652
 20
98.5932
 30
0.0
 70
    32
  0
VERTEX
  5
13677
  8
0
 10
179.641
 20
98.5675
 30
0.0
 70
    32
  0
VERTEX
  5
13678
  8
0
 10
179.629
 20
98.5426
 30
0.0
 70
    32
  0
VERTEX
  5
13679
  8
0
 10
179.617
 20
98.5185
 30
0.0
 70
    32
  0
VERTEX
  5
1367A
  8
0
 10
179.604
 20
98.4951
 30
0.0
 70
    32
  0
VERTEX
  5
1367B
  8
0
 10
179.592
 20
98.4725
 30
0.0
 70
    32
  0
VERTEX
  5
1367C
  8
0
 10
179.579
 20
98.4508
 30
0.0
 70
    32
  0
VERTEX
  5
1367D
  8
0
 10
179.566
 20
98.4299
 30
0.0
 70
    32
  0
VERTEX
  5
1367E
  8
0
 10
179.553
 20
98.4098
 30
0.0
 70
    32
  0
VERTEX
  5
1367F
  8
0
 10
179.54
 20
98.3905
 30
0.0
 70
    32
  0
VERTEX
  5
13680
  8
0
 10
179.526
 20
98.3722
 30
0.0
 70
    32
  0
VERTEX
  5
13681
  8
0
 10
179.513
 20
98.3547
 30
0.0
 70
    32
  0
VERTEX
  5
13682
  8
0
 10
179.499
 20
98.3381
 30
0.0
 70
    32
  0
VERTEX
  5
13683
  8
0
 10
179.485
 20
98.3224
 30
0.0
 70
    32
  0
VERTEX
  5
13684
  8
0
 10
179.471
 20
98.3076
 30
0.0
 70
    32
  0
VERTEX
  5
13685
  8
0
 10
179.456
 20
98.2937
 30
0.0
 70
    32
  0
VERTEX
  5
13686
  8
0
 10
179.442
 20
98.2807
 30
0.0
 70
    32
  0
VERTEX
  5
13687
  8
0
 10
179.428
 20
98.2686
 30
0.0
 70
    32
  0
VERTEX
  5
13688
  8
0
 10
179.413
 20
98.2575
 30
0.0
 70
    32
  0
VERTEX
  5
13689
  8
0
 10
179.398
 20
98.2474
 30
0.0
 70
    32
  0
VERTEX
  5
1368A
  8
0
 10
179.384
 20
98.2382
 30
0.0
 70
    32
  0
VERTEX
  5
1368B
  8
0
 10
179.369
 20
98.2299
 30
0.0
 70
    32
  0
VERTEX
  5
1368C
  8
0
 10
179.354
 20
98.2226
 30
0.0
 70
    32
  0
VERTEX
  5
1368D
  8
0
 10
179.339
 20
98.2163
 30
0.0
 70
    32
  0
VERTEX
  5
1368E
  8
0
 10
179.324
 20
98.2109
 30
0.0
 70
    32
  0
VERTEX
  5
1368F
  8
0
 10
179.309
 20
98.2065
 30
0.0
 70
    32
  0
VERTEX
  5
13690
  8
0
 10
179.293
 20
98.2031
 30
0.0
 70
    32
  0
VERTEX
  5
13691
  8
0
 10
179.278
 20
98.2006
 30
0.0
 70
    32
  0
VERTEX
  5
13692
  8
0
 10
179.263
 20
98.1992
 30
0.0
 70
    32
  0
VERTEX
  5
13693
  8
0
 10
179.248
 20
98.1987
 30
0.0
 70
    32
  0
SEQEND
  5
13694
  8
0
  0
POLYLINE
  5
13695
  8
HIDDEN
 66
     1
 10
0.0
 20
0.0
 30
0.0
 70
     8
  0
VERTEX
  5
13696
  8
0
 10
179.248
 20
98.1987
 30
0.0
 70
    32
  0
VERTEX
  5
13697
  8
0
 10
179.278
 20
98.1967
 30
0.0
 70
    32
  0
VERTEX
  5
13698
  8
0
 10
179.309
 20
98.1908
 30
0.0
 70
    32
  0
VERTEX
  5
13699
  8
0
 10
179.339
 20
98.1811
 30
0.0
 70
    32
  0
VERTEX
  5
1369A
  8
0
 10
179.369
 20
98.1674
 30
0.0
 70
    32
  0
VERTEX
  5
1369B
  8
0
 10
179.398
 20
98.15
 30
0.0
 70
    32
  0
VERTEX
  5
1369C
  8
0
 10
179.428
 20
98.1287
 30
0.0
 70
    32
  0
VERTEX
  5
1369D
  8
0
 10
179.456
 20
98.1037
 30
0.0
 70
    32
  0
VERTEX
  5
1369E
  8
0
 10
179.485
 20
98.075
 30
0.0
 70
    32
  0
VERTEX
  5
1369F
  8
0
 10
179.513
 20
98.0427
 30
0.0
 70
    32
  0
VERTEX
  5
136A0
  8
0
 10
179.54
 20
98.0068
 30
0.0
 70
    32
  0
VERTEX
  5
136A1
  8
0
 10
179.566
 20
97.9675
 30
0.0
 70
    32
  0
VERTEX
  5
136A2
  8
0
 10
179.592
 20
97.9248
 30
0.0
 70
    32
  0
VERTEX
  5
136A3
  8
0
 10
179.617
 20
97.8789
 30
0.0
 70
    32
  0
VERTEX
  5
136A4
  8
0
 10
179.641
 20
97.8298
 30
0.0
 70
    32
  0
VERTEX
  5
136A5
  8
0
 10
179.664
 20
97.7777
 30
0.0
 70
    32
  0
VERTEX
  5
136A6
  8
0
 10
179.686
 20
97.7227
 30
0.0
 70
    32
  0
VERTEX
  5
136A7
  8
0
 10
179.707
 20
97.665
 30
0.0
 70
    32
  0
VERTEX
  5
136A8
  8
0
 10
179.727
 20
97.6046
 30
0.0
 70
    32
  0
VERTEX
  5
136A9
  8
0
 10
179.745
 20
97.5417
 30
0.0
 70
    32
  0
VERTEX
  5
136AA
  8
0
 10
179.763
 20
97.4765
 30
0.0
 70
    32
  0
VERTEX
  5
136AB
  8
0
 10
179.779
 20
97.4091
 30
0.0
 70
    32
  0
VERTEX
  5
136AC
  8
0
 10
179.794
 20
97.3397
 30
0.0
 70
    32
  0
VERTEX
  5
136AD
  8
0
 10
179.808
 20
97.2684
 30
0.0
 70
    32
  0
VERTEX
  5
136AE
  8
0
 10
179.82
 20
97.1955
 30
0.0
 70
    32
  0
VERTEX
  5
136AF
  8
0
 10
179.831
 20
97.1211
 30
0.0
 70
    32
  0
VERTEX
  5
136B0
  8
0
 10
179.84
 20
97.0454
 30
0.0
 70
    32
  0
VERTEX
  5
136B1
  8
0
 10
179.849
 20
96.9685
 30
0.0
 70
    32
  0
VERTEX
  5
136B2
  8
0
 10
179.855
 20
96.8907
 30
0.0
 70
    32
  0
VERTEX
  5
136B3
  8
0
 10
179.86
 20
96.8121
 30
0.0
 70
    32
  0
VERTEX
  5
136B4
  8
0
 10
179.864
 20
96.7329
 30
0.0
 70
    32
  0
VERTEX
  5
136B5
  8
0
 10
179.866
 20
96.6534
 30
0.0
 70
    32
  0
VERTEX
  5
136B6
  8
0
 10
179.867
 20
96.5737
 30
0.0
 70
    32
  0
VERTEX
  5
136B7
  8
0
 10
179.866
 20
96.4939
 30
0.0
 70
    32
  0
VERTEX
  5
136B8
  8
0
 10
179.864
 20
96.4144
 30
0.0
 70
    32
  0
VERTEX
  5
136B9
  8
0
 10
179.86
 20
96.3352
 30
0.0
 70
    32
  0
VERTEX
  5
136BA
  8
0
 10
179.855
 20
96.2566
 30
0.0
 70
    32
  0
VERTEX
  5
136BB
  8
0
 10
179.849
 20
96.1788
 30
0.0
 70
    32
  0
VERTEX
  5
136BC
  8
0
 10
179.84
 20
96.102
 30
0.0
 70
    32
  0
VERTEX
  5
136BD
  8
0
 10
179.831
 20
96.0262
 30
0.0
 70
    32
  0
VERTEX
  5
136BE
  8
0
 10
179.82
 20
95.9518
 30
0.0
 70
    32
  0
VERTEX
  5
136BF
  8
0
 10
179.808
 20
95.8789
 30
0.0
 70
    32
  0
VERTEX
  5
136C0
  8
0
 10
179.794
 20
95.8077
 30
0.0
 70
    32
  0
VERTEX
  5
136C1
  8
0
 10
179.779
 20
95.7383
 30
0.0
 70
    32
  0
VERTEX
  5
136C2
  8
0
 10
179.763
 20
95.6709
 30
0.0
 70
    32
  0
VERTEX
  5
136C3
  8
0
 10
179.745
 20
95.6057
 30
0.0
 70
    32
  0
VERTEX
  5
136C4
  8
0
 10
179.727
 20
95.5428
 30
0.0
 70
    32
  0
VERTEX
  5
136C5
  8
0
 10
179.707
 20
95.4824
 30
0.0
 70
    32
  0
VERTEX
  5
136C6
  8
0
 10
179.686
 20
95.4246
 30
0.0
 70
    32
  0
VERTEX
  5
136C7
  8
0
 10
179.664
 20
95.3696
 30
0.0
 70
    32
  0
VERTEX
  5
136C8
  8
0
 10
179.641
 20
95.3175
 30
0.0
 70
    32
  0
VERTEX
  5
136C9
  8
0
 10
179.617
 20
95.2685
 30
0.0
 70
    32
  0
VERTEX
  5
136CA
  8
0
 10
179.592
 20
95.2225
 30
0.0
 70
    32
  0
VERTEX
  5
136CB
  8
0
 10
179.566
 20
95.1799
 30
0.0
 70
    32
  0
VERTEX
  5
136CC
  8
0
 10
179.54
 20
95.1405
 30
0.0
 70
    32
  0
VERTEX
  5
136CD
  8
0
 10
179.513
 20
95.1047
 30
0.0
 70
    32
  0
VERTEX
  5
136CE
  8
0
 10
179.485
 20
95.0724
 30
0.0
 70
    32
  0
VERTEX
  5
136CF
  8
0
 10
179.456
 20
95.0437
 30
0.0
 70
    32
  0
VERTEX
  5
136D0
  8
0
 10
179.428
 20
95.0186
 30
0.0
 70
    32
  0
VERTEX
  5
136D1
  8
0
 10
179.398
 20
94.9974
 30
0.0
 70
    32
  0
VERTEX
  5
136D2
  8
0
 10
179.369
 20
94.9799
 30
0.0
 70
    32
  0
VERTEX
  5
136D3
  8
0
 10
179.339
 20
94.9663
 30
0.0
 70
    32
  0
VERTEX
  5
136D4
  8
0
 10
179.309
 20
94.9565
 30
0.0
 70
    32
  0
VERTEX
  5
136D5
  8
0
 10
179.278
 20
94.9506
 30
0.0
 70
    32
  0
VERTEX
  5
136D6
  8
0
 10
179.248
 20
94.9487
 30
0.0
 70
    32
  0
VERTEX
  5
136D7
  8
0
 10
179.218
 20
94.9506
 30
0.0
 70
    32
  0
VERTEX
  5
136D8
  8
0
 10
179.187
 20
94.9565
 30
0.0
 70
    32
  0
VERTEX
  5
136D9
  8
0
 10
179.157
 20
94.9663
 30
0.0
 70
    32
  0
VERTEX
  5
136DA
  8
0
 10
179.127
 20
94.9799
 30
0.0
 70
    32
  0
VERTEX
  5
136DB
  8
0
 10
179.097
 20
94.9974
 30
0.0
 70
    32
  0
VERTEX
  5
136DC
  8
0
 10
179.068
 20
95.0186
 30
0.0
 70
    32
  0
VERTEX
  5
136DD
  8
0
 10
179.039
 20
95.0437
 30
0.0
 70
    32
  0
VERTEX
  5
136DE
  8
0
 10
179.011
 20
95.0724
 30
0.0
 70
    32
  0
VERTEX
  5
136DF
  8
0
 10
178.983
 20
95.1047
 30
0.0
 70
    32
  0
VERTEX
  5
136E0
  8
0
 10
178.956
 20
95.1405
 30
0.0
 70
    32
  0
VERTEX
  5
136E1
  8
0
 10
178.93
 20
95.1799
 30
0.0
 70
    32
  0
VERTEX
  5
136E2
  8
0
 10
178.904
 20
95.2225
 30
0.0
 70
    32
  0
VERTEX
  5
136E3
  8
0
 10
178.879
 20
95.2685
 30
0.0
 70
    32
  0
VERTEX
  5
136E4
  8
0
 10
178.855
 20
95.3175
 30
0.0
 70
    32
  0
VERTEX
  5
136E5
  8
0
 10
178.832
 20
95.3696
 30
0.0
 70
    32
  0
VERTEX
  5
136E6
  8
0
 10
178.81
 20
95.4246
 30
0.0
 70
    32
  0
VERTEX
  5
136E7
  8
0
 10
178.789
 20
95.4824
 30
0.0
 70
    32
  0
VERTEX
  5
136E8
  8
0
 10
178.769
 20
95.5428
 30
0.0
 70
    32
  0
VERTEX
  5
136E9
  8
0
 10
178.751
 20
95.6057
 30
0.0
 70
    32
  0
VERTEX
  5
136EA
  8
0
 10
178.733
 20
95.6709
 30
0.0
 70
    32
  0
VERTEX
  5
136EB
  8
0
 10
178.717
 20
95.7383
 30
0.0
 70
    32
  0
VERTEX
  5
136EC
  8
0
 10
178.702
 20
95.8077
 30
0.0
 70
    32
  0
VERTEX
  5
136ED
  8
0
 10
178.688
 20
95.8789
 30
0.0
 70
    32
  0
VERTEX
  5
136EE
  8
0
 10
178.676
 20
95.9518
 30
0.0
 70
    32
  0
VERTEX
  5
136EF
  8
0
 10
178.665
 20
96.0262
 30
0.0
 70
    32
  0
VERTEX
  5
136F0
  8
0
 10
178.655
 20
96.102
 30
0.0
 70
    32
  0
VERTEX
  5
136F1
  8
0
 10
178.647
 20
96.1788
 30
0.0
 70
    32
  0
VERTEX
  5
136F2
  8
0
 10
178.641
 20
96.2566
 30
0.0
 70
    32
  0
VERTEX
  5
136F3
  8
0
 10
178.635
 20
96.3352
 30
0.0
 70
    32
  0
VERTEX
  5
136F4
  8
0
 10
178.632
 20
96.4144
 30
0.0
 70
    32
  0
VERTEX
  5
136F5
  8
0
 10
178.629
 20
96.4939
 30
0.0
 70
    32
  0
VERTEX
  5
136F6
  8
0
 10
178.629
 20
96.5737
 30
0.0
 70
    32
  0
VERTEX
  5
136F7
  8
0
 10
178.629
 20
96.6534
 30
0.0
 70
    32
  0
VERTEX
  5
136F8
  8
0
 10
178.632
 20
96.7329
 30
0.0
 70
    32
  0
VERTEX
  5
136F9
  8
0
 10
178.635
 20
96.8121
 30
0.0
 70
    32
  0
VERTEX
  5
136FA
  8
0
 10
178.641
 20
96.8907
 30
0.0
 70
    32
  0
VERTEX
  5
136FB
  8
0
 10
178.647
 20
96.9685
 30
0.0
 70
    32
  0
VERTEX
  5
136FC
  8
0
 10
178.655
 20
97.0454
 30
0.0
 70
    32
  0
VERTEX
  5
136FD
  8
0
 10
178.665
 20
97.1211
 30
0.0
 70
    32
  0
VERTEX
  5
136FE
  8
0
 10
178.676
 20
97.1955
 30
0.0
 70
    32
  0
VERTEX
  5
136FF
  8
0
 10
178.688
 20
97.2684
 30
0.0
 70
    32
  0
VERTEX
  5
13700
  8
0
 10
178.702
 20
97.3397
 30
0.0
 70
    32
  0
VERTEX
  5
13701
  8
0
 10
178.717
 20
97.4091
 30
0.0
 70
    32
  0
VERTEX
  5
13702
  8
0
 10
178.733
 20
97.4765
 30
0.0
 70
    32
  0
VERTEX
  5
13703
  8
0
 10
178.751
 20
97.5417
 30
0.0
 70
    32
  0
VERTEX
  5
13704
  8
0
 10
178.769
 20
97.6046
 30
0.0
 70
    32
  0
VERTEX
  5
13705
  8
0
 10
178.789
 20
97.665
 30
0.0
 70
    32
  0
VERTEX
  5
13706
  8
0
 10
178.81
 20
97.7227
 30
0.0
 70
    32
  0
VERTEX
  5
13707
  8
0
 10
178.832
 20
97.7777
 30
0.0
 70
    32
  0
VERTEX
  5
13708
  8
0
 10
178.855
 20
97.8298
 30
0.0
 70
    32
  0
VERTEX
  5
13709
  8
0
 10
178.879
 20
97.8789
 30
0.0
 70
    32
  0
VERTEX
  5
1370A
  8
0
 10
178.904
 20
97.9248
 30
0.0
 70
    32
  0
VERTEX
  5
1370B
  8
0
 10
178.93
 20
97.9675
 30
0.0
 70
    32
  0
VERTEX
  5
1370C
  8
0
 10
178.956
 20
98.0068
 30
0.0
 70
    32
  0
VERTEX
  5
1370D
  8
0
 10
178.983
 20
98.0427
 30
0.0
 70
    32
  0
VERTEX
  5
1370E
  8
0
 10
179.011
 20
98.075
 30
0.0
 70
    32
  0
VERTEX
  5
1370F
  8
0
 10
179.039
 20
98.1037
 30
0.0
 70
    32
  0
VERTEX
  5
13710
  8
0
 10
179.068
 20
98.1287
 30
0.0
 70
    32
  0
VERTEX
  5
13711
  8
0
 10
179.097
 20
98.15
 30
0.0
 70
    32
  0
VERTEX
  5
13712
  8
0
 10
179.127
 20
98.1674
 30
0.0
 70
    32
  0
VERTEX
  5
13713
  8
0
 10
179.157
 20
98.1811
 30
0.0
 70
    32
  0
VERTEX
  5
13714
  8
0
 10
179.187
 20
98.1908
 30
0.0
 70
    32
  0
VERTEX
  5
13715
  8
0
 10
179.218
 20
98.1967
 30
0.0
 70
    32
  0
VERTEX
  5
13716
  8
0
 10
179.248
 20
98.1987
 30
0.0
 70
    32
  0
SEQEND
  5
13717
  8
0
  0
LINE
  5
13718
  8
HIDDEN
 10
248.748431
 20
91.64867
 30
0.0
 11
259.648431
 21
91.64867
 31
0.0
  0
LINE
  5
13719
  8
HIDDEN
 10
242.448431
 20
102.84867
 30
0.0
 11
265.948431
 21
102.84867
 31
0.0
  0
LINE
  5
1371A
  8
HIDDEN
 10
244.748431
 20
102.84867
 30
0.0
 11
244.748431
 21
95.64867
 31
0.0
  0
LINE
  5
1371B
  8
HIDDEN
 10
241.948431
 20
105.34867
 30
0.0
 11
241.948431
 21
103.34867
 31
0.0
  0
ARC
  5
1371C
  8
HIDDEN
 10
242.448431
 20
103.34867
 30
0.0
 40
0.5
 50
180.0
 51
270.0
  0
LINE
  5
1371D
  8
HIDDEN
 10
263.648431
 20
100.598536
 30
0.0
 11
263.648431
 21
95.64867
 31
0.0
  0
LINE
  5
1371E
  8
HIDDEN
 10
269.033991
 20
92.748672
 30
0.0
 11
262.398539
 21
92.74867
 31
0.0
  0
LINE
  5
1371F
  8
HIDDEN
 10
262.048431
 20
102.04867
 30
0.0
 11
262.048431
 21
102.84867
 31
0.0
  0
ARC
  5
13720
  8
HIDDEN
 10
265.948431
 20
103.34867
 30
0.0
 40
0.5
 50
270.0
 51
0.0
  0
LINE
  5
13721
  8
HIDDEN
 10
266.448431
 20
105.34867
 30
0.0
 11
266.448431
 21
103.34867
 31
0.0
  0
ARC
  5
13722
  8
HIDDEN
 10
276.188266
 20
101.24867
 30
0.0
 40
1.5
 50
270.0
 51
0.0
  0
LINE
  5
13723
  8
HIDDEN
 10
270.547746
 20
92.981837
 30
0.0
 11
270.547846
 21
92.981868
 31
0.0
  0
LINE
  5
13724
  8
HIDDEN
 10
272.968237
 20
99.74867
 30
0.0
 11
276.188304
 21
99.74867
 31
0.0
  0
LINE
  5
13725
  8
HIDDEN
 10
272.495276
 20
95.11383
 30
0.0
 11
272.495305
 21
95.113888
 31
0.0
  0
LINE
  5
13726
  8
HIDDEN
 10
272.939716
 20
96.706909
 30
0.0
 11
272.939708
 21
96.706824
 31
0.0
  0
LINE
  5
13727
  8
HIDDEN
 10
272.961103
 20
96.961011
 30
0.0
 11
272.961108
 21
96.961063
 31
0.0
  0
LINE
  5
13728
  8
HIDDEN
 10
272.968237
 20
99.74867
 30
0.0
 11
272.968237
 21
97.137045
 31
0.0
  0
LINE
  5
13729
  8
HIDDEN
 10
277.697647
 20
105.74867
 30
0.0
 11
277.785136
 21
106.74867
 31
0.0
  0
LINE
  5
1372A
  8
HIDDEN
 10
277.688266
 20
101.24867
 30
0.0
 11
277.688266
 21
105.74867
 31
0.0
  0
POLYLINE
  5
1372B
  8
HIDDEN
 66
     1
 10
0.0
 20
0.0
 30
0.0
 70
     2
  0
VERTEX
  5
1372C
  8
HIDDEN
 10
35.4263
 20
92.7487
 30
0.0
 42
-0.020815
  0
VERTEX
  5
1372D
  8
HIDDEN
 10
34.928611
 20
92.770157
 30
0.0
 42
-0.029218
 70
     1
  0
VERTEX
  5
1372E
  8
HIDDEN
 10
34.5772
 20
92.8208
 30
0.0
 42
-0.009026
  0
VERTEX
  5
1372F
  8
HIDDEN
 10
34.057957
 20
92.936694
 30
0.0
 42
-0.026408
 70
     1
  0
VERTEX
  5
13730
  8
HIDDEN
 10
33.883625
 20
92.988803
 30
0.0
 42
-0.068389
  0
VERTEX
  5
13731
  8
HIDDEN
 10
33.554897
 20
93.159867
 30
0.0
 42
-0.038408
 70
     1
  0
VERTEX
  5
13732
  8
HIDDEN
 10
33.048951
 20
93.580141
 30
0.0
 42
-0.030482
  0
VERTEX
  5
13733
  8
HIDDEN
 10
32.573082
 20
94.1014
 30
0.0
 42
-0.036617
 70
     1
  0
VERTEX
  5
13734
  8
HIDDEN
 10
32.2384
 20
94.584605
 30
0.0
 42
-0.022178
  0
VERTEX
  5
13735
  8
HIDDEN
 10
31.943961
 20
95.139006
 30
0.0
 42
-0.030821
 70
     1
  0
VERTEX
  5
13736
  8
HIDDEN
 10
31.7754
 20
95.5583
 30
0.0
 42
-0.018945
  0
VERTEX
  5
13737
  8
HIDDEN
 10
31.696602
 20
95.829536
 30
0.0
 42
-0.008509
 70
     1
  0
VERTEX
  5
13738
  8
HIDDEN
 10
31.5546
 20
96.442
 30
0.0
 42
-0.034157
  0
VERTEX
  5
13739
  8
HIDDEN
 10
31.518157
 20
96.695967
 30
0.0
 42
-0.018835
 70
     1
  0
VERTEX
  5
1373A
  8
HIDDEN
 10
31.501158
 20
97.160571
 30
0.0
  0
SEQEND
  5
1373B
  8
HIDDEN
  0
POLYLINE
  5
1373C
  8
HIDDEN
 66
     1
 10
0.0
 20
0.0
 30
0.0
 70
     2
  0
VERTEX
  5
1373D
  8
HIDDEN
 10
42.5136
 20
92.7493
 30
0.0
 42
0.027454
  0
VERTEX
  5
1373E
  8
HIDDEN
 10
43.076795
 20
92.774494
 30
0.0
 42
0.036283
 70
     1
  0
VERTEX
  5
1373F
  8
HIDDEN
 10
43.4973
 20
92.8476
 30
0.0
 42
0.01032
  0
VERTEX
  5
13740
  8
HIDDEN
 10
43.957365
 20
92.972606
 30
0.0
 42
0.023035
 70
     1
  0
VERTEX
  5
13741
  8
HIDDEN
 10
44.159376
 20
93.042253
 30
0.0
 42
0.082479
  0
VERTEX
  5
13742
  8
HIDDEN
 10
44.625057
 20
93.323081
 30
0.0
 42
0.050276
 70
     1
  0
VERTEX
  5
13743
  8
HIDDEN
 10
45.239041
 20
93.96509
 30
0.0
 42
0.030238
  0
VERTEX
  5
13744
  8
HIDDEN
 10
45.747942
 20
94.705506
 30
0.0
 42
0.041215
 70
     1
  0
VERTEX
  5
13745
  8
HIDDEN
 10
46.0404
 20
95.2968
 30
0.0
 42
0.015764
  0
VERTEX
  5
13746
  8
HIDDEN
 10
46.15475
 20
95.614579
 30
0.0
 42
0.009121
 70
     1
  0
VERTEX
  5
13747
  8
HIDDEN
 10
46.3248
 20
96.1729
 30
0.0
 42
0.042532
  0
VERTEX
  5
13748
  8
HIDDEN
 10
46.395723
 20
96.536974
 30
0.0
 42
0.026424
 70
     1
  0
VERTEX
  5
13749
  8
HIDDEN
 10
46.428237
 20
97.132455
 30
0.0
  0
SEQEND
  5
1374A
  8
HIDDEN
  0
ARC
  5
1374B
  8
HIDDEN
 10
55.74315
 20
95.619789
 30
-4.88761
 40
3.968518
 50
270.842468
 51
0.335109
  0
ARC
  5
1374C
  8
HIDDEN
 10
131.715329
 20
104.698732
 30
0.0
 40
1.64994
 50
54.263077
 51
89.920183
  0
POLYLINE
  5
1374D
  8
HIDDEN
 66
     1
 10
0.0
 20
0.0
 30
0.0
 70
     2
  0
VERTEX
  5
1374E
  8
HIDDEN
 10
135.249681
 20
105.14867
 30
0.0
 42
-0.054377
  0
VERTEX
  5
1374F
  8
HIDDEN
 10
135.547069
 20
105.113966
 30
0.0
 42
-0.07935
 70
     1
  0
VERTEX
  5
13750
  8
HIDDEN
 10
135.738
 20
105.037
 30
0.0
 42
-0.029487
  0
VERTEX
  5
13751
  8
HIDDEN
 10
136.008099
 20
104.852012
 30
0.0
 42
-0.05518
 70
     1
  0
VERTEX
  5
13752
  8
HIDDEN
 10
136.134
 20
104.73
 30
0.0
 42
-0.041699
  0
VERTEX
  5
13753
  8
HIDDEN
 10
136.315681
 20
104.468657
 30
0.0
 42
-0.043467
 70
     1
  0
VERTEX
  5
13754
  8
HIDDEN
 10
136.445
 20
104.192
 30
0.0
 42
-0.021696
  0
VERTEX
  5
13755
  8
HIDDEN
 10
136.590247
 20
103.73383
 30
0.0
 42
-0.019002
 70
     1
  0
VERTEX
  5
13756
  8
HIDDEN
 10
136.713
 20
103.199
 30
0.0
 42
-0.009653
  0
VERTEX
  5
13757
  8
HIDDEN
 10
136.839962
 20
102.451782
 30
0.0
 42
-0.012699
 70
     1
  0
VERTEX
  5
13758
  8
HIDDEN
 10
136.911
 20
101.88
 30
0.0
 42
-0.012593
  0
VERTEX
  5
13759
  8
HIDDEN
 10
136.974161
 20
101.016607
 30
0.0
 42
-0.013497
 70
     1
  0
VERTEX
  5
1375A
  8
HIDDEN
 10
136.991
 20
100.209
 30
0.0
 42
-0.00914
  0
VERTEX
  5
1375B
  8
HIDDEN
 10
136.971298
 20
99.402488
 30
0.0
 42
-0.004952
 70
     1
  0
VERTEX
  5
1375C
  8
HIDDEN
 10
136.893
 20
97.9155
 30
0.0
 42
-0.007518
  0
VERTEX
  5
1375D
  8
HIDDEN
 10
136.795531
 20
96.661083
 30
0.0
 42
-0.012322
 70
     1
  0
VERTEX
  5
1375E
  8
HIDDEN
 10
136.705747
 20
95.89867
 30
0.0
 42
-0.026733
  0
VERTEX
  5
1375F
  8
HIDDEN
 10
136.615191
 20
95.440951
 30
0.0
 42
-0.025552
 70
     1
  0
VERTEX
  5
13760
  8
HIDDEN
 10
136.471
 20
94.9746
 30
0.0
 42
-0.032331
  0
VERTEX
  5
13761
  8
HIDDEN
 10
136.331993
 20
94.659607
 30
0.0
 42
-0.042637
 70
     1
  0
VERTEX
  5
13762
  8
HIDDEN
 10
136.192
 20
94.439
 30
0.0
 42
-0.036302
  0
VERTEX
  5
13763
  8
HIDDEN
 10
136.055049
 20
94.283874
 30
0.0
 42
-0.040068
 70
     1
  0
VERTEX
  5
13764
  8
HIDDEN
 10
135.911
 20
94.1638
 30
0.0
 42
-0.036232
  0
VERTEX
  5
13765
  8
HIDDEN
 10
135.807796
 20
94.101606
 30
0.0
 42
-0.018431
 70
     1
  0
VERTEX
  5
13766
  8
HIDDEN
 10
135.593
 20
94.0023
 30
0.0
 42
-0.060384
  0
VERTEX
  5
13767
  8
HIDDEN
 10
135.461262
 20
93.965048
 30
0.0
 42
-0.038872
 70
     1
  0
VERTEX
  5
13768
  8
HIDDEN
 10
135.249681
 20
93.94867
 30
0.0
  0
SEQEND
  5
13769
  8
HIDDEN
  0
ARC
  5
1376A
  8
HIDDEN
 10
131.728983
 20
94.361677
 30
0.0
 40
1.612378
 50
269.965074
 51
306.414611
  0
ARC
  5
1376B
  8
HIDDEN
 10
145.358371
 20
97.662771
 30
14.1169
 40
6.012387
 50
180.134092
 51
269.643868
  0
POLYLINE
  5
1376C
  8
HIDDEN
 66
     1
 10
0.0
 20
0.0
 30
0.0
  0
VERTEX
  5
13D26
  8
HIDDEN
 10
160.689674
 20
104.745158
 30
0.0
  0
VERTEX
  5
13D27
  8
HIDDEN
 10
161.141
 20
104.487
 30
0.0
  0
SEQEND
  5
13D28
  8
HIDDEN
  0
POLYLINE
  5
13770
  8
HIDDEN
 66
     1
 10
0.0
 20
0.0
 30
0.0
  0
VERTEX
  5
13D29
  8
HIDDEN
 10
160.676
 20
91.6494
 30
0.0
  0
VERTEX
  5
13D2A
  8
HIDDEN
 10
161.226
 20
91.9605
 30
0.0
  0
SEQEND
  5
13D2B
  8
HIDDEN
  0
ARC
  5
13774
  8
HIDDEN
 10
248.805688
 20
95.705928
 30
0.0
 40
4.057662
 50
180.808525
 51
269.191475
  0
ARC
  5
13775
  8
HIDDEN
 10
259.596739
 20
95.703665
 30
8.76388
 40
4.055289
 50
270.724273
 51
359.442994
  0
POLYLINE
  5
13776
  8
HIDDEN
 66
     1
 10
0.0
 20
0.0
 30
0.0
 70
     2
  0
VERTEX
  5
13777
  8
HIDDEN
 10
269.05
 20
92.7493
 30
0.0
 42
0.057201
  0
VERTEX
  5
13778
  8
HIDDEN
 10
269.855046
 20
92.767912
 30
0.0
 42
0.0818
 70
     1
  0
VERTEX
  5
13779
  8
HIDDEN
 10
270.394727
 20
92.935227
 30
0.0
 42
0.016924
  0
VERTEX
  5
1377A
  8
HIDDEN
 10
271.002088
 20
93.265227
 30
0.0
 42
0.039329
 70
     1
  0
VERTEX
  5
1377B
  8
HIDDEN
 10
271.246172
 20
93.435885
 30
0.0
 42
0.034227
  0
VERTEX
  5
1377C
  8
HIDDEN
 10
271.731045
 20
93.894174
 30
0.0
 42
0.040627
 70
     1
  0
VERTEX
  5
1377D
  8
HIDDEN
 10
272.077583
 20
94.33707
 30
0.0
 42
0.027632
  0
VERTEX
  5
1377E
  8
HIDDEN
 10
272.405744
 20
94.900396
 30
0.0
 42
0.032546
 70
     1
  0
VERTEX
  5
1377F
  8
HIDDEN
 10
272.625
 20
95.4088
 30
0.0
 42
0.018165
  0
VERTEX
  5
13780
  8
HIDDEN
 10
272.733381
 20
95.752136
 30
0.0
 42
0.00971
 70
     1
  0
VERTEX
  5
13781
  8
HIDDEN
 10
272.9
 20
96.4046
 30
0.0
 42
0.034442
  0
VERTEX
  5
13782
  8
HIDDEN
 10
272.941254
 20
96.657415
 30
0.0
 42
0.01835
 70
     1
  0
VERTEX
  5
13783
  8
HIDDEN
 10
272.968237
 20
97.137045
 30
0.0
  0
SEQEND
  5
13784
  8
HIDDEN
  0
ARC
  5
13785
  8
0
 62
     5
 10
278.398633
 20
146.548872
 30
0.0
 40
2.499798
 50
359.99861
 51
90.00139
  0
ARC
  5
13786
  8
0
 62
     5
 10
248.984993
 20
148.030273
 30
0.0
 40
1.018411
 50
89.696151
 51
135.137372
  0
ARC
  5
13787
  8
0
 62
     5
 10
241.301507
 20
140.355071
 30
0.0
 40
1.003077
 50
134.500788
 51
179.906601
  0
ARC
  5
13788
  8
0
 62
     5
 10
241.335343
 20
140.43891
 30
0.0
 40
1.036912
 50
135.290211
 51
180.026328
  0
ARC
  5
13789
  8
0
 62
     5
 10
241.297288
 20
141.948685
 30
0.0
 40
0.998858
 50
134.399476
 51
180.031026
  0
ARC
  5
1378A
  8
0
  6
BYBLOCK
 62
     5
 10
257.696152
 20
105.707571
 30
0.0
 40
0.060046
 50
281.203785
 51
307.600102
  0
ARC
  5
1378B
  8
0
  6
BYBLOCK
 62
     5
 10
256.937673
 20
106.525108
 30
0.0
 40
1.175
 50
312.585846
 51
324.85188
  0
ARC
  5
1378C
  8
0
  6
BYBLOCK
 62
     5
 10
250.701091
 20
105.709296
 30
0.0
 40
0.061811
 50
228.493451
 51
258.760393
  0
ARC
  5
1378D
  8
0
  6
BYBLOCK
 62
     5
 10
251.649507
 20
106.687918
 30
0.0
 40
1.42454
 50
216.095725
 51
226.010596
  0
ARC
  5
1378E
  8
0
  6
BYBLOCK
 62
     5
 10
240.804798
 20
105.849157
 30
0.0
 40
0.500488
 50
180.055794
 51
269.944206
  0
ARC
  5
1378F
  8
0
 62
     5
 10
273.182802
 20
108.760265
 30
0.0
 40
0.993343
 50
269.73999
 51
359.331204
  0
ARC
  5
13790
  8
0
 62
     5
 10
272.226355
 20
109.361562
 30
0.0
 40
1.000473
 50
269.926202
 51
322.222052
  0
ARC
  5
13791
  8
0
 62
     5
 10
272.206848
 20
109.446951
 30
0.0
 40
0.998281
 50
269.978172
 51
315.614439
  0
ARC
  5
13792
  8
0
 62
     5
 10
268.29904
 20
107.954501
 30
0.0
 40
0.500077
 50
90.008827
 51
180.002534
  0
ARC
  5
13793
  8
DEFPOINTS
  6
BYBLOCK
 10
279.860408
 20
117.058887
 30
0.0
 40
1.038023
 50
315.315441
 51
0.001099
  0
ARC
  5
13794
  8
DEFPOINTS
  6
BYBLOCK
 10
279.90015
 20
117.140253
 30
0.0
 40
0.998281
 50
314.385561
 51
0.021828
  0
ENDSEC
  0
EOF
