  0
SECTION
  2
HEADER
  9
$ACADVER
  1
AC1012
  9
$DWGCODEPAGE
  3
dos932
  9
$INSBASE
 10
-204.223222
 20
588.672058
 30
0.0
  9
$EXTMIN
 10
0.0
 20
0.0
 30
0.0
  9
$EXTMAX
 10
604.310718
 20
430.0
 30
0.0
  9
$LIMMIN
 10
0.0
 20
0.0
  9
$LIMMAX
 10
420.0
 20
297.0
  9
$ORTHOMODE
 70
     1
  9
$REGENMODE
 70
     1
  9
$FILLMODE
 70
     1
  9
$QTEXTMODE
 70
     0
  9
$MIRRTEXT
 70
     1
  9
$DRAGMODE
 70
     2
  9
$LTSCALE
 40
1.0
  9
$OSMODE
 70
    39
  9
$ATTMODE
 70
     1
  9
$TEXTSIZE
 40
2.5
  9
$TRACEWID
 40
1.0
  9
$TEXTSTYLE
  7
STANDARD
  9
$CLAYER
  8
10
  9
$CELTYPE
  6
BYLAYER
  9
$CECOLOR
 62
   256
  9
$CELTSCALE
 40
1.0
  9
$DELOBJ
 70
     1
  9
$DISPSILH
 70
     0
  9
$DIMSCALE
 40
1.0
  9
$DIMASZ
 40
2.5
  9
$DIMEXO
 40
0.625
  9
$DIMDLI
 40
3.75
  9
$DIMRND
 40
0.0
  9
$DIMDLE
 40
0.0
  9
$DIMEXE
 40
1.25
  9
$DIMTP
 40
0.0
  9
$DIMTM
 40
0.0
  9
$DIMTXT
 40
2.5
  9
$DIMCEN
 40
2.5
  9
$DIMTSZ
 40
0.0
  9
$DIMTOL
 70
     0
  9
$DIMLIM
 70
     0
  9
$DIMTIH
 70
     0
  9
$DIMTOH
 70
     0
  9
$DIMSE1
 70
     0
  9
$DIMSE2
 70
     0
  9
$DIMTAD
 70
     1
  9
$DIMZIN
 70
     8
  9
$DIMBLK
  1

  9
$DIMASO
 70
     1
  9
$DIMSHO
 70
     1
  9
$DIMPOST
  1

  9
$DIMAPOST
  1

  9
$DIMALT
 70
     0
  9
$DIMALTD
 70
     4
  9
$DIMALTF
 40
0.0394
  9
$DIMLFAC
 40
1.0
  9
$DIMTOFL
 70
     1
  9
$DIMTVP
 40
0.0
  9
$DIMTIX
 70
     0
  9
$DIMSOXD
 70
     0
  9
$DIMSAH
 70
     0
  9
$DIMBLK1
  1

  9
$DIMBLK2
  1

  9
$DIMSTYLE
  2
STANDARD
  9
$DIMCLRD
 70
   256
  9
$DIMCLRE
 70
   256
  9
$DIMCLRT
 70
   256
  9
$DIMTFAC
 40
1.0
  9
$DIMGAP
 40
0.625
  9
$DIMJUST
 70
     0
  9
$DIMSD1
 70
     0
  9
$DIMSD2
 70
     0
  9
$DIMTOLJ
 70
     1
  9
$DIMTZIN
 70
     0
  9
$DIMALTZ
 70
     0
  9
$DIMALTTZ
 70
     0
  9
$DIMFIT
 70
     0
  9
$DIMUPT
 70
     0
  9
$DIMUNIT
 70
     8
  9
$DIMDEC
 70
     4
  9
$DIMTDEC
 70
     4
  9
$DIMALTU
 70
     8
  9
$DIMALTTD
 70
     4
  9
$DIMTXSTY
  7
STANDARD
  9
$DIMAUNIT
 70
     1
  9
$LUNITS
 70
     2
  9
$LUPREC
 70
     4
  9
$SKETCHINC
 40
1.0
  9
$FILLETRAD
 40
0.0
  9
$AUNITS
 70
     0
  9
$AUPREC
 70
     0
  9
$MENU
  1
acad
  9
$ELEVATION
 40
0.0
  9
$PELEVATION
 40
0.0
  9
$THICKNESS
 40
0.0
  9
$LIMCHECK
 70
     0
  9
$BLIPMODE
 70
     0
  9
$CHAMFERA
 40
0.0
  9
$CHAMFERB
 40
0.0
  9
$CHAMFERC
 40
20.0
  9
$CHAMFERD
 40
0.0
  9
$SKPOLY
 70
     0
  9
$TDCREATE
 40
2451661.477957870
  9
$TDUPDATE
 40
2452076.683576967
  9
$TDINDWG
 40
0.7083011574
  9
$TDUSRTIMER
 40
0.7083011574
  9
$USRTIMER
 70
     1
  9
$ANGBASE
 50
0.0
  9
$ANGDIR
 70
     0
  9
$PDMODE
 70
     0
  9
$PDSIZE
 40
0.0
  9
$PLINEWID
 40
0.0
  9
$COORDS
 70
     2
  9
$SPLFRAME
 70
     0
  9
$SPLINETYPE
 70
     6
  9
$SPLINESEGS
 70
     8
  9
$ATTDIA
 70
     0
  9
$ATTREQ
 70
     1
  9
$HANDLING
 70
     1
  9
$HANDSEED
  5
15AF
  9
$SURFTAB1
 70
     6
  9
$SURFTAB2
 70
     6
  9
$SURFTYPE
 70
     6
  9
$SURFU
 70
     6
  9
$SURFV
 70
     6
  9
$UCSNAME
  2

  9
$UCSORG
 10
0.0
 20
0.0
 30
0.0
  9
$UCSXDIR
 10
1.0
 20
0.0
 30
0.0
  9
$UCSYDIR
 10
0.0
 20
1.0
 30
0.0
  9
$PUCSNAME
  2

  9
$PUCSORG
 10
0.0
 20
0.0
 30
0.0
  9
$PUCSXDIR
 10
1.0
 20
0.0
 30
0.0
  9
$PUCSYDIR
 10
0.0
 20
1.0
 30
0.0
  9
$USERI1
 70
     0
  9
$USERI2
 70
     0
  9
$USERI3
 70
     0
  9
$USERI4
 70
     0
  9
$USERI5
 70
     0
  9
$USERR1
 40
0.0
  9
$USERR2
 40
0.0
  9
$USERR3
 40
0.0
  9
$USERR4
 40
0.0
  9
$USERR5
 40
0.0
  9
$WORLDVIEW
 70
     1
  9
$SHADEDGE
 70
     3
  9
$SHADEDIF
 70
    70
  9
$TILEMODE
 70
     1
  9
$MAXACTVP
 70
    48
  9
$PINSBASE
 10
0.0
 20
0.0
 30
0.0
  9
$PLIMCHECK
 70
     0
  9
$PEXTMIN
 10
1.000000E+20
 20
1.000000E+20
 30
1.000000E+20
  9
$PEXTMAX
 10
-1.000000E+20
 20
-1.000000E+20
 30
-1.000000E+20
  9
$PLIMMIN
 10
0.0
 20
0.0
  9
$PLIMMAX
 10
420.0
 20
297.0
  9
$UNITMODE
 70
     0
  9
$VISRETAIN
 70
     1
  9
$PLINEGEN
 70
     0
  9
$PSLTSCALE
 70
     1
  9
$TREEDEPTH
 70
  3020
  9
$PICKSTYLE
 70
     1
  9
$CMLSTYLE
  2
STANDARD
  9
$CMLJUST
 70
     0
  9
$CMLSCALE
 40
20.0
  9
$SAVEIMAGES
 70
     1
  0
ENDSEC
  0
SECTION
  2
CLASSES
  0
CLASS
  1
HATCH
  2
AcDbHatch
  3
"ACAD_SEDONA"
 90
    32768
280
     0
281
     1
  0
ENDSEC
  0
SECTION
  2
TABLES
  0
TABLE
  2
VPORT
  5
12
100
AcDbSymbolTable
 70
     2
  0
VPORT
  5
15AE
100
AcDbSymbolTableRecord
100
AcDbViewportTableRecord
  2
*ACTIVE
 70
     0
 10
0.0
 20
0.0
 11
1.0
 21
1.0
 12
297.537204
 22
227.273251
 13
0.0
 23
0.0
 14
10.0
 24
10.0
 15
10.0
 25
10.0
 16
0.0
 26
0.0
 36
1.0
 17
0.0
 27
0.0
 37
0.0
 40
718.716931
 41
1.554569
 42
50.0
 43
0.0
 44
0.0
 50
0.0
 51
0.0
 71
     0
 72
   100
 73
     1
 74
     0
 75
     0
 76
     0
 77
     0
 78
     0
  0
ENDTAB
  0
TABLE
  2
LTYPE
  5
D
100
AcDbSymbolTable
 70
     4
  0
LTYPE
  5
E
100
AcDbSymbolTableRecord
100
AcDbLinetypeTableRecord
  2
BYBLOCK
 70
     0
  3

 72
    65
 73
     0
 40
0.0
  0
LTYPE
  5
F
100
AcDbSymbolTableRecord
100
AcDbLinetypeTableRecord
  2
BYLAYER
 70
     0
  3

 72
    65
 73
     0
 40
0.0
  0
LTYPE
  5
5
100
AcDbSymbolTableRecord
100
AcDbLinetypeTableRecord
  2
CONTINUOUS
 70
     0
  3
Solid line
 72
    65
 73
     0
 40
0.0
  0
LTYPE
  5
1C
100
AcDbSymbolTableRecord
100
AcDbLinetypeTableRecord
  2
CENTER
 70
     0
  3
Center ____ _ ____ _ ____ _ ____ _ ____ _ ____
 72
    65
 73
     4
 40
50.8
 49
31.75
 74
     0
 49
-6.35
 74
     0
 49
6.35
 74
     0
 49
-6.35
 74
     0
  0
LTYPE
  5
24
100
AcDbSymbolTableRecord
100
AcDbLinetypeTableRecord
  2
PHANTOM
 70
     0
  3
Phantom ______  __  __  ______  __  __  ______
 72
    65
 73
     6
 40
63.5
 49
31.75
 74
     0
 49
-6.35
 74
     0
 49
6.35
 74
     0
 49
-6.35
 74
     0
 49
6.35
 74
     0
 49
-6.35
 74
     0
  0
LTYPE
  5
369
100
AcDbSymbolTableRecord
100
AcDbLinetypeTableRecord
  2
HIDDEN
 70
     0
  3
Hidden __ __ __ __ __ __ __ __ __ __ __ __ __ _
 72
    65
 73
     2
 40
0.375
 49
0.25
 74
     0
 49
-0.125
 74
     0
  0
ENDTAB
  0
TABLE
  2
LAYER
  5
A
100
AcDbSymbolTable
 70
     8
  0
LAYER
  5
4
100
AcDbSymbolTableRecord
100
AcDbLayerTableRecord
  2
0
 70
     0
 62
     7
  6
CONTINUOUS
  0
LAYER
  5
29
100
AcDbSymbolTableRecord
100
AcDbLayerTableRecord
  2
10
 70
     0
 62
     3
  6
CONTINUOUS
  0
LAYER
  5
158
100
AcDbSymbolTableRecord
100
AcDbLayerTableRecord
  2
11
 70
     0
 62
     2
  6
CONTINUOUS
  0
LAYER
  5
33
100
AcDbSymbolTableRecord
100
AcDbLayerTableRecord
  2
12
 70
     0
 62
     7
  6
CONTINUOUS
  0
LAYER
  5
1B
100
AcDbSymbolTableRecord
100
AcDbLayerTableRecord
  2
16
 70
     0
 62
     7
  6
CENTER
  0
LAYER
  5
2F
100
AcDbSymbolTableRecord
100
AcDbLayerTableRecord
  2
17
 70
     0
 62
     6
  6
CENTER
  0
LAYER
  5
23
100
AcDbSymbolTableRecord
100
AcDbLayerTableRecord
  2
18
 70
     0
 62
     1
  6
PHANTOM
  0
LAYER
  5
20
100
AcDbSymbolTableRecord
100
AcDbLayerTableRecord
  2
19
 70
     0
 62
     2
  6
CONTINUOUS
  0
ENDTAB
  0
TABLE
  2
STYLE
  5
B
100
AcDbSymbolTable
 70
     2
  0
STYLE
  5
C
100
AcDbSymbolTableRecord
100
AcDbTextStyleTableRecord
  2
STANDARD
 70
     0
 40
0.0
 41
1.0
 50
0.0
 71
     0
 42
2.5
  3
txt
  4

  0
STYLE
  5
21
100
AcDbSymbolTableRecord
100
AcDbTextStyleTableRecord
  2
STANDARD1
 70
     0
 40
0.0
 41
1.0
 50
0.0
 71
     0
 42
3.0
  3
MONOTXT
  4
BIGFONT
  0
ENDTAB
  0
TABLE
  2
VIEW
  5
10
100
AcDbSymbolTable
 70
     0
  0
ENDTAB
  0
TABLE
  2
UCS
  5
11
100
AcDbSymbolTable
 70
     0
  0
ENDTAB
  0
TABLE
  2
APPID
  5
14
100
AcDbSymbolTable
 70
     3
  0
APPID
  5
15
100
AcDbSymbolTableRecord
100
AcDbRegAppTableRecord
  2
ACAD
 70
     0
  0
APPID
  5
359
100
AcDbSymbolTableRecord
100
AcDbRegAppTableRecord
  2
CONTENTTABDATA
 70
     0
  0
APPID
  5
35A
100
AcDbSymbolTableRecord
100
AcDbRegAppTableRecord
  2
CONTENTCURRENTTAB
 70
     0
  0
ENDTAB
  0
TABLE
  2
DIMSTYLE
  5
16
100
AcDbSymbolTable
 70
     1
  0
DIMSTYLE
105
1E
100
AcDbSymbolTableRecord
100
AcDbDimStyleTableRecord
  2
STANDARD
 70
     0
  3

  4

  5

  6

  7

 40
1.0
 41
2.5
 42
0.625
 43
3.75
 44
1.25
 45
0.0
 46
0.0
 47
0.0
 48
0.0
140
2.5
141
2.5
142
0.0
143
0.0394
144
1.0
145
0.0
146
1.0
147
0.625
 71
     0
 72
     0
 73
     0
 74
     0
 75
     0
 76
     0
 77
     1
 78
     8
170
     0
171
     4
172
     1
173
     0
174
     0
175
     0
176
   256
177
   256
178
   256
270
     8
271
     4
272
     4
273
     8
274
     4
340
C
275
     1
280
     0
281
     0
282
     0
283
     1
284
     0
285
     0
286
     0
287
     0
288
     0
  0
ENDTAB
  0
TABLE
  2
BLOCK_RECORD
  5
1
100
AcDbSymbolTable
 70
     0
  0
BLOCK_RECORD
  5
2
100
AcDbSymbolTableRecord
100
AcDbBlockTableRecord
  2
*MODEL_SPACE
  0
BLOCK_RECORD
  5
7
100
AcDbSymbolTableRecord
100
AcDbBlockTableRecord
  2
*PAPER_SPACE
  0
ENDTAB
  0
ENDSEC
  0
SECTION
  2
BLOCKS
  0
BLOCK
  5
3
100
AcDbEntity
  8
0
100
AcDbBlockBegin
  2
*MODEL_SPACE
 70
     0
 10
0.0
 20
0.0
 30
0.0
  3
*MODEL_SPACE
  1

  0
ENDBLK
  5
6
100
AcDbEntity
  8
0
100
AcDbBlockEnd
  0
BLOCK
  5
8
100
AcDbEntity
 67
     1
  8
0
100
AcDbBlockBegin
  2
*PAPER_SPACE
 70
     0
 10
0.0
 20
0.0
 30
0.0
  3
*PAPER_SPACE
  1

  0
ENDBLK
  5
9
100
AcDbEntity
 67
     1
  8
0
100
AcDbBlockEnd
  0
ENDSEC
  0
SECTION
  2
ENTITIES
  0
TEXT
  5
1F
100
AcDbEntity
  8
19
100
AcDbText
 10
543.819605
 20
34.094471
 30
0.0
 40
6.666667
  1
MR-J2S-700□
 50
0.000003
 41
0.835
  7
STANDARD1
100
AcDbText
  0
TEXT
  5
22F
100
AcDbEntity
  8
19
100
AcDbText
 10
543.819605
 20
18.302092
 30
0.0
 40
6.666667
  1
j2s_700a
 50
0.000003
 41
0.835
  7
STANDARD1
100
AcDbText
  0
ARC
  5
C70
100
AcDbEntity
  8
10
100
AcDbCircle
 10
406.0
 20
363.25
 30
0.0
 40
1.25
100
AcDbArc
 50
0.0
 51
180.000005
  0
LINE
  5
C71
100
AcDbEntity
  8
10
100
AcDbLine
 10
407.25
 20
322.0
 30
0.0
 11
404.75
 21
322.0
 31
0.0
  0
LINE
  5
C72
100
AcDbEntity
  8
10
100
AcDbLine
 10
407.25
 20
306.0
 30
0.0
 11
404.75
 21
306.0
 31
0.0
  0
LINE
  5
C73
100
AcDbEntity
  8
10
100
AcDbLine
 10
327.0
 20
390.0
 30
0.0
 11
440.0
 21
390.0
 31
0.0
  0
LINE
  5
C74
100
AcDbEntity
  8
10
100
AcDbLine
 10
327.0
 20
376.5
 30
0.0
 11
440.0
 21
376.5
 31
0.0
  0
LINE
  5
C75
100
AcDbEntity
  8
10
100
AcDbLine
 10
407.25
 20
254.0
 30
0.0
 11
404.75
 21
254.0
 31
0.0
  0
LINE
  5
C76
100
AcDbEntity
  8
10
100
AcDbLine
 10
407.25
 20
238.0
 30
0.0
 11
404.75
 21
238.0
 31
0.0
  0
LINE
  5
C77
100
AcDbEntity
  8
10
100
AcDbLine
 10
407.25
 20
186.0
 30
0.0
 11
404.75
 21
186.0
 31
0.0
  0
LINE
  5
C78
100
AcDbEntity
  8
10
100
AcDbLine
 10
407.25
 20
170.0
 30
0.0
 11
404.75
 21
170.0
 31
0.0
  0
LINE
  5
C79
100
AcDbEntity
  8
10
100
AcDbLine
 10
407.25
 20
118.000015
 30
0.0
 11
404.75
 21
118.000015
 31
0.0
  0
LINE
  5
C7A
100
AcDbEntity
  8
10
100
AcDbLine
 10
407.25
 20
102.000015
 30
0.0
 11
404.75
 21
102.000015
 31
0.0
  0
ARC
  5
C7B
100
AcDbEntity
  8
10
100
AcDbCircle
 10
406.0
 20
68.250015
 30
0.0
 40
1.25
100
AcDbArc
 50
180.000005
 51
0.00001
  0
LINE
  5
C7C
100
AcDbEntity
  8
10
100
AcDbLine
 10
440.0
 20
55.000031
 30
0.0
 11
323.0
 21
55.000031
 31
0.0
  0
LINE
  5
C7D
100
AcDbEntity
  8
10
100
AcDbLine
 10
440.0
 20
40.0
 30
0.0
 11
323.0
 21
40.0
 31
0.0
  0
LINE
  5
C7E
100
AcDbEntity
  8
10
100
AcDbLine
 10
162.469704
 20
337.44717
 30
0.0
 11
158.569704
 21
338.004313
 31
0.0
  0
LINE
  5
C7F
100
AcDbEntity
  8
10
100
AcDbLine
 10
162.469704
 20
322.5528
 30
0.0
 11
158.569704
 21
321.995657
 31
0.0
  0
LINE
  5
C80
100
AcDbEntity
  8
10
100
AcDbLine
 10
162.469704
 20
300.44717
 30
0.0
 11
158.569704
 21
301.004313
 31
0.0
  0
LINE
  5
C81
100
AcDbEntity
  8
10
100
AcDbLine
 10
162.469704
 20
285.5528
 30
0.0
 11
158.569704
 21
284.995657
 31
0.0
  0
LINE
  5
C82
100
AcDbEntity
  8
10
100
AcDbLine
 10
153.600006
 20
275.500031
 30
0.0
 11
182.899994
 21
275.500031
 31
0.0
  0
LINE
  5
C83
100
AcDbEntity
  8
10
100
AcDbLine
 10
140.0
 20
268.5
 30
0.0
 11
190.0
 21
268.5
 31
0.0
  0
LINE
  5
C84
100
AcDbEntity
  8
11
100
AcDbLine
 10
190.0
 20
349.5
 30
0.0
 11
139.5
 21
349.5
 31
0.0
  0
LINE
  5
C85
100
AcDbEntity
  8
10
100
AcDbLine
 10
189.200012
 20
39.999969
 30
0.0
 11
10.800003
 21
39.999969
 31
0.0
  0
LINE
  5
C86
100
AcDbEntity
  8
10
100
AcDbLine
 10
190.0
 20
267.0
 30
0.0
 11
110.954453
 21
267.0
 31
0.0
  0
LINE
  5
C87
100
AcDbEntity
  8
11
100
AcDbLine
 10
139.5
 20
390.0
 30
0.0
 11
189.195591
 21
390.0
 31
0.0
  0
LINE
  5
C88
100
AcDbEntity
  8
10
100
AcDbLine
 10
182.899994
 20
347.499969
 30
0.0
 11
153.600006
 21
347.499969
 31
0.0
  0
LINE
  5
C89
100
AcDbEntity
  8
10
100
AcDbLine
 10
182.899994
 20
310.5
 30
0.0
 11
153.600006
 21
310.5
 31
0.0
  0
LINE
  5
C8A
100
AcDbEntity
  8
10
100
AcDbLine
 10
153.600006
 20
312.5
 30
0.0
 11
182.899994
 21
312.5
 31
0.0
  0
LINE
  5
C8B
100
AcDbEntity
  8
10
100
AcDbLine
 10
156.649998
 20
339.274984
 30
0.0
 11
164.049999
 21
339.274984
 31
0.0
  0
LINE
  5
C8C
100
AcDbEntity
  8
10
100
AcDbLine
 10
156.649998
 20
341.774984
 30
0.0
 11
158.849998
 21
341.774984
 31
0.0
  0
LINE
  5
C8D
100
AcDbEntity
  8
10
100
AcDbLine
 10
165.649999
 20
346.699986
 30
0.0
 11
155.200001
 21
346.699986
 31
0.0
  0
LINE
  5
C8E
100
AcDbEntity
  8
10
100
AcDbLine
 10
156.649998
 20
320.724985
 30
0.0
 11
164.049999
 21
320.724985
 31
0.0
  0
LINE
  5
C8F
100
AcDbEntity
  8
10
100
AcDbLine
 10
156.649998
 20
318.224985
 30
0.0
 11
158.849998
 21
318.224985
 31
0.0
  0
LINE
  5
C90
100
AcDbEntity
  8
10
100
AcDbLine
 10
165.649999
 20
313.299984
 30
0.0
 11
155.200001
 21
313.299984
 31
0.0
  0
LINE
  5
C91
100
AcDbEntity
  8
10
100
AcDbLine
 10
156.649998
 20
302.274984
 30
0.0
 11
164.049999
 21
302.274984
 31
0.0
  0
LINE
  5
C92
100
AcDbEntity
  8
10
100
AcDbLine
 10
156.649998
 20
304.774984
 30
0.0
 11
158.849998
 21
304.774984
 31
0.0
  0
LINE
  5
C93
100
AcDbEntity
  8
10
100
AcDbLine
 10
165.649999
 20
309.699986
 30
0.0
 11
155.200001
 21
309.699986
 31
0.0
  0
LINE
  5
C94
100
AcDbEntity
  8
10
100
AcDbLine
 10
156.649998
 20
283.724985
 30
0.0
 11
164.049999
 21
283.724985
 31
0.0
  0
LINE
  5
C95
100
AcDbEntity
  8
10
100
AcDbLine
 10
156.649998
 20
281.224985
 30
0.0
 11
158.849998
 21
281.224985
 31
0.0
  0
LINE
  5
C96
100
AcDbEntity
  8
10
100
AcDbLine
 10
165.649999
 20
276.299984
 30
0.0
 11
155.200001
 21
276.299984
 31
0.0
  0
LINE
  5
C97
100
AcDbEntity
  8
10
100
AcDbLine
 10
139.5
 20
39.999969
 30
0.0
 11
139.5
 21
267.0
 31
0.0
  0
LINE
  5
C98
100
AcDbEntity
  8
10
100
AcDbLine
 10
140.0
 20
267.0
 30
0.0
 11
140.0
 21
39.999969
 31
0.0
  0
LINE
  5
C99
100
AcDbEntity
  8
10
100
AcDbLine
 10
10.0
 20
40.799973
 30
0.0
 11
10.0
 21
267.0
 31
0.0
  0
LINE
  5
C9B
100
AcDbEntity
  8
12
100
AcDbLine
 10
14.0
 20
47.5
 30
0.0
 11
26.0
 21
47.5
 31
0.0
  0
ARC
  5
C9C
100
AcDbEntity
  8
12
100
AcDbCircle
 10
20.0
 20
47.5
 30
0.0
 40
3.0
100
AcDbArc
 50
0.0
 51
180.000005
  0
ARC
  5
C9F
100
AcDbEntity
  8
10
100
AcDbCircle
 10
10.800003
 20
40.799973
 30
0.0
 40
0.8
100
AcDbArc
 50
179.999995
 51
269.999997
  0
LINE
  5
CA0
100
AcDbEntity
  8
12
100
AcDbLine
 10
17.0
 20
47.5
 30
0.0
 11
17.0
 21
46.5
 31
0.0
  0
ARC
  5
CA1
100
AcDbEntity
  8
12
100
AcDbCircle
 10
16.0
 20
46.5
 30
0.0
 40
1.0
100
AcDbArc
 50
269.999997
 51
0.0
  0
ARC
  5
CA2
100
AcDbEntity
  8
12
100
AcDbCircle
 10
15.0
 20
46.5
 30
0.0
 40
1.0
100
AcDbArc
 50
179.999995
 51
269.999997
  0
LINE
  5
CA3
100
AcDbEntity
  8
12
100
AcDbLine
 10
16.0
 20
45.5
 30
0.0
 11
15.0
 21
45.5
 31
0.0
  0
LINE
  5
CA9
100
AcDbEntity
  8
12
100
AcDbLine
 10
20.0
 20
53.5
 30
0.0
 11
20.0
 21
41.5
 31
0.0
  0
ARC
  5
CAC
100
AcDbEntity
  8
12
100
AcDbCircle
 10
24.0
 20
42.999969
 30
0.0
 40
1.0
100
AcDbArc
 50
180.000005
 51
270.000001
  0
LINE
  5
CAD
100
AcDbEntity
  8
12
100
AcDbLine
 10
23.0
 20
42.999969
 30
0.0
 11
23.0
 21
47.5
 31
0.0
  0
LINE
  5
CAE
100
AcDbEntity
  8
10
100
AcDbLine
 10
139.5
 20
268.5
 30
0.0
 11
10.799988
 21
268.5
 31
0.0
  0
LINE
  5
CAF
100
AcDbEntity
  8
10
100
AcDbLine
 10
89.045547
 20
267.0
 30
0.0
 11
10.800003
 21
267.0
 31
0.0
  0
LINE
  5
CB0
100
AcDbEntity
  8
10
100
AcDbLine
 10
22.799988
 20
390.0
 30
0.0
 11
139.5
 21
390.0
 31
0.0
  0
LINE
  5
CB1
100
AcDbEntity
  8
10
100
AcDbLine
 10
10.0
 20
267.0
 30
0.0
 11
10.0
 21
375.700012
 31
0.0
  0
LINE
  5
CB2
100
AcDbEntity
  8
10
100
AcDbLine
 10
10.027252
 20
268.5
 30
0.0
 11
10.0
 21
268.5
 31
0.0
  0
LINE
  5
CB3
100
AcDbEntity
  8
10
100
AcDbLine
 10
10.107178
 20
268.5
 30
0.0
 11
10.027252
 21
268.5
 31
0.0
  0
LINE
  5
CB4
100
AcDbEntity
  8
10
100
AcDbLine
 10
10.234314
 20
268.5
 30
0.0
 11
10.107178
 21
268.5
 31
0.0
  0
LINE
  5
CB5
100
AcDbEntity
  8
10
100
AcDbLine
 10
10.399994
 20
268.5
 30
0.0
 11
10.234314
 21
268.5
 31
0.0
  0
LINE
  5
CB6
100
AcDbEntity
  8
10
100
AcDbLine
 10
10.592926
 20
268.5
 30
0.0
 11
10.399994
 21
268.5
 31
0.0
  0
LINE
  5
CB7
100
AcDbEntity
  8
10
100
AcDbLine
 10
10.799988
 20
268.5
 30
0.0
 11
10.592926
 21
268.5
 31
0.0
  0
LINE
  5
CB8
100
AcDbEntity
  8
10
100
AcDbLine
 10
10.592941
 20
267.0
 30
0.0
 11
10.800003
 21
267.0
 31
0.0
  0
LINE
  5
CB9
100
AcDbEntity
  8
10
100
AcDbLine
 10
10.400009
 20
267.0
 30
0.0
 11
10.592941
 21
267.0
 31
0.0
  0
LINE
  5
CBA
100
AcDbEntity
  8
10
100
AcDbLine
 10
10.234314
 20
267.0
 30
0.0
 11
10.400009
 21
267.0
 31
0.0
  0
LINE
  5
CBB
100
AcDbEntity
  8
10
100
AcDbLine
 10
10.107178
 20
267.0
 30
0.0
 11
10.234314
 21
267.0
 31
0.0
  0
LINE
  5
CBC
100
AcDbEntity
  8
10
100
AcDbLine
 10
10.027267
 20
267.0
 30
0.0
 11
10.107178
 21
267.0
 31
0.0
  0
LINE
  5
CBD
100
AcDbEntity
  8
10
100
AcDbLine
 10
10.0
 20
267.0
 30
0.0
 11
10.027267
 21
267.0
 31
0.0
  0
ARC
  5
CBE
100
AcDbEntity
  8
10
100
AcDbCircle
 10
16.0
 20
382.500031
 30
0.0
 40
6.0
100
AcDbArc
 50
269.999997
 51
0.0
  0
LINE
  5
CBF
100
AcDbEntity
  8
10
100
AcDbLine
 10
22.0
 20
388.0
 30
0.0
 11
15.0
 21
388.0
 31
0.0
  0
LINE
  5
CC0
100
AcDbEntity
  8
12
100
AcDbLine
 10
14.0
 20
382.499992
 30
0.0
 11
26.0
 21
382.499992
 31
0.0
  0
ARC
  5
CC2
100
AcDbEntity
  8
10
100
AcDbCircle
 10
16.0
 20
382.5
 30
0.0
 40
6.0
100
AcDbArc
 50
269.999997
 51
0.0
  0
LINE
  5
CC3
100
AcDbEntity
  8
10
100
AcDbLine
 10
14.0
 20
376.5
 30
0.0
 11
14.0
 21
387.0
 31
0.0
  0
LINE
  5
CC4
100
AcDbEntity
  8
10
100
AcDbLine
 10
10.799988
 20
376.5
 30
0.0
 11
16.0
 21
376.5
 31
0.0
  0
LINE
  5
CC5
100
AcDbEntity
  8
10
100
AcDbLine
 10
10.799995
 20
376.5
 30
0.0
 11
16.0
 21
376.5
 31
0.0
  0
ARC
  5
CC6
100
AcDbEntity
  8
10
100
AcDbCircle
 10
10.799988
 20
375.700012
 30
0.0
 40
0.8
100
AcDbArc
 50
90.000003
 51
180.000005
  0
ARC
  5
CC7
100
AcDbEntity
  8
10
100
AcDbCircle
 10
10.799995
 20
375.7
 30
0.0
 40
0.8
100
AcDbArc
 50
90.000003
 51
180.000005
  0
ARC
  5
CC8
100
AcDbEntity
  8
10
100
AcDbCircle
 10
15.0
 20
387.0
 30
0.0
 40
1.0
100
AcDbArc
 50
90.000003
 51
180.000005
  0
LINE
  5
CCA
100
AcDbEntity
  8
12
100
AcDbLine
 10
20.0
 20
376.499992
 30
0.0
 11
20.0
 21
388.499992
 31
0.0
  0
LINE
  5
CCB
100
AcDbEntity
  8
10
100
AcDbLine
 10
22.0
 20
382.500031
 30
0.0
 11
22.0
 21
389.200012
 31
0.0
  0
ARC
  5
CCC
100
AcDbEntity
  8
10
100
AcDbCircle
 10
22.799988
 20
389.200012
 30
0.0
 40
0.8
100
AcDbArc
 50
90.000003
 51
180.000005
  0
ARC
  5
CCD
100
AcDbEntity
  8
10
100
AcDbCircle
 10
22.799995
 20
389.2
 30
0.0
 40
0.8
100
AcDbArc
 50
90.000003
 51
180.000005
  0
LINE
  5
CCE
100
AcDbEntity
  8
10
100
AcDbLine
 10
22.0
 20
382.5
 30
0.0
 11
22.0
 21
389.2
 31
0.0
  0
LINE
  5
CCF
100
AcDbEntity
  8
11
100
AcDbLine
 10
139.5
 20
390.0
 30
0.0
 11
139.5
 21
349.5
 31
0.0
  0
LINE
  5
CD0
100
AcDbEntity
  8
10
100
AcDbLine
 10
96.838326
 20
257.512939
 30
0.0
 11
96.234909
 21
257.73584
 31
0.0
  0
LINE
  5
CD1
100
AcDbEntity
  8
10
100
AcDbLine
 10
89.911555
 20
266.5
 30
0.0
 11
110.088445
 21
266.5
 31
0.0
  0
LINE
  5
CD2
100
AcDbEntity
  8
10
100
AcDbLine
 10
93.023949
 20
259.835175
 30
0.0
 11
92.577728
 21
260.298492
 31
0.0
  0
LINE
  5
CD3
100
AcDbEntity
  8
10
100
AcDbLine
 10
93.499031
 20
259.401459
 30
0.0
 11
93.023949
 21
259.835175
 31
0.0
  0
LINE
  5
CD4
100
AcDbEntity
  8
10
100
AcDbLine
 10
94.001007
 20
258.999207
 30
0.0
 11
93.499031
 21
259.401459
 31
0.0
  0
LINE
  5
CD5
100
AcDbEntity
  8
10
100
AcDbLine
 10
94.527817
 20
258.630066
 30
0.0
 11
94.001007
 21
258.999207
 31
0.0
  0
LINE
  5
CD6
100
AcDbEntity
  8
10
100
AcDbLine
 10
95.077263
 20
258.295563
 30
0.0
 11
94.527817
 21
258.630066
 31
0.0
  0
LINE
  5
CD7
100
AcDbEntity
  8
10
100
AcDbLine
 10
95.647079
 20
257.99707
 30
0.0
 11
95.077263
 21
258.295563
 31
0.0
  0
LINE
  5
CD8
100
AcDbEntity
  8
10
100
AcDbLine
 10
96.234909
 20
257.73584
 30
0.0
 11
95.647079
 21
257.99707
 31
0.0
  0
ARC
  5
CD9
100
AcDbEntity
  8
10
100
AcDbCircle
 10
89.045547
 20
265.999969
 30
0.0
 40
1.0
100
AcDbArc
 50
5.215909
 51
90.000003
  0
LINE
  5
CDA
100
AcDbEntity
  8
10
100
AcDbLine
 10
90.120453
 20
265.452515
 30
0.0
 11
90.041405
 21
266.090881
 31
0.0
  0
LINE
  5
CDB
100
AcDbEntity
  8
10
100
AcDbLine
 10
90.240395
 20
264.820526
 30
0.0
 11
90.120453
 21
265.452515
 31
0.0
  0
LINE
  5
CDC
100
AcDbEntity
  8
10
100
AcDbLine
 10
90.400711
 20
264.19754
 30
0.0
 11
90.240395
 21
264.820526
 31
0.0
  0
LINE
  5
CDD
100
AcDbEntity
  8
10
100
AcDbLine
 10
90.600746
 20
263.586182
 30
0.0
 11
90.400711
 21
264.19754
 31
0.0
  0
LINE
  5
CDE
100
AcDbEntity
  8
10
100
AcDbLine
 10
90.839668
 20
262.988953
 30
0.0
 11
90.600746
 21
263.586182
 31
0.0
  0
LINE
  5
CDF
100
AcDbEntity
  8
10
100
AcDbLine
 10
91.116508
 20
262.408295
 30
0.0
 11
90.839668
 21
262.988953
 31
0.0
  0
LINE
  5
CE0
100
AcDbEntity
  8
10
100
AcDbLine
 10
91.430099
 20
261.846649
 30
0.0
 11
91.116508
 21
262.408295
 31
0.0
  0
LINE
  5
CE1
100
AcDbEntity
  8
10
100
AcDbLine
 10
91.77916
 20
261.306305
 30
0.0
 11
91.430099
 21
261.846649
 31
0.0
  0
LINE
  5
CE2
100
AcDbEntity
  8
10
100
AcDbLine
 10
92.162231
 20
260.789551
 30
0.0
 11
91.77916
 21
261.306305
 31
0.0
  0
LINE
  5
CE3
100
AcDbEntity
  8
10
100
AcDbLine
 10
92.577728
 20
260.298492
 30
0.0
 11
92.162231
 21
260.789551
 31
0.0
  0
LINE
  5
CE4
100
AcDbEntity
  8
10
100
AcDbLine
 10
125.0
 20
275.500031
 30
0.0
 11
125.0
 21
347.499969
 31
0.0
  0
LINE
  5
CE5
100
AcDbEntity
  8
10
100
AcDbLine
 10
114.0
 20
275.500031
 30
0.0
 11
114.0
 21
347.499969
 31
0.0
  0
LINE
  5
CE6
100
AcDbEntity
  8
10
100
AcDbLine
 10
115.0
 20
275.500031
 30
0.0
 11
115.0
 21
347.499969
 31
0.0
  0
LINE
  5
CE7
100
AcDbEntity
  8
10
100
AcDbLine
 10
123.999969
 20
347.499969
 30
0.0
 11
123.999969
 21
275.500031
 31
0.0
  0
LINE
  5
CE8
100
AcDbEntity
  8
10
100
AcDbLine
 10
140.0
 20
345.5
 30
0.0
 11
140.0
 21
268.5
 31
0.0
  0
LINE
  5
CE9
100
AcDbEntity
  8
10
100
AcDbLine
 10
152.600006
 20
309.5
 30
0.0
 11
152.600006
 21
276.500031
 31
0.0
  0
LINE
  5
CEA
100
AcDbEntity
  8
10
100
AcDbLine
 10
154.599976
 20
275.500031
 30
0.0
 11
154.599976
 21
310.5
 31
0.0
  0
LINE
  5
CEB
100
AcDbEntity
  8
10
100
AcDbLine
 10
155.200001
 20
309.699986
 30
0.0
 11
155.200001
 21
276.299984
 31
0.0
  0
ARC
  5
CEC
100
AcDbEntity
  8
10
100
AcDbCircle
 10
123.999969
 20
275.500031
 30
0.0
 40
1.0
100
AcDbArc
 50
269.999997
 51
0.0
  0
LINE
  5
CED
100
AcDbEntity
  8
10
100
AcDbLine
 10
120.5
 20
275.500031
 30
0.0
 11
120.5
 21
274.5
 31
0.0
  0
LINE
  5
CEE
100
AcDbEntity
  8
10
100
AcDbLine
 10
118.5
 20
275.500031
 30
0.0
 11
118.5
 21
274.5
 31
0.0
  0
ARC
  5
CEF
100
AcDbEntity
  8
10
100
AcDbCircle
 10
115.0
 20
275.500031
 30
0.0
 40
1.0
100
AcDbArc
 50
180.000005
 51
270.000001
  0
LINE
  5
CF0
100
AcDbEntity
  8
10
100
AcDbLine
 10
107.422272
 20
260.298492
 30
0.0
 11
106.976059
 21
259.835175
 31
0.0
  0
LINE
  5
CF1
100
AcDbEntity
  8
10
100
AcDbLine
 10
104.922745
 20
258.295563
 30
0.0
 11
104.352921
 21
257.99707
 31
0.0
  0
LINE
  5
CF2
100
AcDbEntity
  8
10
100
AcDbLine
 10
104.352921
 20
257.99707
 30
0.0
 11
103.765076
 21
257.73584
 31
0.0
  0
LINE
  5
CF3
100
AcDbEntity
  8
10
100
AcDbLine
 10
101.283195
 20
257.082642
 30
0.0
 11
100.642937
 21
257.02066
 31
0.0
  0
LINE
  5
CF4
100
AcDbEntity
  8
10
100
AcDbLine
 10
97.454819
 20
257.329315
 30
0.0
 11
96.838326
 21
257.512939
 31
0.0
  0
LINE
  5
CF5
100
AcDbEntity
  8
10
100
AcDbLine
 10
98.081841
 20
257.185669
 30
0.0
 11
97.454819
 21
257.329315
 31
0.0
  0
LINE
  5
CF6
100
AcDbEntity
  8
10
100
AcDbLine
 10
98.716797
 20
257.082642
 30
0.0
 11
98.081841
 21
257.185669
 31
0.0
  0
LINE
  5
CF7
100
AcDbEntity
  8
10
100
AcDbLine
 10
99.357063
 20
257.02066
 30
0.0
 11
98.716797
 21
257.082642
 31
0.0
  0
LINE
  5
CF8
100
AcDbEntity
  8
10
100
AcDbLine
 10
100.0
 20
256.999969
 30
0.0
 11
99.357063
 21
257.02066
 31
0.0
  0
LINE
  5
CF9
100
AcDbEntity
  8
10
100
AcDbLine
 10
100.642937
 20
257.02066
 30
0.0
 11
100.0
 21
256.999969
 31
0.0
  0
LINE
  5
CFA
100
AcDbEntity
  8
10
100
AcDbLine
 10
101.918159
 20
257.185669
 30
0.0
 11
101.283195
 21
257.082642
 31
0.0
  0
LINE
  5
CFB
100
AcDbEntity
  8
10
100
AcDbLine
 10
102.545181
 20
257.329315
 30
0.0
 11
101.918159
 21
257.185669
 31
0.0
  0
LINE
  5
CFC
100
AcDbEntity
  8
10
100
AcDbLine
 10
103.161682
 20
257.512939
 30
0.0
 11
102.545181
 21
257.329315
 31
0.0
  0
LINE
  5
D01
100
AcDbEntity
  8
10
100
AcDbLine
 10
103.765076
 20
257.73584
 30
0.0
 11
103.161682
 21
257.512939
 31
0.0
  0
LINE
  5
D03
100
AcDbEntity
  8
10
100
AcDbLine
 10
105.472183
 20
258.630066
 30
0.0
 11
104.922745
 21
258.295563
 31
0.0
  0
LINE
  5
D04
100
AcDbEntity
  8
10
100
AcDbLine
 10
105.998993
 20
258.999207
 30
0.0
 11
105.472183
 21
258.630066
 31
0.0
  0
LINE
  5
D05
100
AcDbEntity
  8
10
100
AcDbLine
 10
106.500977
 20
259.401459
 30
0.0
 11
105.998993
 21
258.999207
 31
0.0
  0
LINE
  5
D06
100
AcDbEntity
  8
10
100
AcDbLine
 10
106.976059
 20
259.835175
 30
0.0
 11
106.500977
 21
259.401459
 31
0.0
  0
ARC
  5
D07
100
AcDbEntity
  8
10
100
AcDbCircle
 10
110.954453
 20
265.999969
 30
0.0
 40
1.0
100
AcDbArc
 50
90.000003
 51
174.78409
  0
LINE
  5
D08
100
AcDbEntity
  8
10
100
AcDbLine
 10
107.837769
 20
260.789551
 30
0.0
 11
107.422272
 21
260.298492
 31
0.0
  0
LINE
  5
D09
100
AcDbEntity
  8
10
100
AcDbLine
 10
108.22084
 20
261.306305
 30
0.0
 11
107.837769
 21
260.789551
 31
0.0
  0
LINE
  5
D0A
100
AcDbEntity
  8
10
100
AcDbLine
 10
108.569901
 20
261.846649
 30
0.0
 11
108.22084
 21
261.306305
 31
0.0
  0
LINE
  5
D0B
100
AcDbEntity
  8
10
100
AcDbLine
 10
108.883499
 20
262.408295
 30
0.0
 11
108.569901
 21
261.846649
 31
0.0
  0
LINE
  5
D0C
100
AcDbEntity
  8
10
100
AcDbLine
 10
109.160324
 20
262.988953
 30
0.0
 11
108.883499
 21
262.408295
 31
0.0
  0
LINE
  5
D0D
100
AcDbEntity
  8
10
100
AcDbLine
 10
109.399261
 20
263.586182
 30
0.0
 11
109.160324
 21
262.988953
 31
0.0
  0
LINE
  5
D0E
100
AcDbEntity
  8
10
100
AcDbLine
 10
109.599289
 20
264.19754
 30
0.0
 11
109.399261
 21
263.586182
 31
0.0
  0
LINE
  5
D0F
100
AcDbEntity
  8
10
100
AcDbLine
 10
109.759598
 20
264.820526
 30
0.0
 11
109.599289
 21
264.19754
 31
0.0
  0
LINE
  5
D10
100
AcDbEntity
  8
10
100
AcDbLine
 10
109.879547
 20
265.452515
 30
0.0
 11
109.759598
 21
264.820526
 31
0.0
  0
LINE
  5
D11
100
AcDbEntity
  8
10
100
AcDbLine
 10
109.958588
 20
266.090881
 30
0.0
 11
109.879547
 21
265.452515
 31
0.0
  0
LINE
  5
D12
100
AcDbEntity
  8
10
100
AcDbLine
 10
115.0
 20
274.5
 30
0.0
 11
123.999969
 21
274.5
 31
0.0
  0
CIRCLE
  5
D13
100
AcDbEntity
  8
10
100
AcDbCircle
 10
107.999969
 20
279.5
 30
0.0
 40
1.7
  0
CIRCLE
  5
D14
100
AcDbEntity
  8
10
100
AcDbCircle
 10
107.999969
 20
279.5
 30
0.0
 40
3.25
  0
LINE
  5
D15
100
AcDbEntity
  8
10
100
AcDbLine
 10
123.999969
 20
275.500031
 30
0.0
 11
115.0
 21
275.500031
 31
0.0
  0
LINE
  5
D16
100
AcDbEntity
  8
10
100
AcDbLine
 10
139.5
 20
268.5
 30
0.0
 11
140.0
 21
268.5
 31
0.0
  0
LINE
  5
D17
100
AcDbEntity
  8
10
100
AcDbLine
 10
157.199999
 20
286.183597
 30
0.0
 11
157.199999
 21
299.816373
 31
0.0
  0
ARC
  5
D18
100
AcDbEntity
  8
10
100
AcDbCircle
 10
153.600006
 20
276.500031
 30
0.0
 40
1.0
100
AcDbArc
 50
180.0
 51
270.0
  0
LINE
  5
D19
100
AcDbEntity
  8
10
100
AcDbLine
 10
156.649998
 20
283.724985
 30
0.0
 11
156.649998
 21
281.224985
 31
0.0
  0
ARC
  5
D1A
100
AcDbEntity
  8
10
100
AcDbCircle
 10
158.399998
 20
286.183597
 30
0.0
 40
1.2
100
AcDbArc
 50
179.999995
 51
278.130101
  0
LINE
  5
D1B
100
AcDbEntity
  8
10
100
AcDbLine
 10
156.649998
 20
304.774984
 30
0.0
 11
156.649998
 21
302.274984
 31
0.0
  0
ARC
  5
D1C
100
AcDbEntity
  8
10
100
AcDbCircle
 10
158.399998
 20
299.816373
 30
0.0
 40
1.2
100
AcDbArc
 50
81.869899
 51
180.000005
  0
LINE
  5
D1D
100
AcDbEntity
  8
10
100
AcDbLine
 10
115.0
 20
348.500031
 30
0.0
 11
123.999969
 21
348.500031
 31
0.0
  0
LINE
  5
D1E
100
AcDbEntity
  8
10
100
AcDbLine
 10
115.0
 20
347.499969
 30
0.0
 11
123.999969
 21
347.499969
 31
0.0
  0
ARC
  5
D1F
100
AcDbEntity
  8
10
100
AcDbCircle
 10
115.0
 20
347.499969
 30
0.0
 40
1.0
100
AcDbArc
 50
90.000003
 51
180.000005
  0
LINE
  5
D20
100
AcDbEntity
  8
10
100
AcDbLine
 10
118.5
 20
347.499969
 30
0.0
 11
118.5
 21
348.500031
 31
0.0
  0
ARC
  5
D21
100
AcDbEntity
  8
10
100
AcDbCircle
 10
123.999969
 20
347.499969
 30
0.0
 40
1.0
100
AcDbArc
 50
0.0
 51
90.000003
  0
LINE
  5
D22
100
AcDbEntity
  8
10
100
AcDbLine
 10
120.5
 20
347.499969
 30
0.0
 11
120.5
 21
348.500031
 31
0.0
  0
CIRCLE
  5
D23
100
AcDbEntity
  8
10
100
AcDbCircle
 10
119.5
 20
354.5
 30
0.0
 40
1.7
  0
CIRCLE
  5
D24
100
AcDbEntity
  8
10
100
AcDbCircle
 10
119.5
 20
354.5
 30
0.0
 40
3.25
  0
LINE
  5
D25
100
AcDbEntity
  8
10
100
AcDbLine
 10
152.600006
 20
346.499969
 30
0.0
 11
152.600006
 21
313.5
 31
0.0
  0
LINE
  5
D26
100
AcDbEntity
  8
10
100
AcDbLine
 10
154.599976
 20
312.5
 30
0.0
 11
154.599976
 21
347.499969
 31
0.0
  0
LINE
  5
D27
100
AcDbEntity
  8
10
100
AcDbLine
 10
157.199999
 20
323.183597
 30
0.0
 11
157.199999
 21
336.816373
 31
0.0
  0
LINE
  5
D28
100
AcDbEntity
  8
10
100
AcDbLine
 10
155.200001
 20
346.699986
 30
0.0
 11
155.200001
 21
313.299984
 31
0.0
  0
LINE
  5
D29
100
AcDbEntity
  8
10
100
AcDbLine
 10
156.649998
 20
320.724985
 30
0.0
 11
156.649998
 21
318.224985
 31
0.0
  0
ARC
  5
D2A
100
AcDbEntity
  8
10
100
AcDbCircle
 10
153.600006
 20
309.5
 30
0.0
 40
1.0
100
AcDbArc
 50
90.0
 51
180.0
  0
ARC
  5
D2B
100
AcDbEntity
  8
10
100
AcDbCircle
 10
153.600006
 20
313.5
 30
0.0
 40
1.0
100
AcDbArc
 50
180.0
 51
270.0
  0
ARC
  5
D2C
100
AcDbEntity
  8
10
100
AcDbCircle
 10
158.399998
 20
323.183597
 30
0.0
 40
1.2
100
AcDbArc
 50
179.999995
 51
278.130101
  0
LINE
  5
D2D
100
AcDbEntity
  8
10
100
AcDbLine
 10
139.5
 20
345.5
 30
0.0
 11
149.999969
 21
345.5
 31
0.0
  0
ARC
  5
D2E
100
AcDbEntity
  8
10
100
AcDbCircle
 10
149.999969
 20
346.5
 30
0.0
 40
1.0
100
AcDbArc
 50
270.0
 51
0.0
  0
ARC
  5
D2F
100
AcDbEntity
  8
10
100
AcDbCircle
 10
153.600006
 20
346.499969
 30
0.0
 40
1.0
100
AcDbArc
 50
90.0
 51
180.0
  0
LINE
  5
D30
100
AcDbEntity
  8
10
100
AcDbLine
 10
150.999969
 20
346.5
 30
0.0
 11
150.999969
 21
349.5
 31
0.0
  0
LINE
  5
D31
100
AcDbEntity
  8
10
100
AcDbLine
 10
156.649998
 20
341.774984
 30
0.0
 11
156.649998
 21
339.274984
 31
0.0
  0
ARC
  5
D32
100
AcDbEntity
  8
10
100
AcDbCircle
 10
158.399998
 20
336.816373
 30
0.0
 40
1.2
100
AcDbArc
 50
81.869899
 51
180.000005
  0
LINE
  5
D3A
100
AcDbEntity
  8
10
100
AcDbLine
 10
326.6
 20
251.99648
 30
0.0
 11
326.6
 21
245.003489
 31
0.0
  0
LINE
  5
D3B
100
AcDbEntity
  8
10
100
AcDbLine
 10
333.0
 20
233.5
 30
0.0
 11
333.0
 21
253.5
 31
0.0
  0
LINE
  5
D3C
100
AcDbEntity
  8
10
100
AcDbLine
 10
382.25
 20
88.250015
 30
0.0
 11
382.25
 21
363.25
 31
0.0
  0
LINE
  5
D3D
100
AcDbEntity
  8
10
100
AcDbLine
 10
379.75
 20
363.25
 30
0.0
 11
379.75
 21
88.250015
 31
0.0
  0
LINE
  5
D3E
100
AcDbEntity
  8
10
100
AcDbLine
 10
377.25
 20
88.250015
 30
0.0
 11
377.25
 21
363.25
 31
0.0
  0
LINE
  5
D3F
100
AcDbEntity
  8
10
100
AcDbLine
 10
374.75
 20
363.25
 30
0.0
 11
374.75
 21
88.250015
 31
0.0
  0
LINE
  5
D40
100
AcDbEntity
  8
10
100
AcDbLine
 10
372.25
 20
88.250015
 30
0.0
 11
372.25
 21
363.25
 31
0.0
  0
LINE
  5
D41
100
AcDbEntity
  8
10
100
AcDbLine
 10
369.75
 20
363.25
 30
0.0
 11
369.75
 21
88.250015
 31
0.0
  0
LINE
  5
D42
100
AcDbEntity
  8
10
100
AcDbLine
 10
367.25
 20
88.250015
 30
0.0
 11
367.25
 21
363.25
 31
0.0
  0
LINE
  5
D43
100
AcDbEntity
  8
10
100
AcDbLine
 10
364.75
 20
363.25
 30
0.0
 11
364.75
 21
88.250015
 31
0.0
  0
LINE
  5
D44
100
AcDbEntity
  8
10
100
AcDbLine
 10
362.25
 20
88.250015
 30
0.0
 11
362.25
 21
363.25
 31
0.0
  0
LINE
  5
D45
100
AcDbEntity
  8
10
100
AcDbLine
 10
359.750061
 20
363.25
 30
0.0
 11
359.750061
 21
88.250015
 31
0.0
  0
LINE
  5
D46
100
AcDbEntity
  8
10
100
AcDbLine
 10
357.25
 20
88.250015
 30
0.0
 11
357.25
 21
363.25
 31
0.0
  0
LINE
  5
D47
100
AcDbEntity
  8
10
100
AcDbLine
 10
354.75
 20
363.25
 30
0.0
 11
354.75
 21
88.250015
 31
0.0
  0
LINE
  5
D48
100
AcDbEntity
  8
10
100
AcDbLine
 10
352.25
 20
88.250015
 30
0.0
 11
352.25
 21
363.25
 31
0.0
  0
LINE
  5
D49
100
AcDbEntity
  8
10
100
AcDbLine
 10
349.75
 20
363.25
 30
0.0
 11
349.75
 21
88.250015
 31
0.0
  0
LINE
  5
D4A
100
AcDbEntity
  8
10
100
AcDbLine
 10
347.25
 20
88.250015
 30
0.0
 11
347.25
 21
363.25
 31
0.0
  0
LINE
  5
D4B
100
AcDbEntity
  8
10
100
AcDbLine
 10
344.75
 20
363.25
 30
0.0
 11
344.75
 21
88.250015
 31
0.0
  0
LINE
  5
D4C
100
AcDbEntity
  8
10
100
AcDbLine
 10
404.75
 20
363.25
 30
0.0
 11
404.75
 21
68.250015
 31
0.0
  0
LINE
  5
D4D
100
AcDbEntity
  8
10
100
AcDbLine
 10
402.25
 20
88.250015
 30
0.0
 11
402.25
 21
363.25
 31
0.0
  0
LINE
  5
D4E
100
AcDbEntity
  8
10
100
AcDbLine
 10
399.75
 20
363.25
 30
0.0
 11
399.75
 21
88.250015
 31
0.0
  0
LINE
  5
D4F
100
AcDbEntity
  8
10
100
AcDbLine
 10
397.25
 20
88.250015
 30
0.0
 11
397.25
 21
363.25
 31
0.0
  0
LINE
  5
D50
100
AcDbEntity
  8
10
100
AcDbLine
 10
394.75
 20
363.25
 30
0.0
 11
394.75
 21
88.250015
 31
0.0
  0
LINE
  5
D51
100
AcDbEntity
  8
10
100
AcDbLine
 10
392.25
 20
88.250015
 30
0.0
 11
392.25
 21
363.25
 31
0.0
  0
LINE
  5
D52
100
AcDbEntity
  8
10
100
AcDbLine
 10
389.75
 20
363.25
 30
0.0
 11
389.75
 21
88.250015
 31
0.0
  0
LINE
  5
D53
100
AcDbEntity
  8
10
100
AcDbLine
 10
387.25
 20
88.250015
 30
0.0
 11
387.25
 21
363.25
 31
0.0
  0
LINE
  5
D54
100
AcDbEntity
  8
10
100
AcDbLine
 10
384.75
 20
363.25
 30
0.0
 11
384.75
 21
88.250015
 31
0.0
  0
LINE
  5
D55
100
AcDbEntity
  8
10
100
AcDbLine
 10
308.0
 20
267.0
 30
0.0
 11
308.0
 21
40.799973
 31
0.0
  0
LINE
  5
D57
100
AcDbEntity
  8
10
100
AcDbLine
 10
190.0
 20
267.0
 30
0.0
 11
190.0
 21
40.799973
 31
0.0
  0
ARC
  5
D58
100
AcDbEntity
  8
10
100
AcDbCircle
 10
326.72691
 20
247.299984
 30
0.0
 40
2.299999
100
AcDbArc
 50
219.166854
 51
266.83693
  0
LINE
  5
D59
100
AcDbEntity
  8
10
100
AcDbLine
 10
327.4
 20
252.499985
 30
0.0
 11
327.4
 21
244.499985
 31
0.0
  0
LINE
  5
D5A
100
AcDbEntity
  8
10
100
AcDbLine
 10
327.9
 20
252.499985
 30
0.0
 11
327.9
 21
244.499985
 31
0.0
  0
LINE
  5
D5B
100
AcDbEntity
  8
10
100
AcDbLine
 10
328.9
 20
244.299985
 30
0.0
 11
328.9
 21
252.699985
 31
0.0
  0
LINE
  5
D5C
100
AcDbEntity
  8
10
100
AcDbLine
 10
327.9
 20
244.599985
 30
0.0
 11
327.9
 21
252.399985
 31
0.0
  0
ARC
  5
D5D
100
AcDbEntity
  8
10
100
AcDbCircle
 10
189.200012
 20
40.799973
 30
0.0
 40
0.8
100
AcDbArc
 50
269.999997
 51
0.0
  0
LINE
  5
D5F
100
AcDbEntity
  8
12
100
AcDbLine
 10
186.0
 20
47.5
 30
0.0
 11
174.0
 21
47.5
 31
0.0
  0
LINE
  5
D62
100
AcDbEntity
  8
12
100
AcDbLine
 10
180.0
 20
53.5
 30
0.0
 11
180.0
 21
41.5
 31
0.0
  0
ARC
  5
D63
100
AcDbEntity
  8
12
100
AcDbCircle
 10
180.0
 20
47.5
 30
0.0
 40
3.0
100
AcDbArc
 50
0.0
 51
180.000005
  0
ARC
  5
D67
100
AcDbEntity
  8
12
100
AcDbCircle
 10
176.0
 20
42.999969
 30
0.0
 40
1.0
100
AcDbArc
 50
269.999997
 51
0.0
  0
LINE
  5
D68
100
AcDbEntity
  8
12
100
AcDbLine
 10
177.0
 20
42.999969
 30
0.0
 11
177.0
 21
47.5
 31
0.0
  0
ARC
  5
D69
100
AcDbEntity
  8
12
100
AcDbCircle
 10
184.0
 20
46.5
 30
0.0
 40
1.0
100
AcDbArc
 50
179.999995
 51
269.999997
  0
LINE
  5
D6A
100
AcDbEntity
  8
12
100
AcDbLine
 10
183.0
 20
47.5
 30
0.0
 11
183.0
 21
46.5
 31
0.0
  0
ARC
  5
D6B
100
AcDbEntity
  8
12
100
AcDbCircle
 10
185.0
 20
46.5
 30
0.0
 40
1.0
100
AcDbArc
 50
269.999997
 51
0.0
  0
LINE
  5
D6C
100
AcDbEntity
  8
12
100
AcDbLine
 10
184.0
 20
45.5
 30
0.0
 11
185.0
 21
45.5
 31
0.0
  0
LINE
  5
D72
100
AcDbEntity
  8
10
100
AcDbLine
 10
323.0
 20
39.999969
 30
0.0
 11
323.0
 21
150.500015
 31
0.0
  0
LINE
  5
D74
100
AcDbEntity
  8
10
100
AcDbLine
 10
323.0
 20
39.999969
 30
0.0
 11
308.799988
 21
39.999969
 31
0.0
  0
ARC
  5
D75
100
AcDbEntity
  8
10
100
AcDbCircle
 10
308.799988
 20
40.799973
 30
0.0
 40
0.8
100
AcDbArc
 50
179.999995
 51
269.999997
  0
LINE
  5
D7D
100
AcDbEntity
  8
10
100
AcDbLine
 10
377.25
 20
118.000015
 30
0.0
 11
374.75
 21
118.000015
 31
0.0
  0
LINE
  5
D7E
100
AcDbEntity
  8
10
100
AcDbLine
 10
377.25
 20
102.000015
 30
0.0
 11
374.75
 21
102.000015
 31
0.0
  0
ARC
  5
D7F
100
AcDbEntity
  8
10
100
AcDbCircle
 10
376.0
 20
88.250015
 30
0.0
 40
1.25
100
AcDbArc
 50
180.000005
 51
0.00001
  0
ARC
  5
D80
100
AcDbEntity
  8
10
100
AcDbCircle
 10
361.0
 20
88.250015
 30
0.0
 40
1.25
100
AcDbArc
 50
180.000005
 51
0.00001
  0
ARC
  5
D81
100
AcDbEntity
  8
10
100
AcDbCircle
 10
346.0
 20
88.250015
 30
0.0
 40
1.25
100
AcDbArc
 50
180.000005
 51
0.00001
  0
ARC
  5
D83
100
AcDbEntity
  8
10
100
AcDbCircle
 10
351.000061
 20
88.250015
 30
0.0
 40
1.25
100
AcDbArc
 50
180.000005
 51
0.00001
  0
ARC
  5
D85
100
AcDbEntity
  8
10
100
AcDbCircle
 10
356.0
 20
88.250015
 30
0.0
 40
1.25
100
AcDbArc
 50
180.000005
 51
0.00001
  0
ARC
  5
D87
100
AcDbEntity
  8
10
100
AcDbCircle
 10
366.0
 20
88.250015
 30
0.0
 40
1.25
100
AcDbArc
 50
180.000005
 51
0.00001
  0
ARC
  5
D88
100
AcDbEntity
  8
10
100
AcDbCircle
 10
371.0
 20
88.250015
 30
0.0
 40
1.25
100
AcDbArc
 50
180.000005
 51
0.00001
  0
LINE
  5
D89
100
AcDbEntity
  8
10
100
AcDbLine
 10
362.25
 20
118.000015
 30
0.0
 11
359.750061
 21
118.000015
 31
0.0
  0
LINE
  5
D8A
100
AcDbEntity
  8
10
100
AcDbLine
 10
362.25
 20
102.000015
 30
0.0
 11
359.750061
 21
102.000015
 31
0.0
  0
LINE
  5
D8B
100
AcDbEntity
  8
10
100
AcDbLine
 10
347.25
 20
102.000015
 30
0.0
 11
344.75
 21
102.000015
 31
0.0
  0
LINE
  5
D8C
100
AcDbEntity
  8
10
100
AcDbLine
 10
352.25
 20
102.000015
 30
0.0
 11
349.75
 21
102.000015
 31
0.0
  0
LINE
  5
D8D
100
AcDbEntity
  8
10
100
AcDbLine
 10
357.25
 20
102.000015
 30
0.0
 11
354.75
 21
102.000015
 31
0.0
  0
LINE
  5
D8E
100
AcDbEntity
  8
10
100
AcDbLine
 10
347.25
 20
118.000015
 30
0.0
 11
344.75
 21
118.000015
 31
0.0
  0
LINE
  5
D8F
100
AcDbEntity
  8
10
100
AcDbLine
 10
352.25
 20
118.000015
 30
0.0
 11
349.75
 21
118.000015
 31
0.0
  0
LINE
  5
D90
100
AcDbEntity
  8
10
100
AcDbLine
 10
357.25
 20
118.000015
 30
0.0
 11
354.75
 21
118.000015
 31
0.0
  0
LINE
  5
D91
100
AcDbEntity
  8
10
100
AcDbLine
 10
367.25
 20
102.000015
 30
0.0
 11
364.75
 21
102.000015
 31
0.0
  0
LINE
  5
D92
100
AcDbEntity
  8
10
100
AcDbLine
 10
372.25
 20
102.000015
 30
0.0
 11
369.75
 21
102.000015
 31
0.0
  0
LINE
  5
D93
100
AcDbEntity
  8
10
100
AcDbLine
 10
367.25
 20
118.000015
 30
0.0
 11
364.75
 21
118.000015
 31
0.0
  0
LINE
  5
D94
100
AcDbEntity
  8
10
100
AcDbLine
 10
372.25
 20
118.000015
 30
0.0
 11
369.75
 21
118.000015
 31
0.0
  0
ARC
  5
D95
100
AcDbEntity
  8
10
100
AcDbCircle
 10
391.0
 20
88.250015
 30
0.0
 40
1.25
100
AcDbArc
 50
180.000005
 51
0.00001
  0
ARC
  5
D96
100
AcDbEntity
  8
10
100
AcDbCircle
 10
381.0
 20
88.250015
 30
0.0
 40
1.25
100
AcDbArc
 50
180.000005
 51
0.00001
  0
ARC
  5
D97
100
AcDbEntity
  8
10
100
AcDbCircle
 10
386.0
 20
88.250015
 30
0.0
 40
1.25
100
AcDbArc
 50
180.000005
 51
0.00001
  0
ARC
  5
D98
100
AcDbEntity
  8
10
100
AcDbCircle
 10
396.0
 20
88.250015
 30
0.0
 40
1.25
100
AcDbArc
 50
180.000005
 51
0.00001
  0
ARC
  5
D99
100
AcDbEntity
  8
10
100
AcDbCircle
 10
401.000061
 20
88.250015
 30
0.0
 40
1.25
100
AcDbArc
 50
180.000005
 51
0.00001
  0
LINE
  5
D9A
100
AcDbEntity
  8
10
100
AcDbLine
 10
392.25
 20
118.000015
 30
0.0
 11
389.75
 21
118.000015
 31
0.0
  0
LINE
  5
D9B
100
AcDbEntity
  8
10
100
AcDbLine
 10
392.25
 20
102.000015
 30
0.0
 11
389.75
 21
102.000015
 31
0.0
  0
LINE
  5
D9C
100
AcDbEntity
  8
10
100
AcDbLine
 10
382.25
 20
102.000015
 30
0.0
 11
379.75
 21
102.000015
 31
0.0
  0
LINE
  5
D9D
100
AcDbEntity
  8
10
100
AcDbLine
 10
387.25
 20
102.000015
 30
0.0
 11
384.75
 21
102.000015
 31
0.0
  0
LINE
  5
D9E
100
AcDbEntity
  8
10
100
AcDbLine
 10
382.25
 20
118.000015
 30
0.0
 11
379.75
 21
118.000015
 31
0.0
  0
LINE
  5
D9F
100
AcDbEntity
  8
10
100
AcDbLine
 10
387.25
 20
118.000015
 30
0.0
 11
384.75
 21
118.000015
 31
0.0
  0
LINE
  5
DA0
100
AcDbEntity
  8
10
100
AcDbLine
 10
397.25
 20
102.000015
 30
0.0
 11
394.75
 21
102.000015
 31
0.0
  0
LINE
  5
DA1
100
AcDbEntity
  8
10
100
AcDbLine
 10
402.25
 20
102.000015
 30
0.0
 11
399.75
 21
102.000015
 31
0.0
  0
LINE
  5
DA2
100
AcDbEntity
  8
10
100
AcDbLine
 10
397.25
 20
118.000015
 30
0.0
 11
394.75
 21
118.000015
 31
0.0
  0
LINE
  5
DA3
100
AcDbEntity
  8
10
100
AcDbLine
 10
402.25
 20
118.000015
 30
0.0
 11
399.75
 21
118.000015
 31
0.0
  0
LINE
  5
DA4
100
AcDbEntity
  8
10
100
AcDbLine
 10
312.5
 20
151.5
 30
0.0
 11
312.5
 21
219.5
 31
0.0
  0
LINE
  5
DA5
100
AcDbEntity
  8
10
100
AcDbLine
 10
311.5
 20
220.499969
 30
0.0
 11
311.5
 21
150.499969
 31
0.0
  0
LINE
  5
DA6
100
AcDbEntity
  8
10
100
AcDbLine
 10
313.5
 20
150.500015
 30
0.0
 11
323.0
 21
150.500015
 31
0.0
  0
LINE
  5
DA7
100
AcDbEntity
  8
10
100
AcDbLine
 10
322.000031
 20
148.499985
 30
0.0
 11
313.5
 21
148.499985
 31
0.0
  0
ARC
  5
DA8
100
AcDbEntity
  8
10
100
AcDbCircle
 10
313.5
 20
151.5
 30
0.0
 40
1.0
100
AcDbArc
 50
179.999995
 51
269.999997
  0
ARC
  5
DA9
100
AcDbEntity
  8
10
100
AcDbCircle
 10
313.5
 20
150.499969
 30
0.0
 40
2.0
100
AcDbArc
 50
179.999995
 51
269.999997
  0
ARC
  5
DAA
100
AcDbEntity
  8
10
100
AcDbCircle
 10
322.000031
 20
147.499969
 30
0.0
 40
1.0
100
AcDbArc
 50
0.0
 51
90.000003
  0
LINE
  5
DAB
100
AcDbEntity
  8
10
100
AcDbLine
 10
313.5
 20
220.5
 30
0.0
 11
323.0
 21
220.5
 31
0.0
  0
LINE
  5
DAC
100
AcDbEntity
  8
10
100
AcDbLine
 10
322.000031
 20
222.499969
 30
0.0
 11
313.5
 21
222.499969
 31
0.0
  0
ARC
  5
DAD
100
AcDbEntity
  8
10
100
AcDbCircle
 10
313.5
 20
219.5
 30
0.0
 40
1.0
100
AcDbArc
 50
90.000003
 51
180.000005
  0
ARC
  5
DAE
100
AcDbEntity
  8
10
100
AcDbCircle
 10
313.5
 20
220.499969
 30
0.0
 40
2.0
100
AcDbArc
 50
90.000003
 51
180.000005
  0
LINE
  5
DAF
100
AcDbEntity
  8
10
100
AcDbLine
 10
323.0
 20
233.5
 30
0.0
 11
333.0
 21
233.5
 31
0.0
  0
LINE
  5
DB0
100
AcDbEntity
  8
10
100
AcDbLine
 10
323.0
 20
242.699985
 30
0.0
 11
333.0
 21
242.699985
 31
0.0
  0
LINE
  5
DB1
100
AcDbEntity
  8
10
100
AcDbLine
 10
323.0
 20
244.299985
 30
0.0
 11
333.0
 21
244.299985
 31
0.0
  0
LINE
  5
DB3
100
AcDbEntity
  8
10
100
AcDbLine
 10
323.0
 20
234.299985
 30
0.0
 11
333.0
 21
234.299985
 31
0.0
  0
LINE
  5
DB4
100
AcDbEntity
  8
10
100
AcDbLine
 10
323.0
 20
220.5
 30
0.0
 11
323.0
 21
268.5
 31
0.0
  0
ARC
  5
DB5
100
AcDbEntity
  8
10
100
AcDbCircle
 10
322.000031
 20
223.499969
 30
0.0
 40
1.0
100
AcDbArc
 50
269.999997
 51
0.0
  0
LINE
  5
DB6
100
AcDbEntity
  8
10
100
AcDbLine
 10
328.9
 20
234.299985
 30
0.0
 11
328.9
 21
242.699985
 31
0.0
  0
LINE
  5
DB7
100
AcDbEntity
  8
10
100
AcDbLine
 10
327.4
 20
244.499985
 30
0.0
 11
327.9
 21
244.499985
 31
0.0
  0
LINE
  5
DB8
100
AcDbEntity
  8
10
100
AcDbLine
 10
327.4
 20
242.499985
 30
0.0
 11
327.9
 21
242.499985
 31
0.0
  0
LINE
  5
DB9
100
AcDbEntity
  8
10
100
AcDbLine
 10
326.6
 20
235.199985
 30
0.0
 11
327.4
 21
235.199985
 31
0.0
  0
LINE
  5
DBA
100
AcDbEntity
  8
10
100
AcDbLine
 10
326.6
 20
241.799985
 30
0.0
 11
327.4
 21
241.799985
 31
0.0
  0
ARC
  5
DBB
100
AcDbEntity
  8
10
100
AcDbCircle
 10
328.2
 20
238.499985
 30
0.0
 40
4.199998
100
AcDbArc
 50
140.8332
 51
219.166782
  0
LINE
  5
DBC
100
AcDbEntity
  8
10
100
AcDbLine
 10
327.4
 20
234.499985
 30
0.0
 11
327.9
 21
234.499985
 31
0.0
  0
ARC
  5
DBD
100
AcDbEntity
  8
10
100
AcDbCircle
 10
326.72691
 20
237.299984
 30
0.0
 40
2.299999
100
AcDbArc
 50
219.166854
 51
266.83693
  0
ARC
  5
DBE
100
AcDbEntity
  8
10
100
AcDbCircle
 10
326.72691
 20
239.699985
 30
0.0
 40
2.299999
100
AcDbArc
 50
93.16307
 51
140.833146
  0
LINE
  5
DBF
100
AcDbEntity
  8
10
100
AcDbLine
 10
326.6
 20
241.99648
 30
0.0
 11
326.6
 21
235.003489
 31
0.0
  0
LINE
  5
DC0
100
AcDbEntity
  8
10
100
AcDbLine
 10
327.4
 20
242.499985
 30
0.0
 11
327.4
 21
234.499985
 31
0.0
  0
LINE
  5
DC1
100
AcDbEntity
  8
10
100
AcDbLine
 10
327.9
 20
242.499985
 30
0.0
 11
327.9
 21
234.499985
 31
0.0
  0
LINE
  5
DC2
100
AcDbEntity
  8
10
100
AcDbLine
 10
327.9
 20
234.599985
 30
0.0
 11
327.9
 21
242.399985
 31
0.0
  0
LINE
  5
DC3
100
AcDbEntity
  8
10
100
AcDbLine
 10
327.9
 20
244.599985
 30
0.0
 11
328.9
 21
244.599985
 31
0.0
  0
LINE
  5
DC4
100
AcDbEntity
  8
10
100
AcDbLine
 10
327.9
 20
242.399985
 30
0.0
 11
328.9
 21
242.399985
 31
0.0
  0
LINE
  5
DC5
100
AcDbEntity
  8
10
100
AcDbLine
 10
327.9
 20
234.599985
 30
0.0
 11
328.9
 21
234.599985
 31
0.0
  0
LINE
  5
DC6
100
AcDbEntity
  8
10
100
AcDbLine
 10
377.25
 20
170.0
 30
0.0
 11
374.75
 21
170.0
 31
0.0
  0
LINE
  5
DC7
100
AcDbEntity
  8
10
100
AcDbLine
 10
362.25
 20
170.0
 30
0.0
 11
359.750061
 21
170.0
 31
0.0
  0
LINE
  5
DC8
100
AcDbEntity
  8
10
100
AcDbLine
 10
347.25
 20
170.0
 30
0.0
 11
344.75
 21
170.0
 31
0.0
  0
LINE
  5
DC9
100
AcDbEntity
  8
10
100
AcDbLine
 10
352.25
 20
170.0
 30
0.0
 11
349.75
 21
170.0
 31
0.0
  0
LINE
  5
DCA
100
AcDbEntity
  8
10
100
AcDbLine
 10
357.25
 20
170.0
 30
0.0
 11
354.75
 21
170.0
 31
0.0
  0
LINE
  5
DCB
100
AcDbEntity
  8
10
100
AcDbLine
 10
367.25
 20
170.0
 30
0.0
 11
364.75
 21
170.0
 31
0.0
  0
LINE
  5
DCC
100
AcDbEntity
  8
10
100
AcDbLine
 10
372.25
 20
170.0
 30
0.0
 11
369.75
 21
170.0
 31
0.0
  0
LINE
  5
DCD
100
AcDbEntity
  8
10
100
AcDbLine
 10
392.25
 20
170.0
 30
0.0
 11
389.75
 21
170.0
 31
0.0
  0
LINE
  5
DCE
100
AcDbEntity
  8
10
100
AcDbLine
 10
382.25
 20
170.0
 30
0.0
 11
379.75
 21
170.0
 31
0.0
  0
LINE
  5
DCF
100
AcDbEntity
  8
10
100
AcDbLine
 10
387.25
 20
170.0
 30
0.0
 11
384.75
 21
170.0
 31
0.0
  0
LINE
  5
DD0
100
AcDbEntity
  8
10
100
AcDbLine
 10
397.25
 20
170.0
 30
0.0
 11
394.75
 21
170.0
 31
0.0
  0
LINE
  5
DD1
100
AcDbEntity
  8
10
100
AcDbLine
 10
402.25
 20
170.0
 30
0.0
 11
399.75
 21
170.0
 31
0.0
  0
LINE
  5
DD2
100
AcDbEntity
  8
10
100
AcDbLine
 10
377.25
 20
238.0
 30
0.0
 11
374.75
 21
238.0
 31
0.0
  0
LINE
  5
DD3
100
AcDbEntity
  8
10
100
AcDbLine
 10
377.25
 20
186.0
 30
0.0
 11
374.75
 21
186.0
 31
0.0
  0
LINE
  5
DD4
100
AcDbEntity
  8
10
100
AcDbLine
 10
362.25
 20
186.0
 30
0.0
 11
359.750061
 21
186.0
 31
0.0
  0
LINE
  5
DD5
100
AcDbEntity
  8
10
100
AcDbLine
 10
347.25
 20
186.0
 30
0.0
 11
344.75
 21
186.0
 31
0.0
  0
LINE
  5
DD6
100
AcDbEntity
  8
10
100
AcDbLine
 10
352.25
 20
186.0
 30
0.0
 11
349.75
 21
186.0
 31
0.0
  0
LINE
  5
DD7
100
AcDbEntity
  8
10
100
AcDbLine
 10
357.25
 20
186.0
 30
0.0
 11
354.75
 21
186.0
 31
0.0
  0
LINE
  5
DD8
100
AcDbEntity
  8
10
100
AcDbLine
 10
367.25
 20
186.0
 30
0.0
 11
364.75
 21
186.0
 31
0.0
  0
LINE
  5
DD9
100
AcDbEntity
  8
10
100
AcDbLine
 10
372.25
 20
186.0
 30
0.0
 11
369.75
 21
186.0
 31
0.0
  0
LINE
  5
DDA
100
AcDbEntity
  8
10
100
AcDbLine
 10
362.25
 20
238.0
 30
0.0
 11
359.750061
 21
238.0
 31
0.0
  0
LINE
  5
DDB
100
AcDbEntity
  8
10
100
AcDbLine
 10
347.25
 20
238.0
 30
0.0
 11
344.75
 21
238.0
 31
0.0
  0
LINE
  5
DDC
100
AcDbEntity
  8
10
100
AcDbLine
 10
352.25
 20
238.0
 30
0.0
 11
349.75
 21
238.0
 31
0.0
  0
LINE
  5
DDD
100
AcDbEntity
  8
10
100
AcDbLine
 10
357.25
 20
238.0
 30
0.0
 11
354.75
 21
238.0
 31
0.0
  0
LINE
  5
DDE
100
AcDbEntity
  8
10
100
AcDbLine
 10
367.25
 20
238.0
 30
0.0
 11
364.75
 21
238.0
 31
0.0
  0
LINE
  5
DDF
100
AcDbEntity
  8
10
100
AcDbLine
 10
372.25
 20
238.0
 30
0.0
 11
369.75
 21
238.0
 31
0.0
  0
LINE
  5
DE0
100
AcDbEntity
  8
10
100
AcDbLine
 10
392.25
 20
186.0
 30
0.0
 11
389.75
 21
186.0
 31
0.0
  0
LINE
  5
DE1
100
AcDbEntity
  8
10
100
AcDbLine
 10
382.25
 20
186.0
 30
0.0
 11
379.75
 21
186.0
 31
0.0
  0
LINE
  5
DE2
100
AcDbEntity
  8
10
100
AcDbLine
 10
387.25
 20
186.0
 30
0.0
 11
384.75
 21
186.0
 31
0.0
  0
LINE
  5
DE3
100
AcDbEntity
  8
10
100
AcDbLine
 10
397.25
 20
186.0
 30
0.0
 11
394.75
 21
186.0
 31
0.0
  0
LINE
  5
DE4
100
AcDbEntity
  8
10
100
AcDbLine
 10
402.25
 20
186.0
 30
0.0
 11
399.75
 21
186.0
 31
0.0
  0
LINE
  5
DE5
100
AcDbEntity
  8
10
100
AcDbLine
 10
392.25
 20
238.0
 30
0.0
 11
389.75
 21
238.0
 31
0.0
  0
LINE
  5
DE6
100
AcDbEntity
  8
10
100
AcDbLine
 10
382.25
 20
238.0
 30
0.0
 11
379.75
 21
238.0
 31
0.0
  0
LINE
  5
DE7
100
AcDbEntity
  8
10
100
AcDbLine
 10
387.25
 20
238.0
 30
0.0
 11
384.75
 21
238.0
 31
0.0
  0
LINE
  5
DE8
100
AcDbEntity
  8
10
100
AcDbLine
 10
397.25
 20
238.0
 30
0.0
 11
394.75
 21
238.0
 31
0.0
  0
LINE
  5
DE9
100
AcDbEntity
  8
10
100
AcDbLine
 10
402.25
 20
238.0
 30
0.0
 11
399.75
 21
238.0
 31
0.0
  0
LINE
  5
DEA
100
AcDbEntity
  8
11
100
AcDbLine
 10
190.0
 20
389.195591
 30
0.0
 11
190.0
 21
349.5
 31
0.0
  0
LINE
  5
DEB
100
AcDbEntity
  8
10
100
AcDbLine
 10
183.899994
 20
276.500031
 30
0.0
 11
183.899994
 21
309.5
 31
0.0
  0
LINE
  5
DED
100
AcDbEntity
  8
10
100
AcDbLine
 10
181.899963
 20
310.5
 30
0.0
 11
181.899963
 21
275.500031
 31
0.0
  0
LINE
  5
DEF
100
AcDbEntity
  8
10
100
AcDbLine
 10
170.399994
 20
275.500031
 30
0.0
 11
170.399994
 21
310.5
 31
0.0
  0
LINE
  5
DF0
100
AcDbEntity
  8
10
100
AcDbLine
 10
166.100006
 20
310.5
 30
0.0
 11
166.100006
 21
275.500031
 31
0.0
  0
LINE
  5
DF1
100
AcDbEntity
  8
10
100
AcDbLine
 10
190.0
 20
349.5
 30
0.0
 11
190.0
 21
267.0
 31
0.0
  0
LINE
  5
DF2
100
AcDbEntity
  8
10
100
AcDbLine
 10
170.850001
 20
309.699986
 30
0.0
 11
170.850001
 21
304.699985
 31
0.0
  0
LINE
  5
DF3
100
AcDbEntity
  8
10
100
AcDbLine
 10
165.649999
 20
309.699986
 30
0.0
 11
165.649999
 21
304.699985
 31
0.0
  0
LINE
  5
DF4
100
AcDbEntity
  8
10
100
AcDbLine
 10
181.0
 20
309.699986
 30
0.0
 11
181.0
 21
276.299984
 31
0.0
  0
LINE
  5
DF5
100
AcDbEntity
  8
10
100
AcDbLine
 10
174.241516
 20
273.191772
 30
0.0
 11
174.068756
 21
272.85437
 31
0.0
  0
LINE
  5
DF6
100
AcDbEntity
  8
10
100
AcDbLine
 10
173.990997
 20
271.36734
 30
0.0
 11
174.127563
 21
271.013916
 31
0.0
  0
LINE
  5
DF7
100
AcDbEntity
  8
10
100
AcDbLine
 10
173.915222
 20
271.738586
 30
0.0
 11
173.990997
 21
271.36734
 31
0.0
  0
LINE
  5
DF8
100
AcDbEntity
  8
10
100
AcDbLine
 10
173.903259
 20
272.117371
 30
0.0
 11
173.915222
 21
271.738586
 31
0.0
  0
LINE
  5
DF9
100
AcDbEntity
  8
10
100
AcDbLine
 10
173.95462
 20
272.492859
 30
0.0
 11
173.903259
 21
272.117371
 31
0.0
  0
LINE
  5
DFA
100
AcDbEntity
  8
10
100
AcDbLine
 10
174.068756
 20
272.85437
 30
0.0
 11
173.95462
 21
272.492859
 31
0.0
  0
LINE
  5
DFB
100
AcDbEntity
  8
10
100
AcDbLine
 10
175.186096
 20
269.966949
 30
0.0
 11
175.541107
 21
269.834198
 31
0.0
  0
LINE
  5
DFC
100
AcDbEntity
  8
10
100
AcDbLine
 10
174.858734
 20
270.157715
 30
0.0
 11
175.186096
 21
269.966949
 31
0.0
  0
LINE
  5
DFD
100
AcDbEntity
  8
10
100
AcDbLine
 10
174.567657
 20
270.400391
 30
0.0
 11
174.858734
 21
270.157715
 31
0.0
  0
LINE
  5
DFE
100
AcDbEntity
  8
10
100
AcDbLine
 10
174.321899
 20
270.68869
 30
0.0
 11
174.567657
 21
270.400391
 31
0.0
  0
LINE
  5
DFF
100
AcDbEntity
  8
10
100
AcDbLine
 10
174.127563
 20
271.013916
 30
0.0
 11
174.321899
 21
270.68869
 31
0.0
  0
LINE
  5
E00
100
AcDbEntity
  8
10
100
AcDbLine
 10
174.468994
 20
273.495239
 30
0.0
 11
174.241516
 21
273.191772
 31
0.0
  0
LINE
  5
E01
100
AcDbEntity
  8
10
100
AcDbLine
 10
174.743866
 20
273.7565
 30
0.0
 11
174.468994
 21
273.495239
 31
0.0
  0
LINE
  5
E02
100
AcDbEntity
  8
10
100
AcDbLine
 10
175.059021
 20
273.96756
 30
0.0
 11
174.743866
 21
273.7565
 31
0.0
  0
LINE
  5
E03
100
AcDbEntity
  8
10
100
AcDbLine
 10
175.404968
 20
274.123077
 30
0.0
 11
175.059021
 21
273.96756
 31
0.0
  0
LINE
  5
E04
100
AcDbEntity
  8
10
100
AcDbLine
 10
175.772156
 20
274.217834
 30
0.0
 11
175.404968
 21
274.123077
 31
0.0
  0
LINE
  5
E05
100
AcDbEntity
  8
10
100
AcDbLine
 10
176.386841
 20
274.237457
 30
0.0
 11
176.149994
 21
274.25
 31
0.0
  0
LINE
  5
E06
100
AcDbEntity
  8
10
100
AcDbLine
 10
176.621033
 20
274.200134
 30
0.0
 11
176.386841
 21
274.237457
 31
0.0
  0
LINE
  5
E07
100
AcDbEntity
  8
10
100
AcDbLine
 10
176.983612
 20
274.08963
 30
0.0
 11
176.621033
 21
274.200134
 31
0.0
  0
LINE
  5
E08
100
AcDbEntity
  8
10
100
AcDbLine
 10
177.322723
 20
273.920197
 30
0.0
 11
176.983612
 21
274.08963
 31
0.0
  0
LINE
  5
E09
100
AcDbEntity
  8
10
100
AcDbLine
 10
177.027893
 20
269.928589
 30
0.0
 11
177.363525
 21
270.105316
 31
0.0
  0
LINE
  5
E0A
100
AcDbEntity
  8
10
100
AcDbLine
 10
176.66745
 20
269.810333
 30
0.0
 11
177.027893
 21
269.928589
 31
0.0
  0
LINE
  5
E0B
100
AcDbEntity
  8
10
100
AcDbLine
 10
176.292358
 20
269.754761
 30
0.0
 11
176.66745
 21
269.810333
 31
0.0
  0
LINE
  5
E0C
100
AcDbEntity
  8
10
100
AcDbLine
 10
177.628082
 20
273.696075
 30
0.0
 11
177.322723
 21
273.920197
 31
0.0
  0
LINE
  5
E0D
100
AcDbEntity
  8
10
100
AcDbLine
 10
177.363525
 20
270.105316
 30
0.0
 11
177.664459
 21
270.336304
 31
0.0
  0
LINE
  5
E0E
100
AcDbEntity
  8
10
100
AcDbLine
 10
177.891876
 20
273.424194
 30
0.0
 11
177.628082
 21
273.696075
 31
0.0
  0
LINE
  5
E0F
100
AcDbEntity
  8
10
100
AcDbLine
 10
178.105835
 20
273.111816
 30
0.0
 11
177.891876
 21
273.424194
 31
0.0
  0
LINE
  5
E10
100
AcDbEntity
  8
10
100
AcDbLine
 10
178.264832
 20
272.768127
 30
0.0
 11
178.105835
 21
273.111816
 31
0.0
  0
LINE
  5
E11
100
AcDbEntity
  8
10
100
AcDbLine
 10
178.363464
 20
272.402496
 30
0.0
 11
178.264832
 21
272.768127
 31
0.0
  0
LINE
  5
E12
100
AcDbEntity
  8
10
100
AcDbLine
 10
178.399841
 20
272.025513
 30
0.0
 11
178.363464
 21
272.402496
 31
0.0
  0
LINE
  5
E13
100
AcDbEntity
  8
10
100
AcDbLine
 10
178.371979
 20
271.647552
 30
0.0
 11
178.399841
 21
272.025513
 31
0.0
  0
LINE
  5
E14
100
AcDbEntity
  8
10
100
AcDbLine
 10
178.281525
 20
271.279541
 30
0.0
 11
178.371979
 21
271.647552
 31
0.0
  0
LINE
  5
E15
100
AcDbEntity
  8
10
100
AcDbLine
 10
178.130005
 20
270.931824
 30
0.0
 11
178.281525
 21
271.279541
 31
0.0
  0
LINE
  5
E16
100
AcDbEntity
  8
10
100
AcDbLine
 10
177.922638
 20
270.614319
 30
0.0
 11
178.130005
 21
270.931824
 31
0.0
  0
LINE
  5
E17
100
AcDbEntity
  8
10
100
AcDbLine
 10
177.664459
 20
270.336304
 30
0.0
 11
177.922638
 21
270.614319
 31
0.0
  0
LINE
  5
E18
100
AcDbEntity
  8
10
100
AcDbLine
 10
175.913269
 20
269.762512
 30
0.0
 11
176.292358
 21
269.754761
 31
0.0
  0
LINE
  5
E19
100
AcDbEntity
  8
10
100
AcDbLine
 10
176.149994
 20
274.25
 30
0.0
 11
175.772156
 21
274.217834
 31
0.0
  0
LINE
  5
E1A
100
AcDbEntity
  8
10
100
AcDbLine
 10
175.541107
 20
269.834198
 30
0.0
 11
175.913269
 21
269.762512
 31
0.0
  0
ARC
  5
E1C
100
AcDbEntity
  8
10
100
AcDbCircle
 10
174.200002
 20
299.816373
 30
0.0
 40
1.2
100
AcDbArc
 50
81.869899
 51
180.000005
  0
LINE
  5
E1D
100
AcDbEntity
  8
10
100
AcDbLine
 10
172.450002
 20
304.774984
 30
0.0
 11
174.650002
 21
304.774984
 31
0.0
  0
LINE
  5
E1E
100
AcDbEntity
  8
10
100
AcDbLine
 10
172.450002
 20
302.274984
 30
0.0
 11
179.850002
 21
302.274984
 31
0.0
  0
ARC
  5
E1F
100
AcDbEntity
  8
10
100
AcDbCircle
 10
174.200002
 20
286.183597
 30
0.0
 40
1.2
100
AcDbArc
 50
179.999995
 51
278.130101
  0
LINE
  5
E20
100
AcDbEntity
  8
10
100
AcDbLine
 10
172.450002
 20
283.724985
 30
0.0
 11
179.850002
 21
283.724985
 31
0.0
  0
LINE
  5
E21
100
AcDbEntity
  8
10
100
AcDbLine
 10
172.450002
 20
281.224985
 30
0.0
 11
174.650002
 21
281.224985
 31
0.0
  0
LINE
  5
E22
100
AcDbEntity
  8
10
100
AcDbLine
 10
181.0
 20
276.299984
 30
0.0
 11
170.850001
 21
276.299984
 31
0.0
  0
LINE
  5
E23
100
AcDbEntity
  8
10
100
AcDbLine
 10
173.000001
 20
286.183597
 30
0.0
 11
173.000001
 21
299.816373
 31
0.0
  0
LINE
  5
E24
100
AcDbEntity
  8
10
100
AcDbLine
 10
158.999998
 20
286.299985
 30
0.0
 11
158.999998
 21
299.699985
 31
0.0
  0
LINE
  5
E25
100
AcDbEntity
  8
10
100
AcDbLine
 10
161.699999
 20
286.299985
 30
0.0
 11
161.699999
 21
299.699985
 31
0.0
  0
LINE
  5
E26
100
AcDbEntity
  8
10
100
AcDbLine
 10
171.6
 20
304.699985
 30
0.0
 11
171.6
 21
281.299985
 31
0.0
  0
LINE
  5
E27
100
AcDbEntity
  8
10
100
AcDbLine
 10
164.799999
 20
304.699985
 30
0.0
 11
164.799999
 21
281.299985
 31
0.0
  0
LINE
  5
E28
100
AcDbEntity
  8
10
100
AcDbLine
 10
163.499998
 20
286.740739
 30
0.0
 11
163.499998
 21
299.259231
 31
0.0
  0
LINE
  5
E29
100
AcDbEntity
  8
10
100
AcDbLine
 10
158.999998
 20
286.299985
 30
0.0
 11
161.699999
 21
286.299985
 31
0.0
  0
LINE
  5
E2A
100
AcDbEntity
  8
10
100
AcDbLine
 10
158.849998
 20
283.074985
 30
0.0
 11
161.849998
 21
283.074985
 31
0.0
  0
ARC
  5
E2B
100
AcDbEntity
  8
10
100
AcDbCircle
 10
162.299999
 20
286.740739
 30
0.0
 40
1.2
100
AcDbArc
 50
278.130101
 51
0.0
  0
LINE
  5
E2C
100
AcDbEntity
  8
10
100
AcDbLine
 10
165.649999
 20
281.299985
 30
0.0
 11
164.799999
 21
281.299985
 31
0.0
  0
LINE
  5
E2D
100
AcDbEntity
  8
10
100
AcDbLine
 10
161.849998
 20
281.224985
 30
0.0
 11
164.049999
 21
281.224985
 31
0.0
  0
CIRCLE
  5
E2E
100
AcDbEntity
  8
10
100
AcDbCircle
 10
160.349998
 20
279.274984
 30
0.0
 40
1.0
  0
LINE
  5
E2F
100
AcDbEntity
  8
10
100
AcDbLine
 10
165.649999
 20
281.299985
 30
0.0
 11
165.649999
 21
276.299984
 31
0.0
  0
LINE
  5
E30
100
AcDbEntity
  8
10
100
AcDbLine
 10
158.849998
 20
283.724985
 30
0.0
 11
158.849998
 21
281.224985
 31
0.0
  0
LINE
  5
E31
100
AcDbEntity
  8
10
100
AcDbLine
 10
161.849998
 20
283.724985
 30
0.0
 11
161.849998
 21
281.224985
 31
0.0
  0
LINE
  5
E32
100
AcDbEntity
  8
10
100
AcDbLine
 10
164.049999
 20
283.724985
 30
0.0
 11
164.049999
 21
281.224985
 31
0.0
  0
LINE
  5
E33
100
AcDbEntity
  8
10
100
AcDbLine
 10
171.6
 20
281.299985
 30
0.0
 11
170.850001
 21
281.299985
 31
0.0
  0
LINE
  5
E34
100
AcDbEntity
  8
10
100
AcDbLine
 10
170.850001
 20
281.299985
 30
0.0
 11
170.850001
 21
276.299984
 31
0.0
  0
LINE
  5
E35
100
AcDbEntity
  8
10
100
AcDbLine
 10
172.450002
 20
283.724985
 30
0.0
 11
172.450002
 21
281.224985
 31
0.0
  0
LINE
  5
E36
100
AcDbEntity
  8
10
100
AcDbLine
 10
165.649999
 20
304.699985
 30
0.0
 11
164.799999
 21
304.699985
 31
0.0
  0
LINE
  5
E37
100
AcDbEntity
  8
10
100
AcDbLine
 10
161.849998
 20
304.774984
 30
0.0
 11
164.049999
 21
304.774984
 31
0.0
  0
LINE
  5
E38
100
AcDbEntity
  8
10
100
AcDbLine
 10
158.999998
 20
299.699985
 30
0.0
 11
161.699999
 21
299.699985
 31
0.0
  0
LINE
  5
E39
100
AcDbEntity
  8
10
100
AcDbLine
 10
158.849998
 20
302.924985
 30
0.0
 11
161.849998
 21
302.924985
 31
0.0
  0
ARC
  5
E3A
100
AcDbEntity
  8
10
100
AcDbCircle
 10
162.299999
 20
299.259231
 30
0.0
 40
1.2
100
AcDbArc
 50
0.0
 51
81.869899
  0
LINE
  5
E3B
100
AcDbEntity
  8
10
100
AcDbLine
 10
158.849998
 20
304.774984
 30
0.0
 11
158.849998
 21
302.274984
 31
0.0
  0
LINE
  5
E3C
100
AcDbEntity
  8
10
100
AcDbLine
 10
161.849998
 20
304.774984
 30
0.0
 11
161.849998
 21
302.274984
 31
0.0
  0
LINE
  5
E3D
100
AcDbEntity
  8
10
100
AcDbLine
 10
164.049999
 20
304.774984
 30
0.0
 11
164.049999
 21
302.274984
 31
0.0
  0
LINE
  5
E3E
100
AcDbEntity
  8
10
100
AcDbLine
 10
171.6
 20
304.699985
 30
0.0
 11
170.850001
 21
304.699985
 31
0.0
  0
LINE
  5
E3F
100
AcDbEntity
  8
10
100
AcDbLine
 10
172.450002
 20
304.774984
 30
0.0
 11
172.450002
 21
302.274984
 31
0.0
  0
LINE
  5
E40
100
AcDbEntity
  8
10
100
AcDbLine
 10
177.500001
 20
286.299985
 30
0.0
 11
177.500001
 21
299.699985
 31
0.0
  0
LINE
  5
E41
100
AcDbEntity
  8
10
100
AcDbLine
 10
174.800002
 20
286.299985
 30
0.0
 11
174.800002
 21
299.699985
 31
0.0
  0
LINE
  5
E42
100
AcDbEntity
  8
10
100
AcDbLine
 10
179.300002
 20
286.740739
 30
0.0
 11
179.300002
 21
299.259231
 31
0.0
  0
ARC
  5
E45
100
AcDbEntity
  8
10
100
AcDbCircle
 10
178.100002
 20
286.740739
 30
0.0
 40
1.2
100
AcDbArc
 50
278.130101
 51
0.0
  0
LINE
  5
E46
100
AcDbEntity
  8
10
100
AcDbLine
 10
174.800002
 20
286.299985
 30
0.0
 11
177.500001
 21
286.299985
 31
0.0
  0
LINE
  5
E47
100
AcDbEntity
  8
10
100
AcDbLine
 10
178.269706
 20
285.5528
 30
0.0
 11
174.369707
 21
284.995657
 31
0.0
  0
LINE
  5
E48
100
AcDbEntity
  8
10
100
AcDbLine
 10
174.650002
 20
283.074985
 30
0.0
 11
177.650002
 21
283.074985
 31
0.0
  0
LINE
  5
E49
100
AcDbEntity
  8
10
100
AcDbLine
 10
177.650002
 20
281.224985
 30
0.0
 11
179.850002
 21
281.224985
 31
0.0
  0
CIRCLE
  5
E4A
100
AcDbEntity
  8
10
100
AcDbCircle
 10
176.150002
 20
279.274984
 30
0.0
 40
1.0
  0
LINE
  5
E4B
100
AcDbEntity
  8
10
100
AcDbLine
 10
179.850002
 20
283.724985
 30
0.0
 11
179.850002
 21
281.224985
 31
0.0
  0
LINE
  5
E4C
100
AcDbEntity
  8
10
100
AcDbLine
 10
174.650002
 20
283.724985
 30
0.0
 11
174.650002
 21
281.224985
 31
0.0
  0
LINE
  5
E4D
100
AcDbEntity
  8
10
100
AcDbLine
 10
177.650002
 20
283.724985
 30
0.0
 11
177.650002
 21
281.224985
 31
0.0
  0
ARC
  5
E4E
100
AcDbEntity
  8
10
100
AcDbCircle
 10
182.899994
 20
276.500031
 30
0.0
 40
1.0
100
AcDbArc
 50
270.0
 51
360.0
  0
LINE
  5
E4F
100
AcDbEntity
  8
10
100
AcDbLine
 10
177.650002
 20
304.774984
 30
0.0
 11
179.850002
 21
304.774984
 31
0.0
  0
LINE
  5
E50
100
AcDbEntity
  8
10
100
AcDbLine
 10
174.800002
 20
299.699985
 30
0.0
 11
177.500001
 21
299.699985
 31
0.0
  0
LINE
  5
E51
100
AcDbEntity
  8
10
100
AcDbLine
 10
178.269706
 20
300.44717
 30
0.0
 11
174.369707
 21
301.004313
 31
0.0
  0
LINE
  5
E52
100
AcDbEntity
  8
10
100
AcDbLine
 10
174.650002
 20
302.924985
 30
0.0
 11
177.650002
 21
302.924985
 31
0.0
  0
ARC
  5
E53
100
AcDbEntity
  8
10
100
AcDbCircle
 10
178.100002
 20
299.259231
 30
0.0
 40
1.2
100
AcDbArc
 50
0.0
 51
81.869899
  0
LINE
  5
E54
100
AcDbEntity
  8
10
100
AcDbLine
 10
179.850002
 20
304.774984
 30
0.0
 11
179.850002
 21
302.274984
 31
0.0
  0
LINE
  5
E55
100
AcDbEntity
  8
10
100
AcDbLine
 10
174.650002
 20
304.774984
 30
0.0
 11
174.650002
 21
302.274984
 31
0.0
  0
LINE
  5
E56
100
AcDbEntity
  8
10
100
AcDbLine
 10
177.650002
 20
304.774984
 30
0.0
 11
177.650002
 21
302.274984
 31
0.0
  0
LINE
  5
E58
100
AcDbEntity
  8
10
100
AcDbLine
 10
170.399994
 20
312.5
 30
0.0
 11
170.399994
 21
347.499969
 31
0.0
  0
LINE
  5
E59
100
AcDbEntity
  8
10
100
AcDbLine
 10
166.100006
 20
347.499969
 30
0.0
 11
166.100006
 21
312.5
 31
0.0
  0
LINE
  5
E5A
100
AcDbEntity
  8
10
100
AcDbLine
 10
183.899994
 20
313.5
 30
0.0
 11
183.899994
 21
346.499969
 31
0.0
  0
LINE
  5
E5C
100
AcDbEntity
  8
10
100
AcDbLine
 10
181.899963
 20
347.499969
 30
0.0
 11
181.899963
 21
312.5
 31
0.0
  0
LINE
  5
E5D
100
AcDbEntity
  8
10
100
AcDbLine
 10
177.500001
 20
323.299985
 30
0.0
 11
177.500001
 21
336.699985
 31
0.0
  0
LINE
  5
E5E
100
AcDbEntity
  8
10
100
AcDbLine
 10
174.800002
 20
323.299985
 30
0.0
 11
174.800002
 21
336.699985
 31
0.0
  0
LINE
  5
E5F
100
AcDbEntity
  8
10
100
AcDbLine
 10
173.000001
 20
323.183597
 30
0.0
 11
173.000001
 21
336.816373
 31
0.0
  0
LINE
  5
E60
100
AcDbEntity
  8
10
100
AcDbLine
 10
181.0
 20
346.699986
 30
0.0
 11
181.0
 21
313.299984
 31
0.0
  0
LINE
  5
E61
100
AcDbEntity
  8
10
100
AcDbLine
 10
179.300002
 20
323.740739
 30
0.0
 11
179.300002
 21
336.259231
 31
0.0
  0
LINE
  5
E62
100
AcDbEntity
  8
10
100
AcDbLine
 10
158.999998
 20
323.299985
 30
0.0
 11
158.999998
 21
336.699985
 31
0.0
  0
LINE
  5
E63
100
AcDbEntity
  8
10
100
AcDbLine
 10
161.699999
 20
323.299985
 30
0.0
 11
161.699999
 21
336.699985
 31
0.0
  0
LINE
  5
E64
100
AcDbEntity
  8
10
100
AcDbLine
 10
171.6
 20
341.699985
 30
0.0
 11
171.6
 21
318.299985
 31
0.0
  0
LINE
  5
E65
100
AcDbEntity
  8
10
100
AcDbLine
 10
164.799999
 20
341.699985
 30
0.0
 11
164.799999
 21
318.299985
 31
0.0
  0
LINE
  5
E66
100
AcDbEntity
  8
10
100
AcDbLine
 10
163.499998
 20
323.740739
 30
0.0
 11
163.499998
 21
336.259231
 31
0.0
  0
ARC
  5
E69
100
AcDbEntity
  8
10
100
AcDbCircle
 10
174.200002
 20
323.183597
 30
0.0
 40
1.2
100
AcDbArc
 50
179.999995
 51
278.130101
  0
LINE
  5
E6A
100
AcDbEntity
  8
10
100
AcDbLine
 10
172.450002
 20
318.224985
 30
0.0
 11
174.650002
 21
318.224985
 31
0.0
  0
LINE
  5
E6B
100
AcDbEntity
  8
10
100
AcDbLine
 10
172.450002
 20
320.724985
 30
0.0
 11
179.850002
 21
320.724985
 31
0.0
  0
LINE
  5
E6C
100
AcDbEntity
  8
10
100
AcDbLine
 10
181.0
 20
313.299984
 30
0.0
 11
170.850001
 21
313.299984
 31
0.0
  0
LINE
  5
E6D
100
AcDbEntity
  8
10
100
AcDbLine
 10
181.0
 20
309.699986
 30
0.0
 11
170.850001
 21
309.699986
 31
0.0
  0
LINE
  5
E6E
100
AcDbEntity
  8
10
100
AcDbLine
 10
172.450002
 20
320.724985
 30
0.0
 11
172.450002
 21
318.224985
 31
0.0
  0
LINE
  5
E6F
100
AcDbEntity
  8
10
100
AcDbLine
 10
158.849998
 20
320.724985
 30
0.0
 11
158.849998
 21
318.224985
 31
0.0
  0
LINE
  5
E70
100
AcDbEntity
  8
10
100
AcDbLine
 10
161.849998
 20
320.724985
 30
0.0
 11
161.849998
 21
318.224985
 31
0.0
  0
LINE
  5
E71
100
AcDbEntity
  8
10
100
AcDbLine
 10
164.049999
 20
320.724985
 30
0.0
 11
164.049999
 21
318.224985
 31
0.0
  0
LINE
  5
E72
100
AcDbEntity
  8
10
100
AcDbLine
 10
165.649999
 20
318.299985
 30
0.0
 11
164.799999
 21
318.299985
 31
0.0
  0
LINE
  5
E73
100
AcDbEntity
  8
10
100
AcDbLine
 10
158.849998
 20
320.074985
 30
0.0
 11
161.849998
 21
320.074985
 31
0.0
  0
LINE
  5
E74
100
AcDbEntity
  8
10
100
AcDbLine
 10
161.849998
 20
318.224985
 30
0.0
 11
164.049999
 21
318.224985
 31
0.0
  0
CIRCLE
  5
E75
100
AcDbEntity
  8
10
100
AcDbCircle
 10
160.349998
 20
316.274984
 30
0.0
 40
1.0
  0
LINE
  5
E76
100
AcDbEntity
  8
10
100
AcDbLine
 10
165.649999
 20
318.299985
 30
0.0
 11
165.649999
 21
313.299984
 31
0.0
  0
CIRCLE
  5
E77
100
AcDbEntity
  8
10
100
AcDbCircle
 10
160.349998
 20
306.724985
 30
0.0
 40
1.0
  0
LINE
  5
E78
100
AcDbEntity
  8
10
100
AcDbLine
 10
171.6
 20
318.299985
 30
0.0
 11
170.850001
 21
318.299985
 31
0.0
  0
LINE
  5
E79
100
AcDbEntity
  8
10
100
AcDbLine
 10
170.850001
 20
318.299985
 30
0.0
 11
170.850001
 21
313.299984
 31
0.0
  0
LINE
  5
E7A
100
AcDbEntity
  8
10
100
AcDbLine
 10
158.999998
 20
323.299985
 30
0.0
 11
161.699999
 21
323.299985
 31
0.0
  0
ARC
  5
E7B
100
AcDbEntity
  8
10
100
AcDbCircle
 10
162.299999
 20
323.740739
 30
0.0
 40
1.2
100
AcDbArc
 50
278.130101
 51
0.0
  0
LINE
  5
E7C
100
AcDbEntity
  8
10
100
AcDbLine
 10
179.850002
 20
320.724985
 30
0.0
 11
179.850002
 21
318.224985
 31
0.0
  0
LINE
  5
E7D
100
AcDbEntity
  8
10
100
AcDbLine
 10
174.650002
 20
320.724985
 30
0.0
 11
174.650002
 21
318.224985
 31
0.0
  0
LINE
  5
E7E
100
AcDbEntity
  8
10
100
AcDbLine
 10
177.650002
 20
320.724985
 30
0.0
 11
177.650002
 21
318.224985
 31
0.0
  0
LINE
  5
E83
100
AcDbEntity
  8
10
100
AcDbLine
 10
174.650002
 20
320.074985
 30
0.0
 11
177.650002
 21
320.074985
 31
0.0
  0
LINE
  5
E84
100
AcDbEntity
  8
10
100
AcDbLine
 10
177.650002
 20
318.224985
 30
0.0
 11
179.850002
 21
318.224985
 31
0.0
  0
CIRCLE
  5
E85
100
AcDbEntity
  8
10
100
AcDbCircle
 10
176.150002
 20
316.274984
 30
0.0
 40
1.0
  0
CIRCLE
  5
E86
100
AcDbEntity
  8
10
100
AcDbCircle
 10
176.150002
 20
306.724985
 30
0.0
 40
1.0
  0
ARC
  5
E87
100
AcDbEntity
  8
10
100
AcDbCircle
 10
182.899994
 20
309.5
 30
0.0
 40
1.0
100
AcDbArc
 50
0.0
 51
90.0
  0
ARC
  5
E88
100
AcDbEntity
  8
10
100
AcDbCircle
 10
182.899994
 20
313.5
 30
0.0
 40
1.0
100
AcDbArc
 50
270.0
 51
0.0
  0
ARC
  5
E89
100
AcDbEntity
  8
10
100
AcDbCircle
 10
178.100002
 20
323.740739
 30
0.0
 40
1.2
100
AcDbArc
 50
278.130101
 51
0.0
  0
LINE
  5
E8A
100
AcDbEntity
  8
10
100
AcDbLine
 10
174.800002
 20
323.299985
 30
0.0
 11
177.500001
 21
323.299985
 31
0.0
  0
LINE
  5
E8B
100
AcDbEntity
  8
10
100
AcDbLine
 10
178.269706
 20
322.5528
 30
0.0
 11
174.369707
 21
321.995657
 31
0.0
  0
LINE
  5
E8D
100
AcDbEntity
  8
10
100
AcDbLine
 10
172.450002
 20
341.774984
 30
0.0
 11
174.650002
 21
341.774984
 31
0.0
  0
LINE
  5
E8E
100
AcDbEntity
  8
10
100
AcDbLine
 10
172.450002
 20
339.274984
 30
0.0
 11
179.850002
 21
339.274984
 31
0.0
  0
LINE
  5
E8F
100
AcDbEntity
  8
10
100
AcDbLine
 10
181.0
 20
346.699986
 30
0.0
 11
170.850001
 21
346.699986
 31
0.0
  0
ARC
  5
E90
100
AcDbEntity
  8
10
100
AcDbCircle
 10
174.200002
 20
336.816373
 30
0.0
 40
1.2
100
AcDbArc
 50
81.869899
 51
180.000005
  0
LINE
  5
E91
100
AcDbEntity
  8
10
100
AcDbLine
 10
165.649999
 20
341.699985
 30
0.0
 11
164.799999
 21
341.699985
 31
0.0
  0
LINE
  5
E92
100
AcDbEntity
  8
10
100
AcDbLine
 10
158.849998
 20
339.924985
 30
0.0
 11
161.849998
 21
339.924985
 31
0.0
  0
LINE
  5
E93
100
AcDbEntity
  8
10
100
AcDbLine
 10
158.849998
 20
341.774984
 30
0.0
 11
158.849998
 21
339.274984
 31
0.0
  0
LINE
  5
E94
100
AcDbEntity
  8
10
100
AcDbLine
 10
161.849998
 20
341.774984
 30
0.0
 11
164.049999
 21
341.774984
 31
0.0
  0
LINE
  5
E95
100
AcDbEntity
  8
10
100
AcDbLine
 10
161.849998
 20
341.774984
 30
0.0
 11
161.849998
 21
339.274984
 31
0.0
  0
LINE
  5
E96
100
AcDbEntity
  8
10
100
AcDbLine
 10
164.049999
 20
341.774984
 30
0.0
 11
164.049999
 21
339.274984
 31
0.0
  0
CIRCLE
  5
E97
100
AcDbEntity
  8
10
100
AcDbCircle
 10
160.349998
 20
343.724985
 30
0.0
 40
1.0
  0
LINE
  5
E98
100
AcDbEntity
  8
10
100
AcDbLine
 10
165.649999
 20
346.699986
 30
0.0
 11
165.649999
 21
341.699985
 31
0.0
  0
LINE
  5
E99
100
AcDbEntity
  8
10
100
AcDbLine
 10
158.999998
 20
336.699985
 30
0.0
 11
161.699999
 21
336.699985
 31
0.0
  0
ARC
  5
E9A
100
AcDbEntity
  8
10
100
AcDbCircle
 10
162.299999
 20
336.259231
 30
0.0
 40
1.2
100
AcDbArc
 50
0.0
 51
81.869899
  0
LINE
  5
E9B
100
AcDbEntity
  8
10
100
AcDbLine
 10
172.450002
 20
341.774984
 30
0.0
 11
172.450002
 21
339.274984
 31
0.0
  0
LINE
  5
E9C
100
AcDbEntity
  8
10
100
AcDbLine
 10
171.6
 20
341.699985
 30
0.0
 11
170.850001
 21
341.699985
 31
0.0
  0
LINE
  5
E9D
100
AcDbEntity
  8
10
100
AcDbLine
 10
170.850001
 20
346.699986
 30
0.0
 11
170.850001
 21
341.699985
 31
0.0
  0
LINE
  5
EA0
100
AcDbEntity
  8
10
100
AcDbLine
 10
179.850002
 20
341.774984
 30
0.0
 11
179.850002
 21
339.274984
 31
0.0
  0
LINE
  5
EA1
100
AcDbEntity
  8
10
100
AcDbLine
 10
174.650002
 20
339.924985
 30
0.0
 11
177.650002
 21
339.924985
 31
0.0
  0
CIRCLE
  5
EA2
100
AcDbEntity
  8
10
100
AcDbCircle
 10
176.150002
 20
343.724985
 30
0.0
 40
1.0
  0
LINE
  5
EA3
100
AcDbEntity
  8
10
100
AcDbLine
 10
174.650002
 20
341.774984
 30
0.0
 11
174.650002
 21
339.274984
 31
0.0
  0
LINE
  5
EA4
100
AcDbEntity
  8
10
100
AcDbLine
 10
177.650002
 20
341.774984
 30
0.0
 11
177.650002
 21
339.274984
 31
0.0
  0
LINE
  5
EA5
100
AcDbEntity
  8
10
100
AcDbLine
 10
177.650002
 20
341.774984
 30
0.0
 11
179.850002
 21
341.774984
 31
0.0
  0
LINE
  5
EA6
100
AcDbEntity
  8
10
100
AcDbLine
 10
174.800002
 20
336.699985
 30
0.0
 11
177.500001
 21
336.699985
 31
0.0
  0
ARC
  5
EA7
100
AcDbEntity
  8
10
100
AcDbCircle
 10
178.100002
 20
336.259231
 30
0.0
 40
1.2
100
AcDbArc
 50
0.0
 51
81.869899
  0
LINE
  5
EA8
100
AcDbEntity
  8
10
100
AcDbLine
 10
178.269706
 20
337.44717
 30
0.0
 11
174.369707
 21
338.004313
 31
0.0
  0
ARC
  5
EA9
100
AcDbEntity
  8
10
100
AcDbCircle
 10
182.899994
 20
346.499969
 30
0.0
 40
1.0
100
AcDbArc
 50
0.0
 51
90.0
  0
ARC
  5
EAB
100
AcDbEntity
  8
11
100
AcDbCircle
 10
189.200012
 20
389.200012
 30
0.0
 40
0.8
100
AcDbArc
 50
359.683327
 51
90.316673
  0
LINE
  5
EAC
100
AcDbEntity
  8
12
100
AcDbLine
 10
186.0
 20
382.499992
 30
0.0
 11
174.0
 21
382.499992
 31
0.0
  0
LINE
  5
EB1
100
AcDbEntity
  8
12
100
AcDbLine
 10
180.0
 20
376.499992
 30
0.0
 11
180.0
 21
388.499992
 31
0.0
  0
LINE
  5
EC5
100
AcDbEntity
  8
10
100
AcDbLine
 10
316.0
 20
384.5
 30
0.0
 11
316.0
 21
351.223389
 31
0.0
  0
LINE
  5
EC6
100
AcDbEntity
  8
10
100
AcDbLine
 10
308.0
 20
390.0
 30
0.0
 11
308.0
 21
349.5
 31
0.0
  0
LINE
  5
EC7
100
AcDbEntity
  8
10
100
AcDbLine
 10
316.0
 20
385.0
 30
0.0
 11
316.0
 21
351.607075
 31
0.0
  0
LINE
  5
EC8
100
AcDbEntity
  8
10
100
AcDbLine
 10
342.25
 20
278.75
 30
0.0
 11
342.25
 21
363.25
 31
0.0
  0
LINE
  5
EC9
100
AcDbEntity
  8
10
100
AcDbLine
 10
339.75
 20
363.25
 30
0.0
 11
339.75
 21
278.75
 31
0.0
  0
LINE
  5
ECA
100
AcDbEntity
  8
10
100
AcDbLine
 10
337.25
 20
278.75
 30
0.0
 11
337.25
 21
363.25
 31
0.0
  0
LINE
  5
ECB
100
AcDbEntity
  8
10
100
AcDbLine
 10
334.75
 20
363.25
 30
0.0
 11
334.75
 21
278.75
 31
0.0
  0
LINE
  5
ECC
100
AcDbEntity
  8
10
100
AcDbLine
 10
332.25
 20
278.75
 30
0.0
 11
332.25
 21
363.25
 31
0.0
  0
LINE
  5
ECD
100
AcDbEntity
  8
10
100
AcDbLine
 10
329.75
 20
363.25
 30
0.0
 11
329.75
 21
278.75
 31
0.0
  0
LINE
  5
ECE
100
AcDbEntity
  8
10
100
AcDbLine
 10
327.25
 20
278.75
 30
0.0
 11
327.25
 21
363.25
 31
0.0
  0
LINE
  5
ECF
100
AcDbEntity
  8
10
100
AcDbLine
 10
324.75
 20
363.25
 30
0.0
 11
324.75
 21
278.75
 31
0.0
  0
LINE
  5
ED0
100
AcDbEntity
  8
10
100
AcDbLine
 10
308.595947
 20
275.500031
 30
0.0
 11
308.595947
 21
310.5
 31
0.0
  0
LINE
  5
ED1
100
AcDbEntity
  8
10
100
AcDbLine
 10
308.256348
 20
310.5
 30
0.0
 11
308.256348
 21
275.500031
 31
0.0
  0
LINE
  5
ED2
100
AcDbEntity
  8
10
100
AcDbLine
 10
308.0
 20
268.5
 30
0.0
 11
323.0
 21
268.5
 31
0.0
  0
LINE
  5
ED3
100
AcDbEntity
  8
10
100
AcDbLine
 10
308.0
 20
267.0
 30
0.0
 11
322.000031
 21
267.0
 31
0.0
  0
LINE
  5
ED4
100
AcDbEntity
  8
10
100
AcDbLine
 10
308.0
 20
275.500031
 30
0.0
 11
308.0
 21
268.5
 31
0.0
  0
LINE
  5
ED5
100
AcDbEntity
  8
10
100
AcDbLine
 10
312.5
 20
267.0
 30
0.0
 11
312.5
 21
268.5
 31
0.0
  0
LINE
  5
EFC
100
AcDbEntity
  8
10
100
AcDbLine
 10
308.0
 20
275.500031
 30
0.0
 11
308.595947
 21
275.500031
 31
0.0
  0
LINE
  5
EFD
100
AcDbEntity
  8
10
100
AcDbLine
 10
330.0
 20
264.5
 30
0.0
 11
325.0
 21
264.5
 31
0.0
  0
LINE
  5
EFE
100
AcDbEntity
  8
10
100
AcDbLine
 10
323.0
 20
253.5
 30
0.0
 11
333.0
 21
253.5
 31
0.0
  0
LINE
  5
EFF
100
AcDbEntity
  8
10
100
AcDbLine
 10
325.0
 20
256.5
 30
0.0
 11
330.0
 21
256.5
 31
0.0
  0
LINE
  5
F01
100
AcDbEntity
  8
10
100
AcDbLine
 10
323.0
 20
252.699985
 30
0.0
 11
333.0
 21
252.699985
 31
0.0
  0
LINE
  5
F02
100
AcDbEntity
  8
10
100
AcDbLine
 10
329.0
 20
262.999969
 30
0.0
 11
329.0
 21
257.999969
 31
0.0
  0
LINE
  5
F04
100
AcDbEntity
  8
10
100
AcDbLine
 10
325.0
 20
264.5
 30
0.0
 11
325.0
 21
256.5
 31
0.0
  0
LINE
  5
F05
100
AcDbEntity
  8
10
100
AcDbLine
 10
325.0
 20
257.999969
 30
0.0
 11
325.0
 21
262.999969
 31
0.0
  0
LINE
  5
F06
100
AcDbEntity
  8
10
100
AcDbLine
 10
329.0
 20
257.999969
 30
0.0
 11
329.0
 21
257.499969
 31
0.0
  0
LINE
  5
F07
100
AcDbEntity
  8
10
100
AcDbLine
 10
327.353577
 20
257.999969
 30
0.0
 11
327.22699
 21
257.999969
 31
0.0
  0
LINE
  5
F08
100
AcDbEntity
  8
10
100
AcDbLine
 10
327.22699
 20
257.999969
 30
0.0
 11
327.078217
 21
257.999969
 31
0.0
  0
LINE
  5
F09
100
AcDbEntity
  8
10
100
AcDbLine
 10
327.078217
 20
257.999969
 30
0.0
 11
326.921783
 21
257.999969
 31
0.0
  0
LINE
  5
F0A
100
AcDbEntity
  8
10
100
AcDbLine
 10
326.921783
 20
257.999969
 30
0.0
 11
326.77301
 21
257.999969
 31
0.0
  0
LINE
  5
F0B
100
AcDbEntity
  8
10
100
AcDbLine
 10
326.77301
 20
257.999969
 30
0.0
 11
326.646454
 21
257.999969
 31
0.0
  0
LINE
  5
F0C
100
AcDbEntity
  8
10
100
AcDbLine
 10
326.646454
 20
257.999969
 30
0.0
 11
325.0
 21
257.999969
 31
0.0
  0
ARC
  5
F0D
100
AcDbEntity
  8
10
100
AcDbCircle
 10
326.72691
 20
249.699985
 30
0.0
 40
2.299999
100
AcDbArc
 50
93.16307
 51
140.833146
  0
LINE
  5
F0E
100
AcDbEntity
  8
10
100
AcDbLine
 10
327.4
 20
252.499985
 30
0.0
 11
327.9
 21
252.499985
 31
0.0
  0
LINE
  5
F0F
100
AcDbEntity
  8
10
100
AcDbLine
 10
326.6
 20
251.799985
 30
0.0
 11
327.4
 21
251.799985
 31
0.0
  0
LINE
  5
F10
100
AcDbEntity
  8
10
100
AcDbLine
 10
326.6
 20
245.199985
 30
0.0
 11
327.4
 21
245.199985
 31
0.0
  0
ARC
  5
F11
100
AcDbEntity
  8
10
100
AcDbCircle
 10
328.2
 20
248.499985
 30
0.0
 40
4.199998
100
AcDbArc
 50
140.8332
 51
219.166782
  0
LINE
  5
F12
100
AcDbEntity
  8
10
100
AcDbLine
 10
329.0
 20
257.999969
 30
0.0
 11
327.353577
 21
257.999969
 31
0.0
  0
LINE
  5
F13
100
AcDbEntity
  8
10
100
AcDbLine
 10
325.0
 20
257.499969
 30
0.0
 11
329.0
 21
257.499969
 31
0.0
  0
LINE
  5
F14
100
AcDbEntity
  8
10
100
AcDbLine
 10
327.9
 20
252.399985
 30
0.0
 11
328.9
 21
252.399985
 31
0.0
  0
LINE
  5
F15
100
AcDbEntity
  8
10
100
AcDbLine
 10
329.0
 20
263.499969
 30
0.0
 11
329.0
 21
262.999969
 31
0.0
  0
LINE
  5
F16
100
AcDbEntity
  8
10
100
AcDbLine
 10
325.0
 20
262.999969
 30
0.0
 11
326.646454
 21
262.999969
 31
0.0
  0
LINE
  5
F17
100
AcDbEntity
  8
10
100
AcDbLine
 10
326.646454
 20
262.999969
 30
0.0
 11
326.77301
 21
262.999969
 31
0.0
  0
LINE
  5
F18
100
AcDbEntity
  8
10
100
AcDbLine
 10
326.77301
 20
262.999969
 30
0.0
 11
326.921783
 21
262.999969
 31
0.0
  0
LINE
  5
F19
100
AcDbEntity
  8
10
100
AcDbLine
 10
326.921783
 20
262.999969
 30
0.0
 11
327.078217
 21
262.999969
 31
0.0
  0
LINE
  5
F1A
100
AcDbEntity
  8
10
100
AcDbLine
 10
327.078217
 20
262.999969
 30
0.0
 11
327.22699
 21
262.999969
 31
0.0
  0
LINE
  5
F1B
100
AcDbEntity
  8
10
100
AcDbLine
 10
327.22699
 20
262.999969
 30
0.0
 11
327.353577
 21
262.999969
 31
0.0
  0
ARC
  5
F1C
100
AcDbEntity
  8
10
100
AcDbCircle
 10
322.000031
 20
265.999969
 30
0.0
 40
1.0
100
AcDbArc
 50
0.0
 51
90.000003
  0
LINE
  5
F1D
100
AcDbEntity
  8
10
100
AcDbLine
 10
327.353577
 20
262.999969
 30
0.0
 11
329.0
 21
262.999969
 31
0.0
  0
LINE
  5
F1E
100
AcDbEntity
  8
10
100
AcDbLine
 10
325.0
 20
263.499969
 30
0.0
 11
329.0
 21
263.499969
 31
0.0
  0
LINE
  5
F1F
100
AcDbEntity
  8
10
100
AcDbLine
 10
330.0
 20
256.5
 30
0.0
 11
330.0
 21
264.5
 31
0.0
  0
ARC
  5
F20
100
AcDbEntity
  8
10
100
AcDbCircle
 10
326.0
 20
278.75
 30
0.0
 40
1.25
100
AcDbArc
 50
180.000005
 51
0.00001
  0
ARC
  5
F21
100
AcDbEntity
  8
10
100
AcDbCircle
 10
336.0
 20
278.75
 30
0.0
 40
1.25
100
AcDbArc
 50
180.000005
 51
0.00001
  0
ARC
  5
F22
100
AcDbEntity
  8
10
100
AcDbCircle
 10
331.0
 20
278.75
 30
0.0
 40
1.25
100
AcDbArc
 50
180.000005
 51
0.00001
  0
ARC
  5
F23
100
AcDbEntity
  8
10
100
AcDbCircle
 10
341.0
 20
278.75
 30
0.0
 40
1.25
100
AcDbArc
 50
180.000005
 51
0.00001
  0
LINE
  5
F24
100
AcDbEntity
  8
10
100
AcDbLine
 10
311.0
 20
349.5
 30
0.0
 11
315.629395
 21
350.740417
 31
0.0
  0
LINE
  5
F26
100
AcDbEntity
  8
10
100
AcDbLine
 10
308.595947
 20
312.5
 30
0.0
 11
308.595947
 21
347.499969
 31
0.0
  0
LINE
  5
F27
100
AcDbEntity
  8
10
100
AcDbLine
 10
308.256348
 20
347.499969
 30
0.0
 11
308.256348
 21
312.5
 31
0.0
  0
LINE
  5
F28
100
AcDbEntity
  8
10
100
AcDbLine
 10
308.0
 20
312.5
 30
0.0
 11
308.0
 21
310.5
 31
0.0
  0
LINE
  5
F29
100
AcDbEntity
  8
10
100
AcDbLine
 10
308.0
 20
312.5
 30
0.0
 11
308.595947
 21
312.5
 31
0.0
  0
LINE
  5
F2A
100
AcDbEntity
  8
10
100
AcDbLine
 10
308.595947
 20
310.5
 30
0.0
 11
308.0
 21
310.5
 31
0.0
  0
LINE
  5
F2B
100
AcDbEntity
  8
10
100
AcDbLine
 10
308.0
 20
349.5
 30
0.0
 11
311.0
 21
349.5
 31
0.0
  0
LINE
  5
F2C
100
AcDbEntity
  8
10
100
AcDbLine
 10
308.0
 20
349.5
 30
0.0
 11
308.0
 21
347.499969
 31
0.0
  0
LINE
  5
F2D
100
AcDbEntity
  8
10
100
AcDbLine
 10
308.595947
 20
347.499969
 30
0.0
 11
308.0
 21
347.499969
 31
0.0
  0
LINE
  5
F31
100
AcDbEntity
  8
10
100
AcDbLine
 10
327.25
 20
306.0
 30
0.0
 11
324.75
 21
306.0
 31
0.0
  0
LINE
  5
F32
100
AcDbEntity
  8
10
100
AcDbLine
 10
327.25
 20
322.0
 30
0.0
 11
324.75
 21
322.0
 31
0.0
  0
LINE
  5
F33
100
AcDbEntity
  8
10
100
AcDbLine
 10
337.25
 20
306.0
 30
0.0
 11
334.75
 21
306.0
 31
0.0
  0
LINE
  5
F34
100
AcDbEntity
  8
10
100
AcDbLine
 10
332.25
 20
306.0
 30
0.0
 11
329.75
 21
306.0
 31
0.0
  0
LINE
  5
F35
100
AcDbEntity
  8
10
100
AcDbLine
 10
342.25
 20
306.0
 30
0.0
 11
339.75
 21
306.0
 31
0.0
  0
LINE
  5
F36
100
AcDbEntity
  8
10
100
AcDbLine
 10
337.25
 20
322.0
 30
0.0
 11
334.75
 21
322.0
 31
0.0
  0
LINE
  5
F37
100
AcDbEntity
  8
10
100
AcDbLine
 10
332.25
 20
322.0
 30
0.0
 11
329.75
 21
322.0
 31
0.0
  0
LINE
  5
F38
100
AcDbEntity
  8
10
100
AcDbLine
 10
342.25
 20
322.0
 30
0.0
 11
339.75
 21
322.0
 31
0.0
  0
ARC
  5
F39
100
AcDbEntity
  8
10
100
AcDbCircle
 10
315.5
 20
351.223389
 30
0.0
 40
0.5
100
AcDbArc
 50
285.000001
 51
0.0
  0
ARC
  5
F3D
100
AcDbEntity
  8
10
100
AcDbCircle
 10
326.0
 20
363.25
 30
0.0
 40
1.25
100
AcDbArc
 50
0.0
 51
180.000005
  0
ARC
  5
F40
100
AcDbEntity
  8
10
100
AcDbCircle
 10
336.0
 20
363.25
 30
0.0
 40
1.25
100
AcDbArc
 50
0.0
 51
180.000005
  0
ARC
  5
F41
100
AcDbEntity
  8
10
100
AcDbCircle
 10
331.0
 20
363.25
 30
0.0
 40
1.25
100
AcDbArc
 50
0.0
 51
180.000005
  0
ARC
  5
F42
100
AcDbEntity
  8
10
100
AcDbCircle
 10
341.0
 20
363.25
 30
0.0
 40
1.25
100
AcDbArc
 50
0.0
 51
180.000005
  0
LINE
  5
F43
100
AcDbEntity
  8
10
100
AcDbLine
 10
377.25
 20
254.0
 30
0.0
 11
374.75
 21
254.0
 31
0.0
  0
LINE
  5
F44
100
AcDbEntity
  8
10
100
AcDbLine
 10
362.25
 20
254.0
 30
0.0
 11
359.750061
 21
254.0
 31
0.0
  0
LINE
  5
F45
100
AcDbEntity
  8
10
100
AcDbLine
 10
347.25
 20
254.0
 30
0.0
 11
344.75
 21
254.0
 31
0.0
  0
LINE
  5
F46
100
AcDbEntity
  8
10
100
AcDbLine
 10
352.25
 20
254.0
 30
0.0
 11
349.75
 21
254.0
 31
0.0
  0
LINE
  5
F47
100
AcDbEntity
  8
10
100
AcDbLine
 10
357.25
 20
254.0
 30
0.0
 11
354.75
 21
254.0
 31
0.0
  0
LINE
  5
F48
100
AcDbEntity
  8
10
100
AcDbLine
 10
367.25
 20
254.0
 30
0.0
 11
364.75
 21
254.0
 31
0.0
  0
LINE
  5
F49
100
AcDbEntity
  8
10
100
AcDbLine
 10
372.25
 20
254.0
 30
0.0
 11
369.75
 21
254.0
 31
0.0
  0
LINE
  5
F4A
100
AcDbEntity
  8
10
100
AcDbLine
 10
392.25
 20
254.0
 30
0.0
 11
389.75
 21
254.0
 31
0.0
  0
LINE
  5
F4B
100
AcDbEntity
  8
10
100
AcDbLine
 10
382.25
 20
254.0
 30
0.0
 11
379.75
 21
254.0
 31
0.0
  0
LINE
  5
F4C
100
AcDbEntity
  8
10
100
AcDbLine
 10
387.25
 20
254.0
 30
0.0
 11
384.75
 21
254.0
 31
0.0
  0
LINE
  5
F4D
100
AcDbEntity
  8
10
100
AcDbLine
 10
397.25
 20
254.0
 30
0.0
 11
394.75
 21
254.0
 31
0.0
  0
LINE
  5
F4E
100
AcDbEntity
  8
10
100
AcDbLine
 10
402.25
 20
254.0
 30
0.0
 11
399.75
 21
254.0
 31
0.0
  0
ARC
  5
F4F
100
AcDbEntity
  8
10
100
AcDbCircle
 10
376.0
 20
363.25
 30
0.0
 40
1.25
100
AcDbArc
 50
0.0
 51
180.000005
  0
LINE
  5
F50
100
AcDbEntity
  8
10
100
AcDbLine
 10
377.25
 20
322.0
 30
0.0
 11
374.75
 21
322.0
 31
0.0
  0
LINE
  5
F51
100
AcDbEntity
  8
10
100
AcDbLine
 10
377.25
 20
306.0
 30
0.0
 11
374.75
 21
306.0
 31
0.0
  0
LINE
  5
F52
100
AcDbEntity
  8
10
100
AcDbLine
 10
362.25
 20
322.0
 30
0.0
 11
359.750061
 21
322.0
 31
0.0
  0
LINE
  5
F53
100
AcDbEntity
  8
10
100
AcDbLine
 10
362.25
 20
306.0
 30
0.0
 11
359.750061
 21
306.0
 31
0.0
  0
LINE
  5
F54
100
AcDbEntity
  8
10
100
AcDbLine
 10
347.25
 20
306.0
 30
0.0
 11
344.75
 21
306.0
 31
0.0
  0
LINE
  5
F55
100
AcDbEntity
  8
10
100
AcDbLine
 10
352.25
 20
306.0
 30
0.0
 11
349.75
 21
306.0
 31
0.0
  0
LINE
  5
F56
100
AcDbEntity
  8
10
100
AcDbLine
 10
357.25
 20
306.0
 30
0.0
 11
354.75
 21
306.0
 31
0.0
  0
LINE
  5
F57
100
AcDbEntity
  8
10
100
AcDbLine
 10
347.25
 20
322.0
 30
0.0
 11
344.75
 21
322.0
 31
0.0
  0
LINE
  5
F58
100
AcDbEntity
  8
10
100
AcDbLine
 10
352.25
 20
322.0
 30
0.0
 11
349.75
 21
322.0
 31
0.0
  0
LINE
  5
F59
100
AcDbEntity
  8
10
100
AcDbLine
 10
357.25
 20
322.0
 30
0.0
 11
354.75
 21
322.0
 31
0.0
  0
LINE
  5
F5A
100
AcDbEntity
  8
10
100
AcDbLine
 10
367.25
 20
306.0
 30
0.0
 11
364.75
 21
306.0
 31
0.0
  0
LINE
  5
F5B
100
AcDbEntity
  8
10
100
AcDbLine
 10
372.25
 20
306.0
 30
0.0
 11
369.75
 21
306.0
 31
0.0
  0
LINE
  5
F5C
100
AcDbEntity
  8
10
100
AcDbLine
 10
367.25
 20
322.0
 30
0.0
 11
364.75
 21
322.0
 31
0.0
  0
LINE
  5
F5D
100
AcDbEntity
  8
10
100
AcDbLine
 10
372.25
 20
322.0
 30
0.0
 11
369.75
 21
322.0
 31
0.0
  0
ARC
  5
F5E
100
AcDbEntity
  8
10
100
AcDbCircle
 10
361.0
 20
363.25
 30
0.0
 40
1.25
100
AcDbArc
 50
0.0
 51
180.000005
  0
ARC
  5
F5F
100
AcDbEntity
  8
10
100
AcDbCircle
 10
346.0
 20
363.25
 30
0.0
 40
1.25
100
AcDbArc
 50
0.0
 51
180.000005
  0
ARC
  5
F60
100
AcDbEntity
  8
10
100
AcDbCircle
 10
351.000061
 20
363.25
 30
0.0
 40
1.25
100
AcDbArc
 50
0.0
 51
180.000005
  0
ARC
  5
F61
100
AcDbEntity
  8
10
100
AcDbCircle
 10
356.0
 20
363.25
 30
0.0
 40
1.25
100
AcDbArc
 50
0.0
 51
180.000005
  0
ARC
  5
F62
100
AcDbEntity
  8
10
100
AcDbCircle
 10
366.0
 20
363.25
 30
0.0
 40
1.25
100
AcDbArc
 50
0.0
 51
180.000005
  0
ARC
  5
F63
100
AcDbEntity
  8
10
100
AcDbCircle
 10
371.0
 20
363.25
 30
0.0
 40
1.25
100
AcDbArc
 50
0.0
 51
180.000005
  0
LINE
  5
F64
100
AcDbEntity
  8
10
100
AcDbLine
 10
392.25
 20
322.0
 30
0.0
 11
389.75
 21
322.0
 31
0.0
  0
LINE
  5
F65
100
AcDbEntity
  8
10
100
AcDbLine
 10
392.25
 20
306.0
 30
0.0
 11
389.75
 21
306.0
 31
0.0
  0
LINE
  5
F66
100
AcDbEntity
  8
10
100
AcDbLine
 10
382.25
 20
306.0
 30
0.0
 11
379.75
 21
306.0
 31
0.0
  0
LINE
  5
F67
100
AcDbEntity
  8
10
100
AcDbLine
 10
387.25
 20
306.0
 30
0.0
 11
384.75
 21
306.0
 31
0.0
  0
LINE
  5
F68
100
AcDbEntity
  8
10
100
AcDbLine
 10
382.25
 20
322.0
 30
0.0
 11
379.75
 21
322.0
 31
0.0
  0
LINE
  5
F69
100
AcDbEntity
  8
10
100
AcDbLine
 10
387.25
 20
322.0
 30
0.0
 11
384.75
 21
322.0
 31
0.0
  0
LINE
  5
F6A
100
AcDbEntity
  8
10
100
AcDbLine
 10
397.25
 20
306.0
 30
0.0
 11
394.75
 21
306.0
 31
0.0
  0
LINE
  5
F6B
100
AcDbEntity
  8
10
100
AcDbLine
 10
402.25
 20
306.0
 30
0.0
 11
399.75
 21
306.0
 31
0.0
  0
LINE
  5
F6C
100
AcDbEntity
  8
10
100
AcDbLine
 10
397.25
 20
322.0
 30
0.0
 11
394.75
 21
322.0
 31
0.0
  0
LINE
  5
F6D
100
AcDbEntity
  8
10
100
AcDbLine
 10
402.25
 20
322.0
 30
0.0
 11
399.75
 21
322.0
 31
0.0
  0
ARC
  5
F6E
100
AcDbEntity
  8
10
100
AcDbCircle
 10
391.0
 20
363.25
 30
0.0
 40
1.25
100
AcDbArc
 50
0.0
 51
180.000005
  0
ARC
  5
F6F
100
AcDbEntity
  8
10
100
AcDbCircle
 10
381.0
 20
363.25
 30
0.0
 40
1.25
100
AcDbArc
 50
0.0
 51
180.000005
  0
ARC
  5
F70
100
AcDbEntity
  8
10
100
AcDbCircle
 10
386.0
 20
363.25
 30
0.0
 40
1.25
100
AcDbArc
 50
0.0
 51
180.000005
  0
ARC
  5
F71
100
AcDbEntity
  8
10
100
AcDbCircle
 10
396.0
 20
363.25
 30
0.0
 40
1.25
100
AcDbArc
 50
0.0
 51
180.000005
  0
ARC
  5
F72
100
AcDbEntity
  8
10
100
AcDbCircle
 10
401.000061
 20
363.25
 30
0.0
 40
1.25
100
AcDbArc
 50
0.0
 51
180.000005
  0
LINE
  5
F73
100
AcDbEntity
  8
10
100
AcDbLine
 10
315.999939
 20
390.0
 30
0.0
 11
309.843506
 21
390.0
 31
0.0
  0
LINE
  5
F74
100
AcDbEntity
  8
10
100
AcDbLine
 10
308.0
 20
390.0
 30
0.0
 11
319.217691
 21
390.0
 31
0.0
  0
LINE
  5
F75
100
AcDbEntity
  8
10
100
AcDbLine
 10
327.0
 20
375.700012
 30
0.0
 11
327.0
 21
389.200012
 31
0.0
  0
LINE
  5
F76
100
AcDbEntity
  8
10
100
AcDbLine
 10
316.0
 20
390.0
 30
0.0
 11
321.5
 21
390.0
 31
0.0
  0
ARC
  5
F77
100
AcDbEntity
  8
10
100
AcDbCircle
 10
320.5
 20
386.500031
 30
0.0
 40
1.0
100
AcDbArc
 50
269.999997
 51
0.0
  0
LINE
  5
F78
100
AcDbEntity
  8
10
100
AcDbLine
 10
316.0
 20
384.5
 30
0.0
 11
319.0
 21
384.5
 31
0.0
  0
LINE
  5
F79
100
AcDbEntity
  8
10
100
AcDbLine
 10
317.997498
 20
386.75
 30
0.0
 11
317.002502
 21
386.75
 31
0.0
  0
LINE
  5
F7A
100
AcDbEntity
  8
10
100
AcDbLine
 10
317.002502
 20
388.25
 30
0.0
 11
317.997498
 21
388.25
 31
0.0
  0
ARC
  5
F7B
100
AcDbEntity
  8
10
100
AcDbCircle
 10
317.5
 20
387.5
 30
0.0
 40
0.9
100
AcDbArc
 50
123.557316
 51
236.44268
  0
LINE
  5
F7C
100
AcDbEntity
  8
10
100
AcDbLine
 10
320.0
 20
385.5
 30
0.0
 11
320.5
 21
385.5
 31
0.0
  0
ARC
  5
F7D
100
AcDbEntity
  8
10
100
AcDbCircle
 10
320.0
 20
384.5
 30
0.0
 40
1.0
100
AcDbArc
 50
90.000003
 51
180.000005
  0
ARC
  5
F7E
100
AcDbEntity
  8
10
100
AcDbCircle
 10
317.5
 20
387.5
 30
0.0
 40
0.9
100
AcDbArc
 50
303.557311
 51
56.442689
  0
LINE
  5
F7F
100
AcDbEntity
  8
10
100
AcDbLine
 10
316.0
 20
384.5
 30
0.0
 11
316.0
 21
384.5
 31
0.0
  0
LINE
  5
F80
100
AcDbEntity
  8
10
100
AcDbLine
 10
316.0
 20
385.0
 30
0.0
 11
317.5
 21
385.0
 31
0.0
  0
LINE
  5
F81
100
AcDbEntity
  8
10
100
AcDbLine
 10
318.524695
 20
386.908392
 30
0.0
 11
319.665064
 21
386.25
 31
0.0
  0
LINE
  5
F82
100
AcDbEntity
  8
10
100
AcDbLine
 10
318.524695
 20
388.091608
 30
0.0
 11
319.567692
 21
388.693782
 31
0.0
  0
ARC
  5
F83
100
AcDbEntity
  8
10
100
AcDbCircle
 10
317.5
 20
387.5
 30
0.0
 40
2.5
100
AcDbArc
 50
269.999997
 51
329.999999
  0
ARC
  5
F84
100
AcDbEntity
  8
10
100
AcDbCircle
 10
317.5
 20
387.5
 30
0.0
 40
1.0
100
AcDbArc
 50
39.594067
 51
320.405922
  0
ARC
  5
F85
100
AcDbEntity
  8
10
100
AcDbCircle
 10
319.217691
 20
389.3
 30
0.0
 40
0.7
100
AcDbArc
 50
299.999998
 51
90.000003
  0
ARC
  5
F86
100
AcDbEntity
  8
10
100
AcDbCircle
 10
318.424695
 20
388.264813
 30
0.0
 40
0.2
100
AcDbArc
 50
219.594069
 51
299.999998
  0
ARC
  5
F87
100
AcDbEntity
  8
10
100
AcDbCircle
 10
318.424695
 20
386.735187
 30
0.0
 40
0.2
100
AcDbArc
 50
60.000002
 51
140.405931
  0
LINE
  5
F88
100
AcDbEntity
  8
10
100
AcDbLine
 10
327.0
 20
390.0
 30
0.0
 11
327.0
 21
389.972717
 31
0.0
  0
LINE
  5
F89
100
AcDbEntity
  8
10
100
AcDbLine
 10
327.0
 20
389.972717
 30
0.0
 11
327.0
 21
389.892853
 31
0.0
  0
LINE
  5
F8A
100
AcDbEntity
  8
10
100
AcDbLine
 10
327.0
 20
389.892853
 30
0.0
 11
327.0
 21
389.765656
 31
0.0
  0
LINE
  5
F8B
100
AcDbEntity
  8
10
100
AcDbLine
 10
327.0
 20
389.765656
 30
0.0
 11
327.0
 21
389.600037
 31
0.0
  0
LINE
  5
F8C
100
AcDbEntity
  8
10
100
AcDbLine
 10
327.0
 20
389.600037
 30
0.0
 11
327.0
 21
389.407074
 31
0.0
  0
LINE
  5
F8D
100
AcDbEntity
  8
10
100
AcDbLine
 10
327.0
 20
389.407074
 30
0.0
 11
327.0
 21
389.200012
 31
0.0
  0
LINE
  5
F8E
100
AcDbEntity
  8
10
100
AcDbLine
 10
321.5
 20
389.200012
 30
0.0
 11
321.5
 21
389.407074
 31
0.0
  0
LINE
  5
F8F
100
AcDbEntity
  8
10
100
AcDbLine
 10
321.5
 20
389.407074
 30
0.0
 11
321.5
 21
389.600037
 31
0.0
  0
LINE
  5
F90
100
AcDbEntity
  8
10
100
AcDbLine
 10
321.5
 20
389.600037
 30
0.0
 11
321.5
 21
389.765656
 31
0.0
  0
LINE
  5
F91
100
AcDbEntity
  8
10
100
AcDbLine
 10
321.5
 20
389.765656
 30
0.0
 11
321.5
 21
389.892853
 31
0.0
  0
LINE
  5
F92
100
AcDbEntity
  8
10
100
AcDbLine
 10
321.5
 20
389.892853
 30
0.0
 11
321.5
 21
389.972717
 31
0.0
  0
LINE
  5
F93
100
AcDbEntity
  8
10
100
AcDbLine
 10
321.5
 20
389.972717
 30
0.0
 11
321.5
 21
390.0
 31
0.0
  0
LINE
  5
F94
100
AcDbEntity
  8
10
100
AcDbLine
 10
321.5
 20
390.0
 30
0.0
 11
327.0
 21
390.0
 31
0.0
  0
LINE
  5
F95
100
AcDbEntity
  8
10
100
AcDbLine
 10
321.5
 20
386.500031
 30
0.0
 11
321.5
 21
389.200012
 31
0.0
  0
LINE
  5
F9E
100
AcDbEntity
  8
10
100
AcDbLine
 10
427.25
 20
68.250015
 30
0.0
 11
427.25
 21
363.25
 31
0.0
  0
LINE
  5
F9F
100
AcDbEntity
  8
10
100
AcDbLine
 10
424.75
 20
363.25
 30
0.0
 11
424.75
 21
68.250015
 31
0.0
  0
LINE
  5
FA0
100
AcDbEntity
  8
10
100
AcDbLine
 10
422.25
 20
68.250015
 30
0.0
 11
422.25
 21
363.25
 31
0.0
  0
LINE
  5
FA1
100
AcDbEntity
  8
10
100
AcDbLine
 10
419.75
 20
363.25
 30
0.0
 11
419.75
 21
68.250015
 31
0.0
  0
LINE
  5
FA2
100
AcDbEntity
  8
10
100
AcDbLine
 10
417.25
 20
68.250015
 30
0.0
 11
417.25
 21
363.25
 31
0.0
  0
LINE
  5
FA3
100
AcDbEntity
  8
10
100
AcDbLine
 10
414.75
 20
363.25
 30
0.0
 11
414.75
 21
68.250015
 31
0.0
  0
LINE
  5
FA4
100
AcDbEntity
  8
10
100
AcDbLine
 10
412.25
 20
68.250015
 30
0.0
 11
412.25
 21
363.25
 31
0.0
  0
LINE
  5
FA5
100
AcDbEntity
  8
10
100
AcDbLine
 10
409.75
 20
363.25
 30
0.0
 11
409.75
 21
68.250015
 31
0.0
  0
LINE
  5
FA6
100
AcDbEntity
  8
10
100
AcDbLine
 10
407.25
 20
68.250015
 30
0.0
 11
407.25
 21
363.25
 31
0.0
  0
LINE
  5
FAA
100
AcDbEntity
  8
10
100
AcDbLine
 10
442.0
 20
338.5
 30
0.0
 11
442.0
 21
91.5
 31
0.0
  0
LINE
  5
FAB
100
AcDbEntity
  8
10
100
AcDbLine
 10
447.6
 20
374.0
 30
0.0
 11
447.6
 21
55.999969
 31
0.0
  0
LINE
  5
FAC
100
AcDbEntity
  8
10
100
AcDbLine
 10
507.0
 20
370.0
 30
0.0
 11
507.0
 21
60.0
 31
0.0
  0
LINE
  5
FAD
100
AcDbEntity
  8
10
100
AcDbLine
 10
457.0
 20
58.999969
 30
0.0
 11
487.0
 21
58.999969
 31
0.0
  0
LINE
  5
FAE
100
AcDbEntity
  8
10
100
AcDbLine
 10
446.0
 20
55.999969
 30
0.0
 11
501.5
 21
55.999969
 31
0.0
  0
LINE
  5
FAF
100
AcDbEntity
  8
10
100
AcDbLine
 10
446.0
 20
41.999969
 30
0.0
 11
508.0
 21
41.999969
 31
0.0
  0
LINE
  5
FB1
100
AcDbEntity
  8
10
100
AcDbLine
 10
442.0
 20
68.499969
 30
0.0
 11
442.0
 21
56.0
 31
0.0
  0
LINE
  5
FB2
100
AcDbEntity
  8
10
100
AcDbLine
 10
440.0
 20
40.0
 30
0.0
 11
440.0
 21
57.000031
 31
0.0
  0
LINE
  5
FB3
100
AcDbEntity
  8
10
100
AcDbLine
 10
446.0
 20
55.999969
 30
0.0
 11
446.0
 21
39.999969
 31
0.0
  0
LINE
  5
FB4
100
AcDbEntity
  8
10
100
AcDbLine
 10
446.0
 20
39.999969
 30
0.0
 11
440.0
 21
39.999969
 31
0.0
  0
ARC
  5
FB5
100
AcDbEntity
  8
10
100
AcDbCircle
 10
441.0
 20
58.000031
 30
0.0
 40
1.0
100
AcDbArc
 50
269.999997
 51
0.0
  0
LINE
  5
FB6
100
AcDbEntity
  8
10
100
AcDbLine
 10
440.0
 20
57.000031
 30
0.0
 11
441.0
 21
57.000031
 31
0.0
  0
LINE
  5
FB7
100
AcDbEntity
  8
10
100
AcDbLine
 10
440.0
 20
56.0
 30
0.0
 11
442.0
 21
56.0
 31
0.0
  0
LINE
  5
FB8
100
AcDbEntity
  8
10
100
AcDbLine
 10
457.0
 20
58.999969
 30
0.0
 11
457.0
 21
55.999969
 31
0.0
  0
LINE
  5
FB9
100
AcDbEntity
  8
10
100
AcDbLine
 10
435.0
 20
91.0
 30
0.0
 11
444.5
 21
91.0
 31
0.0
  0
LINE
  5
FBA
100
AcDbEntity
  8
10
100
AcDbLine
 10
441.0
 20
93.0
 30
0.0
 11
435.0
 21
93.0
 31
0.0
  0
LINE
  5
FBB
100
AcDbEntity
  8
10
100
AcDbLine
 10
435.0
 20
67.0
 30
0.0
 11
441.0
 21
67.0
 31
0.0
  0
LINE
  5
FBC
100
AcDbEntity
  8
10
100
AcDbLine
 10
444.5
 20
69.000031
 30
0.0
 11
435.0
 21
69.000031
 31
0.0
  0
ARC
  5
FBD
100
AcDbEntity
  8
10
100
AcDbCircle
 10
421.0
 20
68.250015
 30
0.0
 40
1.25
100
AcDbArc
 50
180.000005
 51
0.00001
  0
ARC
  5
FBE
100
AcDbEntity
  8
10
100
AcDbCircle
 10
411.0
 20
68.250015
 30
0.0
 40
1.25
100
AcDbArc
 50
180.000005
 51
0.00001
  0
ARC
  5
FBF
100
AcDbEntity
  8
10
100
AcDbCircle
 10
416.0
 20
68.250015
 30
0.0
 40
1.25
100
AcDbArc
 50
180.000005
 51
0.00001
  0
ARC
  5
FC0
100
AcDbEntity
  8
10
100
AcDbCircle
 10
426.0
 20
68.250015
 30
0.0
 40
1.25
100
AcDbArc
 50
180.000005
 51
0.00001
  0
LINE
  5
FC1
100
AcDbEntity
  8
10
100
AcDbLine
 10
435.0
 20
69.000031
 30
0.0
 11
435.0
 21
67.0
 31
0.0
  0
LINE
  5
FC2
100
AcDbEntity
  8
10
100
AcDbLine
 10
435.0
 20
93.0
 30
0.0
 11
435.0
 21
91.0
 31
0.0
  0
LINE
  5
FC3
100
AcDbEntity
  8
10
100
AcDbLine
 10
422.25
 20
118.000015
 30
0.0
 11
419.75
 21
118.000015
 31
0.0
  0
LINE
  5
FC4
100
AcDbEntity
  8
10
100
AcDbLine
 10
422.25
 20
102.000015
 30
0.0
 11
419.75
 21
102.000015
 31
0.0
  0
LINE
  5
FC5
100
AcDbEntity
  8
10
100
AcDbLine
 10
412.25
 20
102.000015
 30
0.0
 11
409.75
 21
102.000015
 31
0.0
  0
LINE
  5
FC6
100
AcDbEntity
  8
10
100
AcDbLine
 10
417.25
 20
102.000015
 30
0.0
 11
414.75
 21
102.000015
 31
0.0
  0
LINE
  5
FC7
100
AcDbEntity
  8
10
100
AcDbLine
 10
412.25
 20
118.000015
 30
0.0
 11
409.75
 21
118.000015
 31
0.0
  0
LINE
  5
FC8
100
AcDbEntity
  8
10
100
AcDbLine
 10
417.25
 20
118.000015
 30
0.0
 11
414.75
 21
118.000015
 31
0.0
  0
LINE
  5
FC9
100
AcDbEntity
  8
10
100
AcDbLine
 10
427.25
 20
102.000015
 30
0.0
 11
424.75
 21
102.000015
 31
0.0
  0
LINE
  5
FCA
100
AcDbEntity
  8
10
100
AcDbLine
 10
427.25
 20
118.000015
 30
0.0
 11
424.75
 21
118.000015
 31
0.0
  0
ARC
  5
FCB
100
AcDbEntity
  8
10
100
AcDbCircle
 10
441.0
 20
94.0
 30
0.0
 40
1.0
100
AcDbArc
 50
269.999997
 51
0.0
  0
LINE
  5
FCC
100
AcDbEntity
  8
10
100
AcDbLine
 10
439.0
 20
72.000031
 30
0.0
 11
439.0
 21
88.0
 31
0.0
  0
LINE
  5
FCD
100
AcDbEntity
  8
10
100
AcDbLine
 10
442.5
 20
72.000031
 30
0.0
 11
442.5
 21
88.0
 31
0.0
  0
LINE
  5
FCE
100
AcDbEntity
  8
10
100
AcDbLine
 10
445.5
 20
70.000031
 30
0.0
 11
445.5
 21
90.0
 31
0.0
  0
LINE
  5
FCF
100
AcDbEntity
  8
10
100
AcDbLine
 10
440.0
 20
88.0
 30
0.0
 11
440.0
 21
72.000031
 31
0.0
  0
LINE
  5
FD0
100
AcDbEntity
  8
10
100
AcDbLine
 10
440.999969
 20
87.5
 30
0.0
 11
440.999969
 21
72.499969
 31
0.0
  0
LINE
  5
FD1
100
AcDbEntity
  8
10
100
AcDbLine
 10
442.0
 20
72.499969
 30
0.0
 11
442.0
 21
87.5
 31
0.0
  0
LINE
  5
FD2
100
AcDbEntity
  8
10
100
AcDbLine
 10
446.1
 20
91.5
 30
0.0
 11
446.1
 21
68.499969
 31
0.0
  0
ARC
  5
FD3
100
AcDbEntity
  8
10
100
AcDbCircle
 10
444.5
 20
70.000031
 30
0.0
 40
1.0
100
AcDbArc
 50
269.999997
 51
0.0
  0
LINE
  5
FD4
100
AcDbEntity
  8
10
100
AcDbLine
 10
447.6
 20
68.499969
 30
0.0
 11
442.0
 21
68.499969
 31
0.0
  0
LINE
  5
FD5
100
AcDbEntity
  8
10
100
AcDbLine
 10
439.0
 20
72.000031
 30
0.0
 11
442.5
 21
72.000031
 31
0.0
  0
ARC
  5
FD6
100
AcDbEntity
  8
10
100
AcDbCircle
 10
441.0
 20
66.0
 30
0.0
 40
1.0
100
AcDbArc
 50
0.0
 51
90.000003
  0
LINE
  5
FD7
100
AcDbEntity
  8
10
100
AcDbLine
 10
442.0
 20
72.499969
 30
0.0
 11
440.0
 21
72.499969
 31
0.0
  0
LINE
  5
FD8
100
AcDbEntity
  8
10
100
AcDbLine
 10
440.0
 20
69.000031
 30
0.0
 11
440.0
 21
67.0
 31
0.0
  0
LINE
  5
FD9
100
AcDbEntity
  8
10
100
AcDbLine
 10
442.0
 20
68.499969
 30
0.0
 11
440.0
 21
68.499969
 31
0.0
  0
ARC
  5
FDA
100
AcDbEntity
  8
10
100
AcDbCircle
 10
444.5
 20
90.0
 30
0.0
 40
1.0
100
AcDbArc
 50
0.0
 51
90.000003
  0
LINE
  5
FDB
100
AcDbEntity
  8
10
100
AcDbLine
 10
447.6
 20
91.5
 30
0.0
 11
442.0
 21
91.5
 31
0.0
  0
LINE
  5
FDC
100
AcDbEntity
  8
10
100
AcDbLine
 10
439.0
 20
88.0
 30
0.0
 11
442.5
 21
88.0
 31
0.0
  0
LINE
  5
FDD
100
AcDbEntity
  8
10
100
AcDbLine
 10
440.0
 20
91.5
 30
0.0
 11
442.0
 21
91.5
 31
0.0
  0
LINE
  5
FDE
100
AcDbEntity
  8
10
100
AcDbLine
 10
442.0
 20
87.5
 30
0.0
 11
440.0
 21
87.5
 31
0.0
  0
LINE
  5
FDF
100
AcDbEntity
  8
10
100
AcDbLine
 10
440.0
 20
93.0
 30
0.0
 11
440.0
 21
91.0
 31
0.0
  0
LINE
  5
FE0
100
AcDbEntity
  8
12
100
AcDbLine
 10
496.506424
 20
47.5
 30
0.0
 11
512.988937
 21
47.5
 31
0.0
  0
LINE
  5
FE1
100
AcDbEntity
  8
10
100
AcDbLine
 10
487.0
 20
58.999969
 30
0.0
 11
487.0
 21
55.999969
 31
0.0
  0
LINE
  5
FE2
100
AcDbEntity
  8
10
100
AcDbLine
 10
502.0
 20
55.499969
 30
0.0
 11
502.0
 21
41.999969
 31
0.0
  0
LINE
  5
FE3
100
AcDbEntity
  8
10
100
AcDbLine
 10
508.0
 20
58.999969
 30
0.0
 11
508.0
 21
41.999969
 31
0.0
  0
LINE
  5
FE4
100
AcDbEntity
  8
10
100
AcDbLine
 10
502.0
 20
45.5
 30
0.0
 11
508.0
 21
45.5
 31
0.0
  0
LINE
  5
FE5
100
AcDbEntity
  8
10
100
AcDbLine
 10
508.0
 20
58.999969
 30
0.0
 11
507.0
 21
60.0
 31
0.0
  0
ARC
  5
FE6
100
AcDbEntity
  8
10
100
AcDbCircle
 10
501.5
 20
55.499969
 30
0.0
 40
0.5
100
AcDbArc
 50
0.0
 51
90.000003
  0
LINE
  5
FE7
100
AcDbEntity
  8
10
100
AcDbLine
 10
422.25
 20
170.0
 30
0.0
 11
419.75
 21
170.0
 31
0.0
  0
LINE
  5
FE8
100
AcDbEntity
  8
10
100
AcDbLine
 10
412.25
 20
170.0
 30
0.0
 11
409.75
 21
170.0
 31
0.0
  0
LINE
  5
FE9
100
AcDbEntity
  8
10
100
AcDbLine
 10
417.25
 20
170.0
 30
0.0
 11
414.75
 21
170.0
 31
0.0
  0
LINE
  5
FEA
100
AcDbEntity
  8
10
100
AcDbLine
 10
427.25
 20
170.0
 30
0.0
 11
424.75
 21
170.0
 31
0.0
  0
LINE
  5
FEB
100
AcDbEntity
  8
10
100
AcDbLine
 10
422.25
 20
186.0
 30
0.0
 11
419.75
 21
186.0
 31
0.0
  0
LINE
  5
FEC
100
AcDbEntity
  8
10
100
AcDbLine
 10
412.25
 20
186.0
 30
0.0
 11
409.75
 21
186.0
 31
0.0
  0
LINE
  5
FED
100
AcDbEntity
  8
10
100
AcDbLine
 10
417.25
 20
186.0
 30
0.0
 11
414.75
 21
186.0
 31
0.0
  0
LINE
  5
FEE
100
AcDbEntity
  8
10
100
AcDbLine
 10
427.25
 20
186.0
 30
0.0
 11
424.75
 21
186.0
 31
0.0
  0
LINE
  5
FEF
100
AcDbEntity
  8
10
100
AcDbLine
 10
422.25
 20
238.0
 30
0.0
 11
419.75
 21
238.0
 31
0.0
  0
LINE
  5
FF0
100
AcDbEntity
  8
10
100
AcDbLine
 10
412.25
 20
238.0
 30
0.0
 11
409.75
 21
238.0
 31
0.0
  0
LINE
  5
FF1
100
AcDbEntity
  8
10
100
AcDbLine
 10
417.25
 20
238.0
 30
0.0
 11
414.75
 21
238.0
 31
0.0
  0
LINE
  5
FF2
100
AcDbEntity
  8
10
100
AcDbLine
 10
427.25
 20
238.0
 30
0.0
 11
424.75
 21
238.0
 31
0.0
  0
LINE
  5
1092
100
AcDbEntity
  8
10
100
AcDbLine
 10
442.0
 20
375.499969
 30
0.0
 11
442.0
 21
361.5
 31
0.0
  0
LINE
  5
1093
100
AcDbEntity
  8
10
100
AcDbLine
 10
422.25
 20
254.0
 30
0.0
 11
419.75
 21
254.0
 31
0.0
  0
LINE
  5
1094
100
AcDbEntity
  8
10
100
AcDbLine
 10
412.25
 20
254.0
 30
0.0
 11
409.75
 21
254.0
 31
0.0
  0
LINE
  5
1095
100
AcDbEntity
  8
10
100
AcDbLine
 10
417.25
 20
254.0
 30
0.0
 11
414.75
 21
254.0
 31
0.0
  0
LINE
  5
1096
100
AcDbEntity
  8
10
100
AcDbLine
 10
427.25
 20
254.0
 30
0.0
 11
424.75
 21
254.0
 31
0.0
  0
LINE
  5
1097
100
AcDbEntity
  8
10
100
AcDbLine
 10
435.0
 20
360.999969
 30
0.0
 11
444.5
 21
360.999969
 31
0.0
  0
LINE
  5
1098
100
AcDbEntity
  8
10
100
AcDbLine
 10
441.0
 20
363.0
 30
0.0
 11
435.0
 21
363.0
 31
0.0
  0
LINE
  5
1099
100
AcDbEntity
  8
10
100
AcDbLine
 10
435.0
 20
337.0
 30
0.0
 11
441.0
 21
337.0
 31
0.0
  0
LINE
  5
109A
100
AcDbEntity
  8
10
100
AcDbLine
 10
444.5
 20
339.000031
 30
0.0
 11
435.0
 21
339.000031
 31
0.0
  0
LINE
  5
109B
100
AcDbEntity
  8
10
100
AcDbLine
 10
422.25
 20
322.0
 30
0.0
 11
419.75
 21
322.0
 31
0.0
  0
LINE
  5
109C
100
AcDbEntity
  8
10
100
AcDbLine
 10
422.25
 20
306.0
 30
0.0
 11
419.75
 21
306.0
 31
0.0
  0
LINE
  5
109D
100
AcDbEntity
  8
10
100
AcDbLine
 10
412.25
 20
306.0
 30
0.0
 11
409.75
 21
306.0
 31
0.0
  0
LINE
  5
109E
100
AcDbEntity
  8
10
100
AcDbLine
 10
417.25
 20
306.0
 30
0.0
 11
414.75
 21
306.0
 31
0.0
  0
LINE
  5
109F
100
AcDbEntity
  8
10
100
AcDbLine
 10
412.25
 20
322.0
 30
0.0
 11
409.75
 21
322.0
 31
0.0
  0
LINE
  5
10A0
100
AcDbEntity
  8
10
100
AcDbLine
 10
417.25
 20
322.0
 30
0.0
 11
414.75
 21
322.0
 31
0.0
  0
LINE
  5
10A1
100
AcDbEntity
  8
10
100
AcDbLine
 10
427.25
 20
306.0
 30
0.0
 11
424.75
 21
306.0
 31
0.0
  0
LINE
  5
10A2
100
AcDbEntity
  8
10
100
AcDbLine
 10
427.25
 20
322.0
 30
0.0
 11
424.75
 21
322.0
 31
0.0
  0
ARC
  5
10A3
100
AcDbEntity
  8
10
100
AcDbCircle
 10
421.0
 20
363.25
 30
0.0
 40
1.25
100
AcDbArc
 50
0.0
 51
180.000005
  0
ARC
  5
10A4
100
AcDbEntity
  8
10
100
AcDbCircle
 10
411.0
 20
363.25
 30
0.0
 40
1.25
100
AcDbArc
 50
0.0
 51
180.000005
  0
ARC
  5
10A5
100
AcDbEntity
  8
10
100
AcDbCircle
 10
416.0
 20
363.25
 30
0.0
 40
1.25
100
AcDbArc
 50
0.0
 51
180.000005
  0
LINE
  5
10A6
100
AcDbEntity
  8
10
100
AcDbLine
 10
435.0
 20
339.000031
 30
0.0
 11
435.0
 21
337.0
 31
0.0
  0
ARC
  5
10A7
100
AcDbEntity
  8
10
100
AcDbCircle
 10
426.0
 20
363.25
 30
0.0
 40
1.25
100
AcDbArc
 50
0.0
 51
180.000005
  0
LINE
  5
10A8
100
AcDbEntity
  8
10
100
AcDbLine
 10
435.0
 20
363.0
 30
0.0
 11
435.0
 21
360.999969
 31
0.0
  0
LINE
  5
10A9
100
AcDbEntity
  8
10
100
AcDbLine
 10
439.0
 20
342.000031
 30
0.0
 11
439.0
 21
358.000031
 31
0.0
  0
LINE
  5
10AA
100
AcDbEntity
  8
10
100
AcDbLine
 10
442.5
 20
342.000031
 30
0.0
 11
442.5
 21
358.000031
 31
0.0
  0
LINE
  5
10AB
100
AcDbEntity
  8
10
100
AcDbLine
 10
445.5
 20
340.0
 30
0.0
 11
445.5
 21
360.0
 31
0.0
  0
LINE
  5
10AC
100
AcDbEntity
  8
10
100
AcDbLine
 10
446.1
 20
361.5
 30
0.0
 11
446.1
 21
338.5
 31
0.0
  0
LINE
  5
10AD
100
AcDbEntity
  8
10
100
AcDbLine
 10
440.999969
 20
357.5
 30
0.0
 11
440.999969
 21
342.5
 31
0.0
  0
LINE
  5
10AE
100
AcDbEntity
  8
10
100
AcDbLine
 10
442.0
 20
342.5
 30
0.0
 11
442.0
 21
357.5
 31
0.0
  0
LINE
  5
10AF
100
AcDbEntity
  8
10
100
AcDbLine
 10
440.0
 20
342.000031
 30
0.0
 11
440.0
 21
358.000031
 31
0.0
  0
ARC
  5
10B0
100
AcDbEntity
  8
10
100
AcDbCircle
 10
444.5
 20
340.0
 30
0.0
 40
1.0
100
AcDbArc
 50
269.999997
 51
0.0
  0
LINE
  5
10B1
100
AcDbEntity
  8
10
100
AcDbLine
 10
447.6
 20
338.5
 30
0.0
 11
442.0
 21
338.5
 31
0.0
  0
LINE
  5
10B2
100
AcDbEntity
  8
10
100
AcDbLine
 10
439.0
 20
342.000031
 30
0.0
 11
442.5
 21
342.000031
 31
0.0
  0
ARC
  5
10B3
100
AcDbEntity
  8
10
100
AcDbCircle
 10
441.0
 20
336.0
 30
0.0
 40
1.0
100
AcDbArc
 50
0.0
 51
90.000003
  0
LINE
  5
10B4
100
AcDbEntity
  8
10
100
AcDbLine
 10
440.999969
 20
342.5
 30
0.0
 11
440.777466
 21
342.5
 31
0.0
  0
LINE
  5
10B5
100
AcDbEntity
  8
10
100
AcDbLine
 10
440.566101
 20
342.5
 30
0.0
 11
440.376495
 21
342.5
 31
0.0
  0
LINE
  5
10B6
100
AcDbEntity
  8
10
100
AcDbLine
 10
440.777466
 20
342.5
 30
0.0
 11
440.566101
 21
342.5
 31
0.0
  0
LINE
  5
10B7
100
AcDbEntity
  8
10
100
AcDbLine
 10
442.0
 20
342.5
 30
0.0
 11
440.999969
 21
342.5
 31
0.0
  0
LINE
  5
10B8
100
AcDbEntity
  8
10
100
AcDbLine
 10
440.025055
 20
342.5
 30
0.0
 11
440.0
 21
342.5
 31
0.0
  0
LINE
  5
10B9
100
AcDbEntity
  8
10
100
AcDbLine
 10
440.09903
 20
342.5
 30
0.0
 11
440.025055
 21
342.5
 31
0.0
  0
LINE
  5
10BA
100
AcDbEntity
  8
10
100
AcDbLine
 10
440.21814
 20
342.5
 30
0.0
 11
440.09903
 21
342.5
 31
0.0
  0
LINE
  5
10BB
100
AcDbEntity
  8
10
100
AcDbLine
 10
442.0
 20
338.5
 30
0.0
 11
440.0
 21
338.5
 31
0.0
  0
LINE
  5
10BC
100
AcDbEntity
  8
10
100
AcDbLine
 10
440.376495
 20
342.5
 30
0.0
 11
440.21814
 21
342.5
 31
0.0
  0
LINE
  5
10BD
100
AcDbEntity
  8
10
100
AcDbLine
 10
440.0
 20
339.000031
 30
0.0
 11
440.0
 21
337.0
 31
0.0
  0
ARC
  5
10BE
100
AcDbEntity
  8
10
100
AcDbCircle
 10
444.5
 20
360.0
 30
0.0
 40
1.0
100
AcDbArc
 50
0.0
 51
90.000003
  0
LINE
  5
10BF
100
AcDbEntity
  8
10
100
AcDbLine
 10
447.6
 20
361.5
 30
0.0
 11
442.0
 21
361.5
 31
0.0
  0
ARC
  5
10C0
100
AcDbEntity
  8
10
100
AcDbCircle
 10
441.0
 20
364.0
 30
0.0
 40
1.0
100
AcDbArc
 50
269.999997
 51
0.0
  0
LINE
  5
10C1
100
AcDbEntity
  8
10
100
AcDbLine
 10
439.0
 20
358.000031
 30
0.0
 11
442.5
 21
358.000031
 31
0.0
  0
LINE
  5
10C2
100
AcDbEntity
  8
10
100
AcDbLine
 10
440.0
 20
361.5
 30
0.0
 11
442.0
 21
361.5
 31
0.0
  0
LINE
  5
10C3
100
AcDbEntity
  8
10
100
AcDbLine
 10
440.0
 20
363.0
 30
0.0
 11
440.0
 21
360.999969
 31
0.0
  0
LINE
  5
10C4
100
AcDbEntity
  8
10
100
AcDbLine
 10
440.777466
 20
357.5
 30
0.0
 11
440.999969
 21
357.5
 31
0.0
  0
LINE
  5
10C5
100
AcDbEntity
  8
10
100
AcDbLine
 10
440.376495
 20
357.5
 30
0.0
 11
440.566101
 21
357.5
 31
0.0
  0
LINE
  5
10C6
100
AcDbEntity
  8
10
100
AcDbLine
 10
442.0
 20
357.5
 30
0.0
 11
440.999969
 21
357.5
 31
0.0
  0
LINE
  5
10C7
100
AcDbEntity
  8
10
100
AcDbLine
 10
440.0
 20
357.5
 30
0.0
 11
440.777466
 21
357.5
 31
0.0
  0
LINE
  5
10C8
100
AcDbEntity
  8
10
100
AcDbLine
 10
446.0
 20
388.0
 30
0.0
 11
508.0
 21
388.0
 31
0.0
  0
LINE
  5
10C9
100
AcDbEntity
  8
10
100
AcDbLine
 10
446.0
 20
374.0
 30
0.0
 11
501.5
 21
374.0
 31
0.0
  0
LINE
  5
10CA
100
AcDbEntity
  8
10
100
AcDbLine
 10
457.0
 20
371.0
 30
0.0
 11
487.0
 21
371.0
 31
0.0
  0
LINE
  5
10CB
100
AcDbEntity
  8
10
100
AcDbLine
 10
440.0
 20
374.500031
 30
0.0
 11
440.0
 21
390.0
 31
0.0
  0
LINE
  5
10CC
100
AcDbEntity
  8
10
100
AcDbLine
 10
446.0
 20
390.0
 30
0.0
 11
446.0
 21
374.0
 31
0.0
  0
LINE
  5
10CD
100
AcDbEntity
  8
10
100
AcDbLine
 10
440.0
 20
374.500031
 30
0.0
 11
442.0
 21
374.500031
 31
0.0
  0
LINE
  5
10CE
100
AcDbEntity
  8
10
100
AcDbLine
 10
440.0
 20
375.499969
 30
0.0
 11
442.0
 21
375.499969
 31
0.0
  0
LINE
  5
10CF
100
AcDbEntity
  8
10
100
AcDbLine
 10
440.0
 20
390.0
 30
0.0
 11
446.0
 21
390.0
 31
0.0
  0
LINE
  5
10D7
100
AcDbEntity
  8
10
100
AcDbLine
 10
457.0
 20
371.0
 30
0.0
 11
457.0
 21
374.0
 31
0.0
  0
LINE
  5
10D8
100
AcDbEntity
  8
12
100
AcDbLine
 10
496.506424
 20
382.499992
 30
0.0
 11
512.988937
 21
382.499992
 31
0.0
  0
LINE
  5
10D9
100
AcDbEntity
  8
10
100
AcDbLine
 10
487.0
 20
371.0
 30
0.0
 11
487.0
 21
374.0
 31
0.0
  0
LINE
  5
10DA
100
AcDbEntity
  8
10
100
AcDbLine
 10
502.0
 20
374.5
 30
0.0
 11
502.0
 21
388.0
 31
0.0
  0
LINE
  5
10DB
100
AcDbEntity
  8
10
100
AcDbLine
 10
508.0
 20
371.0
 30
0.0
 11
508.0
 21
388.0
 31
0.0
  0
LINE
  5
10DC
100
AcDbEntity
  8
10
100
AcDbLine
 10
508.0
 20
371.0
 30
0.0
 11
507.0
 21
370.0
 31
0.0
  0
ARC
  5
10DD
100
AcDbEntity
  8
10
100
AcDbCircle
 10
501.5
 20
374.5
 30
0.0
 40
0.5
100
AcDbArc
 50
269.999997
 51
0.0
  0
CIRCLE
  5
156F
100
AcDbEntity
  8
12
100
AcDbCircle
 10
20.0
 20
382.499992
 30
0.0
 40
3.0
  0
CIRCLE
  5
1570
100
AcDbEntity
  8
12
100
AcDbCircle
 10
180.0
 20
382.499992
 30
0.0
 40
3.0
  0
LINE
  5
1571
100
AcDbEntity
  8
17
100
AcDbLine
 10
54.000004
 20
43.999969
 30
0.0
 11
64.000004
 21
43.999969
 31
0.0
  0
LINE
  5
1572
100
AcDbEntity
  8
17
100
AcDbLine
 10
59.000004
 20
38.999969
 30
0.0
 11
59.000004
 21
48.999969
 31
0.0
  0
LINE
  5
1573
100
AcDbEntity
  8
17
100
AcDbLine
 10
67.000002
 20
43.999969
 30
0.0
 11
77.000002
 21
43.999969
 31
0.0
  0
LINE
  5
1574
100
AcDbEntity
  8
17
100
AcDbLine
 10
72.000002
 20
38.999969
 30
0.0
 11
72.000002
 21
48.999969
 31
0.0
  0
LINE
  5
1575
100
AcDbEntity
  8
17
100
AcDbLine
 10
79.999994
 20
43.999969
 30
0.0
 11
89.999994
 21
43.999969
 31
0.0
  0
LINE
  5
1576
100
AcDbEntity
  8
17
100
AcDbLine
 10
84.999994
 20
38.999969
 30
0.0
 11
84.999994
 21
48.999969
 31
0.0
  0
LINE
  5
1577
100
AcDbEntity
  8
17
100
AcDbLine
 10
129.999994
 20
43.999969
 30
0.0
 11
139.999994
 21
43.999969
 31
0.0
  0
LINE
  5
1578
100
AcDbEntity
  8
17
100
AcDbLine
 10
134.999994
 20
38.999969
 30
0.0
 11
134.999994
 21
48.999969
 31
0.0
  0
LINE
  5
1579
100
AcDbEntity
  8
17
100
AcDbLine
 10
47.0
 20
63.149969
 30
0.0
 11
57.0
 21
63.149969
 31
0.0
  0
LINE
  5
157A
100
AcDbEntity
  8
17
100
AcDbLine
 10
52.0
 20
58.149969
 30
0.0
 11
52.0
 21
68.149969
 31
0.0
  0
LINE
  5
157B
100
AcDbEntity
  8
17
100
AcDbLine
 10
60.0
 20
63.149969
 30
0.0
 11
70.0
 21
63.149969
 31
0.0
  0
LINE
  5
157C
100
AcDbEntity
  8
17
100
AcDbLine
 10
65.0
 20
58.149969
 30
0.0
 11
65.0
 21
68.149969
 31
0.0
  0
LINE
  5
157D
100
AcDbEntity
  8
17
100
AcDbLine
 10
73.0
 20
63.149969
 30
0.0
 11
83.0
 21
63.149969
 31
0.0
  0
LINE
  5
157E
100
AcDbEntity
  8
17
100
AcDbLine
 10
78.0
 20
58.149969
 30
0.0
 11
78.0
 21
68.149969
 31
0.0
  0
LINE
  5
157F
100
AcDbEntity
  8
17
100
AcDbLine
 10
86.0
 20
63.149969
 30
0.0
 11
96.0
 21
63.149969
 31
0.0
  0
LINE
  5
1580
100
AcDbEntity
  8
17
100
AcDbLine
 10
91.0
 20
58.149969
 30
0.0
 11
91.0
 21
68.149969
 31
0.0
  0
LINE
  5
1581
100
AcDbEntity
  8
17
100
AcDbLine
 10
99.0
 20
63.149969
 30
0.0
 11
109.0
 21
63.149969
 31
0.0
  0
LINE
  5
1582
100
AcDbEntity
  8
17
100
AcDbLine
 10
104.0
 20
58.149969
 30
0.0
 11
104.0
 21
68.149969
 31
0.0
  0
LINE
  5
1583
100
AcDbEntity
  8
17
100
AcDbLine
 10
112.0
 20
63.149969
 30
0.0
 11
122.0
 21
63.149969
 31
0.0
  0
LINE
  5
1584
100
AcDbEntity
  8
17
100
AcDbLine
 10
117.0
 20
58.149969
 30
0.0
 11
117.0
 21
68.149969
 31
0.0
  0
LINE
  5
1585
100
AcDbEntity
  8
17
100
AcDbLine
 10
125.0
 20
63.149969
 30
0.0
 11
135.0
 21
63.149969
 31
0.0
  0
LINE
  5
1586
100
AcDbEntity
  8
17
100
AcDbLine
 10
130.0
 20
58.149969
 30
0.0
 11
130.0
 21
68.149969
 31
0.0
  0
LINE
  5
1587
100
AcDbEntity
  8
17
100
AcDbLine
 10
138.0
 20
63.149969
 30
0.0
 11
148.0
 21
63.149969
 31
0.0
  0
LINE
  5
1588
100
AcDbEntity
  8
17
100
AcDbLine
 10
143.0
 20
58.149969
 30
0.0
 11
143.0
 21
68.149969
 31
0.0
  0
LINE
  5
1589
100
AcDbEntity
  8
17
100
AcDbLine
 10
151.0
 20
63.149969
 30
0.0
 11
161.0
 21
63.149969
 31
0.0
  0
LINE
  5
158A
100
AcDbEntity
  8
17
100
AcDbLine
 10
156.0
 20
58.149969
 30
0.0
 11
156.0
 21
68.149969
 31
0.0
  0
LINE
  5
158B
100
AcDbEntity
  8
17
100
AcDbLine
 10
169.6
 20
238.499985
 30
0.0
 11
179.6
 21
238.499985
 31
0.0
  0
LINE
  5
158C
100
AcDbEntity
  8
17
100
AcDbLine
 10
174.6
 20
233.499985
 30
0.0
 11
174.6
 21
243.499985
 31
0.0
  0
LINE
  5
158D
100
AcDbEntity
  8
17
100
AcDbLine
 10
169.6
 20
248.499985
 30
0.0
 11
179.6
 21
248.499985
 31
0.0
  0
LINE
  5
158E
100
AcDbEntity
  8
17
100
AcDbLine
 10
174.6
 20
243.499985
 30
0.0
 11
174.6
 21
253.499985
 31
0.0
  0
LINE
  5
158F
100
AcDbEntity
  8
17
100
AcDbLine
 10
327.9
 20
243.499985
 30
0.0
 11
327.9
 21
253.499985
 31
0.0
  0
LINE
  5
1590
100
AcDbEntity
  8
17
100
AcDbLine
 10
327.9
 20
233.499985
 30
0.0
 11
327.9
 21
243.499985
 31
0.0
  0
LINE
  5
1591
100
AcDbEntity
  8
17
100
AcDbLine
 10
322.9
 20
238.499985
 30
0.0
 11
332.9
 21
238.499985
 31
0.0
  0
LINE
  5
1592
100
AcDbEntity
  8
17
100
AcDbLine
 10
322.9
 20
248.499985
 30
0.0
 11
332.9
 21
248.499985
 31
0.0
  0
LINE
  5
1593
100
AcDbEntity
  8
17
100
AcDbLine
 10
435.0
 20
43.999969
 30
0.0
 11
445.0
 21
43.999969
 31
0.0
  0
LINE
  5
1594
100
AcDbEntity
  8
17
100
AcDbLine
 10
440.0
 20
38.999969
 30
0.0
 11
440.0
 21
48.999969
 31
0.0
  0
LINE
  5
1596
100
AcDbEntity
  8
17
100
AcDbLine
 10
400.4
 20
63.149969
 30
0.0
 11
410.4
 21
63.149969
 31
0.0
  0
LINE
  5
1597
100
AcDbEntity
  8
17
100
AcDbLine
 10
405.4
 20
58.149969
 30
0.0
 11
405.4
 21
68.149969
 31
0.0
  0
LINE
  5
159A
100
AcDbEntity
  8
10
100
AcDbLine
 10
139.5
 20
349.5
 30
0.0
 11
139.5
 21
268.5
 31
0.0
  0
LINE
  5
159D
100
AcDbEntity
  8
16
100
AcDbLine
 10
100.0
 20
400.0
 30
0.0
 11
100.0
 21
29.999969
 31
0.0
  0
LINE
  5
159F
100
AcDbEntity
  8
18
100
AcDbLine
 10
508.0
 20
0.0
 30
0.0
 11
508.0
 21
430.0
 31
0.0
  0
LINE
  5
15A0
100
AcDbEntity
  8
18
100
AcDbLine
 10
238.0
 20
0.0
 30
0.0
 11
238.0
 21
430.0
 31
0.0
  0
LINE
  5
15A1
100
AcDbEntity
  8
18
100
AcDbLine
 10
200.0
 20
0.0
 30
0.0
 11
200.0
 21
430.0
 31
0.0
  0
LINE
  5
15A2
100
AcDbEntity
  8
18
100
AcDbLine
 10
0.0
 20
0.0
 30
0.0
 11
0.0
 21
430.0
 31
0.0
  0
LINE
  5
15A3
100
AcDbEntity
  8
18
100
AcDbLine
 10
200.0
 20
0.0
 30
0.0
 11
0.0
 21
0.0
 31
0.0
  0
LINE
  5
15A4
100
AcDbEntity
  8
18
100
AcDbLine
 10
200.0
 20
430.0
 30
0.0
 11
0.0
 21
430.0
 31
0.0
  0
LINE
  5
15A5
100
AcDbEntity
  8
18
100
AcDbLine
 10
238.0
 20
0.0
 30
0.0
 11
508.0
 21
0.0
 31
0.0
  0
LINE
  5
15A6
100
AcDbEntity
  8
18
100
AcDbLine
 10
238.0
 20
430.0
 30
0.0
 11
508.0
 21
430.0
 31
0.0
  0
ENDSEC
  0
SECTION
  2
OBJECTS
  0
DICTIONARY
  5
1A
100
AcDbDictionary
  3
ACAD_GROUP
350
18
  3
ACAD_MLINESTYLE
350
19
  3
CONTENTDICTIONARY
350
358
  0
DICTIONARY
  5
18
102
{ACAD_REACTORS
330
1A
102
}
100
AcDbDictionary
  0
DICTIONARY
  5
19
102
{ACAD_REACTORS
330
1A
102
}
100
AcDbDictionary
  3
STANDARD
350
1D
  0
DICTIONARY
  5
358
102
{ACAD_REACTORS
330
1A
102
}
100
AcDbDictionary
  0
MLINESTYLE
  5
1D
102
{ACAD_REACTORS
330
19
102
}
100
AcDbMlineStyle
  2
STANDARD
 70
     0
  3

 62
   256
 51
90.0
 52
90.0
 71
     2
 49
0.5
 62
   256
  6
BYLAYER
 49
-0.5
 62
   256
  6
BYLAYER
  0
ENDSEC
  0
EOF
