  0
SECTION
  2
HEADER
  9
$ACADVER
  1
AC1009
  9
$INSBASE
 10
0.0
 20
0.0
 30
0.0
  9
$EXTMIN
 10
21.05448
 20
25.809301
 30
0.0
  9
$EXTMAX
 10
373.65125
 20
206.61395
 30
0.0
  9
$LIMMIN
 10
0.0
 20
0.0
  9
$LIMMAX
 10
12.0
 20
9.0
  9
$ORTHOMODE
 70
     0
  9
$REGENMODE
 70
     1
  9
$FILLMODE
 70
     1
  9
$QTEXTMODE
 70
     0
  9
$MIRRTEXT
 70
     1
  9
$DRAGMODE
 70
     2
  9
$LTSCALE
 40
1.0
  9
$OSMODE
 70
     0
  9
$ATTMODE
 70
     1
  9
$TEXTSIZE
 40
0.2
  9
$TRACEWID
 40
0.05
  9
$TEXTSTYLE
  7
STANDARD
  9
$CLAYER
  8
0
  9
$CELTYPE
  6
CONTINUOUS
  9
$CECOLOR
 62
   256
  9
$DIMSCALE
 40
1.0
  9
$DIMASZ
 40
0.18
  9
$DIMEXO
 40
0.0625
  9
$DIMDLI
 40
0.38
  9
$DIMRND
 40
0.0
  9
$DIMDLE
 40
0.0
  9
$DIMEXE
 40
0.18
  9
$DIMTP
 40
0.0
  9
$DIMTM
 40
0.0
  9
$DIMTXT
 40
0.18
  9
$DIMCEN
 40
0.09
  9
$DIMTSZ
 40
0.0
  9
$DIMTOL
 70
     0
  9
$DIMLIM
 70
     0
  9
$DIMTIH
 70
     1
  9
$DIMTOH
 70
     1
  9
$DIMSE1
 70
     0
  9
$DIMSE2
 70
     0
  9
$DIMTAD
 70
     0
  9
$DIMZIN
 70
     0
  9
$DIMBLK
  1

  9
$DIMASO
 70
     1
  9
$DIMSHO
 70
     1
  9
$DIMPOST
  1

  9
$DIMAPOST
  1

  9
$DIMALT
 70
     0
  9
$DIMALTD
 70
     2
  9
$DIMALTF
 40
25.4
  9
$DIMLFAC
 40
1.0
  9
$DIMTOFL
 70
     0
  9
$DIMTVP
 40
0.0
  9
$DIMTIX
 70
     0
  9
$DIMSOXD
 70
     0
  9
$DIMSAH
 70
     0
  9
$DIMBLK1
  1

  9
$DIMBLK2
  1

  9
$DIMSTYLE
  2
STANDARD
  9
$DIMCLRD
 70
     0
  9
$DIMCLRE
 70
     0
  9
$DIMCLRT
 70
     0
  9
$DIMTFAC
 40
1.0
  9
$DIMGAP
 40
0.09
  9
$LUNITS
 70
     2
  9
$LUPREC
 70
     4
  9
$SKETCHINC
 40
0.1
  9
$FILLETRAD
 40
0.0
  9
$AUNITS
 70
     0
  9
$AUPREC
 70
     0
  9
$MENU
  1
.
  9
$ELEVATION
 40
0.0
  9
$PELEVATION
 40
0.0
  9
$THICKNESS
 40
0.0
  9
$LIMCHECK
 70
     0
  9
$BLIPMODE
 70
     0
  9
$CHAMFERA
 40
0.0
  9
$CHAMFERB
 40
0.0
  9
$SKPOLY
 70
     0
  9
$TDCREATE
 40
0.0
  9
$TDUPDATE
 40
0.0
  9
$TDINDWG
 40
0.0
  9
$TDUSRTIMER
 40
0.0
  9
$USRTIMER
 70
     1
  9
$ANGBASE
 50
0.0
  9
$ANGDIR
 70
     0
  9
$PDMODE
 70
     0
  9
$PDSIZE
 40
0.0
  9
$PLINEWID
 40
0.0
  9
$COORDS
 70
     1
  9
$SPLFRAME
 70
     0
  9
$SPLINETYPE
 70
     6
  9
$SPLINESEGS
 70
     8
  9
$ATTDIA
 70
     0
  9
$ATTREQ
 70
     1
  9
$HANDLING
 70
     1
  9
$HANDSEED
  5
4F4
  9
$SURFTAB1
 70
     6
  9
$SURFTAB2
 70
     6
  9
$SURFTYPE
 70
     6
  9
$SURFU
 70
     6
  9
$SURFV
 70
     6
  9
$UCSNAME
  2

  9
$UCSORG
 10
0.0
 20
0.0
 30
0.0
  9
$UCSXDIR
 10
1.0
 20
0.0
 30
0.0
  9
$UCSYDIR
 10
0.0
 20
1.0
 30
0.0
  9
$PUCSNAME
  2

  9
$PUCSORG
 10
0.0
 20
0.0
 30
0.0
  9
$PUCSXDIR
 10
1.0
 20
0.0
 30
0.0
  9
$PUCSYDIR
 10
0.0
 20
1.0
 30
0.0
  9
$USERI1
 70
     0
  9
$USERI2
 70
     0
  9
$USERI3
 70
     0
  9
$USERI4
 70
     0
  9
$USERI5
 70
     0
  9
$USERR1
 40
0.0
  9
$USERR2
 40
0.0
  9
$USERR3
 40
0.0
  9
$USERR4
 40
0.0
  9
$USERR5
 40
0.0
  9
$WORLDVIEW
 70
     1
  9
$SHADEDGE
 70
     3
  9
$SHADEDIF
 70
    70
  9
$TILEMODE
 70
     1
  9
$MAXACTVP
 70
    48
  9
$PLIMCHECK
 70
     0
  9
$PEXTMIN
 10
1.000000E+020
 20
1.000000E+020
 30
1.000000E+020
  9
$PEXTMAX
 10
-1.000000E+020
 20
-1.000000E+020
 30
-1.000000E+020
  9
$PLIMMIN
 10
0.0
 20
0.0
  9
$PLIMMAX
 10
12.0
 20
9.0
  9
$UNITMODE
 70
     0
  9
$VISRETAIN
 70
     1
  9
$PLINEGEN
 70
     0
  9
$PSLTSCALE
 70
     1
  0
ENDSEC
  0
SECTION
  2
TABLES
  0
TABLE
  2
VPORT
 70
     2
  0
VPORT
  2
*ACTIVE
 70
     0
 10
0.0
 20
0.0
 11
1.0
 21
1.0
 12
186.825624
 22
103.306975
 13
0.0
 23
0.0
 14
1.0
 24
1.0
 15
0.0
 25
0.0
 16
0.0
 26
0.0
 36
1.0
 17
0.0
 27
0.0
 37
0.0
 40
354.381539
 41
1.581315
 42
50.0
 43
0.0
 44
0.0
 50
0.0
 51
0.0
 71
     0
 72
   100
 73
     1
 74
     1
 75
     0
 76
     0
 77
     0
 78
     0
  0
ENDTAB
  0
TABLE
  2
LTYPE
 70
     5
  0
LTYPE
  2
CONTINUOUS
 70
     0
  3
Solid line
 72
    65
 73
     0
 40
0.0
  0
LTYPE
  2
DASHED
 70
     0
  3
__ __ __ __ __ __ __ __ __ __ __ __ __ __ __
 72
    65
 73
     2
 40
3.5
 49
2.0
 49
-1.5
  0
LTYPE
  2
CENTER
 70
     0
  3
____ _ ____ _ ____ _ ____ _ ____ _ ____ _ ____
 72
    65
 73
     4
 40
17.5
 49
13.0
 49
-1.5
 49
1.5
 49
-1.5
  0
LTYPE
  2
PHANTOM
 70
     0
  3
_____ _ _ _____ _ _ _____ _ _ _____ _ _ ____  
 72
    65
 73
     6
 40
15.5
 49
8.0
 49
-1.5
 49
1.5
 49
-1.5
 49
1.5
 49
-1.5
  0
LTYPE
  2
DOT
 70
     0
  3
. . . . . . . . . . . . . . . . . . . . . . . .
 72
    65
 73
     2
 40
0.25
 49
0.0
 49
-0.25
  0
ENDTAB
  0
TABLE
  2
LAYER
 70
     1
  0
LAYER
  2
0
 70
     0
 62
     7
  6
CONTINUOUS
  0
ENDTAB
  0
TABLE
  2
STYLE
 70
     1
  0
STYLE
  2
STANDARD
 70
     0
 40
0.0
 41
1.0
 50
0.0
 71
     0
 42
0.2
  3
txt
  4

  0
ENDTAB
  0
TABLE
  2
VIEW
 70
     0
  0
ENDTAB
  0
TABLE
  2
UCS
 70
     0
  0
ENDTAB
  0
TABLE
  2
APPID
 70
     1
  0
APPID
  2
ACAD
 70
     0
  0
ENDTAB
  0
TABLE
  2
DIMSTYLE
 70
     1
  0
DIMSTYLE
  2
STANDARD
 70
     0
  3

  4

  5

  6

  7

 40
1.0
 41
0.18
 42
0.0625
 43
0.38
 44
0.18
 45
0.0
 46
0.0
 47
0.0
 48
0.0
140
0.18
141
0.09
142
0.0
143
25.4
144
1.0
145
0.0
146
1.0
147
0.09
 71
     0
 72
     0
 73
     1
 74
     1
 75
     0
 76
     0
 77
     0
 78
     0
170
     0
171
     2
172
     0
173
     0
174
     0
175
     0
176
     0
177
     0
178
     0
  0
ENDTAB
  0
ENDSEC
  0
SECTION
  2
BLOCKS
  0
BLOCK
  8
0
  2
$MODEL_SPACE
 70
     0
 10
0.0
 20
0.0
 30
0.0
  3
$MODEL_SPACE
  1

  0
ENDBLK
  5
1A
  8
0
  0
BLOCK
 67
     1
  8
0
  2
$PAPER_SPACE
 70
     0
 10
0.0
 20
0.0
 30
0.0
  3
$PAPER_SPACE
  1

  0
ENDBLK
  5
17
 67
     1
  8
0
  0
BLOCK
  8
0
  2
KOZU1
 70
     0
 10
0.0
 20
0.0
 30
0.0
  3
KOZU1
  1

  0
ENDBLK
  5
25
  8
0
  0
BLOCK
  8
0
  2
KOZU2
 70
     0
 10
0.0
 20
0.0
 30
0.0
  3
KOZU2
  1

  0
ENDBLK
  5
28
  8
0
  0
BLOCK
  8
0
  2
KOZU0001
 70
     0
 10
0.0
 20
0.0
 30
0.0
  3
KOZU0001
  1

  0
ENDBLK
  5
2B
  8
0
  0
BLOCK
  8
0
  2
KOZU0002
 70
     0
 10
0.0
 20
0.0
 30
0.0
  3
KOZU0002
  1

  0
ENDBLK
  5
2E
  8
0
  0
BLOCK
  8
0
  2
KOZU0003
 70
     0
 10
0.0
 20
0.0
 30
0.0
  3
KOZU0003
  1

  0
LINE
  5
31
  8
0
  6
CONTINUOUS
 62
     2
 10
0.168649
 20
3.699999
 30
0.0
 11
2.5
 21
3.699999
 31
0.0
  0
LINE
  5
32
  8
0
  6
CONTINUOUS
 62
     2
 10
2.043599
 20
7.699999
 30
0.0
 11
1.64284
 21
4.848463
 31
0.0
  0
LINE
  5
33
  8
0
  6
CONTINUOUS
 62
     2
 10
0.168649
 20
3.699999
 30
0.0
 11
0.913518
 21
8.999999
 31
0.0
  0
LINE
  5
34
  8
0
  6
CONTINUOUS
 62
     2
 10
5.0
 20
7.7
 30
0.0
 11
5.0
 21
9.0
 31
0.0
  0
LINE
  5
35
  8
0
  6
CONTINUOUS
 62
     2
 10
2.043599
 20
7.699998
 30
0.0
 11
5.0
 21
7.699998
 31
0.0
  0
LINE
  5
36
  8
0
  6
CONTINUOUS
 62
     2
 10
0.913518
 20
8.999999
 30
0.0
 11
5.0
 21
8.999999
 31
0.0
  0
LINE
  5
37
  8
0
  6
CONTINUOUS
 62
     2
 10
0.0
 20
2.5
 30
0.0
 11
1.3
 21
2.5
 31
0.0
  0
ARC
  5
38
  8
0
  6
CONTINUOUS
 62
     2
 10
2.5
 20
2.5
 30
0.0
 40
2.5
 50
180.00002
 51
110.05144
  0
ARC
  5
39
  8
0
  6
CONTINUOUS
 62
     2
 10
2.5
 20
2.5
 30
0.0
 40
1.2
 50
183.55932
 51
90.000003
  0
ENDBLK
  5
3A
  8
0
  0
BLOCK
  8
0
  2
KOZU0004
 70
     0
 10
0.0
 20
0.0
 30
0.0
  3
KOZU0004
  1

  0
LINE
  5
3D
  8
0
  6
CONTINUOUS
 62
     2
 10
5.0
 20
3.0
 30
0.0
 11
4.0
 21
3.0
 31
0.0
  0
LINE
  5
3E
  8
0
  6
CONTINUOUS
 62
     2
 10
5.0
 20
1.7
 30
0.0
 11
4.0
 21
1.7
 31
0.0
  0
LINE
  5
3F
  8
0
  6
CONTINUOUS
 62
     2
 10
4.0
 20
0.0
 30
0.0
 11
4.0
 21
1.7
 31
0.0
  0
LINE
  5
40
  8
0
  6
CONTINUOUS
 62
     2
 10
2.7
 20
0.0
 30
0.0
 11
2.7
 21
1.7
 31
0.0
  0
LINE
  5
41
  8
0
  6
CONTINUOUS
 62
     2
 10
4.0
 20
0.0
 30
0.0
 11
2.7
 21
0.0
 31
0.0
  0
LINE
  5
42
  8
0
  6
CONTINUOUS
 62
     2
 10
2.7
 20
9.0
 30
0.0
 11
4.0
 21
9.0
 31
0.0
  0
LINE
  5
43
  8
0
  6
CONTINUOUS
 62
     2
 10
0.0
 20
1.7
 30
0.0
 11
0.0
 21
3.0
 31
0.0
  0
LINE
  5
44
  8
0
  6
CONTINUOUS
 62
     2
 10
5.0
 20
1.7
 30
0.0
 11
5.0
 21
3.0
 31
0.0
  0
LINE
  5
45
  8
0
  6
CONTINUOUS
 62
     2
 10
4.0
 20
9.0
 30
0.0
 11
4.0
 21
3.0
 31
0.0
  0
LINE
  5
46
  8
0
  6
CONTINUOUS
 62
     2
 10
2.7
 20
6.111109
 30
0.0
 11
2.7
 21
3.0
 31
0.0
  0
LINE
  5
47
  8
0
  6
CONTINUOUS
 62
     2
 10
0.0
 20
1.7
 30
0.0
 11
2.7
 21
1.7
 31
0.0
  0
LINE
  5
48
  8
0
  6
CONTINUOUS
 62
     2
 10
1.3
 20
3.0
 30
0.0
 11
2.7
 21
3.0
 31
0.0
  0
LINE
  5
49
  8
0
  6
CONTINUOUS
 62
     2
 10
1.3
 20
3.0
 30
0.0
 11
2.699997
 21
6.111109
 31
0.0
  0
LINE
  5
4A
  8
0
  6
CONTINUOUS
 62
     2
 10
2.699999
 20
9.0
 30
0.0
 11
-0.000001
 21
3.0
 31
0.0
  0
ENDBLK
  5
4B
  8
0
  0
BLOCK
  8
0
  2
KOZU0005
 70
     0
 10
0.0
 20
0.0
 30
0.0
  3
KOZU0005
  1

  0
LINE
  5
4E
  8
0
  6
CONTINUOUS
 62
     2
 10
0.0
 20
6.5
 30
0.0
 11
0.0
 21
2.5
 31
0.0
  0
LINE
  5
4F
  8
0
  6
CONTINUOUS
 62
     2
 10
5.0
 20
6.5
 30
0.0
 11
5.0
 21
2.5
 31
0.0
  0
LINE
  5
50
  8
0
  6
CONTINUOUS
 62
     2
 10
3.7
 20
2.5
 30
0.0
 11
3.7
 21
6.5
 31
0.0
  0
LINE
  5
51
  8
0
  6
CONTINUOUS
 62
     2
 10
1.3
 20
6.5
 30
0.0
 11
1.3
 21
2.5
 31
0.0
  0
ARC
  5
52
  8
0
  6
CONTINUOUS
 62
     2
 10
2.5
 20
2.5
 30
0.0
 40
2.5
 50
180.00002
 51
359.99998
  0
ARC
  5
53
  8
0
  6
CONTINUOUS
 62
     2
 10
2.5
 20
2.5
 30
0.0
 40
1.2
 50
180.00002
 51
359.99999
  0
ARC
  5
54
  8
0
  6
CONTINUOUS
 62
     2
 10
2.5
 20
6.5
 30
0.0
 40
2.5
 50
0.0
 51
180.00002
  0
ARC
  5
55
  8
0
  6
CONTINUOUS
 62
     2
 10
2.5
 20
6.5
 30
0.0
 40
1.2
 50
0.0
 51
180.00002
  0
ENDBLK
  5
56
  8
0
  0
BLOCK
  8
0
  2
KOZU0006
 70
     0
 10
0.0
 20
0.0
 30
0.0
  3
KOZU0006
  1

  0
POINT
  5
59
  8
0
  6
CONTINUOUS
 62
     3
 10
0.0
 20
-0.000001
 30
0.0
  0
LINE
  5
5A
  8
0
  6
CONTINUOUS
 62
     3
 10
0.0
 20
-2.75
 30
0.0
 11
0.0
 21
2.75
 31
0.0
  0
LINE
  5
5B
  8
0
  6
CONTINUOUS
 62
     3
 10
0.0
 20
2.75
 30
0.0
 11
-0.73912
 21
2.75
 31
0.0
  0
LINE
  5
5C
  8
0
  6
CONTINUOUS
 62
     3
 10
0.0
 20
-2.75
 30
0.0
 11
-0.73912
 21
-2.75
 31
0.0
  0
ARC
  5
5D
  8
0
  6
CONTINUOUS
 62
     3
 10
5.0
 20
-0.000001
 30
0.0
 40
7.0
 50
163.04224
 51
196.95774
  0
ARC
  5
5E
  8
0
  6
CONTINUOUS
 62
     3
 10
-0.73912
 20
1.75
 30
0.0
 40
1.0
 50
90.000003
 51
163.04219
  0
ARC
  5
5F
  8
0
  6
CONTINUOUS
 62
     3
 10
-0.73912
 20
-1.75
 30
0.0
 40
1.0
 50
196.95774
 51
270.0
  0
ENDBLK
  5
60
  8
0
  0
BLOCK
  8
0
  2
KOZU0007
 70
     0
 10
0.0
 20
0.0
 30
0.0
  3
KOZU0007
  1

  0
POINT
  5
63
  8
0
  6
CONTINUOUS
 62
     7
 10
-67.733002
 20
10.305347
 30
0.0
  0
POINT
  5
64
  8
0
  6
CONTINUOUS
 62
     7
 10
7.266997
 20
45.305347
 30
0.0
  0
POINT
  5
65
  8
0
  6
CONTINUOUS
 62
     7
 10
7.266997
 20
75.913322
 30
0.0
  0
LINE
  5
66
  8
0
  6
CONTINUOUS
 62
     4
 10
7.266997
 20
46.305347
 30
0.0
 11
7.266997
 21
77.913322
 31
0.0
  0
LINE
  5
67
  8
0
  6
CONTINUOUS
 62
     4
 10
-67.733002
 20
11.305347
 30
0.0
 11
-67.733002
 21
77.913322
 31
0.0
  0
LINE
  5
68
  8
0
  6
CONTINUOUS
 62
     4
 10
7.266997
 20
75.913322
 30
0.0
 11
-67.733002
 21
75.913322
 31
0.0
  0
LINE
  5
69
  8
0
  6
CONTINUOUS
 62
     4
 10
7.266997
 20
75.913322
 30
0.0
 11
5.335146
 21
75.395683
 31
0.0
  0
LINE
  5
6A
  8
0
  6
CONTINUOUS
 62
     4
 10
7.266998
 20
75.913322
 30
0.0
 11
5.335148
 21
76.430962
 31
0.0
  0
LINE
  5
6B
  8
0
  6
CONTINUOUS
 62
     4
 10
-67.733002
 20
75.913322
 30
0.0
 11
-65.801147
 21
76.430962
 31
0.0
  0
LINE
  5
6C
  8
0
  6
CONTINUOUS
 62
     4
 10
-67.733002
 20
75.913322
 30
0.0
 11
-65.801147
 21
75.395683
 31
0.0
  0
ENDBLK
  5
6D
  8
0
  0
BLOCK
  8
0
  2
KOZU0008
 70
     0
 10
0.0
 20
0.0
 30
0.0
  3
KOZU0008
  1

  0
POINT
  5
70
  8
0
  6
CONTINUOUS
 62
     7
 10
-123.26833
 20
-38.84866
 30
0.0
  0
POINT
  5
71
  8
0
  6
CONTINUOUS
 62
     7
 10
-150.10373
 20
-38.84866
 30
0.0
  0
POINT
  5
72
  8
0
  6
CONTINUOUS
 62
     7
 10
-150.10373
 20
-46.531322
 30
0.0
  0
LINE
  5
73
  8
0
  6
CONTINUOUS
 62
     4
 10
-150.10373
 20
-39.84866
 30
0.0
 11
-150.10373
 21
-48.531322
 31
0.0
  0
LINE
  5
74
  8
0
  6
CONTINUOUS
 62
     4
 10
-123.26833
 20
-39.84866
 30
0.0
 11
-123.26833
 21
-48.531322
 31
0.0
  0
LINE
  5
75
  8
0
  6
CONTINUOUS
 62
     4
 10
-155.10373
 20
-46.531322
 30
0.0
 11
-112.37891
 21
-46.531322
 31
0.0
  0
LINE
  5
76
  8
0
  6
CONTINUOUS
 62
     4
 10
-150.10373
 20
-46.531322
 30
0.0
 11
-152.03558
 21
-46.013683
 31
0.0
  0
LINE
  5
77
  8
0
  6
CONTINUOUS
 62
     4
 10
-150.10373
 20
-46.531319
 30
0.0
 11
-152.03558
 21
-47.048962
 31
0.0
  0
LINE
  5
78
  8
0
  6
CONTINUOUS
 62
     4
 10
-123.26833
 20
-46.531326
 30
0.0
 11
-121.33648
 21
-47.048965
 31
0.0
  0
LINE
  5
79
  8
0
  6
CONTINUOUS
 62
     4
 10
-123.26834
 20
-46.531322
 30
0.0
 11
-121.33647
 21
-46.01368
 31
0.0
  0
ENDBLK
  5
7A
  8
0
  0
BLOCK
  8
0
  2
KOZU0009
 70
     0
 10
0.0
 20
0.0
 30
0.0
  3
KOZU0009
  1

  0
POINT
  5
7D
  8
0
  6
CONTINUOUS
 62
     7
 10
-124.25314
 20
-39.675022
 30
0.0
  0
POINT
  5
7E
  8
0
  6
CONTINUOUS
 62
     7
 10
-83.947311
 20
10.305347
 30
0.0
  0
POINT
  5
7F
  8
0
  6
CONTINUOUS
 62
     7
 10
-87.490791
 20
10.305347
 30
0.0
  0
LINE
  5
80
  8
0
  6
CONTINUOUS
 62
     4
 10
-84.947311
 20
10.305347
 30
0.0
 11
-89.490791
 21
10.305347
 31
0.0
  0
LINE
  5
81
  8
0
  6
CONTINUOUS
 62
     4
 10
-123.25314
 20
-39.675022
 30
0.0
 11
-85.490791
 21
-39.675022
 31
0.0
  0
LINE
  5
82
  8
0
  6
CONTINUOUS
 62
     4
 10
-87.490791
 20
10.305347
 30
0.0
 11
-87.490791
 21
-39.675022
 31
0.0
  0
LINE
  5
83
  8
0
  6
CONTINUOUS
 62
     4
 10
-87.490791
 20
10.305346
 30
0.0
 11
-86.973152
 21
8.373497
 31
0.0
  0
LINE
  5
84
  8
0
  6
CONTINUOUS
 62
     4
 10
-87.490791
 20
10.305346
 30
0.0
 11
-88.00843
 21
8.373495
 31
0.0
  0
LINE
  5
85
  8
0
  6
CONTINUOUS
 62
     4
 10
-87.490791
 20
-39.675022
 30
0.0
 11
-88.00843
 21
-37.743172
 31
0.0
  0
LINE
  5
86
  8
0
  6
CONTINUOUS
 62
     4
 10
-87.490791
 20
-39.675022
 30
0.0
 11
-86.973152
 21
-37.743172
 31
0.0
  0
ENDBLK
  5
87
  8
0
  0
BLOCK
  8
0
  2
KOZU0010
 70
     0
 10
0.0
 20
0.0
 30
0.0
  3
KOZU0010
  1

  0
POINT
  5
8A
  8
0
  6
CONTINUOUS
 62
     7
 10
13.766997
 20
38.305347
 30
0.0
  0
POINT
  5
8B
  8
0
  6
CONTINUOUS
 62
     7
 10
10.266997
 20
38.305347
 30
0.0
  0
POINT
  5
8C
  8
0
  6
CONTINUOUS
 62
     7
 10
10.266997
 20
59.965656
 30
0.0
  0
LINE
  5
8D
  8
0
  6
CONTINUOUS
 62
     4
 10
10.266997
 20
39.305347
 30
0.0
 11
10.266997
 21
61.965656
 31
0.0
  0
LINE
  5
8E
  8
0
  6
CONTINUOUS
 62
     4
 10
13.766997
 20
39.305347
 30
0.0
 11
13.766997
 21
61.965656
 31
0.0
  0
LINE
  5
8F
  8
0
  6
CONTINUOUS
 62
     4
 10
5.266997
 20
59.965656
 30
0.0
 11
23.44549
 21
59.965656
 31
0.0
  0
LINE
  5
90
  8
0
  6
CONTINUOUS
 62
     4
 10
10.266996
 20
59.965656
 30
0.0
 11
8.335146
 21
60.483295
 31
0.0
  0
LINE
  5
91
  8
0
  6
CONTINUOUS
 62
     4
 10
10.266997
 20
59.965656
 30
0.0
 11
8.335146
 21
59.448017
 31
0.0
  0
LINE
  5
92
  8
0
  6
CONTINUOUS
 62
     4
 10
13.766996
 20
59.965656
 30
0.0
 11
15.698849
 21
59.448017
 31
0.0
  0
LINE
  5
93
  8
0
  6
CONTINUOUS
 62
     4
 10
13.766996
 20
59.965656
 30
0.0
 11
15.69885
 21
60.483295
 31
0.0
  0
ENDBLK
  5
94
  8
0
  0
BLOCK
  8
0
  2
KOZU0011
 70
     0
 10
0.0
 20
0.0
 30
0.0
  3
KOZU0011
  1

  0
POINT
  5
97
  8
0
  6
CONTINUOUS
 62
     7
 10
10.266997
 20
45.305347
 30
0.0
  0
POINT
  5
98
  8
0
  6
CONTINUOUS
 62
     7
 10
7.266997
 20
50.505348
 30
0.0
  0
POINT
  5
99
  8
0
  6
CONTINUOUS
 62
     7
 10
7.266997
 20
67.965652
 30
0.0
  0
LINE
  5
9A
  8
0
  6
CONTINUOUS
 62
     4
 10
7.266997
 20
51.505348
 30
0.0
 11
7.266997
 21
69.965652
 31
0.0
  0
LINE
  5
9B
  8
0
  6
CONTINUOUS
 62
     4
 10
10.266997
 20
46.305347
 30
0.0
 11
10.266997
 21
69.965652
 31
0.0
  0
LINE
  5
9C
  8
0
  6
CONTINUOUS
 62
     4
 10
2.266997
 20
67.965652
 30
0.0
 11
15.266997
 21
67.965652
 31
0.0
  0
LINE
  5
9D
  8
0
  6
CONTINUOUS
 62
     4
 10
7.266996
 20
67.965645
 30
0.0
 11
5.335146
 21
68.483292
 31
0.0
  0
LINE
  5
9E
  8
0
  6
CONTINUOUS
 62
     4
 10
7.266996
 20
67.965652
 30
0.0
 11
5.335147
 21
67.448013
 31
0.0
  0
LINE
  5
9F
  8
0
  6
CONTINUOUS
 62
     4
 10
10.266996
 20
67.965652
 30
0.0
 11
12.198848
 21
67.448013
 31
0.0
  0
LINE
  5
A0
  8
0
  6
CONTINUOUS
 62
     4
 10
10.266998
 20
67.965652
 30
0.0
 11
12.19885
 21
68.483292
 31
0.0
  0
ENDBLK
  5
A1
  8
0
  0
BLOCK
  8
0
  2
KOZU0012
 70
     0
 10
0.0
 20
0.0
 30
0.0
  3
KOZU0012
  1

  0
POINT
  5
A4
  8
0
  6
CONTINUOUS
 62
     7
 10
7.266997
 20
50.505348
 30
0.0
  0
POINT
  5
A5
  8
0
  6
CONTINUOUS
 62
     7
 10
-0.733003
 20
50.505348
 30
0.0
  0
POINT
  5
A6
  8
0
  6
CONTINUOUS
 62
     7
 10
-0.733003
 20
67.965652
 30
0.0
  0
LINE
  5
A7
  8
0
  6
CONTINUOUS
 62
     4
 10
-0.733003
 20
51.505348
 30
0.0
 11
-0.733003
 21
69.965652
 31
0.0
  0
LINE
  5
A8
  8
0
  6
CONTINUOUS
 62
     4
 10
7.266997
 20
51.505348
 30
0.0
 11
7.266997
 21
69.965652
 31
0.0
  0
LINE
  5
A9
  8
0
  6
CONTINUOUS
 62
     4
 10
-0.733003
 20
67.965652
 30
0.0
 11
7.266997
 21
67.965652
 31
0.0
  0
LINE
  5
AA
  8
0
  6
CONTINUOUS
 62
     4
 10
-0.733001
 20
67.965652
 30
0.0
 11
1.19885
 21
68.483292
 31
0.0
  0
LINE
  5
AB
  8
0
  6
CONTINUOUS
 62
     4
 10
-0.733003
 20
67.965645
 30
0.0
 11
1.198848
 21
67.448006
 31
0.0
  0
LINE
  5
AC
  8
0
  6
CONTINUOUS
 62
     4
 10
7.266996
 20
67.965652
 30
0.0
 11
5.335147
 21
67.448013
 31
0.0
  0
LINE
  5
AD
  8
0
  6
CONTINUOUS
 62
     4
 10
7.266996
 20
67.965645
 30
0.0
 11
5.335146
 21
68.483292
 31
0.0
  0
ENDBLK
  5
AE
  8
0
  0
BLOCK
  8
0
  2
KOZU0013
 70
     0
 10
0.0
 20
0.0
 30
0.0
  3
KOZU0013
  1

  0
POINT
  5
B1
  8
0
  6
CONTINUOUS
 62
     7
 10
7.266997
 20
-24.694653
 30
0.0
  0
POINT
  5
B2
  8
0
  6
CONTINUOUS
 62
     7
 10
7.266997
 20
45.305347
 30
0.0
  0
POINT
  5
B3
  8
0
  6
CONTINUOUS
 62
     7
 10
64.266769
 20
45.305347
 30
0.0
  0
LINE
  5
B4
  8
0
  6
CONTINUOUS
 62
     4
 10
8.266997
 20
45.305347
 30
0.0
 11
66.266769
 21
45.305347
 31
0.0
  0
LINE
  5
B5
  8
0
  6
CONTINUOUS
 62
     4
 10
8.266997
 20
-24.694653
 30
0.0
 11
66.266769
 21
-24.694653
 31
0.0
  0
LINE
  5
B6
  8
0
  6
CONTINUOUS
 62
     4
 10
64.266769
 20
45.305347
 30
0.0
 11
64.266769
 21
-24.694653
 31
0.0
  0
LINE
  5
B7
  8
0
  6
CONTINUOUS
 62
     4
 10
64.266769
 20
45.305347
 30
0.0
 11
64.784409
 21
43.373497
 31
0.0
  0
LINE
  5
B8
  8
0
  6
CONTINUOUS
 62
     4
 10
64.266769
 20
45.305344
 30
0.0
 11
63.74913
 21
43.373497
 31
0.0
  0
LINE
  5
B9
  8
0
  6
CONTINUOUS
 62
     4
 10
64.266769
 20
-24.694654
 30
0.0
 11
63.74913
 21
-22.762798
 31
0.0
  0
LINE
  5
BA
  8
0
  6
CONTINUOUS
 62
     4
 10
64.266769
 20
-24.694653
 30
0.0
 11
64.784409
 21
-22.7628
 31
0.0
  0
ENDBLK
  5
BB
  8
0
  0
BLOCK
  8
0
  2
KOZU0014
 70
     0
 10
0.0
 20
0.0
 30
0.0
  3
KOZU0014
  1

  0
POINT
  5
BE
  8
0
  6
CONTINUOUS
 62
     7
 10
10.266997
 20
-17.694653
 30
0.0
  0
POINT
  5
BF
  8
0
  6
CONTINUOUS
 62
     7
 10
10.266997
 20
38.305347
 30
0.0
  0
POINT
  5
C0
  8
0
  6
CONTINUOUS
 62
     7
 10
54.902786
 20
38.305347
 30
0.0
  0
LINE
  5
C1
  8
0
  6
CONTINUOUS
 62
     4
 10
11.266997
 20
38.305347
 30
0.0
 11
56.902786
 21
38.305347
 31
0.0
  0
LINE
  5
C2
  8
0
  6
CONTINUOUS
 62
     4
 10
11.266997
 20
-17.694653
 30
0.0
 11
56.902786
 21
-17.694653
 31
0.0
  0
LINE
  5
C3
  8
0
  6
CONTINUOUS
 62
     4
 10
54.902786
 20
38.305347
 30
0.0
 11
54.902786
 21
-17.694653
 31
0.0
  0
LINE
  5
C4
  8
0
  6
CONTINUOUS
 62
     4
 10
54.902786
 20
38.305347
 30
0.0
 11
55.420425
 21
36.373497
 31
0.0
  0
LINE
  5
C5
  8
0
  6
CONTINUOUS
 62
     4
 10
54.902786
 20
38.305344
 30
0.0
 11
54.385147
 21
36.373497
 31
0.0
  0
LINE
  5
C6
  8
0
  6
CONTINUOUS
 62
     4
 10
54.902786
 20
-17.694653
 30
0.0
 11
54.385147
 21
-15.762802
 31
0.0
  0
LINE
  5
C7
  8
0
  6
CONTINUOUS
 62
     4
 10
54.902786
 20
-17.694653
 30
0.0
 11
55.420425
 21
-15.7628
 31
0.0
  0
ENDBLK
  5
C8
  8
0
  0
BLOCK
  8
0
  2
KOZU0015
 70
     0
 10
0.0
 20
0.0
 30
0.0
  3
KOZU0015
  1

  0
POINT
  5
CB
  8
0
  6
CONTINUOUS
 62
     7
 10
37.266998
 20
3.305347
 30
0.0
  0
POINT
  5
CC
  8
0
  6
CONTINUOUS
 62
     7
 10
37.266998
 20
17.305347
 30
0.0
  0
POINT
  5
CD
  8
0
  6
CONTINUOUS
 62
     7
 10
47.310368
 20
17.305347
 30
0.0
  0
LINE
  5
CE
  8
0
  6
CONTINUOUS
 62
     4
 10
38.266998
 20
17.305347
 30
0.0
 11
49.310368
 21
17.305347
 31
0.0
  0
LINE
  5
CF
  8
0
  6
CONTINUOUS
 62
     4
 10
38.266998
 20
3.305347
 30
0.0
 11
49.310368
 21
3.305347
 31
0.0
  0
LINE
  5
D0
  8
0
  6
CONTINUOUS
 62
     4
 10
47.310368
 20
17.305347
 30
0.0
 11
47.310368
 21
3.305347
 31
0.0
  0
LINE
  5
D1
  8
0
  6
CONTINUOUS
 62
     4
 10
47.310368
 20
17.305347
 30
0.0
 11
47.828007
 21
15.373496
 31
0.0
  0
LINE
  5
D2
  8
0
  6
CONTINUOUS
 62
     4
 10
47.310368
 20
17.305346
 30
0.0
 11
46.792728
 21
15.373497
 31
0.0
  0
LINE
  5
D3
  8
0
  6
CONTINUOUS
 62
     4
 10
47.310368
 20
3.305346
 30
0.0
 11
46.792725
 21
5.237198
 31
0.0
  0
LINE
  5
D4
  8
0
  6
CONTINUOUS
 62
     4
 10
47.310368
 20
3.305348
 30
0.0
 11
47.828007
 21
5.2372
 31
0.0
  0
ENDBLK
  5
D5
  8
0
  0
BLOCK
  8
0
  2
KOZU0016
 70
     0
 10
0.0
 20
0.0
 30
0.0
  3
KOZU0016
  1

  0
POINT
  5
D8
  8
0
  6
CONTINUOUS
 62
     7
 10
0.0
 20
0.0
 30
0.0
  0
POINT
  5
D9
  8
0
  6
CONTINUOUS
 62
     7
 10
129.267
 20
10.305347
 30
0.0
  0
POINT
  5
DA
  8
0
  6
CONTINUOUS
 62
     7
 10
129.267
 20
55.993248
 30
0.0
  0
POINT
  5
DB
  8
0
  6
CONTINUOUS
 62
     7
 10
92.904381
 20
46.667969
 30
0.0
  0
POINT
  5
DC
  8
0
  6
CONTINUOUS
 62
     7
 10
107.86456
 20
61.97541
 30
0.0
  0
LINE
  5
DD
  8
0
  6
CONTINUOUS
 62
     4
 10
129.267
 20
56.993248
 30
0.0
 11
129.267
 21
68.23262
 31
0.0
  0
LINE
  5
DE
  8
0
  6
CONTINUOUS
 62
     4
 10
92.197273
 20
47.375076
 30
0.0
 11
88.306229
 21
51.266113
 31
0.0
  0
LINE
  5
DF
  8
0
  6
CONTINUOUS
 62
     4
 10
129.267
 20
66.232613
 30
0.0
 11
127.33514
 21
65.714981
 31
0.0
  0
LINE
  5
E0
  8
0
  6
CONTINUOUS
 62
     4
 10
129.267
 20
66.23262
 30
0.0
 11
127.33514
 21
66.750259
 31
0.0
  0
LINE
  5
E1
  8
0
  6
CONTINUOUS
 62
     4
 10
89.720444
 20
49.851902
 30
0.0
 11
90.720444
 21
51.583954
 31
0.0
  0
LINE
  5
E2
  8
0
  6
CONTINUOUS
 62
     4
 10
89.720444
 20
49.851902
 30
0.0
 11
91.452492
 21
50.851902
 31
0.0
  0
ARC
  5
E3
  8
0
  6
CONTINUOUS
 62
     4
 10
129.267
 20
10.305347
 30
0.0
 40
55.927273
 50
90.000003
 51
135.0
  0
ENDBLK
  5
E4
  8
0
  0
BLOCK
  8
0
  2
KOZU0017
 70
     0
 10
0.0
 20
0.0
 30
0.0
  3
KOZU0017
  1

  0
POINT
  5
E7
  8
0
  6
CONTINUOUS
 62
     7
 10
91.244751
 20
34.374176
 30
0.0
  0
POINT
  5
E8
  8
0
  6
CONTINUOUS
 62
     7
 10
167.28925
 20
-13.763481
 30
0.0
  0
LINE
  5
E9
  8
0
  6
CONTINUOUS
 62
     4
 10
167.28926
 20
-13.763481
 30
0.0
 11
91.244751
 21
34.37418
 31
0.0
  0
LINE
  5
EA
  8
0
  6
CONTINUOUS
 62
     4
 10
167.28925
 20
-13.763483
 30
0.0
 11
165.38008
 21
-13.167581
 31
0.0
  0
LINE
  5
EB
  8
0
  6
CONTINUOUS
 62
     4
 10
167.28925
 20
-13.763479
 30
0.0
 11
165.93381
 21
-12.292834
 31
0.0
  0
LINE
  5
EC
  8
0
  6
CONTINUOUS
 62
     4
 10
91.244751
 20
34.37418
 30
0.0
 11
93.153915
 21
33.778278
 31
0.0
  0
LINE
  5
ED
  8
0
  6
CONTINUOUS
 62
     4
 10
91.244751
 20
34.374176
 30
0.0
 11
92.600182
 21
32.903526
 31
0.0
  0
ENDBLK
  5
EE
  8
0
  0
BLOCK
  8
0
  2
KOZU0018
 70
     0
 10
0.0
 20
0.0
 30
0.0
  3
KOZU0018
  1

  0
POINT
  5
F1
  8
0
  6
CONTINUOUS
 62
     3
 10
0.0
 20
0.0
 30
0.0
  0
POINT
  5
F2
  8
0
  6
CONTINUOUS
 62
     3
 10
0.0
 20
0.0
 30
0.0
  0
LINE
  5
F3
  8
0
  6
CONTINUOUS
 62
     2
 10
1.237439
 20
1.237436
 30
0.0
 11
-1.237439
 21
-1.237436
 31
0.0
  0
LINE
  5
F4
  8
0
  6
CONTINUOUS
 62
     2
 10
-1.237434
 20
1.237439
 30
0.0
 11
1.237434
 21
-1.237439
 31
0.0
  0
CIRCLE
  5
F5
  8
0
  6
CONTINUOUS
 62
     3
 10
0.0
 20
0.0
 30
0.0
 40
2.749999
  0
ENDBLK
  5
F6
  8
0
  0
BLOCK
  8
0
  2
KOZU0019
 70
     0
 10
0.0
 20
0.0
 30
0.0
  3
KOZU0019
  1

  0
POINT
  5
F9
  8
0
  6
CONTINUOUS
 62
     7
 10
37.266994
 20
17.305351
 30
0.0
  0
POINT
  5
FA
  8
0
  6
CONTINUOUS
 62
     7
 10
7.266995
 20
45.305347
 30
0.0
  0
POINT
  5
FB
  8
0
  6
CONTINUOUS
 62
     7
 10
7.266995
 20
75.965652
 30
0.0
  0
LINE
  5
FC
  8
0
  6
CONTINUOUS
 62
     4
 10
7.266995
 20
46.305347
 30
0.0
 11
7.266995
 21
77.965652
 31
0.0
  0
LINE
  5
FD
  8
0
  6
CONTINUOUS
 62
     4
 10
37.266994
 20
18.305351
 30
0.0
 11
37.266994
 21
77.965652
 31
0.0
  0
LINE
  5
FE
  8
0
  6
CONTINUOUS
 62
     4
 10
7.266995
 20
75.965652
 30
0.0
 11
37.266994
 21
75.965652
 31
0.0
  0
LINE
  5
FF
  8
0
  6
CONTINUOUS
 62
     4
 10
7.266995
 20
75.965652
 30
0.0
 11
9.198849
 21
76.483292
 31
0.0
  0
LINE
  5
100
  8
0
  6
CONTINUOUS
 62
     4
 10
7.266995
 20
75.965652
 30
0.0
 11
9.198847
 21
75.448013
 31
0.0
  0
LINE
  5
101
  8
0
  6
CONTINUOUS
 62
     4
 10
37.266994
 20
75.965652
 30
0.0
 11
35.335144
 21
75.448013
 31
0.0
  0
LINE
  5
102
  8
0
  6
CONTINUOUS
 62
     4
 10
37.266994
 20
75.965652
 30
0.0
 11
35.335144
 21
76.483292
 31
0.0
  0
ENDBLK
  5
103
  8
0
  0
BLOCK
  8
0
  2
KOZU0020
 70
     0
 10
0.0
 20
0.0
 30
0.0
  3
KOZU0020
  1

  0
POINT
  5
106
  8
0
  6
CONTINUOUS
 62
     7
 10
169.467
 20
43.505344
 30
0.0
  0
POINT
  5
107
  8
0
  6
CONTINUOUS
 62
     7
 10
89.066994
 20
43.505344
 30
0.0
  0
POINT
  5
108
  8
0
  6
CONTINUOUS
 62
     7
 10
89.066994
 20
73.415077
 30
0.0
  0
LINE
  5
109
  8
0
  6
CONTINUOUS
 62
     4
 10
89.066994
 20
44.505344
 30
0.0
 11
89.066994
 21
74.748421
 31
0.0
  0
LINE
  5
10A
  8
0
  6
CONTINUOUS
 62
     4
 10
169.467
 20
44.505344
 30
0.0
 11
169.467
 21
74.748421
 31
0.0
  0
LINE
  5
10B
  8
0
  6
CONTINUOUS
 62
     4
 10
89.066994
 20
73.415077
 30
0.0
 11
169.467
 21
73.415077
 31
0.0
  0
LINE
  5
10C
  8
0
  6
CONTINUOUS
 62
     4
 10
89.066994
 20
73.415077
 30
0.0
 11
90.998848
 21
73.932716
 31
0.0
  0
LINE
  5
10D
  8
0
  6
CONTINUOUS
 62
     4
 10
89.066994
 20
73.415077
 30
0.0
 11
90.99884
 21
72.897438
 31
0.0
  0
LINE
  5
10E
  8
0
  6
CONTINUOUS
 62
     4
 10
169.467
 20
73.415077
 30
0.0
 11
167.53514
 21
72.897438
 31
0.0
  0
LINE
  5
10F
  8
0
  6
CONTINUOUS
 62
     4
 10
169.467
 20
73.415077
 30
0.0
 11
167.53514
 21
73.932716
 31
0.0
  0
ENDBLK
  5
110
  8
0
  0
BLOCK
  8
0
  2
KOZU0021
 70
     0
 10
0.0
 20
0.0
 30
0.0
  3
KOZU0021
  1

  0
POINT
  5
113
  8
0
  6
CONTINUOUS
 62
     7
 10
162.467
 20
43.505344
 30
0.0
  0
POINT
  5
114
  8
0
  6
CONTINUOUS
 62
     7
 10
167.4996
 20
48.370823
 30
0.0
  0
LINE
  5
115
  8
0
  6
CONTINUOUS
 62
     4
 10
162.467
 20
43.505341
 30
0.0
 11
175.93706
 21
56.528091
 31
0.0
  0
LINE
  5
116
  8
0
  6
CONTINUOUS
 62
     4
 10
167.4996
 20
48.370819
 30
0.0
 11
166.4705
 21
46.655907
 31
0.0
  0
LINE
  5
117
  8
0
  6
CONTINUOUS
 62
     4
 10
167.4996
 20
48.370827
 30
0.0
 11
165.75092
 21
47.400211
 31
0.0
  0
ENDBLK
  5
118
  8
0
  0
BLOCK
  8
0
  2
KOZU0022
 70
     0
 10
0.0
 20
0.0
 30
0.0
  3
KOZU0022
  1

  0
LINE
  5
11B
  8
0
  6
CONTINUOUS
 62
     2
 10
3.7
 20
7.7
 30
0.0
 11
0.0
 21
7.7
 31
0.0
  0
LINE
  5
11C
  8
0
  6
CONTINUOUS
 62
     2
 10
5.0
 20
0.0
 30
0.0
 11
5.0
 21
1.3
 31
0.0
  0
LINE
  5
11D
  8
0
  6
CONTINUOUS
 62
     2
 10
0.0
 20
0.0
 30
0.0
 11
0.0
 21
1.3
 31
0.0
  0
LINE
  5
11E
  8
0
  6
CONTINUOUS
 62
     2
 10
5.0
 20
0.0
 30
0.0
 11
0.0
 21
0.0
 31
0.0
  0
LINE
  5
11F
  8
0
  6
CONTINUOUS
 62
     2
 10
5.0
 20
9.0
 30
0.0
 11
0.0
 21
9.0
 31
0.0
  0
LINE
  5
120
  8
0
  6
CONTINUOUS
 62
     2
 10
1.3
 20
1.3
 30
0.0
 11
5.0
 21
1.3
 31
0.0
  0
LINE
  5
121
  8
0
  6
CONTINUOUS
 62
     2
 10
0.0
 20
9.0
 30
0.0
 11
0.0
 21
7.7
 31
0.0
  0
LINE
  5
122
  8
0
  6
CONTINUOUS
 62
     2
 10
5.0
 20
9.0
 30
0.0
 11
5.0
 21
7.7
 31
0.0
  0
LINE
  5
123
  8
0
  6
CONTINUOUS
 62
     2
 10
0.0
 20
1.3
 30
0.0
 11
3.7
 21
7.699999
 31
0.0
  0
LINE
  5
124
  8
0
  6
CONTINUOUS
 62
     2
 10
1.300001
 20
1.300002
 30
0.0
 11
5.0
 21
7.700008
 31
0.0
  0
ENDBLK
  5
125
  8
0
  0
BLOCK
  8
0
  2
KOZU0023
 70
     0
 10
0.0
 20
0.0
 30
0.0
  3
KOZU0023
  1

  0
LINE
  5
128
  8
0
  6
CONTINUOUS
 62
     2
 10
1.3
 20
6.5
 30
0.0
 11
1.3
 21
4.693172
 31
0.0
  0
LINE
  5
129
  8
0
  6
CONTINUOUS
 62
     2
 10
0.0
 20
2.5
 30
0.0
 11
0.0
 21
6.5
 31
0.0
  0
LINE
  5
12A
  8
0
  6
CONTINUOUS
 62
     2
 10
3.7
 20
6.5
 30
0.0
 11
5.0
 21
6.5
 31
0.0
  0
CIRCLE
  5
12B
  8
0
  6
CONTINUOUS
 62
     2
 10
2.5
 20
2.5
 30
0.0
 40
1.2
  0
ARC
  5
12C
  8
0
  6
CONTINUOUS
 62
     2
 10
2.5
 20
6.5
 30
0.0
 40
1.2
 50
0.0
 51
180.00002
  0
ARC
  5
12D
  8
0
  6
CONTINUOUS
 62
     2
 10
2.5
 20
2.5
 30
0.0
 40
2.5
 50
180.00002
 51
53.13001
  0
ARC
  5
12E
  8
0
  6
CONTINUOUS
 62
     2
 10
2.5
 20
2.5
 30
0.0
 40
2.5
 50
53.130064
 51
118.68547
  0
ARC
  5
12F
  8
0
  6
CONTINUOUS
 62
     2
 10
2.5
 20
6.5
 30
0.0
 40
2.5
 50
0.0
 51
180.00002
  0
ENDBLK
  5
130
  8
0
  0
BLOCK
  8
0
  2
KOZU0024
 70
     0
 10
0.0
 20
0.0
 30
0.0
  3
KOZU0024
  1

  0
LINE
  5
133
  8
0
  6
CONTINUOUS
 62
     2
 10
5.0
 20
6.5
 30
0.0
 11
5.0
 21
2.5
 31
0.0
  0
LINE
  5
134
  8
0
  6
CONTINUOUS
 62
     2
 10
3.7
 20
4.306828
 30
0.0
 11
3.7
 21
2.5
 31
0.0
  0
LINE
  5
135
  8
0
  6
CONTINUOUS
 62
     2
 10
1.3
 20
2.5
 30
0.0
 11
0.0
 21
2.5
 31
0.0
  0
CIRCLE
  5
136
  8
0
  6
CONTINUOUS
 62
     2
 10
2.5
 20
6.5
 30
0.0
 40
1.2
  0
ARC
  5
137
  8
0
  6
CONTINUOUS
 62
     2
 10
2.5
 20
6.5
 30
0.0
 40
2.5
 50
0.0
 51
61.314554
  0
ARC
  5
138
  8
0
  6
CONTINUOUS
 62
     2
 10
2.5
 20
2.5
 30
0.0
 40
1.2
 50
180.00002
 51
0.000034
  0
ARC
  5
139
  8
0
  6
CONTINUOUS
 62
     2
 10
2.5
 20
2.5
 30
0.0
 40
2.5
 50
180.00002
 51
359.99993
  0
ARC
  5
13A
  8
0
  6
CONTINUOUS
 62
     2
 10
2.5
 20
6.5
 30
0.0
 40
2.5
 50
61.314554
 51
298.68548
  0
ENDBLK
  5
13B
  8
0
  0
BLOCK
  8
0
  2
KOZU0025
 70
     0
 10
0.0
 20
0.0
 30
0.0
  3
KOZU0025
  1

  0
LINE
  5
13E
  8
0
  6
CONTINUOUS
 62
     4
 10
31.001217
 20
-106.69798
 30
0.0
 11
32.701149
 21
-106.69798
 31
0.0
  0
LINE
  5
13F
  8
0
  6
CONTINUOUS
 62
     4
 10
31.061216
 20
-106.59797
 30
0.0
 11
32.757816
 21
-106.59797
 31
0.0
  0
LINE
  5
140
  8
0
  6
CONTINUOUS
 62
     4
 10
31.121218
 20
-106.49797
 30
0.0
 11
32.814484
 21
-106.49797
 31
0.0
  0
LINE
  5
141
  8
0
  6
CONTINUOUS
 62
     4
 10
31.181217
 20
-106.39797
 30
0.0
 11
32.871147
 21
-106.39797
 31
0.0
  0
LINE
  5
142
  8
0
  6
CONTINUOUS
 62
     4
 10
31.241217
 20
-106.29797
 30
0.0
 11
32.927814
 21
-106.29797
 31
0.0
  0
LINE
  5
143
  8
0
  6
CONTINUOUS
 62
     4
 10
31.301216
 20
-106.19798
 30
0.0
 11
32.984482
 21
-106.19798
 31
0.0
  0
LINE
  5
144
  8
0
  6
CONTINUOUS
 62
     4
 10
31.361217
 20
-106.09797
 30
0.0
 11
33.041149
 21
-106.09797
 31
0.0
  0
LINE
  5
145
  8
0
  6
CONTINUOUS
 62
     4
 10
31.421217
 20
-105.99797
 30
0.0
 11
33.097816
 21
-105.99797
 31
0.0
  0
LINE
  5
146
  8
0
  6
CONTINUOUS
 62
     4
 10
31.481216
 20
-105.89797
 30
0.0
 11
33.154484
 21
-105.89797
 31
0.0
  0
LINE
  5
147
  8
0
  6
CONTINUOUS
 62
     4
 10
31.541218
 20
-105.79797
 30
0.0
 11
33.211147
 21
-105.79797
 31
0.0
  0
LINE
  5
148
  8
0
  6
CONTINUOUS
 62
     4
 10
31.601217
 20
-105.69798
 30
0.0
 11
33.267815
 21
-105.69798
 31
0.0
  0
LINE
  5
149
  8
0
  6
CONTINUOUS
 62
     4
 10
31.661217
 20
-105.59797
 30
0.0
 11
33.324482
 21
-105.59797
 31
0.0
  0
LINE
  5
14A
  8
0
  6
CONTINUOUS
 62
     4
 10
31.721216
 20
-105.49797
 30
0.0
 11
33.381149
 21
-105.49797
 31
0.0
  0
LINE
  5
14B
  8
0
  6
CONTINUOUS
 62
     4
 10
31.781218
 20
-105.39797
 30
0.0
 11
33.437817
 21
-105.39797
 31
0.0
  0
LINE
  5
14C
  8
0
  6
CONTINUOUS
 62
     4
 10
31.841217
 20
-105.29797
 30
0.0
 11
33.494484
 21
-105.29797
 31
0.0
  0
ENDBLK
  5
14D
  8
0
  0
BLOCK
  8
0
  2
KOZU0026
 70
     0
 10
0.0
 20
0.0
 30
0.0
  3
KOZU0026
  1

  0
LINE
  5
150
  8
0
  6
CONTINUOUS
 62
     4
 10
33.541412
 20
-102.29765
 30
0.0
 11
33.652077
 21
-102.29765
 31
0.0
  0
LINE
  5
151
  8
0
  6
CONTINUOUS
 62
     4
 10
33.481411
 20
-102.39764
 30
0.0
 11
33.705414
 21
-102.39764
 31
0.0
  0
LINE
  5
152
  8
0
  6
CONTINUOUS
 62
     4
 10
33.421413
 20
-102.49765
 30
0.0
 11
33.758743
 21
-102.49765
 31
0.0
  0
LINE
  5
153
  8
0
  6
CONTINUOUS
 62
     4
 10
33.361412
 20
-102.59765
 30
0.0
 11
33.812077
 21
-102.59765
 31
0.0
  0
LINE
  5
154
  8
0
  6
CONTINUOUS
 62
     4
 10
33.301411
 20
-102.69765
 30
0.0
 11
33.865414
 21
-102.69765
 31
0.0
  0
LINE
  5
155
  8
0
  6
CONTINUOUS
 62
     4
 10
33.241413
 20
-102.79765
 30
0.0
 11
33.918743
 21
-102.79765
 31
0.0
  0
LINE
  5
156
  8
0
  6
CONTINUOUS
 62
     4
 10
33.181412
 20
-102.89764
 30
0.0
 11
33.972076
 21
-102.89764
 31
0.0
  0
LINE
  5
157
  8
0
  6
CONTINUOUS
 62
     4
 10
33.12141
 20
-102.99765
 30
0.0
 11
34.025414
 21
-102.99765
 31
0.0
  0
LINE
  5
158
  8
0
  6
CONTINUOUS
 62
     4
 10
33.061413
 20
-103.09765
 30
0.0
 11
34.078747
 21
-103.09765
 31
0.0
  0
LINE
  5
159
  8
0
  6
CONTINUOUS
 62
     4
 10
33.001411
 20
-103.19765
 30
0.0
 11
34.132076
 21
-103.19765
 31
0.0
  0
LINE
  5
15A
  8
0
  6
CONTINUOUS
 62
     4
 10
32.941414
 20
-103.29765
 30
0.0
 11
34.185413
 21
-103.29765
 31
0.0
  0
LINE
  5
15B
  8
0
  6
CONTINUOUS
 62
     4
 10
32.881413
 20
-103.39764
 30
0.0
 11
34.238747
 21
-103.39764
 31
0.0
  0
LINE
  5
15C
  8
0
  6
CONTINUOUS
 62
     4
 10
32.821411
 20
-103.49765
 30
0.0
 11
34.292076
 21
-103.49765
 31
0.0
  0
LINE
  5
15D
  8
0
  6
CONTINUOUS
 62
     4
 10
32.761414
 20
-103.59765
 30
0.0
 11
34.345413
 21
-103.59765
 31
0.0
  0
LINE
  5
15E
  8
0
  6
CONTINUOUS
 62
     4
 10
32.701412
 20
-103.69765
 30
0.0
 11
34.398746
 21
-103.69765
 31
0.0
  0
LINE
  5
15F
  8
0
  6
CONTINUOUS
 62
     4
 10
32.755333
 20
-103.79765
 30
0.0
 11
34.344666
 21
-103.79765
 31
0.0
  0
LINE
  5
160
  8
0
  6
CONTINUOUS
 62
     4
 10
32.812
 20
-103.89764
 30
0.0
 11
34.287998
 21
-103.89764
 31
0.0
  0
LINE
  5
161
  8
0
  6
CONTINUOUS
 62
     4
 10
32.868668
 20
-103.99765
 30
0.0
 11
34.231335
 21
-103.99765
 31
0.0
  0
LINE
  5
162
  8
0
  6
CONTINUOUS
 62
     4
 10
32.925331
 20
-104.09765
 30
0.0
 11
34.174667
 21
-104.09765
 31
0.0
  0
LINE
  5
163
  8
0
  6
CONTINUOUS
 62
     4
 10
32.981998
 20
-104.19765
 30
0.0
 11
34.118
 21
-104.19765
 31
0.0
  0
LINE
  5
164
  8
0
  6
CONTINUOUS
 62
     4
 10
33.038666
 20
-104.29765
 30
0.0
 11
34.061333
 21
-104.29765
 31
0.0
  0
LINE
  5
165
  8
0
  6
CONTINUOUS
 62
     4
 10
33.095333
 20
-104.39764
 30
0.0
 11
34.004665
 21
-104.39764
 31
0.0
  0
LINE
  5
166
  8
0
  6
CONTINUOUS
 62
     4
 10
33.152
 20
-104.49765
 30
0.0
 11
33.948002
 21
-104.49765
 31
0.0
  0
LINE
  5
167
  8
0
  6
CONTINUOUS
 62
     4
 10
33.208668
 20
-104.59765
 30
0.0
 11
33.891335
 21
-104.59765
 31
0.0
  0
LINE
  5
168
  8
0
  6
CONTINUOUS
 62
     4
 10
33.265331
 20
-104.69765
 30
0.0
 11
33.834667
 21
-104.69765
 31
0.0
  0
LINE
  5
169
  8
0
  6
CONTINUOUS
 62
     4
 10
33.321999
 20
-104.79765
 30
0.0
 11
33.778
 21
-104.79765
 31
0.0
  0
LINE
  5
16A
  8
0
  6
CONTINUOUS
 62
     4
 10
33.378666
 20
-104.89764
 30
0.0
 11
33.721333
 21
-104.89764
 31
0.0
  0
LINE
  5
16B
  8
0
  6
CONTINUOUS
 62
     4
 10
33.435333
 20
-104.99765
 30
0.0
 11
33.664665
 21
-104.99765
 31
0.0
  0
LINE
  5
16C
  8
0
  6
CONTINUOUS
 62
     4
 10
33.492001
 20
-105.09765
 30
0.0
 11
33.608002
 21
-105.09765
 31
0.0
  0
LINE
  5
16D
  8
0
  6
CONTINUOUS
 62
     4
 10
33.548668
 20
-105.19765
 30
0.0
 11
33.551334
 21
-105.19765
 31
0.0
  0
ENDBLK
  5
16E
  8
0
  0
BLOCK
  8
0
  2
KOZU0027
 70
     0
 10
0.0
 20
0.0
 30
0.0
  3
KOZU0027
  1

  0
LINE
  5
171
  8
0
  6
CONTINUOUS
 62
     4
 10
34.39888
 20
-106.69802
 30
0.0
 11
35.998814
 21
-106.69802
 31
0.0
  0
LINE
  5
172
  8
0
  6
CONTINUOUS
 62
     4
 10
34.342213
 20
-106.59802
 30
0.0
 11
35.938812
 21
-106.59802
 31
0.0
  0
LINE
  5
173
  8
0
  6
CONTINUOUS
 62
     4
 10
34.285545
 20
-106.49802
 30
0.0
 11
35.878815
 21
-106.49802
 31
0.0
  0
LINE
  5
174
  8
0
  6
CONTINUOUS
 62
     4
 10
34.228878
 20
-106.39803
 30
0.0
 11
35.818813
 21
-106.39803
 31
0.0
  0
LINE
  5
175
  8
0
  6
CONTINUOUS
 62
     4
 10
34.172211
 20
-106.29802
 30
0.0
 11
35.758812
 21
-106.29802
 31
0.0
  0
LINE
  5
176
  8
0
  6
CONTINUOUS
 62
     4
 10
34.115547
 20
-106.19802
 30
0.0
 11
35.698814
 21
-106.19802
 31
0.0
  0
LINE
  5
177
  8
0
  6
CONTINUOUS
 62
     4
 10
34.05888
 20
-106.09802
 30
0.0
 11
35.638813
 21
-106.09802
 31
0.0
  0
LINE
  5
178
  8
0
  6
CONTINUOUS
 62
     4
 10
34.002213
 20
-105.99802
 30
0.0
 11
35.578812
 21
-105.99802
 31
0.0
  0
LINE
  5
179
  8
0
  6
CONTINUOUS
 62
     4
 10
33.945545
 20
-105.89803
 30
0.0
 11
35.518814
 21
-105.89803
 31
0.0
  0
LINE
  5
17A
  8
0
  6
CONTINUOUS
 62
     4
 10
33.888878
 20
-105.79802
 30
0.0
 11
35.458813
 21
-105.79802
 31
0.0
  0
LINE
  5
17B
  8
0
  6
CONTINUOUS
 62
     4
 10
33.832211
 20
-105.69802
 30
0.0
 11
35.398811
 21
-105.69802
 31
0.0
  0
LINE
  5
17C
  8
0
  6
CONTINUOUS
 62
     4
 10
33.775547
 20
-105.59802
 30
0.0
 11
35.338814
 21
-105.59802
 31
0.0
  0
LINE
  5
17D
  8
0
  6
CONTINUOUS
 62
     4
 10
33.71888
 20
-105.49802
 30
0.0
 11
35.278812
 21
-105.49802
 31
0.0
  0
LINE
  5
17E
  8
0
  6
CONTINUOUS
 62
     4
 10
33.662212
 20
-105.39803
 30
0.0
 11
35.218815
 21
-105.39803
 31
0.0
  0
LINE
  5
17F
  8
0
  6
CONTINUOUS
 62
     4
 10
33.605545
 20
-105.29802
 30
0.0
 11
35.158813
 21
-105.29802
 31
0.0
  0
ENDBLK
  5
180
  8
0
  0
BLOCK
  8
0
  2
KOZU0028
 70
     0
 10
0.0
 20
0.0
 30
0.0
  3
KOZU0028
  1

  0
POINT
  5
183
  8
0
  6
CONTINUOUS
 62
     7
 10
164.38341
 20
41.97551
 30
0.0
  0
POINT
  5
184
  8
0
  6
CONTINUOUS
 62
     7
 10
157.79019
 20
42.274796
 30
0.0
  0
LINE
  5
185
  8
0
  6
CONTINUOUS
 62
     3
 10
207.04669
 20
40.742046
 30
0.0
 11
191.5567
 21
40.742046
 31
0.0
  0
LINE
  5
186
  8
0
  6
CONTINUOUS
 62
     3
 10
191.5567
 20
40.742046
 30
0.0
 11
166.31328
 21
41.887909
 31
0.0
  0
LINE
  5
187
  8
0
  6
CONTINUOUS
 62
     3
 10
160.9968
 20
42.125153
 30
0.0
 11
161.1768
 21
42.125153
 31
0.0
  0
LINE
  5
188
  8
0
  6
CONTINUOUS
 62
     3
 10
161.08681
 20
42.035152
 30
0.0
 11
161.08681
 21
42.215153
 31
0.0
  0
LINE
  5
189
  8
0
  6
CONTINUOUS
 62
     3
 10
166.29868
 20
41.566265
 30
0.0
 11
166.32787
 21
42.209553
 31
0.0
  0
LINE
  5
18A
  8
0
  6
CONTINUOUS
 62
     3
 10
166.32787
 20
42.209553
 30
0.0
 11
164.38341
 21
41.97551
 31
0.0
  0
LINE
  5
18B
  8
0
  6
CONTINUOUS
 62
     3
 10
164.38341
 20
41.975506
 30
0.0
 11
166.29868
 21
41.566265
 31
0.0
  0
ENDBLK
  5
18C
  8
0
  0
BLOCK
  8
0
  2
KOZU0029
 70
     0
 10
0.0
 20
0.0
 30
0.0
  3
KOZU0029
  1

  0
POINT
  5
18F
  8
0
  6
CONTINUOUS
 62
     7
 10
169.38757
 20
44.556858
 30
0.0
  0
POINT
  5
190
  8
0
  6
CONTINUOUS
 62
     7
 10
155.54643
 20
42.453835
 30
0.0
  0
LINE
  5
191
  8
0
  6
CONTINUOUS
 62
     3
 10
207.53696
 20
47.78701
 30
0.0
 11
190.64696
 21
47.78701
 31
0.0
  0
LINE
  5
192
  8
0
  6
CONTINUOUS
 62
     3
 10
190.64696
 20
47.78701
 30
0.0
 11
171.2975
 21
44.847054
 31
0.0
  0
LINE
  5
193
  8
0
  6
CONTINUOUS
 62
     3
 10
162.377
 20
43.505348
 30
0.0
 11
162.55699
 21
43.505348
 31
0.0
  0
LINE
  5
194
  8
0
  6
CONTINUOUS
 62
     3
 10
162.467
 20
43.415348
 30
0.0
 11
162.467
 21
43.595348
 31
0.0
  0
LINE
  5
195
  8
0
  6
CONTINUOUS
 62
     3
 10
171.34587
 20
44.528732
 30
0.0
 11
171.24913
 21
45.165375
 31
0.0
  0
LINE
  5
196
  8
0
  6
CONTINUOUS
 62
     3
 10
171.24913
 20
45.165375
 30
0.0
 11
169.38757
 21
44.556862
 31
0.0
  0
LINE
  5
197
  8
0
  6
CONTINUOUS
 62
     3
 10
169.38757
 20
44.556858
 30
0.0
 11
171.34587
 21
44.528732
 31
0.0
  0
ENDBLK
  5
198
  8
0
  0
BLOCK
  8
0
  2
KOZU0030
 70
     0
 10
0.0
 20
0.0
 30
0.0
  3
KOZU0030
  1

  0
POINT
  5
19B
  8
0
  6
CONTINUOUS
 62
     7
 10
166.29881
 20
-15.261128
 30
0.0
  0
POINT
  5
19C
  8
0
  6
CONTINUOUS
 62
     7
 10
92.235184
 20
35.871822
 30
0.0
  0
LINE
  5
19D
  8
0
  6
CONTINUOUS
 62
     3
 10
198.29889
 20
6.880753
 30
0.0
 11
134.22736
 21
6.880753
 31
0.0
  0
LINE
  5
19E
  8
0
  6
CONTINUOUS
 62
     3
 10
134.22736
 20
6.880754
 30
0.0
 11
164.70903
 21
-14.163552
 31
0.0
  0
LINE
  5
19F
  8
0
  6
CONTINUOUS
 62
     3
 10
164.52611
 20
-14.428521
 30
0.0
 11
164.89197
 21
-13.898597
 31
0.0
  0
LINE
  5
1A0
  8
0
  6
CONTINUOUS
 62
     3
 10
164.89197
 20
-13.898603
 30
0.0
 11
166.29881
 21
-15.261136
 31
0.0
  0
LINE
  5
1A1
  8
0
  6
CONTINUOUS
 62
     3
 10
166.29881
 20
-15.261127
 30
0.0
 11
164.52611
 21
-14.428522
 31
0.0
  0
ENDBLK
  5
1A2
  8
0
  0
BLOCK
  8
0
  2
KOZU0031
 70
     0
 10
0.0
 20
0.0
 30
0.0
  3
KOZU0031
  1

  0
POINT
  5
1A5
  8
0
  6
CONTINUOUS
 62
     7
 10
7.266997
 20
45.305347
 30
0.0
  0
POINT
  5
1A6
  8
0
  6
CONTINUOUS
 62
     7
 10
10.266997
 20
45.305347
 30
0.0
  0
POINT
  5
1A7
  8
0
  6
CONTINUOUS
 62
     7
 10
10.266997
 20
84.375839
 30
0.0
  0
LINE
  5
1A8
  8
0
  6
CONTINUOUS
 62
     3
 10
7.266997
 20
46.305347
 30
0.0
 11
7.266997
 21
86.375839
 31
0.0
  0
LINE
  5
1A9
  8
0
  6
CONTINUOUS
 62
     3
 10
10.266997
 20
46.305347
 30
0.0
 11
10.266997
 21
86.375839
 31
0.0
  0
LINE
  5
1AA
  8
0
  6
CONTINUOUS
 62
     3
 10
5.335146
 20
84.375839
 30
0.0
 11
3.403294
 21
84.375839
 31
0.0
  0
LINE
  5
1AB
  8
0
  6
CONTINUOUS
 62
     3
 10
12.198849
 20
84.375839
 30
0.0
 11
26.444035
 21
84.375839
 31
0.0
  0
LINE
  5
1AC
  8
0
  6
CONTINUOUS
 62
     3
 10
5.335146
 20
84.053864
 30
0.0
 11
5.335146
 21
84.697815
 31
0.0
  0
LINE
  5
1AD
  8
0
  6
CONTINUOUS
 62
     3
 10
5.335146
 20
84.697815
 30
0.0
 11
7.266997
 21
84.375839
 31
0.0
  0
LINE
  5
1AE
  8
0
  6
CONTINUOUS
 62
     3
 10
7.266997
 20
84.375839
 30
0.0
 11
5.335146
 21
84.053864
 31
0.0
  0
LINE
  5
1AF
  8
0
  6
CONTINUOUS
 62
     3
 10
12.198849
 20
84.053864
 30
0.0
 11
12.198849
 21
84.697815
 31
0.0
  0
LINE
  5
1B0
  8
0
  6
CONTINUOUS
 62
     3
 10
12.198848
 20
84.697815
 30
0.0
 11
10.266995
 21
84.375839
 31
0.0
  0
LINE
  5
1B1
  8
0
  6
CONTINUOUS
 62
     3
 10
10.266997
 20
84.375839
 30
0.0
 11
12.19885
 21
84.053864
 31
0.0
  0
ENDBLK
  5
1B2
  8
0
  0
BLOCK
  8
0
  2
KOZU0032
 70
     0
 10
0.0
 20
0.0
 30
0.0
  3
KOZU0032
  1

  0
POINT
  5
1B5
  8
0
  6
CONTINUOUS
 62
     7
 10
10.266997
 20
45.305347
 30
0.0
  0
POINT
  5
1B6
  8
0
  6
CONTINUOUS
 62
     7
 10
13.766997
 20
45.305347
 30
0.0
  0
POINT
  5
1B7
  8
0
  6
CONTINUOUS
 62
     7
 10
13.766997
 20
76.402969
 30
0.0
  0
LINE
  5
1B8
  8
0
  6
CONTINUOUS
 62
     3
 10
10.266997
 20
46.305347
 30
0.0
 11
10.266997
 21
78.402969
 31
0.0
  0
LINE
  5
1B9
  8
0
  6
CONTINUOUS
 62
     3
 10
13.766997
 20
46.305347
 30
0.0
 11
13.766997
 21
78.402969
 31
0.0
  0
LINE
  5
1BA
  8
0
  6
CONTINUOUS
 62
     3
 10
8.335146
 20
76.402969
 30
0.0
 11
6.403294
 21
76.402969
 31
0.0
  0
LINE
  5
1BB
  8
0
  6
CONTINUOUS
 62
     3
 10
15.698849
 20
76.402969
 30
0.0
 11
30.4107
 21
76.402969
 31
0.0
  0
LINE
  5
1BC
  8
0
  6
CONTINUOUS
 62
     3
 10
8.335146
 20
76.080994
 30
0.0
 11
8.335146
 21
76.724945
 31
0.0
  0
LINE
  5
1BD
  8
0
  6
CONTINUOUS
 62
     3
 10
8.335146
 20
76.724945
 30
0.0
 11
10.266997
 21
76.402969
 31
0.0
  0
LINE
  5
1BE
  8
0
  6
CONTINUOUS
 62
     3
 10
10.266996
 20
76.402969
 30
0.0
 11
8.335146
 21
76.080994
 31
0.0
  0
LINE
  5
1BF
  8
0
  6
CONTINUOUS
 62
     3
 10
15.698849
 20
76.080994
 30
0.0
 11
15.698849
 21
76.724945
 31
0.0
  0
LINE
  5
1C0
  8
0
  6
CONTINUOUS
 62
     3
 10
15.698849
 20
76.724945
 30
0.0
 11
13.766996
 21
76.402969
 31
0.0
  0
LINE
  5
1C1
  8
0
  6
CONTINUOUS
 62
     3
 10
13.766996
 20
76.402969
 30
0.0
 11
15.698849
 21
76.080994
 31
0.0
  0
ENDBLK
  5
1C2
  8
0
  0
BLOCK
  8
0
  2
KOZU0033
 70
     0
 10
0.0
 20
0.0
 30
0.0
  3
KOZU0033
  1

  0
POINT
  5
1C5
  8
0
  6
CONTINUOUS
 62
     7
 10
-0.733003
 20
50.505348
 30
0.0
  0
POINT
  5
1C6
  8
0
  6
CONTINUOUS
 62
     7
 10
7.266997
 20
50.505348
 30
0.0
  0
POINT
  5
1C7
  8
0
  6
CONTINUOUS
 62
     7
 10
7.266997
 20
51.505348
 30
0.0
  0
LINE
  5
1C8
  8
0
  6
CONTINUOUS
 62
     3
 10
-0.733003
 20
51.505348
 30
0.0
 11
-0.733003
 21
53.505348
 31
0.0
  0
LINE
  5
1C9
  8
0
  6
CONTINUOUS
 62
     3
 10
7.266997
 20
51.505348
 30
0.0
 11
7.266997
 21
53.505348
 31
0.0
  0
LINE
  5
1CA
  8
0
  6
CONTINUOUS
 62
     3
 10
1.198849
 20
51.505348
 30
0.0
 11
5.335146
 21
51.505348
 31
0.0
  0
LINE
  5
1CB
  8
0
  6
CONTINUOUS
 62
     3
 10
7.266997
 20
51.505348
 30
0.0
 11
21.512182
 21
51.505348
 31
0.0
  0
LINE
  5
1CC
  8
0
  6
CONTINUOUS
 62
     3
 10
1.198849
 20
51.183372
 30
0.0
 11
1.198849
 21
51.827324
 31
0.0
  0
LINE
  5
1CD
  8
0
  6
CONTINUOUS
 62
     3
 10
1.198849
 20
51.827324
 30
0.0
 11
-0.733003
 21
51.505348
 31
0.0
  0
LINE
  5
1CE
  8
0
  6
CONTINUOUS
 62
     3
 10
-0.733002
 20
51.505348
 30
0.0
 11
1.19885
 21
51.183372
 31
0.0
  0
LINE
  5
1CF
  8
0
  6
CONTINUOUS
 62
     3
 10
5.335146
 20
51.183372
 30
0.0
 11
5.335146
 21
51.827324
 31
0.0
  0
LINE
  5
1D0
  8
0
  6
CONTINUOUS
 62
     3
 10
5.335146
 20
51.827324
 30
0.0
 11
7.266997
 21
51.505348
 31
0.0
  0
LINE
  5
1D1
  8
0
  6
CONTINUOUS
 62
     3
 10
7.266997
 20
51.505344
 30
0.0
 11
5.335146
 21
51.183369
 31
0.0
  0
ENDBLK
  5
1D2
  8
0
  0
BLOCK
  8
0
  2
KOZU0034
 70
     0
 10
0.0
 20
0.0
 30
0.0
  3
KOZU0034
  1

  0
POINT
  5
1D5
  8
0
  6
CONTINUOUS
 62
     7
 10
-67.733002
 20
10.305347
 30
0.0
  0
POINT
  5
1D6
  8
0
  6
CONTINUOUS
 62
     7
 10
7.266997
 20
50.505348
 30
0.0
  0
POINT
  5
1D7
  8
0
  6
CONTINUOUS
 62
     7
 10
7.266997
 20
74.17057
 30
0.0
  0
LINE
  5
1D8
  8
0
  6
CONTINUOUS
 62
     3
 10
-67.733002
 20
11.305347
 30
0.0
 11
-67.733002
 21
76.17057
 31
0.0
  0
LINE
  5
1D9
  8
0
  6
CONTINUOUS
 62
     3
 10
7.266997
 20
51.505348
 30
0.0
 11
7.266997
 21
76.17057
 31
0.0
  0
LINE
  5
1DA
  8
0
  6
CONTINUOUS
 62
     3
 10
-65.801147
 20
74.17057
 30
0.0
 11
5.335146
 21
74.17057
 31
0.0
  0
LINE
  5
1DB
  8
0
  6
CONTINUOUS
 62
     3
 10
-65.801147
 20
73.848595
 30
0.0
 11
-65.801147
 21
74.492546
 31
0.0
  0
LINE
  5
1DC
  8
0
  6
CONTINUOUS
 62
     3
 10
-65.801147
 20
74.492546
 30
0.0
 11
-67.733002
 21
74.17057
 31
0.0
  0
LINE
  5
1DD
  8
0
  6
CONTINUOUS
 62
     3
 10
-67.733002
 20
74.17057
 30
0.0
 11
-65.801147
 21
73.848595
 31
0.0
  0
LINE
  5
1DE
  8
0
  6
CONTINUOUS
 62
     3
 10
5.335146
 20
73.848595
 30
0.0
 11
5.335146
 21
74.492546
 31
0.0
  0
LINE
  5
1DF
  8
0
  6
CONTINUOUS
 62
     3
 10
5.335146
 20
74.492546
 30
0.0
 11
7.266997
 21
74.17057
 31
0.0
  0
LINE
  5
1E0
  8
0
  6
CONTINUOUS
 62
     3
 10
7.266997
 20
74.17057
 30
0.0
 11
5.335145
 21
73.848595
 31
0.0
  0
ENDBLK
  5
1E1
  8
0
  0
BLOCK
  8
0
  2
KOZU0035
 70
     0
 10
0.0
 20
0.0
 30
0.0
  3
KOZU0035
  1

  0
POINT
  5
1E4
  8
0
  6
CONTINUOUS
 62
     7
 10
10.266997
 20
45.305347
 30
0.0
  0
POINT
  5
1E5
  8
0
  6
CONTINUOUS
 62
     7
 10
10.266997
 20
-24.694653
 30
0.0
  0
POINT
  5
1E6
  8
0
  6
CONTINUOUS
 62
     7
 10
76.471077
 20
-24.694653
 30
0.0
  0
LINE
  5
1E7
  8
0
  6
CONTINUOUS
 62
     3
 10
11.266997
 20
45.305347
 30
0.0
 11
78.471077
 21
45.305347
 31
0.0
  0
LINE
  5
1E8
  8
0
  6
CONTINUOUS
 62
     3
 10
11.266997
 20
-24.694653
 30
0.0
 11
78.471077
 21
-24.694653
 31
0.0
  0
LINE
  5
1E9
  8
0
  6
CONTINUOUS
 62
     3
 10
76.471077
 20
43.373497
 30
0.0
 11
76.471077
 21
11.795347
 31
0.0
  0
LINE
  5
1EA
  8
0
  6
CONTINUOUS
 62
     3
 10
76.471077
 20
-22.7628
 30
0.0
 11
76.471077
 21
8.815347
 31
0.0
  0
LINE
  5
1EB
  8
0
  6
CONTINUOUS
 62
     3
 10
76.793053
 20
43.373497
 30
0.0
 11
76.149101
 21
43.373497
 31
0.0
  0
LINE
  5
1EC
  8
0
  6
CONTINUOUS
 62
     3
 10
76.149101
 20
43.373497
 30
0.0
 11
76.471077
 21
45.305347
 31
0.0
  0
LINE
  5
1ED
  8
0
  6
CONTINUOUS
 62
     3
 10
76.471077
 20
45.305347
 30
0.0
 11
76.793053
 21
43.373497
 31
0.0
  0
LINE
  5
1EE
  8
0
  6
CONTINUOUS
 62
     3
 10
76.793053
 20
-22.7628
 30
0.0
 11
76.149101
 21
-22.7628
 31
0.0
  0
LINE
  5
1EF
  8
0
  6
CONTINUOUS
 62
     3
 10
76.149101
 20
-22.762798
 30
0.0
 11
76.471077
 21
-24.694654
 31
0.0
  0
LINE
  5
1F0
  8
0
  6
CONTINUOUS
 62
     3
 10
76.471077
 20
-24.694654
 30
0.0
 11
76.793053
 21
-22.7628
 31
0.0
  0
ENDBLK
  5
1F1
  8
0
  0
BLOCK
  8
0
  2
KOZU0036
 70
     0
 10
0.0
 20
0.0
 30
0.0
  3
KOZU0036
  1

  0
POINT
  5
1F4
  8
0
  6
CONTINUOUS
 62
     7
 10
13.766997
 20
38.305347
 30
0.0
  0
POINT
  5
1F5
  8
0
  6
CONTINUOUS
 62
     7
 10
13.766997
 20
-17.694653
 30
0.0
  0
POINT
  5
1F6
  8
0
  6
CONTINUOUS
 62
     7
 10
67.116737
 20
-17.694653
 30
0.0
  0
LINE
  5
1F7
  8
0
  6
CONTINUOUS
 62
     3
 10
14.766997
 20
38.305347
 30
0.0
 11
69.116737
 21
38.305347
 31
0.0
  0
LINE
  5
1F8
  8
0
  6
CONTINUOUS
 62
     3
 10
14.766997
 20
-17.694653
 30
0.0
 11
69.116737
 21
-17.694653
 31
0.0
  0
LINE
  5
1F9
  8
0
  6
CONTINUOUS
 62
     3
 10
67.116737
 20
36.373497
 30
0.0
 11
67.116737
 21
11.795347
 31
0.0
  0
LINE
  5
1FA
  8
0
  6
CONTINUOUS
 62
     3
 10
67.116737
 20
-15.762801
 30
0.0
 11
67.116737
 21
8.815347
 31
0.0
  0
LINE
  5
1FB
  8
0
  6
CONTINUOUS
 62
     3
 10
67.438713
 20
36.373497
 30
0.0
 11
66.794762
 21
36.373497
 31
0.0
  0
LINE
  5
1FC
  8
0
  6
CONTINUOUS
 62
     3
 10
66.794762
 20
36.373497
 30
0.0
 11
67.116737
 21
38.305347
 31
0.0
  0
LINE
  5
1FD
  8
0
  6
CONTINUOUS
 62
     3
 10
67.116737
 20
38.305347
 30
0.0
 11
67.438713
 21
36.373497
 31
0.0
  0
LINE
  5
1FE
  8
0
  6
CONTINUOUS
 62
     3
 10
67.438713
 20
-15.762801
 30
0.0
 11
66.794762
 21
-15.762801
 31
0.0
  0
LINE
  5
1FF
  8
0
  6
CONTINUOUS
 62
     3
 10
66.794762
 20
-15.762801
 30
0.0
 11
67.116737
 21
-17.694654
 31
0.0
  0
LINE
  5
200
  8
0
  6
CONTINUOUS
 62
     3
 10
67.116737
 20
-17.694653
 30
0.0
 11
67.438713
 21
-15.762801
 31
0.0
  0
ENDBLK
  5
201
  8
0
  0
BLOCK
  8
0
  2
KOZU0037
 70
     0
 10
0.0
 20
0.0
 30
0.0
  3
KOZU0037
  1

  0
POINT
  5
204
  8
0
  6
CONTINUOUS
 62
     7
 10
37.266998
 20
17.305347
 30
0.0
  0
POINT
  5
205
  8
0
  6
CONTINUOUS
 62
     7
 10
38.266998
 20
3.305347
 30
0.0
  0
POINT
  5
206
  8
0
  6
CONTINUOUS
 62
     7
 10
58.254723
 20
3.305347
 30
0.0
  0
LINE
  5
207
  8
0
  6
CONTINUOUS
 62
     3
 10
38.266998
 20
17.305347
 30
0.0
 11
60.254723
 21
17.305347
 31
0.0
  0
LINE
  5
208
  8
0
  6
CONTINUOUS
 62
     3
 10
39.266998
 20
3.305347
 30
0.0
 11
60.254723
 21
3.305347
 31
0.0
  0
LINE
  5
209
  8
0
  6
CONTINUOUS
 62
     3
 10
58.254723
 20
15.373496
 30
0.0
 11
58.254723
 21
11.795347
 31
0.0
  0
LINE
  5
20A
  8
0
  6
CONTINUOUS
 62
     3
 10
58.254723
 20
5.237199
 30
0.0
 11
58.254723
 21
8.815347
 31
0.0
  0
LINE
  5
20B
  8
0
  6
CONTINUOUS
 62
     3
 10
58.576698
 20
15.373496
 30
0.0
 11
57.932747
 21
15.373496
 31
0.0
  0
LINE
  5
20C
  8
0
  6
CONTINUOUS
 62
     3
 10
57.932747
 20
15.373496
 30
0.0
 11
58.254723
 21
17.305347
 31
0.0
  0
LINE
  5
20D
  8
0
  6
CONTINUOUS
 62
     3
 10
58.254723
 20
17.305347
 30
0.0
 11
58.576698
 21
15.373496
 31
0.0
  0
LINE
  5
20E
  8
0
  6
CONTINUOUS
 62
     3
 10
58.576698
 20
5.237199
 30
0.0
 11
57.932747
 21
5.237199
 31
0.0
  0
LINE
  5
20F
  8
0
  6
CONTINUOUS
 62
     3
 10
57.932747
 20
5.237199
 30
0.0
 11
58.254723
 21
3.305347
 31
0.0
  0
LINE
  5
210
  8
0
  6
CONTINUOUS
 62
     3
 10
58.254723
 20
3.305347
 30
0.0
 11
58.576698
 21
5.237198
 31
0.0
  0
ENDBLK
  5
211
  8
0
  0
BLOCK
  8
0
  2
KOZU0038
 70
     0
 10
0.0
 20
0.0
 30
0.0
  3
KOZU0038
  1

  0
POINT
  5
214
  8
0
  6
CONTINUOUS
 62
     7
 10
-93.370758
 20
10.305347
 30
0.0
  0
POINT
  5
215
  8
0
  6
CONTINUOUS
 62
     7
 10
-136.67249
 20
-39.675022
 30
0.0
  0
POINT
  5
216
  8
0
  6
CONTINUOUS
 62
     7
 10
-84.444374
 20
-39.675022
 30
0.0
  0
LINE
  5
217
  8
0
  6
CONTINUOUS
 62
     3
 10
-92.370758
 20
10.305347
 30
0.0
 11
-82.444374
 21
10.305347
 31
0.0
  0
LINE
  5
218
  8
0
  6
CONTINUOUS
 62
     3
 10
-135.67249
 20
-39.675022
 30
0.0
 11
-82.444374
 21
-39.675022
 31
0.0
  0
LINE
  5
219
  8
0
  6
CONTINUOUS
 62
     3
 10
-84.444374
 20
8.373496
 30
0.0
 11
-84.444374
 21
-13.194838
 31
0.0
  0
LINE
  5
21A
  8
0
  6
CONTINUOUS
 62
     3
 10
-84.444374
 20
-37.743172
 30
0.0
 11
-84.444374
 21
-16.174837
 31
0.0
  0
LINE
  5
21B
  8
0
  6
CONTINUOUS
 62
     3
 10
-84.122398
 20
8.373496
 30
0.0
 11
-84.76635
 21
8.373496
 31
0.0
  0
LINE
  5
21C
  8
0
  6
CONTINUOUS
 62
     3
 10
-84.76635
 20
8.373495
 30
0.0
 11
-84.444374
 21
10.305346
 31
0.0
  0
LINE
  5
21D
  8
0
  6
CONTINUOUS
 62
     3
 10
-84.444374
 20
10.305346
 30
0.0
 11
-84.122398
 21
8.373497
 31
0.0
  0
LINE
  5
21E
  8
0
  6
CONTINUOUS
 62
     3
 10
-84.122398
 20
-37.743172
 30
0.0
 11
-84.76635
 21
-37.743172
 31
0.0
  0
LINE
  5
21F
  8
0
  6
CONTINUOUS
 62
     3
 10
-84.76635
 20
-37.743172
 30
0.0
 11
-84.444374
 21
-39.675022
 31
0.0
  0
LINE
  5
220
  8
0
  6
CONTINUOUS
 62
     3
 10
-84.444374
 20
-39.675018
 30
0.0
 11
-84.122398
 21
-37.743172
 31
0.0
  0
ENDBLK
  5
221
  8
0
  0
BLOCK
  8
0
  2
KOZU0039
 70
     0
 10
0.0
 20
0.0
 30
0.0
  3
KOZU0039
  1

  0
POINT
  5
224
  8
0
  6
CONTINUOUS
 62
     7
 10
-150.10373
 20
-46.531322
 30
0.0
  0
POINT
  5
225
  8
0
  6
CONTINUOUS
 62
     7
 10
-123.26833
 20
-46.531322
 30
0.0
  0
POINT
  5
226
  8
0
  6
CONTINUOUS
 62
     7
 10
-123.26833
 20
-54.133121
 30
0.0
  0
LINE
  5
227
  8
0
  6
CONTINUOUS
 62
     3
 10
-150.10373
 20
-47.531322
 30
0.0
 11
-150.10373
 21
-56.133121
 31
0.0
  0
LINE
  5
228
  8
0
  6
CONTINUOUS
 62
     3
 10
-123.26833
 20
-47.531322
 30
0.0
 11
-123.26833
 21
-56.133121
 31
0.0
  0
LINE
  5
229
  8
0
  6
CONTINUOUS
 62
     3
 10
-148.17188
 20
-54.133121
 30
0.0
 11
-125.20019
 21
-54.133121
 31
0.0
  0
LINE
  5
22A
  8
0
  6
CONTINUOUS
 62
     3
 10
-148.17188
 20
-54.455097
 30
0.0
 11
-148.17188
 21
-53.811146
 31
0.0
  0
LINE
  5
22B
  8
0
  6
CONTINUOUS
 62
     3
 10
-148.17188
 20
-53.811146
 30
0.0
 11
-150.10373
 21
-54.133121
 31
0.0
  0
LINE
  5
22C
  8
0
  6
CONTINUOUS
 62
     3
 10
-150.10373
 20
-54.133125
 30
0.0
 11
-148.17188
 21
-54.455101
 31
0.0
  0
LINE
  5
22D
  8
0
  6
CONTINUOUS
 62
     3
 10
-125.20019
 20
-54.455097
 30
0.0
 11
-125.20019
 21
-53.811146
 31
0.0
  0
LINE
  5
22E
  8
0
  6
CONTINUOUS
 62
     3
 10
-125.20019
 20
-53.811142
 30
0.0
 11
-123.26833
 21
-54.133118
 31
0.0
  0
LINE
  5
22F
  8
0
  6
CONTINUOUS
 62
     3
 10
-123.26833
 20
-54.133121
 30
0.0
 11
-125.20019
 21
-54.455097
 31
0.0
  0
ENDBLK
  5
230
  8
0
  0
BLOCK
  8
0
  2
KOZU0040
 70
     0
 10
0.0
 20
0.0
 30
0.0
  3
KOZU0040
  1

  0
POINT
  5
233
  8
0
  6
CONTINUOUS
 62
     7
 10
-67.733002
 20
10.305347
 30
0.0
  0
POINT
  5
234
  8
0
  6
CONTINUOUS
 62
     7
 10
22.266996
 20
50.505348
 30
0.0
  0
POINT
  5
235
  8
0
  6
CONTINUOUS
 62
     7
 10
22.266996
 20
62.108238
 30
0.0
  0
LINE
  5
236
  8
0
  6
CONTINUOUS
 62
     3
 10
-67.733002
 20
11.305347
 30
0.0
 11
-67.733002
 21
64.108238
 31
0.0
  0
LINE
  5
237
  8
0
  6
CONTINUOUS
 62
     3
 10
22.266996
 20
51.505348
 30
0.0
 11
22.266996
 21
64.108238
 31
0.0
  0
LINE
  5
238
  8
0
  6
CONTINUOUS
 62
     3
 10
-65.801147
 20
62.108238
 30
0.0
 11
20.335146
 21
62.108238
 31
0.0
  0
LINE
  5
239
  8
0
  6
CONTINUOUS
 62
     3
 10
-65.801147
 20
61.786266
 30
0.0
 11
-65.801147
 21
62.430214
 31
0.0
  0
LINE
  5
23A
  8
0
  6
CONTINUOUS
 62
     3
 10
-65.801147
 20
62.430214
 30
0.0
 11
-67.733002
 21
62.108238
 31
0.0
  0
LINE
  5
23B
  8
0
  6
CONTINUOUS
 62
     3
 10
-67.733002
 20
62.108238
 30
0.0
 11
-65.801147
 21
61.786266
 31
0.0
  0
LINE
  5
23C
  8
0
  6
CONTINUOUS
 62
     3
 10
20.335146
 20
61.786266
 30
0.0
 11
20.335146
 21
62.430214
 31
0.0
  0
LINE
  5
23D
  8
0
  6
CONTINUOUS
 62
     3
 10
20.335146
 20
62.430214
 30
0.0
 11
22.266996
 21
62.108238
 31
0.0
  0
LINE
  5
23E
  8
0
  6
CONTINUOUS
 62
     3
 10
22.266994
 20
62.108238
 30
0.0
 11
20.335146
 21
61.786266
 31
0.0
  0
ENDBLK
  5
23F
  8
0
  0
BLOCK
  8
0
  2
KOZU0041
 70
     0
 10
0.0
 20
0.0
 30
0.0
  3
KOZU0041
  1

  0
LINE
  5
242
  8
0
  6
CENTER
 62
     6
 10
0.0
 20
0.0
 30
0.0
 11
201.57297
 21
0.0
 31
0.0
  0
ENDBLK
  5
243
  8
0
  0
ENDSEC
  0
SECTION
  2
ENTITIES
  0
LINE
  5
244
  8
0
  6
CONTINUOUS
 62
     3
 10
345.35745
 20
65.355682
 30
0.0
 11
345.30524
 21
65.335037
 31
0.0
  0
LINE
  5
245
  8
0
  6
CONTINUOUS
 62
     3
 10
346.93979
 20
74.329681
 30
0.0
 11
345.35745
 21
65.35569
 31
0.0
  0
LINE
  5
246
  8
0
  6
CONTINUOUS
 62
     3
 10
344.37265
 20
64.52935
 30
0.0
 11
341.84299
 21
64.52935
 31
0.0
  0
LINE
  5
247
  8
0
  6
CONTINUOUS
 62
     3
 10
319.31329
 20
64.52935
 30
0.0
 11
321.84299
 21
64.52935
 31
0.0
  0
LINE
  5
248
  8
0
  6
CONTINUOUS
 62
     3
 10
316.74615
 20
74.329689
 30
0.0
 11
318.32852
 21
65.35569
 31
0.0
  0
LINE
  5
249
  8
0
  6
CONTINUOUS
 62
     3
 10
318.32852
 20
65.355682
 30
0.0
 11
318.38071
 21
65.335045
 31
0.0
  0
LINE
  5
24A
  8
0
  6
CENTER
 62
     4
 10
349.34299
 20
149.52899
 30
0.0
 11
356.34299
 21
149.52899
 31
0.0
  0
LINE
  5
24B
  8
0
  6
CENTER
 62
     4
 10
352.84299
 20
146.02899
 30
0.0
 11
352.84299
 21
153.02899
 31
0.0
  0
LINE
  5
24C
  8
0
  6
CENTER
 62
     4
 10
349.34299
 20
79.528984
 30
0.0
 11
356.34299
 21
79.528984
 31
0.0
  0
LINE
  5
24D
  8
0
  6
CENTER
 62
     4
 10
352.84299
 20
83.028984
 30
0.0
 11
352.84299
 21
76.028984
 31
0.0
  0
LINE
  5
24E
  8
0
  6
CENTER
 62
     4
 10
314.34299
 20
149.52899
 30
0.0
 11
307.34299
 21
149.52899
 31
0.0
  0
LINE
  5
24F
  8
0
  6
CENTER
 62
     4
 10
310.84299
 20
146.02899
 30
0.0
 11
310.84299
 21
153.02899
 31
0.0
  0
LINE
  5
250
  8
0
  6
CENTER
 62
     4
 10
314.34299
 20
79.528984
 30
0.0
 11
307.34299
 21
79.528984
 31
0.0
  0
LINE
  5
251
  8
0
  6
CENTER
 62
     4
 10
310.84299
 20
83.028984
 30
0.0
 11
310.84299
 21
76.028984
 31
0.0
  0
LINE
  5
252
  8
0
  6
CONTINUOUS
 62
     3
 10
137.18402
 20
132.05597
 30
0.0
 11
138.67444
 21
132.05597
 31
0.0
  0
LINE
  5
253
  8
0
  6
CONTINUOUS
 62
     3
 10
137.18402
 20
138.05597
 30
0.0
 11
138.67444
 21
138.05597
 31
0.0
  0
LINE
  5
254
  8
0
  6
CONTINUOUS
 62
     3
 10
136.68402
 20
137.55597
 30
0.0
 11
136.68402
 21
132.55597
 31
0.0
  0
LINE
  5
255
  8
0
  6
CONTINUOUS
 62
     3
 10
137.18402
 20
90.835243
 30
0.0
 11
138.67444
 21
90.835243
 31
0.0
  0
LINE
  5
256
  8
0
  6
CONTINUOUS
 62
     3
 10
137.18402
 20
96.835243
 30
0.0
 11
138.67444
 21
96.835243
 31
0.0
  0
LINE
  5
257
  8
0
  6
CONTINUOUS
 62
     3
 10
136.68402
 20
96.335243
 30
0.0
 11
136.68402
 21
91.335243
 31
0.0
  0
LINE
  5
258
  8
0
  6
CONTINUOUS
 62
     3
 10
144.36311
 20
65.441833
 30
0.0
 11
143.70538
 21
72.959717
 31
0.0
  0
LINE
  5
259
  8
0
  6
CONTINUOUS
 62
     3
 10
156.94298
 20
65.528984
 30
0.0
 11
156.94298
 21
72.828987
 31
0.0
  0
LINE
  5
25A
  8
0
  6
CONTINUOUS
 62
     3
 10
145.35931
 20
64.528984
 30
0.0
 11
155.94298
 21
64.528984
 31
0.0
  0
LINE
  5
25B
  8
0
  6
CONTINUOUS
 62
     3
 10
150.44298
 20
64.528984
 30
0.0
 11
150.44298
 21
154.72899
 31
0.0
  0
LINE
  5
25C
  8
0
  6
CONTINUOUS
 62
     3
 10
150.94298
 20
64.528984
 30
0.0
 11
150.94298
 21
154.72899
 31
0.0
  0
LINE
  5
25D
  8
0
  6
CONTINUOUS
 62
     3
 10
83.434341
 20
75.21756
 30
0.0
 11
49.168816
 21
75.21756
 31
0.0
  0
LINE
  5
25E
  8
0
  6
CONTINUOUS
 62
     3
 10
67.165794
 20
25.909315
 30
0.0
 11
67.165794
 21
30.784315
 31
0.0
  0
LINE
  5
25F
  8
0
  6
CONTINUOUS
 62
     3
 10
83.777077
 20
74.328987
 30
0.0
 11
99.1035
 21
74.328987
 31
0.0
  0
LINE
  5
260
  8
0
  6
CONTINUOUS
 62
     3
 10
142.21109
 20
74.328987
 30
0.0
 11
224.84297
 21
74.328987
 31
0.0
  0
LINE
  5
261
  8
0
  6
CENTER
 62
     4
 10
135.03239
 20
93.896545
 30
0.0
 11
140.32077
 21
93.896545
 31
0.0
  0
LINE
  5
262
  8
0
  6
CENTER
 62
     4
 10
134.91942
 20
135.16142
 30
0.0
 11
141.35622
 21
135.16142
 31
0.0
  0
LINE
  5
263
  8
0
  6
CONTINUOUS
 62
     3
 10
83.091606
 20
74.328987
 30
0.0
 11
83.777077
 21
74.328987
 31
0.0
  0
LINE
  5
264
  8
0
  6
CENTER
 62
     4
 10
29.540888
 20
150.8916
 30
0.0
 11
38.954361
 21
141.47812
 31
0.0
  0
LINE
  5
265
  8
0
  6
CENTER
 62
     4
 10
93.522118
 20
142.1476
 30
0.0
 11
101.99545
 21
150.62093
 31
0.0
  0
LINE
  5
266
  8
0
  6
CONTINUOUS
 62
     3
 10
32.703499
 20
154.72899
 30
0.0
 11
99.1035
 21
154.72899
 31
0.0
  0
LINE
  5
267
  8
0
  6
CONTINUOUS
 62
     3
 10
106.1035
 20
81.328987
 30
0.0
 11
106.1035
 21
147.72899
 31
0.0
  0
LINE
  5
268
  8
0
  6
CENTER
 62
     4
 10
93.195541
 20
87.236946
 30
0.0
 11
102.77493
 21
77.657547
 31
0.0
  0
LINE
  5
269
  8
0
  6
CENTER
 62
     4
 10
29.42502
 20
78.050507
 30
0.0
 11
38.949116
 21
87.5746
 31
0.0
  0
LINE
  5
26A
  8
0
  6
CONTINUOUS
 62
     3
 10
25.703497
 20
81.328987
 30
0.0
 11
25.703497
 21
147.72899
 31
0.0
  0
LINE
  5
26B
  8
0
  6
CONTINUOUS
 62
     3
 10
138.66406
 20
129.2081
 30
0.0
 11
138.66406
 21
142.34364
 31
0.0
  0
LINE
  5
26C
  8
0
  6
CONTINUOUS
 62
     3
 10
138.66406
 20
86.710541
 30
0.0
 11
138.66406
 21
98.555473
 31
0.0
  0
LINE
  5
26D
  8
0
  6
CONTINUOUS
 62
     3
 10
133.48804
 20
142.34364
 30
0.0
 11
138.66406
 21
142.34364
 31
0.0
  0
LINE
  5
26E
  8
0
  6
CONTINUOUS
 62
     3
 10
133.02257
 20
129.2081
 30
0.0
 11
138.66406
 21
129.2081
 31
0.0
  0
LINE
  5
26F
  8
0
  6
CONTINUOUS
 62
     3
 10
138.66406
 20
86.710541
 30
0.0
 11
133.4882
 21
86.710541
 31
0.0
  0
LINE
  5
270
  8
0
  6
CONTINUOUS
 62
     3
 10
133.05563
 20
98.555473
 30
0.0
 11
138.66406
 21
98.555473
 31
0.0
  0
LINE
  5
271
  8
0
  6
CONTINUOUS
 62
     3
 10
216.84297
 20
136.82898
 30
0.0
 11
216.84297
 21
154.72899
 31
0.0
  0
LINE
  5
272
  8
0
  6
CONTINUOUS
 62
     3
 10
216.84297
 20
74.328987
 30
0.0
 11
216.84297
 21
92.228989
 31
0.0
  0
LINE
  5
273
  8
0
  6
CONTINUOUS
 62
     3
 10
138.49667
 20
142.52899
 30
0.0
 11
215.44298
 21
142.52899
 31
0.0
  0
LINE
  5
274
  8
0
  6
CONTINUOUS
 62
     3
 10
133.49666
 20
86.528984
 30
0.0
 11
215.44298
 21
86.528984
 31
0.0
  0
LINE
  5
275
  8
0
  6
CONTINUOUS
 62
     3
 10
138.66406
 20
136.82898
 30
0.0
 11
216.84297
 21
136.82898
 31
0.0
  0
LINE
  5
276
  8
0
  6
CONTINUOUS
 62
     3
 10
138.66406
 20
92.228989
 30
0.0
 11
216.84297
 21
92.228989
 31
0.0
  0
LINE
  5
277
  8
0
  6
CENTER
 62
     4
 10
131.52287
 20
114.52898
 30
0.0
 11
256.54083
 21
114.52898
 31
0.0
  0
LINE
  5
278
  8
0
  6
CENTER
 62
     4
 10
58.417503
 20
64.479996
 30
0.0
 11
58.417503
 21
73.646973
 31
0.0
  0
LINE
  5
279
  8
0
  6
CONTINUOUS
 62
     3
 10
80.573761
 20
74.068306
 30
0.0
 11
80.074905
 21
73.44207
 31
0.0
  0
LINE
  5
27A
  8
0
  6
CONTINUOUS
 62
     3
 10
80.074913
 20
73.44207
 30
0.0
 11
79.710014
 21
72.728271
 31
0.0
  0
LINE
  5
27B
  8
0
  6
CONTINUOUS
 62
     3
 10
79.710014
 20
72.728279
 30
0.0
 11
79.495102
 21
71.961731
 31
0.0
  0
LINE
  5
27C
  8
0
  6
CONTINUOUS
 62
     3
 10
83.434341
 20
75.295418
 30
0.0
 11
83.434341
 21
74.348625
 31
0.0
  0
LINE
  5
27D
  8
0
  6
PHANTOM
 62
     4
 10
85.870369
 20
74.32901
 30
0.0
 11
89.221214
 21
74.32901
 31
0.0
  0
LINE
  5
27E
  8
0
  6
CONTINUOUS
 62
     3
 10
84.471397
 20
74.348625
 30
0.0
 11
83.434341
 21
74.348625
 31
0.0
  0
LINE
  5
27F
  8
0
  6
CONTINUOUS
 62
     3
 10
84.471397
 20
75.275444
 30
0.0
 11
83.434341
 21
75.275444
 31
0.0
  0
LINE
  5
280
  8
0
  6
CONTINUOUS
 62
     3
 10
84.471397
 20
74.348625
 30
0.0
 11
84.471397
 21
75.275444
 31
0.0
  0
LINE
  5
281
  8
0
  6
CONTINUOUS
 62
     3
 10
91.199043
 20
74.329002
 30
0.0
 11
84.471397
 21
74.329002
 31
0.0
  0
LINE
  5
282
  8
0
  6
CONTINUOUS
 62
     3
 10
92.273872
 20
81.536812
 30
0.0
 11
91.896202
 21
74.987122
 31
0.0
  0
LINE
  5
283
  8
0
  6
CONTINUOUS
 62
     3
 10
91.917938
 20
75.364075
 30
0.0
 11
85.057503
 21
75.25576
 31
0.0
  0
LINE
  5
284
  8
0
  6
CONTINUOUS
 62
     3
 10
85.057503
 20
75.25576
 30
0.0
 11
84.779907
 21
75.261322
 31
0.0
  0
LINE
  5
285
  8
0
  6
CONTINUOUS
 62
     3
 10
84.779907
 20
75.261314
 30
0.0
 11
84.471397
 21
75.275436
 31
0.0
  0
LINE
  5
286
  8
0
  6
CONTINUOUS
 62
     3
 10
90.944946
 20
81.53093
 30
0.0
 11
90.530708
 21
74.328995
 31
0.0
  0
LINE
  5
287
  8
0
  6
CENTER
 62
     4
 10
68.439949
 20
69.448608
 30
0.0
 11
78.339966
 21
69.448608
 31
0.0
  0
LINE
  5
288
  8
0
  6
CONTINUOUS
 62
     3
 10
53.155132
 20
65.402847
 30
0.0
 11
53.457058
 21
65.450874
 31
0.0
  0
LINE
  5
289
  8
0
  6
CONTINUOUS
 62
     3
 10
52.882904
 20
65.368927
 30
0.0
 11
53.155121
 21
65.402847
 31
0.0
  0
LINE
  5
28A
  8
0
  6
CONTINUOUS
 62
     3
 10
52.665863
 20
65.352219
 30
0.0
 11
52.882904
 21
65.368927
 31
0.0
  0
LINE
  5
28B
  8
0
  6
CONTINUOUS
 62
     3
 10
52.524437
 20
65.354301
 30
0.0
 11
52.665871
 21
65.352219
 31
0.0
  0
LINE
  5
28C
  8
0
  6
CONTINUOUS
 62
     3
 10
52.472248
 20
65.374977
 30
0.0
 11
52.524433
 21
65.354301
 31
0.0
  0
LINE
  5
28D
  8
0
  6
CONTINUOUS
 62
     3
 10
53.457054
 20
64.548615
 30
0.0
 11
78.322845
 21
64.548615
 31
0.0
  0
LINE
  5
28E
  8
0
  6
CONTINUOUS
 62
     3
 10
79.255379
 20
65.354301
 30
0.0
 11
79.30764
 21
65.374977
 31
0.0
  0
LINE
  5
28F
  8
0
  6
CONTINUOUS
 62
     3
 10
79.113747
 20
65.352249
 30
0.0
 11
79.255379
 21
65.354301
 31
0.0
  0
LINE
  5
290
  8
0
  6
CONTINUOUS
 62
     3
 10
78.89637
 20
65.368988
 30
0.0
 11
79.113747
 21
65.352249
 31
0.0
  0
LINE
  5
291
  8
0
  6
CONTINUOUS
 62
     3
 10
78.624039
 20
65.402946
 30
0.0
 11
78.89637
 21
65.368988
 31
0.0
  0
LINE
  5
292
  8
0
  6
CONTINUOUS
 62
     3
 10
78.322838
 20
65.450874
 30
0.0
 11
78.624031
 21
65.402939
 31
0.0
  0
LINE
  5
293
  8
0
  6
CONTINUOUS
 62
     3
 10
53.457054
 20
65.450874
 30
0.0
 11
78.322845
 21
65.450874
 31
0.0
  0
LINE
  5
294
  8
0
  6
CONTINUOUS
 62
     3
 10
39.889057
 20
75.364075
 30
0.0
 11
49.168816
 21
75.217552
 31
0.0
  0
LINE
  5
295
  8
0
  6
CONTINUOUS
 62
     3
 10
84.444321
 20
74.348625
 30
0.0
 11
83.407265
 21
74.348625
 31
0.0
  0
LINE
  5
296
  8
0
  6
CONTINUOUS
 62
     3
 10
47.335609
 20
74.348625
 30
0.0
 11
48.372658
 21
74.348625
 31
0.0
  0
LINE
  5
297
  8
0
  6
CONTINUOUS
 62
     3
 10
79.682907
 20
72.728256
 30
0.0
 11
79.468025
 21
71.961731
 31
0.0
  0
LINE
  5
298
  8
0
  6
CONTINUOUS
 62
     3
 10
80.047783
 20
73.442001
 30
0.0
 11
79.682899
 21
72.728264
 31
0.0
  0
LINE
  5
299
  8
0
  6
CONTINUOUS
 62
     3
 10
51.378704
 20
71.853706
 30
0.0
 11
51.32708
 21
71.86956
 31
0.0
  0
LINE
  5
29A
  8
0
  6
CONTINUOUS
 62
     3
 10
51.520027
 20
71.856071
 30
0.0
 11
51.378693
 21
71.853706
 31
0.0
  0
LINE
  5
29B
  8
0
  6
CONTINUOUS
 62
     3
 10
51.737495
 20
71.876411
 30
0.0
 11
51.520031
 21
71.856071
 31
0.0
  0
LINE
  5
29C
  8
0
  6
CONTINUOUS
 62
     3
 10
52.010193
 20
71.912819
 30
0.0
 11
51.737495
 21
71.876419
 31
0.0
  0
LINE
  5
29D
  8
0
  6
CONTINUOUS
 62
     3
 10
52.31189
 20
71.961731
 30
0.0
 11
52.010197
 21
71.912811
 31
0.0
  0
LINE
  5
29E
  8
0
  6
CONTINUOUS
 62
     3
 10
84.444321
 20
75.275444
 30
0.0
 11
83.407265
 21
75.275444
 31
0.0
  0
LINE
  5
29F
  8
0
  6
CONTINUOUS
 62
     3
 10
51.327076
 20
71.86956
 30
0.0
 11
52.472248
 21
65.374977
 31
0.0
  0
LINE
  5
2A0
  8
0
  6
CONTINUOUS
 62
     3
 10
52.31189
 20
71.961731
 30
0.0
 11
53.457047
 21
65.450874
 31
0.0
  0
LINE
  5
2A1
  8
0
  6
CONTINUOUS
 62
     3
 10
47.335609
 20
74.348625
 30
0.0
 11
47.335609
 21
75.229004
 31
0.0
  0
LINE
  5
2A2
  8
0
  6
CONTINUOUS
 62
     3
 10
48.372658
 20
75.229004
 30
0.0
 11
48.372658
 21
74.348625
 31
0.0
  0
LINE
  5
2A3
  8
0
  6
CONTINUOUS
 62
     3
 10
69.389946
 20
64.448608
 30
0.0
 11
69.389946
 21
58.993233
 31
0.0
  0
LINE
  5
2A4
  8
0
  6
CONTINUOUS
 62
     3
 10
53.457054
 20
64.548615
 30
0.0
 11
53.457054
 21
65.450874
 31
0.0
  0
LINE
  5
2A5
  8
0
  6
CONTINUOUS
 62
     3
 10
61.949585
 20
70.212845
 30
0.0
 11
62.039932
 21
69.404686
 31
0.0
  0
LINE
  5
2A6
  8
0
  6
CONTINUOUS
 62
     3
 10
61.679722
 20
70.987793
 30
0.0
 11
61.949589
 21
70.212845
 31
0.0
  0
LINE
  5
2A7
  8
0
  6
CONTINUOUS
 62
     3
 10
61.244324
 20
71.682404
 30
0.0
 11
61.679733
 21
70.987793
 31
0.0
  0
LINE
  5
2A8
  8
0
  6
CONTINUOUS
 62
     3
 10
60.665504
 20
72.262085
 30
0.0
 11
61.244316
 21
71.682411
 31
0.0
  0
LINE
  5
2A9
  8
0
  6
CONTINUOUS
 62
     3
 10
59.972969
 20
72.697647
 30
0.0
 11
60.665501
 21
72.262093
 31
0.0
  0
LINE
  5
2AA
  8
0
  6
CONTINUOUS
 62
     3
 10
59.201618
 20
72.967751
 30
0.0
 11
59.972969
 21
72.697647
 31
0.0
  0
LINE
  5
2AB
  8
0
  6
CONTINUOUS
 62
     3
 10
58.389965
 20
73.059273
 30
0.0
 11
59.201622
 21
72.967751
 31
0.0
  0
LINE
  5
2AC
  8
0
  6
CONTINUOUS
 62
     3
 10
57.578281
 20
72.967751
 30
0.0
 11
58.389954
 21
73.059265
 31
0.0
  0
LINE
  5
2AD
  8
0
  6
CONTINUOUS
 62
     3
 10
56.806931
 20
72.697647
 30
0.0
 11
57.578285
 21
72.967751
 31
0.0
  0
LINE
  5
2AE
  8
0
  6
CONTINUOUS
 62
     3
 10
56.114407
 20
72.262093
 30
0.0
 11
56.806938
 21
72.697647
 31
0.0
  0
LINE
  5
2AF
  8
0
  6
CONTINUOUS
 62
     3
 10
55.535591
 20
71.682404
 30
0.0
 11
56.114403
 21
72.262085
 31
0.0
  0
LINE
  5
2B0
  8
0
  6
CONTINUOUS
 62
     3
 10
55.100178
 20
70.987793
 30
0.0
 11
55.535587
 21
71.682411
 31
0.0
  0
LINE
  5
2B1
  8
0
  6
CONTINUOUS
 62
     3
 10
54.830292
 20
70.212837
 30
0.0
 11
55.100174
 21
70.987793
 31
0.0
  0
LINE
  5
2B2
  8
0
  6
CONTINUOUS
 62
     3
 10
54.739948
 20
69.404686
 30
0.0
 11
54.830296
 21
70.212845
 31
0.0
  0
LINE
  5
2B3
  8
0
  6
CONTINUOUS
 62
     3
 10
54.830368
 20
68.596207
 30
0.0
 11
54.739944
 21
69.404686
 31
0.0
  0
LINE
  5
2B4
  8
0
  6
CONTINUOUS
 62
     3
 10
55.100563
 20
67.820824
 30
0.0
 11
54.830379
 21
68.596207
 31
0.0
  0
LINE
  5
2B5
  8
0
  6
CONTINUOUS
 62
     3
 10
55.536419
 20
67.125908
 30
0.0
 11
55.100552
 21
67.820824
 31
0.0
  0
LINE
  5
2B6
  8
0
  6
CONTINUOUS
 62
     3
 10
56.1157
 20
66.546257
 30
0.0
 11
55.53643
 21
67.125908
 31
0.0
  0
LINE
  5
2B7
  8
0
  6
CONTINUOUS
 62
     3
 10
56.808281
 20
66.111076
 30
0.0
 11
56.1157
 21
66.546257
 31
0.0
  0
LINE
  5
2B8
  8
0
  6
CONTINUOUS
 62
     3
 10
57.57914
 20
65.841423
 30
0.0
 11
56.808285
 21
66.111069
 31
0.0
  0
LINE
  5
2B9
  8
0
  6
CONTINUOUS
 62
     3
 10
58.389957
 20
65.750107
 30
0.0
 11
57.579132
 21
65.841423
 31
0.0
  0
LINE
  5
2BA
  8
0
  6
CONTINUOUS
 62
     3
 10
59.20076
 20
65.841423
 30
0.0
 11
58.389965
 21
65.750114
 31
0.0
  0
LINE
  5
2BB
  8
0
  6
CONTINUOUS
 62
     3
 10
59.971626
 20
66.111069
 30
0.0
 11
59.20076
 21
65.841423
 31
0.0
  0
LINE
  5
2BC
  8
0
  6
CONTINUOUS
 62
     3
 10
60.664211
 20
66.546249
 30
0.0
 11
59.971622
 21
66.111061
 31
0.0
  0
LINE
  5
2BD
  8
0
  6
CONTINUOUS
 62
     3
 10
61.243473
 20
67.1259
 30
0.0
 11
60.664204
 21
66.546249
 31
0.0
  0
LINE
  5
2BE
  8
0
  6
CONTINUOUS
 62
     3
 10
61.679356
 20
67.820824
 30
0.0
 11
61.243477
 21
67.125908
 31
0.0
  0
LINE
  5
2BF
  8
0
  6
CONTINUOUS
 62
     3
 10
61.949516
 20
68.596207
 30
0.0
 11
61.679359
 21
67.820816
 31
0.0
  0
LINE
  5
2C0
  8
0
  6
CONTINUOUS
 62
     3
 10
62.039936
 20
69.404686
 30
0.0
 11
61.949512
 21
68.596214
 31
0.0
  0
LINE
  5
2C1
  8
0
  6
CONTINUOUS
 62
     3
 10
76.949516
 20
68.596207
 30
0.0
 11
77.039963
 21
69.404686
 31
0.0
  0
LINE
  5
2C2
  8
0
  6
CONTINUOUS
 62
     3
 10
76.679359
 20
67.820824
 30
0.0
 11
76.949516
 21
68.596207
 31
0.0
  0
LINE
  5
2C3
  8
0
  6
CONTINUOUS
 62
     3
 10
76.243469
 20
67.1259
 30
0.0
 11
76.679359
 21
67.820824
 31
0.0
  0
LINE
  5
2C4
  8
0
  6
CONTINUOUS
 62
     3
 10
75.664223
 20
66.546257
 30
0.0
 11
76.243469
 21
67.125908
 31
0.0
  0
LINE
  5
2C5
  8
0
  6
CONTINUOUS
 62
     3
 10
74.971619
 20
66.111076
 30
0.0
 11
75.664215
 21
66.546249
 31
0.0
  0
LINE
  5
2C6
  8
0
  6
CONTINUOUS
 62
     3
 10
74.200745
 20
65.841423
 30
0.0
 11
74.971611
 21
66.111069
 31
0.0
  0
LINE
  5
2C7
  8
0
  6
CONTINUOUS
 62
     3
 10
73.389961
 20
65.750114
 30
0.0
 11
74.200752
 21
65.841423
 31
0.0
  0
LINE
  5
2C8
  8
0
  6
CONTINUOUS
 62
     3
 10
72.579147
 20
65.841423
 30
0.0
 11
73.389961
 21
65.750114
 31
0.0
  0
LINE
  5
2C9
  8
0
  6
CONTINUOUS
 62
     3
 10
71.808281
 20
66.111069
 30
0.0
 11
72.57914
 21
65.841423
 31
0.0
  0
LINE
  5
2CA
  8
0
  6
CONTINUOUS
 62
     3
 10
71.1157
 20
66.546257
 30
0.0
 11
71.808281
 21
66.111076
 31
0.0
  0
LINE
  5
2CB
  8
0
  6
CONTINUOUS
 62
     3
 10
70.536446
 20
67.1259
 30
0.0
 11
71.1157
 21
66.546249
 31
0.0
  0
LINE
  5
2CC
  8
0
  6
CONTINUOUS
 62
     3
 10
70.100571
 20
67.820816
 30
0.0
 11
70.536453
 21
67.1259
 31
0.0
  0
LINE
  5
2CD
  8
0
  6
CONTINUOUS
 62
     3
 10
69.830406
 20
68.596207
 30
0.0
 11
70.100563
 21
67.820816
 31
0.0
  0
LINE
  5
2CE
  8
0
  6
CONTINUOUS
 62
     3
 10
69.739944
 20
69.404686
 30
0.0
 11
69.830399
 21
68.596207
 31
0.0
  0
LINE
  5
2CF
  8
0
  6
CONTINUOUS
 62
     3
 10
69.830338
 20
70.212845
 30
0.0
 11
69.73996
 21
69.404686
 31
0.0
  0
LINE
  5
2D0
  8
0
  6
CONTINUOUS
 62
     3
 10
70.100197
 20
70.987793
 30
0.0
 11
69.83033
 21
70.212845
 31
0.0
  0
LINE
  5
2D1
  8
0
  6
CONTINUOUS
 62
     3
 10
70.535576
 20
71.682411
 30
0.0
 11
70.100197
 21
70.987793
 31
0.0
  0
LINE
  5
2D2
  8
0
  6
CONTINUOUS
 62
     3
 10
71.114403
 20
72.262085
 30
0.0
 11
70.535576
 21
71.682411
 31
0.0
  0
LINE
  5
2D3
  8
0
  6
CONTINUOUS
 62
     3
 10
71.806923
 20
72.697647
 30
0.0
 11
71.11441
 21
72.262093
 31
0.0
  0
LINE
  5
2D4
  8
0
  6
CONTINUOUS
 62
     3
 10
72.578262
 20
72.967751
 30
0.0
 11
71.806931
 21
72.697647
 31
0.0
  0
LINE
  5
2D5
  8
0
  6
CONTINUOUS
 62
     3
 10
73.389961
 20
73.059273
 30
0.0
 11
72.57827
 21
72.967751
 31
0.0
  0
LINE
  5
2D6
  8
0
  6
CONTINUOUS
 62
     3
 10
74.201622
 20
72.967751
 30
0.0
 11
73.389961
 21
73.059273
 31
0.0
  0
LINE
  5
2D7
  8
0
  6
CONTINUOUS
 62
     3
 10
74.972992
 20
72.697655
 30
0.0
 11
74.201622
 21
72.967758
 31
0.0
  0
LINE
  5
2D8
  8
0
  6
CONTINUOUS
 62
     3
 10
75.665497
 20
72.262077
 30
0.0
 11
74.972992
 21
72.697639
 31
0.0
  0
LINE
  5
2D9
  8
0
  6
CONTINUOUS
 62
     3
 10
76.244331
 20
71.682404
 30
0.0
 11
75.665497
 21
72.262085
 31
0.0
  0
LINE
  5
2DA
  8
0
  6
CONTINUOUS
 62
     3
 10
76.679718
 20
70.987793
 30
0.0
 11
76.244331
 21
71.682404
 31
0.0
  0
LINE
  5
2DB
  8
0
  6
CONTINUOUS
 62
     3
 10
76.949593
 20
70.212845
 30
0.0
 11
76.679718
 21
70.987793
 31
0.0
  0
LINE
  5
2DC
  8
0
  6
CONTINUOUS
 62
     3
 10
77.03997
 20
69.404686
 30
0.0
 11
76.949593
 21
70.212845
 31
0.0
  0
LINE
  5
2DD
  8
0
  6
CONTINUOUS
 62
     3
 10
78.322845
 20
64.548615
 30
0.0
 11
78.322845
 21
65.450874
 31
0.0
  0
LINE
  5
2DE
  8
0
  6
CONTINUOUS
 62
     3
 10
83.407265
 20
75.298538
 30
0.0
 11
83.407265
 21
74.348625
 31
0.0
  0
LINE
  5
2DF
  8
0
  6
CONTINUOUS
 62
     3
 10
80.452835
 20
71.86956
 30
0.0
 11
79.307648
 21
65.374977
 31
0.0
  0
LINE
  5
2E0
  8
0
  6
CONTINUOUS
 62
     3
 10
79.468025
 20
71.961731
 30
0.0
 11
78.322845
 21
65.450874
 31
0.0
  0
LINE
  5
2E1
  8
0
  6
CONTINUOUS
 62
     3
 10
84.444321
 20
74.348625
 30
0.0
 11
84.444321
 21
75.275444
 31
0.0
  0
LINE
  5
2E2
  8
0
  6
CONTINUOUS
 62
     3
 10
62.389946
 20
64.648628
 30
0.0
 11
62.389946
 21
58.993233
 31
0.0
  0
LINE
  5
2E3
  8
0
  6
CONTINUOUS
 62
     3
 10
79.76973
 20
71.912811
 30
0.0
 11
79.468025
 21
71.961731
 31
0.0
  0
LINE
  5
2E4
  8
0
  6
CONTINUOUS
 62
     3
 10
80.042419
 20
71.876419
 30
0.0
 11
79.76973
 21
71.912819
 31
0.0
  0
LINE
  5
2E5
  8
0
  6
CONTINUOUS
 62
     3
 10
80.259903
 20
71.856064
 30
0.0
 11
80.042419
 21
71.876411
 31
0.0
  0
LINE
  5
2E6
  8
0
  6
CONTINUOUS
 62
     3
 10
80.401222
 20
71.853714
 30
0.0
 11
80.259895
 21
71.856071
 31
0.0
  0
LINE
  5
2E7
  8
0
  6
CONTINUOUS
 62
     3
 10
80.452827
 20
71.86956
 30
0.0
 11
80.401222
 21
71.853706
 31
0.0
  0
LINE
  5
2E8
  8
0
  6
CENTER
 62
     4
 10
73.389961
 20
64.498596
 30
0.0
 11
73.389961
 21
74.398613
 31
0.0
  0
LINE
  5
2E9
  8
0
  6
CENTER
 62
     4
 10
53.439964
 20
69.448608
 30
0.0
 11
63.339973
 21
69.448608
 31
0.0
  0
LINE
  5
2EA
  8
0
  6
CENTER
 62
     4
 10
65.903496
 20
61.283958
 30
0.0
 11
65.903496
 21
54.212059
 31
0.0
  0
LINE
  5
2EB
  8
0
  6
CENTER
 62
     4
 10
26.36907
 20
135.16142
 30
0.0
 11
36.219398
 21
135.16142
 31
0.0
  0
LINE
  5
2EC
  8
0
  6
CENTER
 62
     4
 10
95.587608
 20
135.16142
 30
0.0
 11
106.23549
 21
135.16142
 31
0.0
  0
LINE
  5
2ED
  8
0
  6
CENTER
 62
     4
 10
100.51277
 20
130.23627
 30
0.0
 11
100.51277
 21
140.08659
 31
0.0
  0
LINE
  5
2EE
  8
0
  6
CENTER
 62
     4
 10
26.36907
 20
93.896545
 30
0.0
 11
36.219398
 21
93.896545
 31
0.0
  0
LINE
  5
2EF
  8
0
  6
CENTER
 62
     4
 10
31.294226
 20
88.971382
 30
0.0
 11
31.294226
 21
98.821701
 31
0.0
  0
LINE
  5
2F0
  8
0
  6
CENTER
 62
     4
 10
95.587608
 20
93.896545
 30
0.0
 11
106.46144
 21
93.896545
 31
0.0
  0
LINE
  5
2F1
  8
0
  6
CENTER
 62
     4
 10
65.903496
 20
51.197033
 30
0.0
 11
65.903496
 21
158.96875
 31
0.0
  0
LINE
  5
2F2
  8
0
  6
CENTER
 62
     4
 10
100.51277
 20
88.971382
 30
0.0
 11
100.51277
 21
98.821701
 31
0.0
  0
LINE
  5
2F3
  8
0
  6
CONTINUOUS
 62
     3
 10
40.795727
 20
153.51402
 30
0.0
 11
41.20533
 21
153.49529
 31
0.0
  0
LINE
  5
2F4
  8
0
  6
CONTINUOUS
 62
     3
 10
40.425999
 20
153.52147
 30
0.0
 11
40.795719
 21
153.51404
 31
0.0
  0
LINE
  5
2F5
  8
0
  6
CONTINUOUS
 62
     3
 10
40.132175
 20
153.51686
 30
0.0
 11
40.42601
 21
153.52147
 31
0.0
  0
LINE
  5
2F6
  8
0
  6
CONTINUOUS
 62
     3
 10
39.942814
 20
153.5007
 30
0.0
 11
40.132172
 21
153.51686
 31
0.0
  0
LINE
  5
2F7
  8
0
  6
CONTINUOUS
 62
     3
 10
39.876415
 20
153.47449
 30
0.0
 11
39.942825
 21
153.5007
 31
0.0
  0
LINE
  5
2F8
  8
0
  6
CONTINUOUS
 62
     3
 10
40.452305
 20
147.54659
 30
0.0
 11
40.862057
 21
147.52704
 31
0.0
  0
LINE
  5
2F9
  8
0
  6
CONTINUOUS
 62
     3
 10
40.082458
 20
147.55615
 30
0.0
 11
40.452316
 21
147.54659
 31
0.0
  0
LINE
  5
2FA
  8
0
  6
CONTINUOUS
 62
     3
 10
39.788601
 20
147.55484
 30
0.0
 11
40.082451
 21
147.55615
 31
0.0
  0
LINE
  5
2FB
  8
0
  6
CONTINUOUS
 62
     3
 10
39.599335
 20
147.5428
 30
0.0
 11
39.788605
 21
147.55484
 31
0.0
  0
LINE
  5
2FC
  8
0
  6
CONTINUOUS
 62
     3
 10
39.533127
 20
147.52119
 30
0.0
 11
39.599331
 21
147.5428
 31
0.0
  0
LINE
  5
2FD
  8
0
  6
CONTINUOUS
 62
     3
 10
27.589638
 20
138.8929
 30
0.0
 11
35.164913
 21
141.65005
 31
0.0
  0
LINE
  5
2FE
  8
0
  6
CONTINUOUS
 62
     3
 10
36.871895
 20
141.29971
 30
0.0
 11
37.284328
 21
141.30299
 31
0.0
  0
LINE
  5
2FF
  8
0
  6
CONTINUOUS
 62
     3
 10
36.501026
 20
141.29016
 30
0.0
 11
36.871891
 21
141.2997
 31
0.0
  0
LINE
  5
300
  8
0
  6
CONTINUOUS
 62
     3
 10
36.207008
 20
141.27536
 30
0.0
 11
36.501026
 21
141.29018
 31
0.0
  0
LINE
  5
301
  8
0
  6
CONTINUOUS
 62
     3
 10
36.018204
 20
141.25673
 30
0.0
 11
36.207016
 21
141.27538
 31
0.0
  0
LINE
  5
302
  8
0
  6
CONTINUOUS
 62
     3
 10
35.953163
 20
141.23608
 30
0.0
 11
36.0182
 21
141.25673
 31
0.0
  0
LINE
  5
303
  8
0
  6
CONTINUOUS
 62
     3
 10
28.044901
 20
137.64204
 30
0.0
 11
35.620148
 21
140.39923
 31
0.0
  0
LINE
  5
304
  8
0
  6
CONTINUOUS
 62
     3
 10
27.439611
 20
130.5025
 30
0.0
 11
27.439611
 21
129.2081
 31
0.0
  0
LINE
  5
305
  8
0
  6
CONTINUOUS
 62
     3
 10
27.439611
 20
98.555473
 30
0.0
 11
27.439611
 21
99.849915
 31
0.0
  0
LINE
  5
306
  8
0
  6
CONTINUOUS
 62
     3
 10
27.079645
 20
119.42483
 30
0.0
 11
27.439615
 21
129.20808
 31
0.0
  0
LINE
  5
307
  8
0
  6
CONTINUOUS
 62
     3
 10
27.079641
 20
109.63318
 30
0.0
 11
27.079641
 21
119.42483
 31
0.0
  0
LINE
  5
308
  8
0
  6
CONTINUOUS
 62
     3
 10
27.439611
 20
99.849907
 30
0.0
 11
27.079641
 21
109.63318
 31
0.0
  0
LINE
  5
309
  8
0
  6
CONTINUOUS
 62
     3
 10
26.110527
 20
99.813019
 30
0.0
 11
26.71888
 21
91.299789
 31
0.0
  0
LINE
  5
30A
  8
0
  6
CONTINUOUS
 62
     3
 10
90.6017
 20
74.329002
 30
0.0
 11
89.221252
 21
74.329002
 31
0.0
  0
LINE
  5
30B
  8
0
  6
CONTINUOUS
 62
     3
 10
41.20533
 20
74.329002
 30
0.0
 11
42.585793
 21
74.329002
 31
0.0
  0
LINE
  5
30C
  8
0
  6
CONTINUOUS
 62
     3
 10
31.294226
 20
129.2081
 30
0.0
 11
31.294226
 21
130.5025
 31
0.0
  0
LINE
  5
30D
  8
0
  6
CONTINUOUS
 62
     3
 10
31.294226
 20
98.555473
 30
0.0
 11
31.294226
 21
99.849915
 31
0.0
  0
LINE
  5
30E
  8
0
  6
CONTINUOUS
 62
     3
 10
27.58963
 20
90.165108
 30
0.0
 11
35.164909
 21
87.407921
 31
0.0
  0
LINE
  5
30F
  8
0
  6
CONTINUOUS
 62
     3
 10
40.452301
 20
81.511421
 30
0.0
 11
40.862053
 21
81.53093
 31
0.0
  0
LINE
  5
310
  8
0
  6
CONTINUOUS
 62
     3
 10
40.082447
 20
81.501846
 30
0.0
 11
40.452301
 21
81.511414
 31
0.0
  0
LINE
  5
311
  8
0
  6
CONTINUOUS
 62
     3
 10
39.788593
 20
81.503136
 30
0.0
 11
40.082443
 21
81.501846
 31
0.0
  0
LINE
  5
312
  8
0
  6
CONTINUOUS
 62
     3
 10
39.599319
 20
81.515167
 30
0.0
 11
39.788586
 21
81.503128
 31
0.0
  0
LINE
  5
313
  8
0
  6
CONTINUOUS
 62
     3
 10
39.533127
 20
81.536812
 30
0.0
 11
39.599319
 21
81.515175
 31
0.0
  0
LINE
  5
314
  8
0
  6
CONTINUOUS
 62
     3
 10
28.044903
 20
91.415924
 30
0.0
 11
27.589643
 21
90.165108
 31
0.0
  0
LINE
  5
315
  8
0
  6
CONTINUOUS
 62
     3
 10
38.436848
 20
142.22862
 30
0.0
 11
37.284325
 21
141.30299
 31
0.0
  0
LINE
  5
316
  8
0
  6
CONTINUOUS
 62
     3
 10
39.405773
 20
143.35965
 30
0.0
 11
38.436855
 21
142.22862
 31
0.0
  0
LINE
  5
317
  8
0
  6
CONTINUOUS
 62
     3
 10
40.14883
 20
144.65141
 30
0.0
 11
39.405773
 21
143.35965
 31
0.0
  0
LINE
  5
318
  8
0
  6
CONTINUOUS
 62
     3
 10
40.64043
 20
146.06055
 30
0.0
 11
40.148823
 21
144.65143
 31
0.0
  0
LINE
  5
319
  8
0
  6
CONTINUOUS
 62
     3
 10
40.862057
 20
147.52704
 30
0.0
 11
40.640438
 21
146.06055
 31
0.0
  0
LINE
  5
31A
  8
0
  6
CONTINUOUS
 62
     3
 10
35.953163
 20
93.896545
 30
0.0
 11
35.953163
 21
87.82193
 31
0.0
  0
LINE
  5
31B
  8
0
  6
CONTINUOUS
 62
     3
 10
35.953163
 20
135.16142
 30
0.0
 11
35.953163
 21
141.23608
 31
0.0
  0
LINE
  5
31C
  8
0
  6
CONTINUOUS
 62
     3
 10
38.436852
 20
86.829376
 30
0.0
 11
37.284325
 21
87.754982
 31
0.0
  0
LINE
  5
31D
  8
0
  6
CONTINUOUS
 62
     3
 10
39.405773
 20
85.698296
 30
0.0
 11
38.436855
 21
86.829391
 31
0.0
  0
LINE
  5
31E
  8
0
  6
CONTINUOUS
 62
     3
 10
40.148827
 20
84.406487
 30
0.0
 11
39.405769
 21
85.698288
 31
0.0
  0
LINE
  5
31F
  8
0
  6
CONTINUOUS
 62
     3
 10
40.640465
 20
82.997429
 30
0.0
 11
40.148827
 21
84.406487
 31
0.0
  0
LINE
  5
320
  8
0
  6
CONTINUOUS
 62
     3
 10
40.862045
 20
81.530922
 30
0.0
 11
40.640457
 21
82.997429
 31
0.0
  0
LINE
  5
321
  8
0
  6
CONTINUOUS
 62
     3
 10
28.044907
 20
137.64204
 30
0.0
 11
27.589647
 21
138.8929
 31
0.0
  0
LINE
  5
322
  8
0
  6
CONTINUOUS
 62
     3
 10
28.044897
 20
91.415932
 30
0.0
 11
35.620155
 21
88.658775
 31
0.0
  0
LINE
  5
323
  8
0
  6
CONTINUOUS
 62
     3
 10
36.872952
 20
87.758263
 30
0.0
 11
37.284328
 21
87.754982
 31
0.0
  0
LINE
  5
324
  8
0
  6
CONTINUOUS
 62
     3
 10
36.501869
 20
87.767761
 30
0.0
 11
36.872948
 21
87.758263
 31
0.0
  0
LINE
  5
325
  8
0
  6
CONTINUOUS
 62
     3
 10
36.207386
 20
87.78257
 30
0.0
 11
36.501862
 21
87.767761
 31
0.0
  0
LINE
  5
326
  8
0
  6
CONTINUOUS
 62
     3
 10
36.018314
 20
87.801239
 30
0.0
 11
36.207382
 21
87.782578
 31
0.0
  0
LINE
  5
327
  8
0
  6
CONTINUOUS
 62
     3
 10
35.953163
 20
87.82193
 30
0.0
 11
36.018318
 21
87.801239
 31
0.0
  0
LINE
  5
328
  8
0
  6
CONTINUOUS
 62
     3
 10
39.533134
 20
147.52119
 30
0.0
 11
39.876411
 21
153.4745
 31
0.0
  0
LINE
  5
329
  8
0
  6
CONTINUOUS
 62
     3
 10
40.862045
 20
147.52705
 30
0.0
 11
41.205322
 21
153.49529
 31
0.0
  0
LINE
  5
32A
  8
0
  6
CONTINUOUS
 62
     3
 10
37.284325
 20
93.844849
 30
0.0
 11
37.284325
 21
87.754982
 31
0.0
  0
LINE
  5
32B
  8
0
  6
CONTINUOUS
 62
     3
 10
37.284325
 20
135.21317
 30
0.0
 11
37.284325
 21
141.30299
 31
0.0
  0
LINE
  5
32C
  8
0
  6
CONTINUOUS
 62
     3
 10
40.862053
 20
81.53093
 30
0.0
 11
41.276299
 21
74.329002
 31
0.0
  0
LINE
  5
32D
  8
0
  6
CONTINUOUS
 62
     3
 10
39.533131
 20
81.536804
 30
0.0
 11
39.910801
 21
74.987122
 31
0.0
  0
LINE
  5
32E
  8
0
  6
CONTINUOUS
 62
     3
 10
35.164902
 20
87.407913
 30
0.0
 11
35.620148
 21
88.658768
 31
0.0
  0
LINE
  5
32F
  8
0
  6
CONTINUOUS
 62
     3
 10
41.20533
 20
154.729
 30
0.0
 11
41.20533
 21
153.49529
 31
0.0
  0
LINE
  5
330
  8
0
  6
CENTER
 62
     4
 10
65.903496
 20
30.116018
 30
0.0
 11
65.903496
 21
51.197033
 31
0.0
  0
LINE
  5
331
  8
0
  6
CONTINUOUS
 62
     3
 10
42.585793
 20
75.321495
 30
0.0
 11
42.585793
 21
74.329002
 31
0.0
  0
LINE
  5
332
  8
0
  6
CONTINUOUS
 62
     3
 10
35.164913
 20
141.65005
 30
0.0
 11
35.620155
 21
140.39923
 31
0.0
  0
LINE
  5
333
  8
0
  6
CONTINUOUS
 62
     3
 10
36.872952
 20
93.847351
 30
0.0
 11
37.284321
 21
93.844849
 31
0.0
  0
LINE
  5
334
  8
0
  6
CONTINUOUS
 62
     3
 10
36.501865
 20
93.854721
 30
0.0
 11
36.872948
 21
93.847343
 31
0.0
  0
LINE
  5
335
  8
0
  6
CONTINUOUS
 62
     3
 10
36.207386
 20
93.86615
 30
0.0
 11
36.501873
 21
93.854721
 31
0.0
  0
LINE
  5
336
  8
0
  6
CONTINUOUS
 62
     3
 10
36.018311
 20
93.880554
 30
0.0
 11
36.207386
 21
93.86615
 31
0.0
  0
LINE
  5
337
  8
0
  6
CONTINUOUS
 62
     3
 10
35.953167
 20
93.896538
 30
0.0
 11
36.018311
 21
93.880554
 31
0.0
  0
LINE
  5
338
  8
0
  6
CONTINUOUS
 62
     3
 10
103.76211
 20
91.415932
 30
0.0
 11
105.08816
 21
91.299789
 31
0.0
  0
LINE
  5
339
  8
0
  6
CONTINUOUS
 62
     3
 10
95.788689
 20
93.880547
 30
0.0
 11
95.853836
 21
93.896538
 31
0.0
  0
LINE
  5
33A
  8
0
  6
CONTINUOUS
 62
     3
 10
95.599617
 20
93.866142
 30
0.0
 11
95.788689
 21
93.880547
 31
0.0
  0
LINE
  5
33B
  8
0
  6
CONTINUOUS
 62
     3
 10
95.30513
 20
93.854721
 30
0.0
 11
95.599617
 21
93.86615
 31
0.0
  0
LINE
  5
33C
  8
0
  6
CONTINUOUS
 62
     3
 10
94.934059
 20
93.847351
 30
0.0
 11
95.30513
 21
93.854721
 31
0.0
  0
LINE
  5
33D
  8
0
  6
CONTINUOUS
 62
     3
 10
94.52272
 20
93.844849
 30
0.0
 11
94.934059
 21
93.847351
 31
0.0
  0
LINE
  5
33E
  8
0
  6
CONTINUOUS
 62
     3
 10
28.044895
 20
91.415924
 30
0.0
 11
26.718885
 21
91.299789
 31
0.0
  0
LINE
  5
33F
  8
0
  6
CONTINUOUS
 62
     3
 10
27.028257
 20
99.828957
 30
0.0
 11
27.439619
 21
99.849915
 31
0.0
  0
LINE
  5
340
  8
0
  6
CONTINUOUS
 62
     3
 10
26.658199
 20
99.813698
 30
0.0
 11
27.028248
 21
99.828949
 31
0.0
  0
LINE
  5
341
  8
0
  6
CONTINUOUS
 62
     3
 10
26.364714
 20
99.805557
 30
0.0
 11
26.658195
 21
99.813705
 31
0.0
  0
LINE
  5
342
  8
0
  6
CONTINUOUS
 62
     3
 10
26.17598
 20
99.805313
 30
0.0
 11
26.364716
 21
99.80555
 31
0.0
  0
LINE
  5
343
  8
0
  6
CONTINUOUS
 62
     3
 10
26.110529
 20
99.813019
 30
0.0
 11
26.17598
 21
99.805313
 31
0.0
  0
LINE
  5
344
  8
0
  6
CONTINUOUS
 62
     3
 10
37.135876
 20
95.173264
 30
0.0
 11
37.284317
 21
93.844849
 31
0.0
  0
LINE
  5
345
  8
0
  6
CONTINUOUS
 62
     3
 10
36.692192
 20
96.448067
 30
0.0
 11
37.135891
 21
95.173264
 31
0.0
  0
LINE
  5
346
  8
0
  6
CONTINUOUS
 62
     3
 10
35.975685
 20
97.591164
 30
0.0
 11
36.692192
 21
96.448059
 31
0.0
  0
LINE
  5
347
  8
0
  6
CONTINUOUS
 62
     3
 10
35.022587
 20
98.544884
 30
0.0
 11
35.975681
 21
97.591156
 31
0.0
  0
LINE
  5
348
  8
0
  6
CONTINUOUS
 62
     3
 10
33.882915
 20
99.260193
 30
0.0
 11
35.022591
 21
98.544899
 31
0.0
  0
LINE
  5
349
  8
0
  6
CONTINUOUS
 62
     3
 10
32.61433
 20
99.702263
 30
0.0
 11
33.882908
 21
99.260193
 31
0.0
  0
LINE
  5
34A
  8
0
  6
CONTINUOUS
 62
     3
 10
31.294231
 20
99.849915
 30
0.0
 11
32.614323
 21
99.702263
 31
0.0
  0
LINE
  5
34B
  8
0
  6
CONTINUOUS
 62
     3
 10
104.36739
 20
98.555473
 30
0.0
 11
100.51277
 21
98.555473
 31
0.0
  0
LINE
  5
34C
  8
0
  6
CONTINUOUS
 62
     3
 10
27.439611
 20
98.555473
 30
0.0
 11
31.294226
 21
98.555473
 31
0.0
  0
LINE
  5
34D
  8
0
  6
CONTINUOUS
 62
     3
 10
94.671112
 20
95.173203
 30
0.0
 11
94.52272
 21
93.844849
 31
0.0
  0
LINE
  5
34E
  8
0
  6
CONTINUOUS
 62
     3
 10
95.114777
 20
96.447922
 30
0.0
 11
94.671112
 21
95.173203
 31
0.0
  0
LINE
  5
34F
  8
0
  6
CONTINUOUS
 62
     3
 10
95.831245
 20
97.591087
 30
0.0
 11
95.114769
 21
96.447922
 31
0.0
  0
LINE
  5
350
  8
0
  6
CONTINUOUS
 62
     3
 10
96.784378
 20
98.544853
 30
0.0
 11
95.831253
 21
97.591095
 31
0.0
  0
LINE
  5
351
  8
0
  6
CONTINUOUS
 62
     3
 10
97.924019
 20
99.260155
 30
0.0
 11
96.784378
 21
98.544861
 31
0.0
  0
LINE
  5
352
  8
0
  6
CONTINUOUS
 62
     3
 10
99.192635
 20
99.702263
 30
0.0
 11
97.924026
 21
99.260155
 31
0.0
  0
LINE
  5
353
  8
0
  6
CONTINUOUS
 62
     3
 10
100.51277
 20
99.849915
 30
0.0
 11
99.192635
 21
99.702263
 31
0.0
  0
LINE
  5
354
  8
0
  6
CONTINUOUS
 62
     3
 10
105.63092
 20
99.805321
 30
0.0
 11
105.69648
 21
99.813026
 31
0.0
  0
LINE
  5
355
  8
0
  6
CONTINUOUS
 62
     3
 10
105.44192
 20
99.805588
 30
0.0
 11
105.63092
 21
99.805321
 31
0.0
  0
LINE
  5
356
  8
0
  6
CONTINUOUS
 62
     3
 10
105.14793
 20
99.813736
 30
0.0
 11
105.44192
 21
99.805588
 31
0.0
  0
LINE
  5
357
  8
0
  6
CONTINUOUS
 62
     3
 10
104.77772
 20
99.829018
 30
0.0
 11
105.14793
 21
99.813736
 31
0.0
  0
LINE
  5
358
  8
0
  6
CONTINUOUS
 62
     3
 10
104.36739
 20
99.849915
 30
0.0
 11
104.77772
 21
99.829018
 31
0.0
  0
LINE
  5
359
  8
0
  6
CONTINUOUS
 62
     3
 10
104.36739
 20
99.849915
 30
0.0
 11
100.51277
 21
99.849915
 31
0.0
  0
LINE
  5
35A
  8
0
  6
CONTINUOUS
 62
     3
 10
27.439611
 20
99.849915
 30
0.0
 11
31.294226
 21
99.849915
 31
0.0
  0
LINE
  5
35B
  8
0
  6
CONTINUOUS
 62
     3
 10
37.063572
 20
87.42411
 30
0.0
 11
37.284321
 21
87.754982
 31
0.0
  0
LINE
  5
35C
  8
0
  6
CONTINUOUS
 62
     3
 10
36.8633
 20
87.130142
 30
0.0
 11
37.063572
 21
87.424118
 31
0.0
  0
LINE
  5
35D
  8
0
  6
CONTINUOUS
 62
     3
 10
36.702141
 20
86.900322
 30
0.0
 11
36.863308
 21
87.130135
 31
0.0
  0
LINE
  5
35E
  8
0
  6
CONTINUOUS
 62
     3
 10
36.594917
 20
86.755974
 30
0.0
 11
36.702145
 21
86.900314
 31
0.0
  0
LINE
  5
35F
  8
0
  6
CONTINUOUS
 62
     3
 10
36.551678
 20
86.710541
 30
0.0
 11
36.594921
 21
86.755981
 31
0.0
  0
LINE
  5
360
  8
0
  6
CONTINUOUS
 62
     3
 10
94.743423
 20
141.6339
 30
0.0
 11
94.52272
 21
141.30299
 31
0.0
  0
LINE
  5
361
  8
0
  6
CONTINUOUS
 62
     3
 10
94.943695
 20
141.92787
 30
0.0
 11
94.743431
 21
141.63388
 31
0.0
  0
LINE
  5
362
  8
0
  6
CONTINUOUS
 62
     3
 10
95.104904
 20
142.15768
 30
0.0
 11
94.943695
 21
141.92787
 31
0.0
  0
LINE
  5
363
  8
0
  6
CONTINUOUS
 62
     3
 10
95.212082
 20
142.30199
 30
0.0
 11
95.104904
 21
142.15768
 31
0.0
  0
LINE
  5
364
  8
0
  6
CONTINUOUS
 62
     3
 10
95.255325
 20
142.34743
 30
0.0
 11
95.212082
 21
142.30199
 31
0.0
  0
LINE
  5
365
  8
0
  6
CONTINUOUS
 62
     3
 10
37.063019
 20
141.63467
 30
0.0
 11
37.284317
 21
141.30299
 31
0.0
  0
LINE
  5
366
  8
0
  6
CONTINUOUS
 62
     3
 10
36.862877
 20
141.92853
 30
0.0
 11
37.063026
 21
141.63467
 31
0.0
  0
LINE
  5
367
  8
0
  6
CONTINUOUS
 62
     3
 10
36.701927
 20
142.15796
 30
0.0
 11
36.862877
 21
141.92853
 31
0.0
  0
LINE
  5
368
  8
0
  6
CONTINUOUS
 62
     3
 10
36.59486
 20
142.30206
 30
0.0
 11
36.701931
 21
142.15796
 31
0.0
  0
LINE
  5
369
  8
0
  6
CONTINUOUS
 62
     3
 10
36.551674
 20
142.34743
 30
0.0
 11
36.594856
 21
142.30205
 31
0.0
  0
LINE
  5
36A
  8
0
  6
CENTER
 62
     4
 10
21.05448
 20
114.52898
 30
0.0
 11
109.20522
 21
114.52898
 31
0.0
  0
LINE
  5
36B
  8
0
  6
CONTINUOUS
 62
     3
 10
94.743973
 20
87.423302
 30
0.0
 11
94.52272
 21
87.75499
 31
0.0
  0
LINE
  5
36C
  8
0
  6
CONTINUOUS
 62
     3
 10
94.94413
 20
87.129486
 30
0.0
 11
94.743973
 21
87.423302
 31
0.0
  0
LINE
  5
36D
  8
0
  6
CONTINUOUS
 62
     3
 10
95.105095
 20
86.900009
 30
0.0
 11
94.944122
 21
87.129486
 31
0.0
  0
LINE
  5
36E
  8
0
  6
CONTINUOUS
 62
     3
 10
95.212143
 20
86.755913
 30
0.0
 11
95.105095
 21
86.900009
 31
0.0
  0
LINE
  5
36F
  8
0
  6
CONTINUOUS
 62
     3
 10
95.255333
 20
86.710548
 30
0.0
 11
95.212151
 21
86.75592
 31
0.0
  0
LINE
  5
370
  8
0
  6
CONTINUOUS
 62
     3
 10
26.176071
 20
129.25266
 30
0.0
 11
26.110529
 21
129.24495
 31
0.0
  0
LINE
  5
371
  8
0
  6
CONTINUOUS
 62
     3
 10
26.365089
 20
129.25241
 30
0.0
 11
26.176081
 21
129.25266
 31
0.0
  0
LINE
  5
372
  8
0
  6
CONTINUOUS
 62
     3
 10
26.659065
 20
129.24428
 30
0.0
 11
26.36508
 21
129.25243
 31
0.0
  0
LINE
  5
373
  8
0
  6
CONTINUOUS
 62
     3
 10
27.029287
 20
129.22897
 30
0.0
 11
26.65906
 21
129.24426
 31
0.0
  0
LINE
  5
374
  8
0
  6
CONTINUOUS
 62
     3
 10
27.439608
 20
129.20808
 30
0.0
 11
27.029282
 21
129.22899
 31
0.0
  0
LINE
  5
375
  8
0
  6
CONTINUOUS
 62
     3
 10
96.64209
 20
141.65004
 30
0.0
 11
96.186844
 21
140.39923
 31
0.0
  0
LINE
  5
376
  8
0
  6
CONTINUOUS
 62
     3
 10
96.642097
 20
87.407921
 30
0.0
 11
96.186844
 21
88.658775
 31
0.0
  0
LINE
  5
377
  8
0
  6
CONTINUOUS
 62
     3
 10
104.36739
 20
129.2081
 30
0.0
 11
100.51277
 21
129.2081
 31
0.0
  0
LINE
  5
378
  8
0
  6
CONTINUOUS
 62
     3
 10
27.439611
 20
129.2081
 30
0.0
 11
31.294226
 21
129.2081
 31
0.0
  0
LINE
  5
379
  8
0
  6
CONTINUOUS
 62
     3
 10
100.51277
 20
130.5025
 30
0.0
 11
104.36739
 21
130.5025
 31
0.0
  0
LINE
  5
37A
  8
0
  6
CONTINUOUS
 62
     3
 10
27.439611
 20
130.5025
 30
0.0
 11
31.294226
 21
130.5025
 31
0.0
  0
LINE
  5
37B
  8
0
  6
CONTINUOUS
 62
     3
 10
104.77876
 20
129.22902
 30
0.0
 11
104.36739
 21
129.20808
 31
0.0
  0
LINE
  5
37C
  8
0
  6
CONTINUOUS
 62
     3
 10
105.1488
 20
129.24431
 30
0.0
 11
104.77875
 21
129.22902
 31
0.0
  0
LINE
  5
37D
  8
0
  6
CONTINUOUS
 62
     3
 10
105.44229
 20
129.25243
 30
0.0
 11
105.14881
 21
129.24431
 31
0.0
  0
LINE
  5
37E
  8
0
  6
CONTINUOUS
 62
     3
 10
105.63102
 20
129.25266
 30
0.0
 11
105.44229
 21
129.25243
 31
0.0
  0
LINE
  5
37F
  8
0
  6
CONTINUOUS
 62
     3
 10
105.69648
 20
129.24495
 30
0.0
 11
105.63101
 21
129.25266
 31
0.0
  0
LINE
  5
380
  8
0
  6
CONTINUOUS
 62
     3
 10
94.671112
 20
133.88474
 30
0.0
 11
94.52272
 21
135.21315
 31
0.0
  0
LINE
  5
381
  8
0
  6
CONTINUOUS
 62
     3
 10
95.114807
 20
132.60995
 30
0.0
 11
94.671112
 21
133.88474
 31
0.0
  0
LINE
  5
382
  8
0
  6
CONTINUOUS
 62
     3
 10
95.831329
 20
131.46681
 30
0.0
 11
95.114815
 21
132.60995
 31
0.0
  0
LINE
  5
383
  8
0
  6
CONTINUOUS
 62
     3
 10
96.784447
 20
130.51308
 30
0.0
 11
95.831322
 21
131.46681
 31
0.0
  0
LINE
  5
384
  8
0
  6
CONTINUOUS
 62
     3
 10
97.924088
 20
129.79778
 30
0.0
 11
96.784447
 21
130.51308
 31
0.0
  0
LINE
  5
385
  8
0
  6
CONTINUOUS
 62
     3
 10
99.192673
 20
129.3557
 30
0.0
 11
97.924095
 21
129.79778
 31
0.0
  0
LINE
  5
386
  8
0
  6
CONTINUOUS
 62
     3
 10
100.51277
 20
129.2081
 30
0.0
 11
99.192665
 21
129.35571
 31
0.0
  0
LINE
  5
387
  8
0
  6
CONTINUOUS
 62
     3
 10
28.044901
 20
137.64204
 30
0.0
 11
26.718876
 21
137.75819
 31
0.0
  0
LINE
  5
388
  8
0
  6
CONTINUOUS
 62
     3
 10
36.018311
 20
135.17741
 30
0.0
 11
35.953167
 21
135.16142
 31
0.0
  0
LINE
  5
389
  8
0
  6
CONTINUOUS
 62
     3
 10
36.20739
 20
135.19183
 30
0.0
 11
36.018318
 21
135.17743
 31
0.0
  0
LINE
  5
38A
  8
0
  6
CONTINUOUS
 62
     3
 10
36.501877
 20
135.20328
 30
0.0
 11
36.20739
 21
135.19182
 31
0.0
  0
LINE
  5
38B
  8
0
  6
CONTINUOUS
 62
     3
 10
36.872952
 20
135.21063
 30
0.0
 11
36.501869
 21
135.20329
 31
0.0
  0
LINE
  5
38C
  8
0
  6
CONTINUOUS
 62
     3
 10
37.284328
 20
135.21315
 30
0.0
 11
36.872948
 21
135.21062
 31
0.0
  0
LINE
  5
38D
  8
0
  6
CONTINUOUS
 62
     3
 10
103.76211
 20
137.64206
 30
0.0
 11
105.08815
 21
137.75819
 31
0.0
  0
LINE
  5
38E
  8
0
  6
CONTINUOUS
 62
     3
 10
37.135891
 20
133.88481
 30
0.0
 11
37.284332
 21
135.21317
 31
0.0
  0
LINE
  5
38F
  8
0
  6
CONTINUOUS
 62
     3
 10
36.692268
 20
132.61005
 30
0.0
 11
37.135891
 21
133.88481
 31
0.0
  0
LINE
  5
390
  8
0
  6
CONTINUOUS
 62
     3
 10
35.975754
 20
131.46692
 30
0.0
 11
36.692276
 21
132.61005
 31
0.0
  0
LINE
  5
391
  8
0
  6
CONTINUOUS
 62
     3
 10
35.022663
 20
130.51315
 30
0.0
 11
35.975742
 21
131.46692
 31
0.0
  0
LINE
  5
392
  8
0
  6
CONTINUOUS
 62
     3
 10
33.882969
 20
129.79782
 30
0.0
 11
35.022667
 21
130.51315
 31
0.0
  0
LINE
  5
393
  8
0
  6
CONTINUOUS
 62
     3
 10
32.614368
 20
129.35574
 30
0.0
 11
33.882961
 21
129.79781
 31
0.0
  0
LINE
  5
394
  8
0
  6
CONTINUOUS
 62
     3
 10
31.294224
 20
129.20808
 30
0.0
 11
32.614376
 21
129.35574
 31
0.0
  0
LINE
  5
395
  8
0
  6
CONTINUOUS
 62
     3
 10
103.76211
 20
137.64204
 30
0.0
 11
104.21736
 21
138.8929
 31
0.0
  0
LINE
  5
396
  8
0
  6
CONTINUOUS
 62
     3
 10
90.6017
 20
154.729
 30
0.0
 11
90.6017
 21
153.49529
 31
0.0
  0
LINE
  5
397
  8
0
  6
CONTINUOUS
 62
     3
 10
90.944946
 20
147.52704
 30
0.0
 11
90.6017
 21
153.4953
 31
0.0
  0
LINE
  5
398
  8
0
  6
CONTINUOUS
 62
     3
 10
93.37014
 20
142.22862
 30
0.0
 11
94.522713
 21
141.30299
 31
0.0
  0
LINE
  5
399
  8
0
  6
CONTINUOUS
 62
     3
 10
92.401237
 20
143.35968
 30
0.0
 11
93.370148
 21
142.22862
 31
0.0
  0
LINE
  5
39A
  8
0
  6
CONTINUOUS
 62
     3
 10
91.65818
 20
144.65149
 30
0.0
 11
92.401237
 21
143.35968
 31
0.0
  0
LINE
  5
39B
  8
0
  6
CONTINUOUS
 62
     3
 10
91.166573
 20
146.06058
 30
0.0
 11
91.65818
 21
144.65149
 31
0.0
  0
LINE
  5
39C
  8
0
  6
CONTINUOUS
 62
     3
 10
90.944954
 20
147.52705
 30
0.0
 11
91.16658
 21
146.06058
 31
0.0
  0
LINE
  5
39D
  8
0
  6
CONTINUOUS
 62
     3
 10
103.76212
 20
91.415932
 30
0.0
 11
104.21737
 21
90.165108
 31
0.0
  0
LINE
  5
39E
  8
0
  6
CONTINUOUS
 62
     3
 10
94.935104
 20
87.758301
 30
0.0
 11
94.52272
 21
87.75499
 31
0.0
  0
LINE
  5
39F
  8
0
  6
CONTINUOUS
 62
     3
 10
95.306007
 20
87.767799
 30
0.0
 11
94.935104
 21
87.758293
 31
0.0
  0
LINE
  5
3A0
  8
0
  6
CONTINUOUS
 62
     3
 10
95.599991
 20
87.782608
 30
0.0
 11
95.306007
 21
87.767799
 31
0.0
  0
LINE
  5
3A1
  8
0
  6
CONTINUOUS
 62
     3
 10
95.788788
 20
87.801277
 30
0.0
 11
95.599991
 21
87.782608
 31
0.0
  0
LINE
  5
3A2
  8
0
  6
CONTINUOUS
 62
     3
 10
95.853851
 20
87.82193
 30
0.0
 11
95.788788
 21
87.80127
 31
0.0
  0
LINE
  5
3A3
  8
0
  6
CONTINUOUS
 62
     3
 10
103.76212
 20
91.415932
 30
0.0
 11
96.186836
 21
88.658775
 31
0.0
  0
LINE
  5
3A4
  8
0
  6
CONTINUOUS
 62
     3
 10
104.21735
 20
90.1651
 30
0.0
 11
96.642097
 21
87.407913
 31
0.0
  0
LINE
  5
3A5
  8
0
  6
CONTINUOUS
 62
     3
 10
93.370148
 20
86.829384
 30
0.0
 11
94.52272
 21
87.75499
 31
0.0
  0
LINE
  5
3A6
  8
0
  6
CONTINUOUS
 62
     3
 10
92.401268
 20
85.698318
 30
0.0
 11
93.370148
 21
86.829384
 31
0.0
  0
LINE
  5
3A7
  8
0
  6
CONTINUOUS
 62
     3
 10
91.658218
 20
84.406555
 30
0.0
 11
92.40126
 21
85.698318
 31
0.0
  0
LINE
  5
3A8
  8
0
  6
CONTINUOUS
 62
     3
 10
91.166573
 20
82.997429
 30
0.0
 11
91.658218
 21
84.406548
 31
0.0
  0
LINE
  5
3A9
  8
0
  6
CONTINUOUS
 62
     3
 10
90.944946
 20
81.53093
 30
0.0
 11
91.166565
 21
82.997421
 31
0.0
  0
LINE
  5
3AA
  8
0
  6
CONTINUOUS
 62
     3
 10
94.52272
 20
93.844849
 30
0.0
 11
94.52272
 21
87.754982
 31
0.0
  0
LINE
  5
3AB
  8
0
  6
CONTINUOUS
 62
     3
 10
94.52272
 20
135.21317
 30
0.0
 11
94.52272
 21
141.30299
 31
0.0
  0
LINE
  5
3AC
  8
0
  6
CONTINUOUS
 62
     3
 10
95.853844
 20
93.896545
 30
0.0
 11
95.853844
 21
87.82193
 31
0.0
  0
LINE
  5
3AD
  8
0
  6
CONTINUOUS
 62
     3
 10
95.853844
 20
135.16142
 30
0.0
 11
95.853844
 21
141.23608
 31
0.0
  0
LINE
  5
3AE
  8
0
  6
CONTINUOUS
 62
     3
 10
92.273872
 20
147.52119
 30
0.0
 11
91.930626
 21
153.4745
 31
0.0
  0
LINE
  5
3AF
  8
0
  6
CONTINUOUS
 62
     3
 10
94.934052
 20
135.21063
 30
0.0
 11
94.522713
 21
135.21317
 31
0.0
  0
LINE
  5
3B0
  8
0
  6
CONTINUOUS
 62
     3
 10
95.30513
 20
135.20329
 30
0.0
 11
94.934059
 21
135.21063
 31
0.0
  0
LINE
  5
3B1
  8
0
  6
CONTINUOUS
 62
     3
 10
95.599617
 20
135.19183
 30
0.0
 11
95.30513
 21
135.20329
 31
0.0
  0
LINE
  5
3B2
  8
0
  6
CONTINUOUS
 62
     3
 10
95.788689
 20
135.17741
 30
0.0
 11
95.599617
 21
135.19182
 31
0.0
  0
LINE
  5
3B3
  8
0
  6
CONTINUOUS
 62
     3
 10
95.853844
 20
135.16142
 30
0.0
 11
95.788689
 21
135.17741
 31
0.0
  0
LINE
  5
3B4
  8
0
  6
CONTINUOUS
 62
     3
 10
91.354729
 20
81.511421
 30
0.0
 11
90.944946
 21
81.53093
 31
0.0
  0
LINE
  5
3B5
  8
0
  6
CONTINUOUS
 62
     3
 10
91.724548
 20
81.501846
 30
0.0
 11
91.354729
 21
81.511414
 31
0.0
  0
LINE
  5
3B6
  8
0
  6
CONTINUOUS
 62
     3
 10
92.018402
 20
81.503136
 30
0.0
 11
91.724548
 21
81.501846
 31
0.0
  0
LINE
  5
3B7
  8
0
  6
CONTINUOUS
 62
     3
 10
92.207664
 20
81.515175
 30
0.0
 11
92.018394
 21
81.503136
 31
0.0
  0
LINE
  5
3B8
  8
0
  6
CONTINUOUS
 62
     3
 10
92.273872
 20
81.536804
 30
0.0
 11
92.207664
 21
81.515167
 31
0.0
  0
LINE
  5
3B9
  8
0
  6
CONTINUOUS
 62
     3
 10
100.51277
 20
99.849915
 30
0.0
 11
100.51277
 21
98.555473
 31
0.0
  0
LINE
  5
3BA
  8
0
  6
CONTINUOUS
 62
     3
 10
100.51277
 20
130.5025
 30
0.0
 11
100.51277
 21
129.2081
 31
0.0
  0
LINE
  5
3BB
  8
0
  6
CONTINUOUS
 62
     3
 10
104.72736
 20
119.42483
 30
0.0
 11
104.36739
 21
129.2081
 31
0.0
  0
LINE
  5
3BC
  8
0
  6
CONTINUOUS
 62
     3
 10
104.72736
 20
109.63314
 30
0.0
 11
104.72736
 21
119.42483
 31
0.0
  0
LINE
  5
3BD
  8
0
  6
CONTINUOUS
 62
     3
 10
104.36739
 20
99.849907
 30
0.0
 11
104.72736
 21
109.63315
 31
0.0
  0
LINE
  5
3BE
  8
0
  6
CONTINUOUS
 62
     3
 10
104.36739
 20
130.5025
 30
0.0
 11
104.36739
 21
129.2081
 31
0.0
  0
LINE
  5
3BF
  8
0
  6
CONTINUOUS
 62
     3
 10
104.36739
 20
98.555473
 30
0.0
 11
104.36739
 21
99.849915
 31
0.0
  0
LINE
  5
3C0
  8
0
  6
CONTINUOUS
 62
     3
 10
103.76211
 20
137.64206
 30
0.0
 11
96.186844
 21
140.39923
 31
0.0
  0
LINE
  5
3C1
  8
0
  6
CONTINUOUS
 62
     3
 10
96.642097
 20
141.65005
 30
0.0
 11
104.21737
 21
138.8929
 31
0.0
  0
LINE
  5
3C2
  8
0
  6
CONTINUOUS
 62
     3
 10
94.934059
 20
141.2997
 30
0.0
 11
94.52272
 21
141.30298
 31
0.0
  0
LINE
  5
3C3
  8
0
  6
CONTINUOUS
 62
     3
 10
95.30513
 20
141.29021
 30
0.0
 11
94.934059
 21
141.29971
 31
0.0
  0
LINE
  5
3C4
  8
0
  6
CONTINUOUS
 62
     3
 10
95.599617
 20
141.27541
 30
0.0
 11
95.305138
 21
141.29022
 31
0.0
  0
LINE
  5
3C5
  8
0
  6
CONTINUOUS
 62
     3
 10
95.788689
 20
141.25673
 30
0.0
 11
95.599609
 21
141.27541
 31
0.0
  0
LINE
  5
3C6
  8
0
  6
CONTINUOUS
 62
     3
 10
95.853844
 20
141.23608
 30
0.0
 11
95.788689
 21
141.25674
 31
0.0
  0
LINE
  5
3C7
  8
0
  6
CONTINUOUS
 62
     3
 10
105.69647
 20
129.24495
 30
0.0
 11
105.08815
 21
137.75818
 31
0.0
  0
LINE
  5
3C8
  8
0
  6
CONTINUOUS
 62
     3
 10
91.354736
 20
147.54659
 30
0.0
 11
90.944946
 21
147.52704
 31
0.0
  0
LINE
  5
3C9
  8
0
  6
CONTINUOUS
 62
     3
 10
91.724548
 20
147.55615
 30
0.0
 11
91.354736
 21
147.54659
 31
0.0
  0
LINE
  5
3CA
  8
0
  6
CONTINUOUS
 62
     3
 10
92.018402
 20
147.55484
 30
0.0
 11
91.724548
 21
147.55615
 31
0.0
  0
LINE
  5
3CB
  8
0
  6
CONTINUOUS
 62
     3
 10
92.207672
 20
147.5428
 30
0.0
 11
92.018402
 21
147.55484
 31
0.0
  0
LINE
  5
3CC
  8
0
  6
CONTINUOUS
 62
     3
 10
92.273872
 20
147.52119
 30
0.0
 11
92.207672
 21
147.5428
 31
0.0
  0
LINE
  5
3CD
  8
0
  6
CONTINUOUS
 62
     3
 10
90.6017
 20
153.49529
 30
0.0
 11
41.20533
 21
153.49529
 31
0.0
  0
LINE
  5
3CE
  8
0
  6
CONTINUOUS
 62
     3
 10
41.20533
 20
154.729
 30
0.0
 11
90.6017
 21
154.729
 31
0.0
  0
LINE
  5
3CF
  8
0
  6
CONTINUOUS
 62
     3
 10
91.012329
 20
153.51405
 30
0.0
 11
90.6017
 21
153.49529
 31
0.0
  0
LINE
  5
3D0
  8
0
  6
CONTINUOUS
 62
     3
 10
91.381882
 20
153.52145
 30
0.0
 11
91.012329
 21
153.51405
 31
0.0
  0
LINE
  5
3D1
  8
0
  6
CONTINUOUS
 62
     3
 10
91.675217
 20
153.51686
 30
0.0
 11
91.381882
 21
153.52147
 31
0.0
  0
LINE
  5
3D2
  8
0
  6
CONTINUOUS
 62
     3
 10
91.864288
 20
153.50066
 30
0.0
 11
91.675217
 21
153.51686
 31
0.0
  0
LINE
  5
3D3
  8
0
  6
CONTINUOUS
 62
     3
 10
91.930618
 20
153.47449
 30
0.0
 11
91.864281
 21
153.50066
 31
0.0
  0
LINE
  5
3D4
  8
0
  6
CENTER
 62
     4
 10
31.294226
 20
130.23627
 30
0.0
 11
31.294226
 21
140.08659
 31
0.0
  0
LINE
  5
3D5
  8
0
  6
CENTER
 62
     4
 10
150.94298
 20
57.902069
 30
0.0
 11
150.94298
 21
66.559868
 31
0.0
  0
LINE
  5
3D6
  8
0
  6
CONTINUOUS
 62
     3
 10
32.703499
 20
74.329002
 30
0.0
 11
83.777077
 21
74.329002
 31
0.0
  0
LINE
  5
3D7
  8
0
  6
CONTINUOUS
 62
     3
 10
147.44298
 20
64.528984
 30
0.0
 11
147.44298
 21
59.07362
 31
0.0
  0
LINE
  5
3D8
  8
0
  6
CONTINUOUS
 62
     3
 10
154.44298
 20
64.528992
 30
0.0
 11
154.44298
 21
59.07362
 31
0.0
  0
LINE
  5
3D9
  8
0
  6
CONTINUOUS
 62
     3
 10
159.33844
 20
74.328987
 30
0.0
 11
152.54297
 21
74.328987
 31
0.0
  0
LINE
  5
3DA
  8
0
  6
CONTINUOUS
 62
     3
 10
231.34297
 20
121.52898
 30
0.0
 11
254.84297
 21
121.52898
 31
0.0
  0
LINE
  5
3DB
  8
0
  6
CONTINUOUS
 62
     3
 10
135.12703
 20
74.328987
 30
0.0
 11
142.25468
 21
74.328987
 31
0.0
  0
LINE
  5
3DC
  8
0
  6
CONTINUOUS
 62
     3
 10
224.84297
 20
79.528984
 30
0.0
 11
227.84297
 21
79.528984
 31
0.0
  0
LINE
  5
3DD
  8
0
  6
CONTINUOUS
 62
     3
 10
227.84297
 20
86.528984
 30
0.0
 11
231.34297
 21
86.528984
 31
0.0
  0
LINE
  5
3DE
  8
0
  6
CONTINUOUS
 62
     3
 10
254.84297
 20
107.52898
 30
0.0
 11
254.84297
 21
121.52898
 31
0.0
  0
LINE
  5
3DF
  8
0
  6
CONTINUOUS
 62
     3
 10
231.34297
 20
107.52898
 30
0.0
 11
254.84297
 21
107.52898
 31
0.0
  0
LINE
  5
3E0
  8
0
  6
CONTINUOUS
 62
     3
 10
215.44298
 20
74.328987
 30
0.0
 11
215.44298
 21
114.52898
 31
0.0
  0
LINE
  5
3E1
  8
0
  6
CONTINUOUS
 62
     3
 10
227.84297
 20
79.528984
 30
0.0
 11
227.84297
 21
142.52899
 31
0.0
  0
LINE
  5
3E2
  8
0
  6
CONTINUOUS
 62
     3
 10
224.84297
 20
74.328987
 30
0.0
 11
224.84297
 21
149.52899
 31
0.0
  0
LINE
  5
3E3
  8
0
  6
CONTINUOUS
 62
     3
 10
224.84297
 20
149.52899
 30
0.0
 11
227.84297
 21
149.52899
 31
0.0
  0
LINE
  5
3E4
  8
0
  6
CONTINUOUS
 62
     3
 10
224.84297
 20
154.72899
 30
0.0
 11
172.34297
 21
154.72899
 31
0.0
  0
LINE
  5
3E5
  8
0
  6
CONTINUOUS
 62
     3
 10
172.34297
 20
154.72899
 30
0.0
 11
135.12703
 21
154.72899
 31
0.0
  0
LINE
  5
3E6
  8
0
  6
CONTINUOUS
 62
     3
 10
227.84297
 20
142.52899
 30
0.0
 11
231.34297
 21
142.52899
 31
0.0
  0
LINE
  5
3E7
  8
0
  6
CONTINUOUS
 62
     3
 10
160.14297
 20
74.328987
 30
0.0
 11
160.14297
 21
154.72899
 31
0.0
  0
LINE
  5
3E8
  8
0
  6
CONTINUOUS
 62
     3
 10
231.34297
 20
86.528984
 30
0.0
 11
231.34297
 21
142.52899
 31
0.0
  0
LINE
  5
3E9
  8
0
  6
CONTINUOUS
 62
     3
 10
215.44298
 20
114.52898
 30
0.0
 11
215.44298
 21
154.72899
 31
0.0
  0
LINE
  5
3EA
  8
0
  6
CONTINUOUS
 62
     3
 10
227.84297
 20
142.52899
 30
0.0
 11
227.84297
 21
149.52899
 31
0.0
  0
LINE
  5
3EB
  8
0
  6
CONTINUOUS
 62
     3
 10
224.84297
 20
149.52899
 30
0.0
 11
224.84297
 21
154.72899
 31
0.0
  0
LINE
  5
3EC
  8
0
  6
CENTER
 62
     4
 10
286.57697
 20
114.52898
 30
0.0
 11
373.65125
 21
114.52898
 31
0.0
  0
LINE
  5
3ED
  8
0
  6
CONTINUOUS
 62
     3
 10
298.64297
 20
154.72899
 30
0.0
 11
365.04297
 21
154.72899
 31
0.0
  0
LINE
  5
3EE
  8
0
  6
CONTINUOUS
 62
     3
 10
298.64297
 20
74.328987
 30
0.0
 11
365.04297
 21
74.328987
 31
0.0
  0
LINE
  5
3EF
  8
0
  6
CONTINUOUS
 62
     3
 10
291.64297
 20
81.328987
 30
0.0
 11
291.64297
 21
147.72899
 31
0.0
  0
LINE
  5
3F0
  8
0
  6
CONTINUOUS
 62
     3
 10
372.04297
 20
81.328987
 30
0.0
 11
372.04297
 21
147.72899
 31
0.0
  0
LINE
  5
3F1
  8
0
  6
CENTER
 62
     4
 10
359.46161
 20
142.1476
 30
0.0
 11
367.93491
 21
150.62093
 31
0.0
  0
LINE
  5
3F2
  8
0
  6
CENTER
 62
     4
 10
295.48035
 20
150.8916
 30
0.0
 11
304.89383
 21
141.47812
 31
0.0
  0
LINE
  5
3F3
  8
0
  6
CENTER
 62
     4
 10
295.3645
 20
78.050507
 30
0.0
 11
304.88858
 21
87.574585
 31
0.0
  0
LINE
  5
3F4
  8
0
  6
CENTER
 62
     4
 10
359.13501
 20
87.236954
 30
0.0
 11
368.71442
 21
77.657547
 31
0.0
  0
LINE
  5
3F5
  8
0
  6
CENTER
 62
     4
 10
331.84299
 20
51.3685
 30
0.0
 11
331.84299
 21
160.21689
 31
0.0
  0
LINE
  5
3F6
  8
0
  6
CONTINUOUS
 62
     3
 10
328.34299
 20
51.019913
 30
0.0
 11
328.34299
 21
54.211746
 31
0.0
  0
LINE
  5
3F7
  8
0
  6
CONTINUOUS
 62
     3
 10
335.34299
 20
51.019913
 30
0.0
 11
335.34299
 21
54.211746
 31
0.0
  0
LINE
  5
3F8
  8
0
  6
CENTER
 62
     4
 10
331.84299
 20
36.337616
 30
0.0
 11
331.84299
 21
51.3685
 31
0.0
  0
LINE
  5
3F9
  8
0
  6
CONTINUOUS
 62
     3
 10
62.403496
 20
51.219936
 30
0.0
 11
62.403496
 21
56.675308
 31
0.0
  0
LINE
  5
3FA
  8
0
  6
CONTINUOUS
 62
     3
 10
69.403496
 20
51.019913
 30
0.0
 11
69.403496
 21
56.675308
 31
0.0
  0
LINE
  5
3FB
  8
0
  6
CENTER
 62
     4
 10
65.903496
 20
43.068745
 30
0.0
 11
65.903496
 21
58.905727
 31
0.0
  0
LINE
  5
3FC
  8
0
  6
CONTINUOUS
 62
     3
 10
147.44296
 20
51.119919
 30
0.0
 11
147.44298
 21
56.575294
 31
0.0
  0
LINE
  5
3FD
  8
0
  6
CONTINUOUS
 62
     3
 10
154.44298
 20
50.919899
 30
0.0
 11
154.44299
 21
56.575294
 31
0.0
  0
LINE
  5
3FE
  8
0
  6
CENTER
 62
     4
 10
150.94298
 20
41.890839
 30
0.0
 11
150.94298
 21
57.902069
 31
0.0
  0
LINE
  5
3FF
  8
0
  6
CONTINUOUS
 62
     3
 10
60.653496
 20
30.784315
 30
0.0
 11
60.653496
 21
35.659317
 31
0.0
  0
LINE
  5
400
  8
0
  6
CONTINUOUS
 62
     3
 10
71.153496
 20
30.784315
 30
0.0
 11
71.153496
 21
35.659317
 31
0.0
  0
LINE
  5
401
  8
0
  6
CONTINUOUS
 62
     3
 10
67.915794
 20
25.909315
 30
0.0
 11
70.403496
 21
25.909315
 31
0.0
  0
LINE
  5
402
  8
0
  6
CONTINUOUS
 62
     3
 10
64.639488
 20
25.909315
 30
0.0
 11
67.165794
 21
25.909315
 31
0.0
  0
LINE
  5
403
  8
0
  6
CONTINUOUS
 62
     3
 10
64.628502
 20
25.909315
 30
0.0
 11
64.628502
 21
30.784315
 31
0.0
  0
LINE
  5
404
  8
0
  6
CONTINUOUS
 62
     3
 10
63.953499
 20
25.909315
 30
0.0
 11
63.953499
 21
30.784315
 31
0.0
  0
LINE
  5
405
  8
0
  6
CONTINUOUS
 62
     3
 10
67.853508
 20
25.909315
 30
0.0
 11
67.853508
 21
30.784315
 31
0.0
  0
LINE
  5
406
  8
0
  6
CONTINUOUS
 62
     3
 10
70.403496
 20
25.909315
 30
0.0
 11
70.403496
 21
30.784315
 31
0.0
  0
LINE
  5
407
  8
0
  6
CONTINUOUS
 62
     3
 10
61.403496
 20
25.909315
 30
0.0
 11
61.403496
 21
30.784315
 31
0.0
  0
LINE
  5
408
  8
0
  6
CONTINUOUS
 62
     3
 10
61.403496
 20
25.909315
 30
0.0
 11
63.889488
 21
25.909315
 31
0.0
  0
LINE
  5
409
  8
0
  6
CONTINUOUS
 62
     3
 10
71.153496
 20
30.784315
 30
0.0
 11
60.653496
 21
30.784315
 31
0.0
  0
LINE
  5
40A
  8
0
  6
CONTINUOUS
 62
     3
 10
59.228508
 20
35.659317
 30
0.0
 11
72.578499
 21
35.659317
 31
0.0
  0
LINE
  5
40B
  8
0
  6
CONTINUOUS
 62
     3
 10
59.373177
 20
39.581764
 30
0.0
 11
61.55883
 21
41.767426
 31
0.0
  0
LINE
  5
40C
  8
0
  6
CONTINUOUS
 62
     3
 10
72.433823
 20
39.58176
 30
0.0
 11
70.248169
 21
41.767422
 31
0.0
  0
LINE
  5
40D
  8
0
  6
CONTINUOUS
 62
     3
 10
70.028496
 20
42.297756
 30
0.0
 11
70.028496
 21
50.369923
 31
0.0
  0
LINE
  5
40E
  8
0
  6
CONTINUOUS
 62
     3
 10
61.778496
 20
50.369923
 30
0.0
 11
61.778496
 21
42.297756
 31
0.0
  0
LINE
  5
40F
  8
0
  6
CONTINUOUS
 62
     3
 10
72.653496
 20
35.734314
 30
0.0
 11
72.653496
 21
39.051437
 31
0.0
  0
LINE
  5
410
  8
0
  6
CONTINUOUS
 62
     3
 10
59.153496
 20
35.734314
 30
0.0
 11
59.153496
 21
39.051437
 31
0.0
  0
LINE
  5
411
  8
0
  6
CONTINUOUS
 62
     3
 10
69.278496
 20
51.119923
 30
0.0
 11
62.528496
 21
51.119923
 31
0.0
  0
LINE
  5
412
  8
0
  6
CONTINUOUS
 62
     3
 10
157.69298
 20
41.890839
 30
0.0
 11
144.19298
 21
41.890839
 31
0.0
  0
LINE
  5
413
  8
0
  6
CONTINUOUS
 62
     3
 10
157.69298
 20
39.190781
 30
0.0
 11
144.19298
 21
39.190781
 31
0.0
  0
LINE
  5
414
  8
0
  6
CONTINUOUS
 62
     3
 10
157.69298
 20
51.019913
 30
0.0
 11
144.19298
 21
51.019913
 31
0.0
  0
LINE
  5
415
  8
0
  6
CONTINUOUS
 62
     3
 10
157.69298
 20
35.559303
 30
0.0
 11
144.19298
 21
35.559303
 31
0.0
  0
LINE
  5
416
  8
0
  6
CONTINUOUS
 62
     3
 10
157.69298
 20
35.559303
 30
0.0
 11
157.69298
 21
51.019913
 31
0.0
  0
LINE
  5
417
  8
0
  6
CONTINUOUS
 62
     3
 10
144.19298
 20
35.559303
 30
0.0
 11
144.19298
 21
51.019913
 31
0.0
  0
LINE
  5
418
  8
0
  6
CONTINUOUS
 62
     3
 10
145.69298
 20
30.684301
 30
0.0
 11
145.69298
 21
35.559303
 31
0.0
  0
LINE
  5
419
  8
0
  6
CONTINUOUS
 62
     3
 10
156.19298
 20
30.684301
 30
0.0
 11
156.19298
 21
35.559303
 31
0.0
  0
LINE
  5
41A
  8
0
  6
CONTINUOUS
 62
     3
 10
154.31798
 20
51.019913
 30
0.0
 11
147.56798
 21
51.019913
 31
0.0
  0
LINE
  5
41B
  8
0
  6
CONTINUOUS
 62
     3
 10
152.95526
 20
25.809301
 30
0.0
 11
155.44298
 21
25.809301
 31
0.0
  0
LINE
  5
41C
  8
0
  6
CONTINUOUS
 62
     3
 10
155.27048
 20
25.809301
 30
0.0
 11
155.27048
 21
30.684301
 31
0.0
  0
LINE
  5
41D
  8
0
  6
CONTINUOUS
 62
     3
 10
152.89297
 20
25.809301
 30
0.0
 11
152.89297
 21
30.684301
 31
0.0
  0
LINE
  5
41E
  8
0
  6
CONTINUOUS
 62
     3
 10
152.21797
 20
25.809301
 30
0.0
 11
152.21797
 21
30.684301
 31
0.0
  0
LINE
  5
41F
  8
0
  6
CONTINUOUS
 62
     3
 10
149.66797
 20
25.809301
 30
0.0
 11
149.66797
 21
30.684301
 31
0.0
  0
LINE
  5
420
  8
0
  6
CONTINUOUS
 62
     3
 10
148.99298
 20
25.809301
 30
0.0
 11
148.99298
 21
30.684301
 31
0.0
  0
LINE
  5
421
  8
0
  6
CONTINUOUS
 62
     3
 10
146.44298
 20
25.809301
 30
0.0
 11
148.92896
 21
25.809301
 31
0.0
  0
LINE
  5
422
  8
0
  6
CONTINUOUS
 62
     3
 10
149.67896
 20
25.809301
 30
0.0
 11
152.20526
 21
25.809301
 31
0.0
  0
LINE
  5
423
  8
0
  6
CONTINUOUS
 62
     3
 10
146.44298
 20
25.809301
 30
0.0
 11
146.44298
 21
30.684301
 31
0.0
  0
LINE
  5
424
  8
0
  6
CONTINUOUS
 62
     3
 10
156.19298
 20
30.684301
 30
0.0
 11
145.69298
 21
30.684301
 31
0.0
  0
LINE
  5
425
  8
0
  6
CONTINUOUS
 62
     3
 10
326.48315
 20
30.684301
 30
0.0
 11
326.48315
 21
35.559303
 31
0.0
  0
LINE
  5
426
  8
0
  6
CONTINUOUS
 62
     3
 10
336.98315
 20
30.684301
 30
0.0
 11
336.98315
 21
35.559303
 31
0.0
  0
LINE
  5
427
  8
0
  6
CONTINUOUS
 62
     3
 10
327.23315
 20
25.809301
 30
0.0
 11
327.23315
 21
30.684301
 31
0.0
  0
LINE
  5
428
  8
0
  6
CONTINUOUS
 62
     3
 10
327.23315
 20
25.809301
 30
0.0
 11
329.71912
 21
25.809301
 31
0.0
  0
LINE
  5
429
  8
0
  6
CONTINUOUS
 62
     3
 10
329.78314
 20
25.809301
 30
0.0
 11
329.78314
 21
30.684301
 31
0.0
  0
LINE
  5
42A
  8
0
  6
CONTINUOUS
 62
     3
 10
330.45813
 20
25.809301
 30
0.0
 11
330.45813
 21
30.684301
 31
0.0
  0
LINE
  5
42B
  8
0
  6
CONTINUOUS
 62
     3
 10
336.23315
 20
25.809301
 30
0.0
 11
336.23315
 21
30.684301
 31
0.0
  0
LINE
  5
42C
  8
0
  6
CONTINUOUS
 62
     3
 10
324.98315
 20
35.634308
 30
0.0
 11
324.98315
 21
38.951424
 31
0.0
  0
LINE
  5
42D
  8
0
  6
CONTINUOUS
 62
     3
 10
325.20282
 20
39.481754
 30
0.0
 11
327.38846
 21
41.6674
 31
0.0
  0
LINE
  5
42E
  8
0
  6
CONTINUOUS
 62
     3
 10
338.26346
 20
39.481762
 30
0.0
 11
336.07782
 21
41.667423
 31
0.0
  0
LINE
  5
42F
  8
0
  6
CONTINUOUS
 62
     3
 10
338.48315
 20
35.634308
 30
0.0
 11
338.48315
 21
38.951424
 31
0.0
  0
LINE
  5
430
  8
0
  6
CONTINUOUS
 62
     3
 10
336.98315
 20
30.684301
 30
0.0
 11
326.48315
 21
30.684301
 31
0.0
  0
LINE
  5
431
  8
0
  6
CONTINUOUS
 62
     3
 10
330.46912
 20
25.809301
 30
0.0
 11
332.99542
 21
25.809301
 31
0.0
  0
LINE
  5
432
  8
0
  6
CONTINUOUS
 62
     3
 10
333.00815
 20
25.809301
 30
0.0
 11
333.00815
 21
30.684301
 31
0.0
  0
LINE
  5
433
  8
0
  6
CONTINUOUS
 62
     3
 10
333.68314
 20
25.809301
 30
0.0
 11
333.68314
 21
30.684301
 31
0.0
  0
LINE
  5
434
  8
0
  6
CONTINUOUS
 62
     3
 10
333.74542
 20
25.809301
 30
0.0
 11
336.23315
 21
25.809301
 31
0.0
  0
LINE
  5
435
  8
0
  6
CONTINUOUS
 62
     3
 10
335.85815
 20
42.197746
 30
0.0
 11
335.85815
 21
50.269913
 31
0.0
  0
LINE
  5
436
  8
0
  6
CONTINUOUS
 62
     3
 10
325.05814
 20
35.559303
 30
0.0
 11
338.40814
 21
35.559303
 31
0.0
  0
LINE
  5
437
  8
0
  6
CONTINUOUS
 62
     3
 10
327.60815
 20
50.269913
 30
0.0
 11
327.60815
 21
42.197746
 31
0.0
  0
LINE
  5
438
  8
0
  6
CONTINUOUS
 62
     3
 10
335.10815
 20
51.019913
 30
0.0
 11
328.35815
 21
51.019913
 31
0.0
  0
LINE
  5
439
  8
0
  6
CONTINUOUS
 62
     3
 10
254.84297
 20
107.52898
 30
0.0
 11
254.84297
 21
121.52898
 31
0.0
  0
LINE
  5
43A
  8
0
  6
CONTINUOUS
 62
     3
 10
160.14297
 20
72.328987
 30
0.0
 11
173.14297
 21
72.328987
 31
0.0
  0
LINE
  5
43B
  8
0
  6
CONTINUOUS
 62
     3
 10
162.09297
 20
59.528988
 30
0.0
 11
169.99298
 21
59.528988
 31
0.0
  0
LINE
  5
43C
  8
0
  6
CONTINUOUS
 62
     3
 10
161.09297
 20
60.528988
 30
0.0
 11
170.99298
 21
60.528988
 31
0.0
  0
LINE
  5
43D
  8
0
  6
CONTINUOUS
 62
     3
 10
161.09297
 20
70.128983
 30
0.0
 11
170.99298
 21
70.128983
 31
0.0
  0
LINE
  5
43E
  8
0
  6
CONTINUOUS
 62
     3
 10
162.14297
 20
70.128983
 30
0.0
 11
162.14297
 21
72.328987
 31
0.0
  0
LINE
  5
43F
  8
0
  6
CONTINUOUS
 62
     3
 10
169.94298
 20
70.128983
 30
0.0
 11
169.94298
 21
72.328987
 31
0.0
  0
LINE
  5
440
  8
0
  6
CONTINUOUS
 62
     3
 10
161.09297
 20
60.528988
 30
0.0
 11
161.09297
 21
70.128983
 31
0.0
  0
LINE
  5
441
  8
0
  6
CONTINUOUS
 62
     3
 10
170.99298
 20
60.528988
 30
0.0
 11
170.99298
 21
70.128983
 31
0.0
  0
LINE
  5
442
  8
0
  6
CONTINUOUS
 62
     3
 10
160.14297
 20
74.328987
 30
0.0
 11
160.14297
 21
72.328987
 31
0.0
  0
LINE
  5
443
  8
0
  6
CONTINUOUS
 62
     3
 10
173.14297
 20
74.328987
 30
0.0
 11
173.14297
 21
72.328987
 31
0.0
  0
LINE
  5
444
  8
0
  6
CONTINUOUS
 62
     3
 10
167.18298
 20
59.528988
 30
0.0
 11
167.18298
 21
56.595379
 31
0.0
  0
LINE
  5
445
  8
0
  6
CENTER
 62
     4
 10
166.04297
 20
55.491211
 30
0.0
 11
166.04298
 21
76.660889
 31
0.0
  0
LINE
  5
446
  8
0
  6
CONTINUOUS
 62
     3
 10
164.90298
 20
59.528984
 30
0.0
 11
164.90298
 21
56.601082
 31
0.0
  0
LINE
  5
447
  8
0
  6
CONTINUOUS
 62
     3
 10
319.84299
 20
72.328987
 30
0.0
 11
343.84299
 21
72.328987
 31
0.0
  0
LINE
  5
448
  8
0
  6
CONTINUOUS
 62
     3
 10
321.84299
 20
70.128983
 30
0.0
 11
341.84299
 21
70.128983
 31
0.0
  0
LINE
  5
449
  8
0
  6
CONTINUOUS
 62
     3
 10
322.84299
 20
59.528988
 30
0.0
 11
340.84299
 21
59.528988
 31
0.0
  0
LINE
  5
44A
  8
0
  6
CONTINUOUS
 62
     3
 10
321.84299
 20
60.528988
 30
0.0
 11
341.84299
 21
60.528988
 31
0.0
  0
LINE
  5
44B
  8
0
  6
CONTINUOUS
 62
     3
 10
319.84299
 20
72.328987
 30
0.0
 11
319.84299
 21
74.328987
 31
0.0
  0
LINE
  5
44C
  8
0
  6
CONTINUOUS
 62
     3
 10
343.84299
 20
72.328987
 30
0.0
 11
343.84299
 21
74.328987
 31
0.0
  0
LINE
  5
44D
  8
0
  6
CONTINUOUS
 62
     3
 10
340.84299
 20
70.128983
 30
0.0
 11
340.84299
 21
72.328987
 31
0.0
  0
LINE
  5
44E
  8
0
  6
CONTINUOUS
 62
     3
 10
322.84299
 20
70.128983
 30
0.0
 11
322.84299
 21
72.328987
 31
0.0
  0
LINE
  5
44F
  8
0
  6
CONTINUOUS
 62
     3
 10
341.84299
 20
60.528988
 30
0.0
 11
341.84299
 21
70.128983
 31
0.0
  0
LINE
  5
450
  8
0
  6
CONTINUOUS
 62
     3
 10
321.84299
 20
60.528988
 30
0.0
 11
321.84299
 21
70.128983
 31
0.0
  0
LINE
  5
451
  8
0
  6
CONTINUOUS
 62
     3
 10
324.70297
 20
59.528988
 30
0.0
 11
324.70297
 21
56.601086
 31
0.0
  0
LINE
  5
452
  8
0
  6
CONTINUOUS
 62
     3
 10
328.70297
 20
59.528988
 30
0.0
 11
328.70297
 21
56.601086
 31
0.0
  0
LINE
  5
453
  8
0
  6
CONTINUOUS
 62
     3
 10
330.98297
 20
59.528988
 30
0.0
 11
330.98297
 21
56.595379
 31
0.0
  0
LINE
  5
454
  8
0
  6
CONTINUOUS
 62
     3
 10
326.98297
 20
59.528988
 30
0.0
 11
326.98297
 21
56.595379
 31
0.0
  0
LINE
  5
455
  8
0
  6
CONTINUOUS
 62
     3
 10
334.98297
 20
59.528988
 30
0.0
 11
334.98297
 21
56.595379
 31
0.0
  0
LINE
  5
456
  8
0
  6
CONTINUOUS
 62
     3
 10
332.70297
 20
59.528988
 30
0.0
 11
332.70297
 21
56.601086
 31
0.0
  0
LINE
  5
457
  8
0
  6
CONTINUOUS
 62
     3
 10
336.70297
 20
59.528988
 30
0.0
 11
336.70297
 21
56.601086
 31
0.0
  0
LINE
  5
458
  8
0
  6
CONTINUOUS
 62
     3
 10
338.98297
 20
59.528988
 30
0.0
 11
338.98297
 21
56.595379
 31
0.0
  0
ARC
  5
459
  8
0
  6
CONTINUOUS
 62
     3
 10
344.37265
 20
65.529343
 30
0.0
 40
0.999998
 50
270.0
 51
349.99926
  0
ARC
  5
45A
  8
0
  6
CONTINUOUS
 62
     3
 10
319.31329
 20
65.529343
 30
0.0
 40
1.000003
 50
190.00066
 51
270.0
  0
CIRCLE
  5
45B
  8
0
  6
CONTINUOUS
 62
     3
 10
352.84299
 20
149.52899
 30
0.0
 40
1.0
  0
CIRCLE
  5
45C
  8
0
  6
CONTINUOUS
 62
     3
 10
352.84299
 20
149.52899
 30
0.0
 40
1.5
  0
CIRCLE
  5
45D
  8
0
  6
CONTINUOUS
 62
     3
 10
352.84299
 20
79.528984
 30
0.0
 40
1.0
  0
CIRCLE
  5
45E
  8
0
  6
CONTINUOUS
 62
     3
 10
352.84299
 20
79.528984
 30
0.0
 40
1.5
  0
CIRCLE
  5
45F
  8
0
  6
CONTINUOUS
 62
     3
 10
310.84299
 20
149.52899
 30
0.0
 40
1.0
  0
CIRCLE
  5
460
  8
0
  6
CONTINUOUS
 62
     3
 10
310.84299
 20
149.52899
 30
0.0
 40
1.5
  0
CIRCLE
  5
461
  8
0
  6
CONTINUOUS
 62
     3
 10
310.84299
 20
79.528984
 30
0.0
 40
1.0
  0
CIRCLE
  5
462
  8
0
  6
CONTINUOUS
 62
     3
 10
310.84299
 20
79.528984
 30
0.0
 40
1.5
  0
ARC
  5
463
  8
0
  6
CONTINUOUS
 62
     3
 10
137.18402
 20
132.55597
 30
0.0
 40
0.5
 50
180.00001
 51
270.0
  0
ARC
  5
464
  8
0
  6
CONTINUOUS
 62
     3
 10
137.18402
 20
137.55597
 30
0.0
 40
0.5
 50
90.000003
 51
180.00001
  0
ARC
  5
465
  8
0
  6
CONTINUOUS
 62
     3
 10
137.18402
 20
91.335243
 30
0.0
 40
0.5
 50
180.00001
 51
270.0
  0
ARC
  5
466
  8
0
  6
CONTINUOUS
 62
     3
 10
137.18402
 20
96.335243
 30
0.0
 40
0.5
 50
90.000003
 51
180.00001
  0
CIRCLE
  5
467
  8
0
  6
CONTINUOUS
 62
     3
 10
331.84299
 20
114.52898
 30
0.0
 40
15.0
  0
ARC
  5
468
  8
0
  6
CONTINUOUS
 62
     3
 10
142.21109
 20
72.828987
 30
0.0
 40
1.5
 50
5.000004
 51
90.000003
  0
ARC
  5
469
  8
0
  6
CONTINUOUS
 62
     3
 10
145.35931
 20
65.528984
 30
0.0
 40
1.0
 50
184.99991
 51
270.0
  0
ARC
  5
46A
  8
0
  6
CONTINUOUS
 62
     3
 10
158.44298
 20
72.828987
 30
0.0
 40
1.5
 50
90.000003
 51
180.00001
  0
ARC
  5
46B
  8
0
  6
CONTINUOUS
 62
     3
 10
155.94298
 20
65.528984
 30
0.0
 40
1.0
 50
270.0
 51
0.0
  0
ARC
  5
46C
  8
0
  6
CONTINUOUS
 62
     3
 10
135.12703
 20
153.72899
 30
0.0
 40
1.0
 50
90.000003
 51
176.24781
  0
ARC
  5
46D
  8
0
  6
CONTINUOUS
 62
     3
 10
83.434341
 20
71.348625
 30
0.0
 40
3.95
 50
131.0162
 51
170.00029
  0
CIRCLE
  5
46E
  8
0
  6
CONTINUOUS
 62
     3
 10
331.84299
 20
114.52898
 30
0.0
 40
28.0
  0
ARC
  5
46F
  8
0
  6
CONTINUOUS
 62
     3
 10
48.372658
 20
71.348625
 30
0.0
 40
3.95
 50
8.747702
 51
48.983713
  0
ARC
  5
470
  8
0
  6
CONTINUOUS
 62
     3
 10
135.12703
 20
75.328987
 30
0.0
 40
1.0
 50
183.75219
 51
270.0
  0
ARC
  5
471
  8
0
  6
CENTER
 62
     4
 10
65.903496
 20
114.52898
 30
0.0
 40
45.0
 50
126.81246
 51
144.64283
  0
CIRCLE
  5
472
  8
0
  6
CONTINUOUS
 62
     3
 10
34.083702
 20
146.34879
 30
0.0
 40
3.3
  0
ARC
  5
473
  8
0
  6
CONTINUOUS
 62
     3
 10
32.703499
 20
147.72899
 30
0.0
 40
7.0
 50
90.000003
 51
180.00001
  0
ARC
  5
474
  8
0
  6
CENTER
 62
     4
 10
65.903496
 20
114.52898
 30
0.0
 40
45.0
 50
36.94869
 51
52.918571
  0
CIRCLE
  5
475
  8
0
  6
CONTINUOUS
 62
     3
 10
97.723305
 20
146.34879
 30
0.0
 40
3.3
  0
CIRCLE
  5
476
  8
0
  6
CONTINUOUS
 62
     3
 10
97.723305
 20
146.34879
 30
0.0
 40
3.3
  0
ARC
  5
477
  8
0
  6
CONTINUOUS
 62
     3
 10
99.1035
 20
147.72899
 30
0.0
 40
7.0
 50
0.0
 51
90.000003
  0
ARC
  5
478
  8
0
  6
CENTER
 62
     4
 10
65.903496
 20
114.52898
 30
0.0
 40
45.0
 50
303.32772
 51
325.37911
  0
CIRCLE
  5
479
  8
0
  6
CONTINUOUS
 62
     3
 10
97.723305
 20
82.709183
 30
0.0
 40
3.3
  0
ARC
  5
47A
  8
0
  6
CONTINUOUS
 62
     3
 10
99.1035
 20
81.328987
 30
0.0
 40
7.0
 50
270.0
 51
0.0
  0
ARC
  5
47B
  8
0
  6
CENTER
 62
     4
 10
65.903496
 20
114.52898
 30
0.0
 40
45.0
 50
215.44824
 51
236.12937
  0
CIRCLE
  5
47C
  8
0
  6
CONTINUOUS
 62
     3
 10
34.083702
 20
82.709183
 30
0.0
 40
3.3
  0
ARC
  5
47D
  8
0
  6
CONTINUOUS
 62
     3
 10
32.703499
 20
81.328987
 30
0.0
 40
7.0
 50
180.00001
 51
270.0
  0
CIRCLE
  5
47E
  8
0
  6
CONTINUOUS
 62
     3
 10
31.294226
 20
135.16142
 30
0.0
 40
2.75
  0
ARC
  5
47F
  8
0
  6
CONTINUOUS
 62
     3
 10
298.64297
 20
147.72899
 30
0.0
 40
7.0
 50
90.000003
 51
180.00001
  0
ARC
  5
480
  8
0
  6
CONTINUOUS
 62
     3
 10
83.434341
 20
71.348625
 30
0.0
 40
2.999994
 50
90.000003
 51
170.00032
  0
ARC
  5
481
  8
0
  6
CONTINUOUS
 62
     3
 10
91.199043
 20
75.027321
 30
0.0
 40
0.698323
 50
270.0
 51
356.69989
  0
ARC
  5
482
  8
0
  6
CONTINUOUS
 62
     3
 10
40.607964
 20
75.027321
 30
0.0
 40
0.698323
 50
183.30011
 51
270.0
  0
ARC
  5
483
  8
0
  6
CONTINUOUS
 62
     3
 10
48.372658
 20
71.348625
 30
0.0
 40
3.0
 50
9.999682
 51
90.000003
  0
ARC
  5
484
  8
0
  6
CONTINUOUS
 62
     3
 10
53.457054
 20
65.548615
 30
0.0
 40
0.999999
 50
189.99923
 51
270.0
  0
ARC
  5
485
  8
0
  6
CONTINUOUS
 62
     3
 10
78.322845
 20
65.548615
 30
0.0
 40
0.999998
 50
270.0
 51
350.00077
  0
ARC
  5
486
  8
0
  6
CONTINUOUS
 62
     3
 10
83.407265
 20
71.348625
 30
0.0
 40
2.999994
 50
90.000003
 51
170.00032
  0
ARC
  5
487
  8
0
  6
CONTINUOUS
 62
     4
 10
67.639946
 20
62.024323
 30
0.0
 40
3.5
 50
240.00001
 51
299.99999
  0
ARC
  5
488
  8
0
  6
CONTINUOUS
 62
     4
 10
64.139946
 20
55.962143
 30
0.0
 40
3.5
 50
60.000008
 51
119.99999
  0
ARC
  5
489
  8
0
  6
CONTINUOUS
 62
     4
 10
64.139946
 20
62.024323
 30
0.0
 40
3.5
 50
240.00001
 51
299.99999
  0
ARC
  5
48A
  8
0
  6
CONTINUOUS
 62
     3
 10
98.918465
 20
147.90431
 30
0.0
 40
7.986745
 50
247.43611
 51
249.99999
  0
ARC
  5
48B
  8
0
  6
CONTINUOUS
 62
     3
 10
-160.12166
 20
114.52898
 30
0.0
 40
264.89404
 50
3.45712
 51
5.00565
  0
ARC
  5
48C
  8
0
  6
CONTINUOUS
 62
     3
 10
291.92868
 20
114.52898
 30
0.0
 40
264.89407
 50
174.99435
 51
176.54288
  0
ARC
  5
48D
  8
0
  6
CONTINUOUS
 62
     3
 10
-160.12166
 20
114.52898
 30
0.0
 40
264.89404
 50
354.99435
 51
356.54288
  0
ARC
  5
48E
  8
0
  6
CONTINUOUS
 62
     3
 10
98.918465
 20
81.153671
 30
0.0
 40
7.986765
 50
109.9999
 51
112.56383
  0
ARC
  5
48F
  8
0
  6
CONTINUOUS
 62
     3
 10
32.888542
 20
147.90431
 30
0.0
 40
7.986733
 50
289.99993
 51
292.56392
  0
ARC
  5
490
  8
0
  6
CONTINUOUS
 62
     3
 10
291.92868
 20
114.52898
 30
0.0
 40
264.89407
 50
183.45712
 51
185.00565
  0
ARC
  5
491
  8
0
  6
CONTINUOUS
 62
     3
 10
32.888542
 20
81.153671
 30
0.0
 40
7.986777
 50
67.436199
 51
70.000075
  0
ARC
  5
492
  8
0
  6
CONTINUOUS
 62
     3
 10
98.918465
 20
147.90431
 30
0.0
 40
6.655629
 50
183.29988
 51
249.99999
  0
ARC
  5
493
  8
0
  6
CONTINUOUS
 62
     3
 10
103.76211
 20
137.64204
 30
0.0
 40
1.331128
 50
5.005323
 51
70.000819
  0
ARC
  5
494
  8
0
  6
CONTINUOUS
 62
     3
 10
-160.12166
 20
114.52898
 30
0.0
 40
266.22516
 50
354.99435
 51
5.005649
  0
ARC
  5
495
  8
0
  6
CONTINUOUS
 62
     3
 10
103.76211
 20
91.415932
 30
0.0
 40
1.331097
 50
289.99965
 51
354.9946
  0
ARC
  5
496
  8
0
  6
CONTINUOUS
 62
     3
 10
98.918465
 20
81.153671
 30
0.0
 40
6.655636
 50
110.00005
 51
176.69985
  0
ARC
  5
497
  8
0
  6
CONTINUOUS
 62
     3
 10
94.52272
 20
87.82193
 30
0.0
 40
1.331127
 50
303.3921
 51
0.0
  0
ARC
  5
498
  8
0
  6
CONTINUOUS
 62
     3
 10
100.51277
 20
93.896545
 30
0.0
 40
4.658931
 50
90.000003
 51
180.00001
  0
ARC
  5
499
  8
0
  6
CONTINUOUS
 62
     3
 10
104.36739
 20
99.886597
 30
0.0
 40
1.331123
 50
270.0
 51
356.83162
  0
ARC
  5
49A
  8
0
  6
CONTINUOUS
 62
     3
 10
104.36739
 20
129.17137
 30
0.0
 40
1.331129
 50
3.168299
 51
90.000003
  0
ARC
  5
49B
  8
0
  6
CONTINUOUS
 62
     3
 10
100.51277
 20
135.16142
 30
0.0
 40
4.658931
 50
180.00001
 51
270.0
  0
ARC
  5
49C
  8
0
  6
CONTINUOUS
 62
     3
 10
94.52272
 20
141.23608
 30
0.0
 40
1.331123
 50
0.0
 51
56.607037
  0
ARC
  5
49D
  8
0
  6
CONTINUOUS
 62
     3
 10
90.6017
 20
153.39789
 30
0.0
 40
1.331132
 50
3.299527
 51
90.000003
  0
ARC
  5
49E
  8
0
  6
CONTINUOUS
 62
     3
 10
41.20533
 20
153.39789
 30
0.0
 40
1.331123
 50
90.000003
 51
176.70045
  0
ARC
  5
49F
  8
0
  6
CONTINUOUS
 62
     3
 10
32.888542
 20
147.90431
 30
0.0
 40
6.655636
 50
290.00004
 51
356.70013
  0
ARC
  5
4A0
  8
0
  6
CONTINUOUS
 62
     3
 10
37.284325
 20
141.23608
 30
0.0
 40
1.331117
 50
123.39451
 51
180.00001
  0
ARC
  5
4A1
  8
0
  6
CONTINUOUS
 62
     3
 10
31.294226
 20
135.16142
 30
0.0
 40
4.658931
 50
270.0
 51
0.0
  0
ARC
  5
4A2
  8
0
  6
CONTINUOUS
 62
     3
 10
291.92868
 20
114.52898
 30
0.0
 40
266.22516
 50
174.99435
 51
185.00565
  0
ARC
  5
4A3
  8
0
  6
CONTINUOUS
 62
     3
 10
27.439611
 20
129.17137
 30
0.0
 40
1.331123
 50
90.000003
 51
176.83169
  0
ARC
  5
4A4
  8
0
  6
CONTINUOUS
 62
     3
 10
28.044897
 20
137.64204
 30
0.0
 40
1.331129
 50
109.99949
 51
174.99451
  0
ARC
  5
4A5
  8
0
  6
CONTINUOUS
 62
     3
 10
27.439611
 20
99.886597
 30
0.0
 40
1.331129
 50
183.1684
 51
270.0
  0
ARC
  5
4A6
  8
0
  6
CONTINUOUS
 62
     3
 10
31.294226
 20
93.896545
 30
0.0
 40
4.658931
 50
0.0
 51
90.000003
  0
ARC
  5
4A7
  8
0
  6
CONTINUOUS
 62
     3
 10
37.284325
 20
87.82193
 30
0.0
 40
1.331157
 50
180.00001
 51
236.6065
  0
ARC
  5
4A8
  8
0
  6
CONTINUOUS
 62
     3
 10
32.888542
 20
81.153671
 30
0.0
 40
6.655631
 50
3.300152
 51
70.000061
  0
ARC
  5
4A9
  8
0
  6
CONTINUOUS
 62
     3
 10
28.044897
 20
91.415932
 30
0.0
 40
1.331094
 50
185.00547
 51
250.0
  0
ARC
  5
4AA
  8
0
  6
CONTINUOUS
 62
     4
 10
149.19298
 20
56.04253
 30
0.0
 40
3.5
 50
60.000008
 51
119.99999
  0
ARC
  5
4AB
  8
0
  6
CONTINUOUS
 62
     4
 10
149.19298
 20
62.10471
 30
0.0
 40
3.5
 50
240.00001
 51
299.99999
  0
ARC
  5
4AC
  8
0
  6
CONTINUOUS
 62
     4
 10
152.69298
 20
62.10471
 30
0.0
 40
3.5
 50
240.00001
 51
299.99999
  0
CIRCLE
  5
4AD
  8
0
  6
CONTINUOUS
 62
     3
 10
331.84299
 20
114.52898
 30
0.0
 40
7.0
  0
ARC
  5
4AE
  8
0
  6
CONTINUOUS
 62
     3
 10
732.84296
 20
114.52898
 30
0.0
 40
600.0
 50
176.24774
 51
183.75225
  0
CIRCLE
  5
4AF
  8
0
  6
CONTINUOUS
 62
     3
 10
331.84299
 20
114.52898
 30
0.0
 40
35.0
  0
ARC
  5
4B0
  8
0
  6
CONTINUOUS
 62
     3
 10
365.04297
 20
147.72899
 30
0.0
 40
7.0
 50
0.0
 51
90.000003
  0
ARC
  5
4B1
  8
0
  6
CONTINUOUS
 62
     3
 10
298.64297
 20
81.328987
 30
0.0
 40
7.0
 50
180.00001
 51
270.0
  0
ARC
  5
4B2
  8
0
  6
CONTINUOUS
 62
     3
 10
365.04297
 20
81.328987
 30
0.0
 40
7.0
 50
270.0
 51
0.0
  0
CIRCLE
  5
4B3
  8
0
  6
CONTINUOUS
 62
     3
 10
363.66278
 20
146.34879
 30
0.0
 40
3.3
  0
CIRCLE
  5
4B4
  8
0
  6
CONTINUOUS
 62
     3
 10
363.66278
 20
146.34879
 30
0.0
 40
3.3
  0
CIRCLE
  5
4B5
  8
0
  6
CONTINUOUS
 62
     3
 10
300.02316
 20
146.34879
 30
0.0
 40
3.3
  0
CIRCLE
  5
4B6
  8
0
  6
CONTINUOUS
 62
     3
 10
300.02316
 20
82.709183
 30
0.0
 40
3.3
  0
CIRCLE
  5
4B7
  8
0
  6
CONTINUOUS
 62
     3
 10
363.66278
 20
82.709183
 30
0.0
 40
3.3
  0
ARC
  5
4B8
  8
0
  6
CENTER
 62
     4
 10
331.84299
 20
114.52898
 30
0.0
 40
45.0
 50
36.948697
 51
52.918578
  0
ARC
  5
4B9
  8
0
  6
CENTER
 62
     4
 10
331.84299
 20
114.52898
 30
0.0
 40
45.0
 50
126.81249
 51
144.64285
  0
ARC
  5
4BA
  8
0
  6
CENTER
 62
     4
 10
331.84299
 20
114.52898
 30
0.0
 40
45.0
 50
215.44824
 51
236.12937
  0
ARC
  5
4BB
  8
0
  6
CENTER
 62
     4
 10
331.84299
 20
114.52898
 30
0.0
 40
45.0
 50
303.32771
 51
325.3791
  0
ARC
  5
4BC
  8
0
  6
CONTINUOUS
 62
     4
 10
330.09299
 20
51.180656
 30
0.0
 40
3.5
 50
60.000008
 51
119.99999
  0
ARC
  5
4BD
  8
0
  6
CONTINUOUS
 62
     4
 10
333.59299
 20
57.242836
 30
0.0
 40
3.5
 50
240.00001
 51
299.99999
  0
ARC
  5
4BE
  8
0
  6
CONTINUOUS
 62
     4
 10
333.59299
 20
51.180656
 30
0.0
 40
3.5
 50
60.000008
 51
119.99999
  0
ARC
  5
4BF
  8
0
  6
CONTINUOUS
 62
     4
 10
64.153496
 20
53.644222
 30
0.0
 40
3.5
 50
59.999974
 51
120.00003
  0
ARC
  5
4C0
  8
0
  6
CONTINUOUS
 62
     4
 10
67.653496
 20
59.706398
 30
0.0
 40
3.5
 50
240.00001
 51
299.99999
  0
ARC
  5
4C1
  8
0
  6
CONTINUOUS
 62
     4
 10
67.653496
 20
53.644218
 30
0.0
 40
3.5
 50
60.000008
 51
119.99999
  0
ARC
  5
4C2
  8
0
  6
CONTINUOUS
 62
     4
 10
149.19298
 20
53.544212
 30
0.0
 40
3.5
 50
59.99992
 51
119.99998
  0
ARC
  5
4C3
  8
0
  6
CONTINUOUS
 62
     4
 10
152.69298
 20
59.606388
 30
0.0
 40
3.5
 50
239.99996
 51
299.99994
  0
ARC
  5
4C4
  8
0
  6
CONTINUOUS
 62
     4
 10
152.69298
 20
53.544209
 30
0.0
 40
3.5
 50
59.999954
 51
119.99994
  0
ARC
  5
4C5
  8
0
  6
CONTINUOUS
 62
     3
 10
72.578499
 20
35.734314
 30
0.0
 40
0.075
 50
270.0
 51
0.0
  0
ARC
  5
4C6
  8
0
  6
CONTINUOUS
 62
     3
 10
62.528496
 20
50.369923
 30
0.0
 40
0.75
 50
90.000003
 51
180.00001
  0
ARC
  5
4C7
  8
0
  6
CONTINUOUS
 62
     3
 10
61.028496
 20
42.297756
 30
0.0
 40
0.75
 50
315.00021
 51
0.0
  0
ARC
  5
4C8
  8
0
  6
CONTINUOUS
 62
     3
 10
59.903496
 20
39.051437
 30
0.0
 40
0.75
 50
134.99959
 51
180.00001
  0
ARC
  5
4C9
  8
0
  6
CONTINUOUS
 62
     3
 10
71.903496
 20
39.051437
 30
0.0
 40
0.75
 50
0.0
 51
44.999588
  0
ARC
  5
4CA
  8
0
  6
CONTINUOUS
 62
     3
 10
70.778496
 20
42.297756
 30
0.0
 40
0.75
 50
180.00001
 51
225.00063
  0
ARC
  5
4CB
  8
0
  6
CONTINUOUS
 62
     3
 10
69.278496
 20
50.369923
 30
0.0
 40
0.75
 50
0.0
 51
90.000003
  0
ARC
  5
4CC
  8
0
  6
CONTINUOUS
 62
     3
 10
61.403496
 20
42.142426
 30
0.0
 40
0.375
 50
315.00041
 51
0.0
  0
ARC
  5
4CD
  8
0
  6
CONTINUOUS
 62
     3
 10
325.05814
 20
35.634308
 30
0.0
 40
0.075
 50
180.00001
 51
270.0
  0
ARC
  5
4CE
  8
0
  6
CONTINUOUS
 62
     3
 10
338.40814
 20
35.634308
 30
0.0
 40
0.075
 50
270.0
 51
0.0
  0
ARC
  5
4CF
  8
0
  6
CONTINUOUS
 62
     3
 10
327.23315
 20
42.042416
 30
0.0
 40
0.375
 50
314.99959
 51
0.0
  0
ARC
  5
4D0
  8
0
  6
CONTINUOUS
 62
     3
 10
326.85815
 20
42.197746
 30
0.0
 40
0.75
 50
314.99979
 51
0.0
  0
ARC
  5
4D1
  8
0
  6
CONTINUOUS
 62
     3
 10
325.73315
 20
38.951424
 30
0.0
 40
0.75
 50
135.0
 51
180.00001
  0
ARC
  5
4D2
  8
0
  6
CONTINUOUS
 62
     3
 10
337.73315
 20
38.951424
 30
0.0
 40
0.75
 50
0.0
 51
45.000824
  0
ARC
  5
4D3
  8
0
  6
CONTINUOUS
 62
     3
 10
335.10815
 20
50.269913
 30
0.0
 40
0.75
 50
0.0
 51
90.000003
  0
ARC
  5
4D4
  8
0
  6
CONTINUOUS
 62
     3
 10
336.60815
 20
42.197746
 30
0.0
 40
0.75
 50
180.00001
 51
224.99979
  0
ARC
  5
4D5
  8
0
  6
CONTINUOUS
 62
     3
 10
328.35815
 20
50.269913
 30
0.0
 40
0.75
 50
90.000003
 51
180.00001
  0
ARC
  5
4D6
  8
0
  6
CONTINUOUS
 62
     4
 10
165.46797
 20
57.597012
 30
0.0
 40
1.15
 50
240.57372
 51
300.00011
  0
ARC
  5
4D7
  8
0
  6
CONTINUOUS
 62
     4
 10
166.61798
 20
57.597015
 30
0.0
 40
1.15
 50
239.99998
 51
299.42628
  0
ARC
  5
4D8
  8
0
  6
CONTINUOUS
 62
     4
 10
166.61798
 20
55.605156
 30
0.0
 40
1.15
 50
60.573717
 51
120.00002
  0
ARC
  5
4D9
  8
0
  6
CONTINUOUS
 62
     4
 10
330.41797
 20
55.605156
 30
0.0
 40
1.15
 50
60.573888
 51
120.00018
  0
ARC
  5
4DA
  8
0
  6
CONTINUOUS
 62
     4
 10
330.41797
 20
57.597015
 30
0.0
 40
1.15
 50
240.00015
 51
299.42645
  0
ARC
  5
4DB
  8
0
  6
CONTINUOUS
 62
     4
 10
329.26797
 20
57.597012
 30
0.0
 40
1.15
 50
240.57355
 51
299.99995
  0
ARC
  5
4DC
  8
0
  6
CONTINUOUS
 62
     4
 10
325.26797
 20
57.597012
 30
0.0
 40
1.15
 50
240.57355
 51
299.99995
  0
ARC
  5
4DD
  8
0
  6
CONTINUOUS
 62
     4
 10
333.26797
 20
57.597012
 30
0.0
 40
1.15
 50
240.57355
 51
299.99995
  0
ARC
  5
4DE
  8
0
  6
CONTINUOUS
 62
     4
 10
334.41797
 20
57.597015
 30
0.0
 40
1.15
 50
240.00015
 51
299.42645
  0
ARC
  5
4DF
  8
0
  6
CONTINUOUS
 62
     4
 10
334.41797
 20
55.605156
 30
0.0
 40
1.15
 50
60.573553
 51
119.99985
  0
ARC
  5
4E0
  8
0
  6
CONTINUOUS
 62
     4
 10
338.41797
 20
55.605156
 30
0.0
 40
1.15
 50
60.573553
 51
119.99985
  0
ARC
  5
4E1
  8
0
  6
CONTINUOUS
 62
     4
 10
326.41797
 20
55.605156
 30
0.0
 40
1.15
 50
60.573888
 51
120.00018
  0
ARC
  5
4E2
  8
0
  6
CONTINUOUS
 62
     4
 10
338.41797
 20
57.597015
 30
0.0
 40
1.15
 50
240.00015
 51
299.42645
  0
ARC
  5
4E3
  8
0
  6
CONTINUOUS
 62
     4
 10
337.26797
 20
57.597012
 30
0.0
 40
1.15
 50
240.57355
 51
299.99995
  0
ARC
  5
4E4
  8
0
  6
CONTINUOUS
 62
     4
 10
326.41797
 20
57.597015
 30
0.0
 40
1.15
 50
240.00015
 51
299.42645
  0
ARC
  5
4E5
  8
0
  6
CONTINUOUS
 62
     3
 10
162.09297
 20
60.528988
 30
0.0
 40
1.0
 50
180.00001
 51
270.0
  0
ARC
  5
4E6
  8
0
  6
CONTINUOUS
 62
     3
 10
169.99298
 20
60.528988
 30
0.0
 40
1.0
 50
270.0
 51
0.0
  0
ARC
  5
4E7
  8
0
  6
CONTINUOUS
 62
     3
 10
322.84299
 20
60.528988
 30
0.0
 40
1.0
 50
180.00001
 51
270.0
  0
ARC
  5
4E8
  8
0
  6
CONTINUOUS
 62
     3
 10
340.84299
 20
60.528988
 30
0.0
 40
1.0
 50
270.0
 51
0.0
  0
TEXT
  5
4E9
  8
0
  6
CONTINUOUS
 62
     3
 10
26.383712
 20
201.61395
 30
0.0
 40
5.0
  1
HC-UF43
 41
1.000926
  0
INSERT
  5
4EA
  8
0
  6
CONTINUOUS
 62
     3
  2
KOZU0006
 10
136.67444
 20
135.05597
 30
0.0
  0
INSERT
  5
4EB
  8
0
  6
CONTINUOUS
 62
     3
  2
KOZU0006
 10
136.67444
 20
93.835243
 30
0.0
  0
INSERT
  5
4EC
  8
0
  6
CONTINUOUS
 62
     3
  2
KOZU0018
 10
58.417503
 20
69.448608
 30
0.0
  0
INSERT
  5
4ED
  8
0
  6
CONTINUOUS
 62
     3
  2
KOZU0018
 10
73.389961
 20
69.448608
 30
0.0
  0
INSERT
  5
4EE
  8
0
  6
CONTINUOUS
 62
     3
  2
KOZU0018
 10
31.294226
 20
93.896545
 30
0.0
  0
INSERT
  5
4EF
  8
0
  6
CONTINUOUS
 62
     3
  2
KOZU0018
 10
100.51277
 20
93.896545
 30
0.0
  0
INSERT
  5
4F0
  8
0
  6
CONTINUOUS
 62
     3
  2
KOZU0018
 10
100.51277
 20
135.16142
 30
0.0
  0
INSERT
  5
4F1
  8
0
  6
CONTINUOUS
 62
     3
  2
KOZU0018
 10
31.294226
 20
135.16142
 30
0.0
  0
ENDSEC
  0
EOF
