  0
SECTION
  2
HEADER
  9
$ACADVER
  1
AC1009
  9
$INSBASE
 10
0.0
 20
0.0
 30
0.0
  9
$EXTMIN
 10
4.589437
 20
76.880232
 30
-0.000914
  9
$EXTMAX
 10
305.984236
 20
180.283979
 30
29.962214
  9
$LIMMIN
 10
0.0
 20
0.0
  9
$LIMMAX
 10
12.0
 20
9.0
  9
$ORTHOMODE
 70
     0
  9
$REGENMODE
 70
     1
  9
$FILLMODE
 70
     1
  9
$QTEXTMODE
 70
     0
  9
$MIRRTEXT
 70
     1
  9
$DRAGMODE
 70
     2
  9
$LTSCALE
 40
0.5
  9
$OSMODE
 70
   256
  9
$ATTMODE
 70
     1
  9
$TEXTSIZE
 40
0.2
  9
$TRACEWID
 40
0.05
  9
$TEXTSTYLE
  7
STANDARD
  9
$CLAYER
  8
0
  9
$CELTYPE
  6
BYLAYER
  9
$CECOLOR
 62
   256
  9
$DIMSCALE
 40
1.0
  9
$DIMASZ
 40
0.18
  9
$DIMEXO
 40
0.0625
  9
$DIMDLI
 40
0.38
  9
$DIMRND
 40
0.0
  9
$DIMDLE
 40
0.0
  9
$DIMEXE
 40
0.18
  9
$DIMTP
 40
0.0
  9
$DIMTM
 40
0.0
  9
$DIMTXT
 40
0.18
  9
$DIMCEN
 40
0.09
  9
$DIMTSZ
 40
0.0
  9
$DIMTOL
 70
     0
  9
$DIMLIM
 70
     0
  9
$DIMTIH
 70
     1
  9
$DIMTOH
 70
     1
  9
$DIMSE1
 70
     0
  9
$DIMSE2
 70
     0
  9
$DIMTAD
 70
     0
  9
$DIMZIN
 70
     0
  9
$DIMBLK
  1

  9
$DIMASO
 70
     1
  9
$DIMSHO
 70
     1
  9
$DIMPOST
  1

  9
$DIMAPOST
  1

  9
$DIMALT
 70
     0
  9
$DIMALTD
 70
     2
  9
$DIMALTF
 40
25.4
  9
$DIMLFAC
 40
1.0
  9
$DIMTOFL
 70
     0
  9
$DIMTVP
 40
0.0
  9
$DIMTIX
 70
     0
  9
$DIMSOXD
 70
     0
  9
$DIMSAH
 70
     0
  9
$DIMBLK1
  1

  9
$DIMBLK2
  1

  9
$DIMSTYLE
  2
STANDARD
  9
$DIMCLRD
 70
     0
  9
$DIMCLRE
 70
     0
  9
$DIMCLRT
 70
     0
  9
$DIMTFAC
 40
1.0
  9
$DIMGAP
 40
0.09
  9
$LUNITS
 70
     2
  9
$LUPREC
 70
     4
  9
$SKETCHINC
 40
0.1
  9
$FILLETRAD
 40
0.0
  9
$AUNITS
 70
     0
  9
$AUPREC
 70
     0
  9
$MENU
  1
.
  9
$ELEVATION
 40
0.0
  9
$PELEVATION
 40
0.0
  9
$THICKNESS
 40
0.0
  9
$LIMCHECK
 70
     0
  9
$BLIPMODE
 70
     0
  9
$CHAMFERA
 40
0.0
  9
$CHAMFERB
 40
0.0
  9
$SKPOLY
 70
     0
  9
$TDCREATE
 40
2451614.570759
  9
$TDUPDATE
 40
2452949.38219
  9
$TDINDWG
 40
0.066352
  9
$TDUSRTIMER
 40
0.066352
  9
$USRTIMER
 70
     1
  9
$ANGBASE
 50
0.0
  9
$ANGDIR
 70
     0
  9
$PDMODE
 70
     0
  9
$PDSIZE
 40
0.0
  9
$PLINEWID
 40
0.0
  9
$COORDS
 70
     1
  9
$SPLFRAME
 70
     0
  9
$SPLINETYPE
 70
     6
  9
$SPLINESEGS
 70
     8
  9
$ATTDIA
 70
     0
  9
$ATTREQ
 70
     1
  9
$HANDLING
 70
     1
  9
$HANDSEED
  5
CB36
  9
$SURFTAB1
 70
     6
  9
$SURFTAB2
 70
     6
  9
$SURFTYPE
 70
     6
  9
$SURFU
 70
     6
  9
$SURFV
 70
     6
  9
$UCSNAME
  2

  9
$UCSORG
 10
0.0
 20
0.0
 30
0.0
  9
$UCSXDIR
 10
1.0
 20
0.0
 30
0.0
  9
$UCSYDIR
 10
0.0
 20
1.0
 30
0.0
  9
$PUCSNAME
  2

  9
$PUCSORG
 10
0.0
 20
0.0
 30
0.0
  9
$PUCSXDIR
 10
1.0
 20
0.0
 30
0.0
  9
$PUCSYDIR
 10
0.0
 20
1.0
 30
0.0
  9
$USERI1
 70
     0
  9
$USERI2
 70
     0
  9
$USERI3
 70
     0
  9
$USERI4
 70
     0
  9
$USERI5
 70
     0
  9
$USERR1
 40
0.0
  9
$USERR2
 40
0.0
  9
$USERR3
 40
0.0
  9
$USERR4
 40
0.0
  9
$USERR5
 40
0.0
  9
$WORLDVIEW
 70
     1
  9
$SHADEDGE
 70
     3
  9
$SHADEDIF
 70
    70
  9
$TILEMODE
 70
     1
  9
$MAXACTVP
 70
    48
  9
$PLIMCHECK
 70
     0
  9
$PEXTMIN
 10
1.000000E+020
 20
1.000000E+020
 30
1.000000E+020
  9
$PEXTMAX
 10
-1.000000E+020
 20
-1.000000E+020
 30
-1.000000E+020
  9
$PLIMMIN
 10
0.0
 20
0.0
  9
$PLIMMAX
 10
12.0
 20
9.0
  9
$UNITMODE
 70
     0
  9
$VISRETAIN
 70
     1
  9
$PLINEGEN
 70
     0
  9
$PSLTSCALE
 70
     1
  0
ENDSEC
  0
SECTION
  2
TABLES
  0
TABLE
  2
VPORT
 70
     4
  0
VPORT
  2
*ACTIVE
 70
     0
 10
0.0
 20
0.0
 11
1.0
 21
1.0
 12
155.286837
 22
128.582106
 13
0.0
 23
0.0
 14
1.0
 24
1.0
 15
0.0
 25
0.0
 16
0.0
 26
0.0
 36
1.0
 17
0.0
 27
0.0
 37
0.0
 40
187.28306
 41
1.616967
 42
50.0
 43
0.0
 44
0.0
 50
0.0
 51
0.0
 71
     0
 72
   100
 73
     1
 74
     1
 75
     0
 76
     0
 77
     0
 78
     0
  0
ENDTAB
  0
TABLE
  2
LTYPE
 70
     6
  0
LTYPE
  2
CONTINUOUS
 70
     0
  3
Solid line
 72
    65
 73
     0
 40
0.0
  0
LTYPE
  2
CENTER
 70
     0
  3
____ _ ____ _ ____ _ ____ _ ____ _ ____ _ ____
 72
    65
 73
     4
 40
17.5
 49
13.0
 49
-1.5
 49
1.5
 49
-1.5
  0
LTYPE
  2
HIDDEN
 70
     0
  3
Hidden __ __ __ __ __ __ __ __ __ __ __ __ __ _
 72
    65
 73
     2
 40
9.525
 49
6.35
 49
-3.175
  0
ENDTAB
  0
TABLE
  2
LAYER
 70
     4
  0
LAYER
  2
0
 70
     0
 62
     7
  6
CONTINUOUS
  0
LAYER
  2
DEFPOINTS
 70
     0
 62
     7
  6
CONTINUOUS
  0
LAYER
  2
CENTER
 70
     0
 62
     1
  6
CENTER
  0
LAYER
  2
HIDDEN
 70
     0
 62
     6
  6
HIDDEN
  0
ENDTAB
  0
TABLE
  2
STYLE
 70
     2
  0
STYLE
  2
STANDARD
 70
     0
 40
0.0
 41
1.0
 50
0.0
 71
     0
 42
0.2
  3
txt
  4

  0
ENDTAB
  0
TABLE
  2
VIEW
 70
     0
  0
ENDTAB
  0
TABLE
  2
UCS
 70
     0
  0
ENDTAB
  0
TABLE
  2
APPID
 70
     1
  0
APPID
  2
ACAD
 70
     0
  0
ENDTAB
  0
TABLE
  2
DIMSTYLE
 70
     4
  0
DIMSTYLE
  2
STANDARD
 70
     0
  3

  4

  5

  6

  7

 40
1.0
 41
0.18
 42
0.0625
 43
0.38
 44
0.18
 45
0.0
 46
0.0
 47
0.0
 48
0.0
140
0.18
141
0.09
142
0.0
143
25.4
144
1.0
145
0.0
146
1.0
147
0.09
 71
     0
 72
     0
 73
     1
 74
     1
 75
     0
 76
     0
 77
     0
 78
     0
170
     0
171
     2
172
     0
173
     0
174
     0
175
     0
176
     0
177
     0
178
     0
  0
ENDTAB
  0
ENDSEC
  0
SECTION
  2
BLOCKS
  0
BLOCK
  8
0
  2
$MODEL_SPACE
 70
     0
 10
0.0
 20
0.0
 30
0.0
  3
$MODEL_SPACE
  1

  0
ENDBLK
  5
CB13
  8
0
  0
BLOCK
 67
     1
  8
0
  2
$PAPER_SPACE
 70
     0
 10
0.0
 20
0.0
 30
0.0
  3
$PAPER_SPACE
  1

  0
ENDBLK
  5
CB10
 67
     1
  8
0
  0
ENDSEC
  0
SECTION
  2
ENTITIES
  0
TEXT
  5
C23E
  8
0
  6
CONTINUOUS
 62
     7
 10
6.047972
 20
171.81181
 30
0.0
 40
8.466667
  1
HF-KP053B
 41
1.019608
  0
LINE
  5
C23F
  8
HIDDEN
 10
192.261932
 20
92.98201
 30
0.0
 11
206.791404
 21
92.98201
 31
0.0
  0
LINE
  5
C240
  8
HIDDEN
 10
192.261712
 20
86.48201
 30
0.0
 11
206.791404
 21
86.48201
 31
0.0
  0
LINE
  5
C241
  8
0
 62
     5
 10
197.739436
 20
140.28201
 30
0.0
 11
192.739436
 21
140.28201
 31
0.0
  0
LINE
  5
C242
  8
0
 62
     5
 10
197.739436
 20
100.28201
 30
0.0
 11
192.739436
 21
100.28201
 31
0.0
  0
LINE
  5
C243
  8
CENTER
 10
87.239436
 20
120.28201
 30
0.0
 11
224.239436
 21
120.28201
 31
0.0
  0
ARC
  5
C244
  8
0
 62
     5
 10
29.628557
 20
120.28201
 30
0.0
 40
20.5
 50
351.990057
 51
8.009943
  0
LINE
  5
C245
  8
CENTER
 10
29.628557
 20
145.309975
 30
0.0
 11
29.628557
 21
78.089133
 31
0.0
  0
ARC
  5
C246
  8
0
 62
     5
 10
29.628557
 20
120.28201
 30
0.0
 40
20.5
 50
171.990057
 51
188.009943
  0
LINE
  5
C247
  8
HIDDEN
 10
36.927769
 20
97.28201
 30
0.0
 11
29.744644
 21
97.28201
 31
0.0
  0
LINE
  5
C248
  8
0
 62
     5
 10
21.372445
 20
96.08201
 30
0.0
 11
30.26164
 21
96.08201
 31
0.0
  0
LINE
  5
C249
  8
0
 62
     5
 10
34.145028
 20
92.78201
 30
0.0
 11
15.312086
 21
92.78201
 31
0.0
  0
LINE
  5
C24A
  8
0
 62
     5
 10
28.725049
 20
91.48201
 30
0.0
 11
43.386857
 21
91.48201
 31
0.0
  0
LINE
  5
C24B
  8
0
 62
     5
 10
12.529345
 20
97.28201
 30
0.0
 11
36.927769
 21
97.28201
 31
0.0
  0
LINE
  5
C24C
  8
0
 62
     5
 10
38.228557
 20
98.28201
 30
0.0
 11
11.228557
 21
98.28201
 31
0.0
  0
LINE
  5
C24D
  8
CENTER
 10
4.597321
 20
120.28201
 30
0.0
 11
53.993482
 21
120.28201
 31
0.0
  0
LINE
  5
C24E
  8
CENTER
 10
23.828557
 20
100.782054
 30
0.0
 11
23.828557
 21
78.465397
 31
0.0
  0
LINE
  5
C24F
  8
CENTER
 10
24.728557
 20
100.782054
 30
0.0
 11
24.728557
 21
78.465397
 31
0.0
  0
LINE
  5
C250
  8
0
 62
     5
 10
11.028557
 20
98.48201
 30
0.0
 11
11.028557
 21
100.28201
 31
0.0
  0
LINE
  5
C251
  8
HIDDEN
 10
12.529345
 20
97.28201
 30
0.0
 11
23.456221
 21
97.28201
 31
0.0
  0
ARC
  5
C252
  8
HIDDEN
 10
14.038722
 20
92.78201
 30
0.0
 40
1.5
 50
180.0
 51
270.0
  0
ARC
  5
C253
  8
HIDDEN
 10
13.5586
 20
91.28201
 30
0.0
 40
0.5
 50
180.0
 51
269.999554
  0
LINE
  5
C254
  8
0
 62
     5
 10
14.563167
 20
96.58201
 30
0.0
 11
13.258603
 21
96.58201
 31
0.0
  0
LINE
  5
C255
  8
0
 62
     5
 10
14.998534
 20
93.28201
 30
0.0
 11
13.059379
 21
93.28201
 31
0.0
  0
LINE
  5
C256
  8
HIDDEN
 10
12.538722
 20
92.78201
 30
0.0
 11
12.538722
 21
97.28201
 31
0.0
  0
LINE
  5
C257
  8
0
 62
     5
 10
13.0586
 20
93.28201
 30
0.0
 11
13.0586
 21
96.28201
 31
0.0
  0
LINE
  5
C258
  8
HIDDEN
 10
13.0586
 20
91.649377
 30
0.0
 11
13.0586
 21
91.28201
 31
0.0
  0
LINE
  5
C259
  8
0
 62
     5
 10
12.529341
 20
97.28201
 30
0.0
 11
12.441852
 21
98.28201
 31
0.0
  0
LINE
  5
C25A
  8
0
 62
     5
 10
13.0586
 20
96.78201
 30
0.0
 11
13.0586
 21
97.28201
 31
0.0
  0
LINE
  5
C25B
  8
0
 62
     5
 10
13.3586
 20
96.58201
 30
0.0
 11
13.0586
 21
96.28201
 31
0.0
  0
ARC
  5
C25C
  8
0
 62
     5
 10
13.2586
 20
96.78201
 30
0.0
 40
0.2
 50
180.0
 51
270.0
  0
LINE
  5
C25D
  8
0
  6
CONTINUOUS
 62
     5
 10
12.529341
 20
97.28201
 30
0.0
 11
12.441852
 21
98.28201
 31
0.0
  0
ARC
  5
C25E
  8
0
 62
     5
 10
11.228557
 20
98.48201
 30
0.0
 40
0.2
 50
180.0
 51
270.0
  0
LINE
  5
C25F
  8
HIDDEN
 10
16.85578
 20
90.78201
 30
0.0
 11
16.85578
 21
85.48201
 31
0.0
  0
LINE
  5
C260
  8
0
 62
     5
 10
28.125513
 20
88.08201
 30
0.0
 11
27.936949
 21
87.78201
 31
0.0
  0
LINE
  5
C261
  8
0
 62
     5
 10
28.404784
 20
87.78201
 30
0.0
 11
28.725049
 21
88.08201
 31
0.0
  0
LINE
  5
C262
  8
0
 62
     5
 10
19.720165
 20
87.78201
 30
0.0
 11
19.531601
 21
88.08201
 31
0.0
  0
LINE
  5
C263
  8
0
 62
     5
 10
19.25233
 20
87.78201
 30
0.0
 11
18.932065
 21
88.08201
 31
0.0
  0
LINE
  5
C264
  8
HIDDEN
 10
21.557491
 20
81.48201
 30
0.0
 11
27.111902
 21
81.48201
 31
0.0
  0
LINE
  5
C265
  8
HIDDEN
 10
25.901815
 20
84.28201
 30
0.0
 11
21.192997
 21
84.282012
 31
0.0
  0
LINE
  5
C266
  8
0
 62
     5
 10
28.404784
 20
87.78201
 30
0.0
 11
19.25233
 21
87.78201
 31
0.0
  0
LINE
  5
C267
  8
HIDDEN
 10
17.731712
 20
86.64717
 30
0.0
 11
17.731683
 21
86.647228
 31
0.0
  0
LINE
  5
C268
  8
HIDDEN
 10
19.679241
 20
84.515177
 30
0.0
 11
19.679142
 21
84.515208
 31
0.0
  0
LINE
  5
C269
  8
HIDDEN
 10
19.47827
 20
84.634347
 30
0.0
 11
19.479533
 21
84.633152
 31
0.0
  0
LINE
  5
C26A
  8
HIDDEN
 10
29.777873
 20
84.515177
 30
0.0
 11
29.777972
 21
84.515208
 31
0.0
  0
LINE
  5
C26B
  8
HIDDEN
 10
28.963649
 20
84.28201
 30
0.0
 11
26.214684
 21
84.28201
 31
0.0
  0
LINE
  5
C26C
  8
0
 62
     5
 10
28.725049
 20
88.08201
 30
0.0
 11
18.932065
 21
88.08201
 31
0.0
  0
LINE
  5
C26D
  8
0
 62
     5
 10
21.356056
 20
93.081827
 30
0.0
 11
21.372445
 21
96.08201
 31
0.0
  0
LINE
  5
C26E
  8
0
 62
     5
 10
14.538722
 20
97.28201
 30
0.0
 11
14.674913
 21
93.38201
 31
0.0
  0
LINE
  5
C26F
  8
0
 62
     5
 10
15.964979
 20
93.38201
 30
0.0
 11
20.271239
 21
93.38201
 31
0.0
  0
LINE
  5
C270
  8
HIDDEN
 10
17.258751
 20
91.28201
 30
0.0
 11
17.258751
 21
88.670385
 31
0.0
  0
LINE
  5
C271
  8
HIDDEN
 10
17.287272
 20
88.240249
 30
0.0
 11
17.287279
 21
88.240164
 31
0.0
  0
LINE
  5
C272
  8
HIDDEN
 10
17.265885
 20
88.494351
 30
0.0
 11
17.26588
 21
88.494403
 31
0.0
  0
LINE
  5
C273
  8
HIDDEN
 10
13.558596
 20
90.78201
 30
0.0
 11
16.85578
 21
90.78201
 31
0.0
  0
LINE
  5
C274
  8
HIDDEN
 10
14.038684
 20
91.28201
 30
0.0
 11
17.258751
 21
91.28201
 31
0.0
  0
LINE
  5
C275
  8
0
 62
     5
 10
15.005439
 20
93.081827
 30
0.0
 11
15.975332
 21
93.081827
 31
0.0
  0
LINE
  5
C276
  8
0
 62
     5
 10
14.995085
 20
93.38201
 30
0.0
 11
15.005439
 21
93.081827
 31
0.0
  0
LINE
  5
C277
  8
0
 62
     5
 10
15.312086
 20
92.78201
 30
0.0
 11
15.005439
 21
93.081827
 31
0.0
  0
LINE
  5
C278
  8
0
 62
     5
 10
14.995085
 20
93.38201
 30
0.0
 11
14.674926
 21
93.38201
 31
0.0
  0
LINE
  5
C279
  8
0
 62
     5
 10
15.975332
 20
93.081827
 30
0.0
 11
15.964979
 21
93.38201
 31
0.0
  0
LINE
  5
C27A
  8
0
 62
     5
 10
16.28198
 20
92.78201
 30
0.0
 11
15.975332
 21
93.081827
 31
0.0
  0
LINE
  5
C27B
  8
0
 62
     5
 10
21.356056
 20
93.081827
 30
0.0
 11
21.307488
 21
92.78201
 31
0.0
  0
LINE
  5
C27C
  8
0
 62
     5
 10
20.271239
 20
93.38201
 30
0.0
 11
20.269599
 21
93.081827
 31
0.0
  0
LINE
  5
C27D
  8
0
 62
     5
 10
20.221031
 20
92.78201
 30
0.0
 11
20.269599
 21
93.081827
 31
0.0
  0
LINE
  5
C27E
  8
0
 62
     5
 10
20.269599
 20
93.081827
 30
0.0
 11
21.356056
 21
93.081827
 31
0.0
  0
LINE
  5
C27F
  8
0
 62
     5
 10
18.932065
 20
88.08201
 30
0.0
 11
18.932065
 21
92.78201
 31
0.0
  0
LINE
  5
C280
  8
0
 62
     5
 10
19.531601
 20
92.78201
 30
0.0
 11
19.531601
 21
88.08201
 31
0.0
  0
LINE
  5
C281
  8
0
 62
     5
 10
29.341039
 20
92.78201
 30
0.0
 11
29.357962
 21
91.48201
 31
0.0
  0
LINE
  5
C282
  8
0
 62
     5
 10
28.125513
 20
92.78201
 30
0.0
 11
28.125513
 21
88.08201
 31
0.0
  0
LINE
  5
C283
  8
0
 62
     5
 10
28.725049
 20
92.78201
 30
0.0
 11
28.725049
 21
88.08201
 31
0.0
  0
ARC
  5
C284
  8
CENTER
 10
29.628557
 20
120.28201
 30
0.0
 40
23.0
 50
213.220953
 51
235.846632
  0
LINE
  5
C285
  8
CENTER
 10
15.982783
 20
106.636236
 30
0.0
 11
9.817859
 21
100.471312
 31
0.0
  0
LINE
  5
C286
  8
0
 62
     5
 10
13.162335
 20
109.012875
 30
0.0
 11
13.524545
 21
109.221997
 31
0.0
  0
LINE
  5
C287
  8
0
 62
     5
 10
13.5227
 20
109.081997
 30
0.0
 11
13.250416
 21
108.924794
 31
0.0
  0
LINE
  5
C288
  8
0
 62
     5
 10
13.524545
 20
109.501997
 30
0.0
 11
13.162335
 21
109.71112
 31
0.0
  0
LINE
  5
C289
  8
0
 62
     5
 10
13.250416
 20
109.799201
 30
0.0
 11
13.5227
 21
109.641997
 31
0.0
  0
ARC
  5
C28A
  8
0
 62
     5
 10
12.920557
 20
109.48201
 30
0.0
 40
3.1
 50
0.0
 51
90.0
  0
ARC
  5
C28B
  8
0
 62
     5
 10
13.5586
 20
100.58201
 30
0.0
 40
0.5
 50
90.0
 51
156.410547
  0
ARC
  5
C28C
  8
0
 62
     5
 10
13.365101
 20
104.018554
 30
0.0
 40
2.25
 50
113.458891
 51
358.606126
  0
LINE
  5
C28D
  8
0
 62
     5
 10
11.528557
 20
100.78201
 30
0.0
 11
14.020557
 21
100.78201
 31
0.0
  0
CIRCLE
  5
C28E
  8
0
 62
     5
 10
12.813212
 20
109.361997
 30
0.0
 40
2.25
  0
CIRCLE
  5
C28F
  8
0
 62
     5
 10
12.813212
 20
109.361997
 30
0.0
 40
3.0
  0
LINE
  5
C290
  8
0
 62
     5
 10
12.045879
 20
109.501997
 30
0.0
 11
13.580545
 21
109.221997
 31
0.0
  0
LINE
  5
C291
  8
0
 62
     5
 10
12.101879
 20
109.501997
 30
0.0
 11
13.524545
 21
109.221997
 31
0.0
  0
LINE
  5
C292
  8
0
 62
     5
 10
10.328557
 20
106.08201
 30
0.0
 11
13.677976
 21
106.08201
 31
0.0
  0
LINE
  5
C293
  8
0
 62
     5
 10
13.674421
 20
106.08401
 30
0.0
 11
10.328557
 21
106.08401
 31
0.0
  0
LINE
  5
C294
  8
0
 62
     5
 10
12.101879
 20
109.221997
 30
0.0
 11
13.524545
 21
109.501997
 31
0.0
  0
LINE
  5
C295
  8
0
 62
     5
 10
12.045879
 20
109.221997
 30
0.0
 11
13.580545
 21
109.501997
 31
0.0
  0
LINE
  5
C296
  8
0
 62
     5
 10
9.328557
 20
107.08401
 30
0.0
 11
9.328557
 21
117.425439
 31
0.0
  0
LINE
  5
C297
  8
0
 62
     5
 10
9.628557
 20
102.78201
 30
0.0
 11
9.628557
 21
106.368332
 31
0.0
  0
ARC
  5
C298
  8
0
 62
     5
 10
12.128557
 20
102.78201
 30
0.0
 40
2.5
 50
180.0
 51
245.306169
  0
ARC
  5
C299
  8
0
 62
     5
 10
11.528557
 20
100.28201
 30
0.0
 40
0.5
 50
90.0
 51
180.0
  0
ARC
  5
C29A
  8
0
 62
     5
 10
10.328557
 20
107.08401
 30
0.0
 40
1.0
 50
180.0
 51
270.0
  0
LINE
  5
C29B
  8
0
 62
     5
 10
13.093212
 20
110.631485
 30
0.0
 11
12.953212
 21
110.12933
 31
0.0
  0
LINE
  5
C29C
  8
0
 62
     5
 10
12.953212
 20
110.07333
 30
0.0
 11
12.953212
 21
110.12933
 31
0.0
  0
LINE
  5
C29D
  8
0
 62
     5
 10
13.093212
 20
110.631485
 30
0.0
 11
13.093212
 21
110.071485
 31
0.0
  0
LINE
  5
C29E
  8
0
 62
     5
 10
13.093212
 20
110.071485
 30
0.0
 11
12.953212
 21
110.07333
 31
0.0
  0
LINE
  5
C29F
  8
0
 62
     5
 10
12.953212
 20
108.650664
 30
0.0
 11
13.162335
 21
109.012875
 31
0.0
  0
LINE
  5
C2A0
  8
0
 62
     5
 10
13.250416
 20
108.924794
 30
0.0
 11
13.093212
 21
108.652509
 31
0.0
  0
LINE
  5
C2A1
  8
0
 62
     5
 10
12.953212
 20
108.594664
 30
0.0
 11
12.953212
 21
108.650664
 31
0.0
  0
LINE
  5
C2A2
  8
0
 62
     5
 10
13.093212
 20
108.652509
 30
0.0
 11
13.093212
 21
108.092509
 31
0.0
  0
LINE
  5
C2A3
  8
0
 62
     5
 10
13.093212
 20
108.092509
 30
0.0
 11
12.953212
 21
108.594664
 31
0.0
  0
LINE
  5
C2A4
  8
0
 62
     5
 10
13.093212
 20
108.652509
 30
0.0
 11
12.953212
 21
108.650664
 31
0.0
  0
LINE
  5
C2A5
  8
0
 62
     5
 10
13.162335
 20
109.71112
 30
0.0
 11
12.953212
 21
110.07333
 31
0.0
  0
LINE
  5
C2A6
  8
0
 62
     5
 10
13.093212
 20
110.071485
 30
0.0
 11
13.250416
 21
109.799201
 31
0.0
  0
LINE
  5
C2A7
  8
0
 62
     5
 10
12.533212
 20
110.071485
 30
0.0
 11
12.533212
 21
110.631485
 31
0.0
  0
LINE
  5
C2A8
  8
0
 62
     5
 10
12.673212
 20
110.12933
 30
0.0
 11
12.673212
 21
110.07333
 31
0.0
  0
LINE
  5
C2A9
  8
0
 62
     5
 10
12.533212
 20
110.631485
 30
0.0
 11
12.673212
 21
110.12933
 31
0.0
  0
LINE
  5
C2AA
  8
0
 62
     5
 10
12.533212
 20
110.071485
 30
0.0
 11
12.673212
 21
110.07333
 31
0.0
  0
LINE
  5
C2AB
  8
0
 62
     5
 10
12.533212
 20
108.092509
 30
0.0
 11
12.673212
 21
108.594664
 31
0.0
  0
LINE
  5
C2AC
  8
0
 62
     5
 10
12.533212
 20
108.092509
 30
0.0
 11
12.533212
 21
108.652509
 31
0.0
  0
LINE
  5
C2AD
  8
0
 62
     5
 10
12.673212
 20
108.650664
 30
0.0
 11
12.673212
 21
108.594664
 31
0.0
  0
LINE
  5
C2AE
  8
0
 62
     5
 10
12.533212
 20
108.652509
 30
0.0
 11
12.376009
 21
108.924794
 31
0.0
  0
LINE
  5
C2AF
  8
0
 62
     5
 10
12.46409
 20
109.012875
 30
0.0
 11
12.673212
 21
108.650664
 31
0.0
  0
LINE
  5
C2B0
  8
0
 62
     5
 10
12.533212
 20
108.652509
 30
0.0
 11
12.673212
 21
108.650664
 31
0.0
  0
LINE
  5
C2B1
  8
0
 62
     5
 10
9.33014
 20
107.02633
 30
0.0
 11
9.334849
 21
106.970477
 31
0.0
  0
LINE
  5
C2B2
  8
0
 62
     5
 10
9.328557
 20
107.082536
 30
0.0
 11
9.33014
 21
107.02633
 31
0.0
  0
LINE
  5
C2B3
  8
0
 62
     5
 10
12.103724
 20
109.081997
 30
0.0
 11
12.101879
 21
109.221997
 31
0.0
  0
LINE
  5
C2B4
  8
0
 62
     5
 10
12.103724
 20
109.641997
 30
0.0
 11
12.101879
 21
109.501997
 31
0.0
  0
LINE
  5
C2B5
  8
0
 62
     5
 10
9.334849
 20
106.970477
 30
0.0
 11
9.342698
 21
106.91489
 31
0.0
  0
LINE
  5
C2B6
  8
0
 62
     5
 10
9.353644
 20
106.859831
 30
0.0
 11
9.367666
 21
106.805475
 31
0.0
  0
LINE
  5
C2B7
  8
0
 62
     5
 10
9.342698
 20
106.91489
 30
0.0
 11
9.353644
 21
106.859831
 31
0.0
  0
LINE
  5
C2B8
  8
0
 62
     5
 10
9.384706
 20
106.751991
 30
0.0
 11
9.404723
 21
106.699552
 31
0.0
  0
LINE
  5
C2B9
  8
0
 62
     5
 10
9.367666
 20
106.805475
 30
0.0
 11
9.384706
 21
106.751991
 31
0.0
  0
LINE
  5
C2BA
  8
0
 62
     5
 10
9.42764
 20
106.648316
 30
0.0
 11
9.4534
 21
106.59845
 31
0.0
  0
LINE
  5
C2BB
  8
0
 62
     5
 10
9.404723
 20
106.699552
 30
0.0
 11
9.42764
 21
106.648316
 31
0.0
  0
LINE
  5
C2BC
  8
0
 62
     5
 10
9.481908
 20
106.550104
 30
0.0
 11
9.513084
 21
106.503442
 31
0.0
  0
LINE
  5
C2BD
  8
0
 62
     5
 10
9.4534
 20
106.59845
 30
0.0
 11
9.481908
 21
106.550104
 31
0.0
  0
LINE
  5
C2BE
  8
0
 62
     5
 10
9.54682
 20
106.4586
 30
0.0
 11
9.583021
 21
106.415726
 31
0.0
  0
LINE
  5
C2BF
  8
0
 62
     5
 10
9.513084
 20
106.503442
 30
0.0
 11
9.54682
 21
106.4586
 31
0.0
  0
LINE
  5
C2C0
  8
0
 62
     5
 10
9.621562
 20
106.374945
 30
0.0
 11
9.66233
 21
106.336399
 31
0.0
  0
LINE
  5
C2C1
  8
0
 62
     5
 10
9.583021
 20
106.415726
 30
0.0
 11
9.621562
 21
106.374945
 31
0.0
  0
LINE
  5
C2C2
  8
0
 62
     5
 10
9.66233
 20
106.336399
 30
0.0
 11
9.705188
 21
106.300196
 31
0.0
  0
LINE
  5
C2C3
  8
0
 62
     5
 10
9.75001
 20
106.266462
 30
0.0
 11
9.796646
 21
106.23529
 31
0.0
  0
LINE
  5
C2C4
  8
0
 62
     5
 10
9.705188
 20
106.300196
 30
0.0
 11
9.75001
 21
106.266462
 31
0.0
  0
LINE
  5
C2C5
  8
0
 62
     5
 10
9.844959
 20
106.20679
 30
0.0
 11
9.894787
 21
106.181039
 31
0.0
  0
LINE
  5
C2C6
  8
0
 62
     5
 10
9.796646
 20
106.23529
 30
0.0
 11
9.844959
 21
106.20679
 31
0.0
  0
LINE
  5
C2C7
  8
0
 62
     5
 10
9.894787
 20
106.181039
 30
0.0
 11
9.94598
 21
106.15813
 31
0.0
  0
LINE
  5
C2C8
  8
0
 62
     5
 10
11.543724
 20
109.641997
 30
0.0
 11
12.045879
 21
109.501997
 31
0.0
  0
LINE
  5
C2C9
  8
0
 62
     5
 10
12.103724
 20
109.081997
 30
0.0
 11
11.543724
 21
109.081997
 31
0.0
  0
LINE
  5
C2CA
  8
0
 62
     5
 10
12.045879
 20
109.221997
 30
0.0
 11
12.101879
 21
109.221997
 31
0.0
  0
LINE
  5
C2CB
  8
0
 62
     5
 10
12.101879
 20
109.501997
 30
0.0
 11
12.045879
 21
109.501997
 31
0.0
  0
LINE
  5
C2CC
  8
0
 62
     5
 10
11.543724
 20
109.641997
 30
0.0
 11
12.103724
 21
109.641997
 31
0.0
  0
LINE
  5
C2CD
  8
0
 62
     5
 10
11.543724
 20
109.081997
 30
0.0
 11
12.045879
 21
109.221997
 31
0.0
  0
ARC
  5
C2CE
  8
0
 62
     5
 10
12.813212
 20
109.361997
 30
0.0
 40
0.78
 50
169.660109
 51
190.339891
  0
ARC
  5
C2CF
  8
0
 62
     5
 10
12.813212
 20
109.361997
 30
0.0
 40
1.3
 50
167.561905
 51
192.438093
  0
LINE
  5
C2D0
  8
0
 62
     5
 10
9.998371
 20
106.138123
 30
0.0
 11
10.051803
 21
106.121094
 31
0.0
  0
LINE
  5
C2D1
  8
0
 62
     5
 10
10.051803
 20
106.121094
 30
0.0
 11
10.106102
 21
106.10708
 31
0.0
  0
LINE
  5
C2D2
  8
0
 62
     5
 10
10.161102
 20
106.096141
 30
0.0
 11
10.216627
 21
106.088297
 31
0.0
  0
LINE
  5
C2D3
  8
0
 62
     5
 10
10.106102
 20
106.10708
 30
0.0
 11
10.161102
 21
106.096141
 31
0.0
  0
LINE
  5
C2D4
  8
0
 62
     5
 10
10.272417
 20
106.083592
 30
0.0
 11
10.328557
 21
106.08201
 31
0.0
  0
LINE
  5
C2D5
  8
0
 62
     5
 10
10.216627
 20
106.088297
 30
0.0
 11
10.272417
 21
106.083592
 31
0.0
  0
LINE
  5
C2D6
  8
0
 62
     5
 10
9.94598
 20
106.15813
 30
0.0
 11
9.998371
 21
106.138123
 31
0.0
  0
LINE
  5
C2D7
  8
0
 62
     5
 10
12.103724
 20
109.641997
 30
0.0
 11
12.376009
 21
109.799201
 31
0.0
  0
LINE
  5
C2D8
  8
0
 62
     5
 10
12.46409
 20
109.71112
 30
0.0
 11
12.101879
 21
109.501997
 31
0.0
  0
LINE
  5
C2D9
  8
0
 62
     5
 10
12.376009
 20
108.924794
 30
0.0
 11
12.103724
 21
109.081997
 31
0.0
  0
LINE
  5
C2DA
  8
0
 62
     5
 10
12.101879
 20
109.221997
 30
0.0
 11
12.46409
 21
109.012875
 31
0.0
  0
LINE
  5
C2DB
  8
0
 62
     5
 10
12.376009
 20
109.799201
 30
0.0
 11
12.533212
 21
110.071485
 31
0.0
  0
LINE
  5
C2DC
  8
0
 62
     5
 10
12.673212
 20
110.07333
 30
0.0
 11
12.46409
 21
109.71112
 31
0.0
  0
LINE
  5
C2DD
  8
0
 62
     5
 10
12.673212
 20
108.594664
 30
0.0
 11
12.953212
 21
110.12933
 31
0.0
  0
LINE
  5
C2DE
  8
0
 62
     5
 10
12.673212
 20
108.650664
 30
0.0
 11
12.953212
 21
110.07333
 31
0.0
  0
LINE
  5
C2DF
  8
0
 62
     5
 10
12.953212
 20
108.650664
 30
0.0
 11
12.673212
 21
110.07333
 31
0.0
  0
LINE
  5
C2E0
  8
0
 62
     5
 10
12.953212
 20
108.594664
 30
0.0
 11
12.673212
 21
110.12933
 31
0.0
  0
LINE
  5
C2E1
  8
0
 62
     5
 10
12.376009
 20
108.924794
 30
0.0
 11
13.250416
 21
109.799201
 31
0.0
  0
LINE
  5
C2E2
  8
0
 62
     5
 10
13.250416
 20
108.924794
 30
0.0
 11
12.376009
 21
109.799201
 31
0.0
  0
ARC
  5
C2E3
  8
0
 62
     5
 10
12.813212
 20
109.361997
 30
0.0
 40
0.78
 50
259.660109
 51
280.339891
  0
ARC
  5
C2E4
  8
0
 62
     5
 10
12.813212
 20
109.361997
 30
0.0
 40
1.3
 50
257.561907
 51
282.438093
  0
ARC
  5
C2E5
  8
0
 62
     5
 10
12.813212
 20
109.361997
 30
0.0
 40
0.78
 50
79.660109
 51
100.339891
  0
ARC
  5
C2E6
  8
0
 62
     5
 10
12.813212
 20
109.361997
 30
0.0
 40
1.3
 50
77.5619
 51
102.438093
  0
ARC
  5
C2E7
  8
0
 62
     5
 10
10.328557
 20
113.58201
 30
0.0
 40
1.0
 50
180.0
 51
270.0
  0
LINE
  5
C2E8
  8
0
 62
     5
 10
12.920557
 20
112.58201
 30
0.0
 11
10.328557
 21
112.58201
 31
0.0
  0
LINE
  5
C2E9
  8
0
 62
     5
 10
9.328557
 20
117.425439
 30
0.0
 11
9.333388
 21
117.425777
 31
0.0
  0
LINE
  5
C2EA
  8
0
 62
     5
 10
16.020557
 20
102.78201
 30
0.0
 11
16.020557
 21
109.48201
 31
0.0
  0
ARC
  5
C2EB
  8
0
 62
     5
 10
11.420557
 20
102.07401
 30
0.0
 40
4.6
 50
5.325005
 51
60.661371
  0
ARC
  5
C2EC
  8
0
 62
     5
 10
14.020557
 20
102.78201
 30
0.0
 40
2.0
 50
270.0
 51
0.0
  0
LINE
  5
C2ED
  8
0
 62
     5
 10
13.558602
 20
101.08201
 30
0.0
 11
15.0736
 21
101.08201
 31
0.0
  0
LINE
  5
C2EE
  8
0
 62
     5
 10
13.5227
 20
109.641997
 30
0.0
 11
13.524545
 21
109.501997
 31
0.0
  0
LINE
  5
C2EF
  8
0
 62
     5
 10
13.5227
 20
109.081997
 30
0.0
 11
13.524545
 21
109.221997
 31
0.0
  0
LINE
  5
C2F0
  8
0
 62
     5
 10
14.0827
 20
109.081997
 30
0.0
 11
13.580545
 21
109.221997
 31
0.0
  0
LINE
  5
C2F1
  8
0
 62
     5
 10
14.0827
 20
109.081997
 30
0.0
 11
13.5227
 21
109.081997
 31
0.0
  0
LINE
  5
C2F2
  8
0
 62
     5
 10
13.524545
 20
109.221997
 30
0.0
 11
13.580545
 21
109.221997
 31
0.0
  0
LINE
  5
C2F3
  8
0
 62
     5
 10
13.580545
 20
109.501997
 30
0.0
 11
13.524545
 21
109.501997
 31
0.0
  0
LINE
  5
C2F4
  8
0
 62
     5
 10
13.5227
 20
109.641997
 30
0.0
 11
14.0827
 21
109.641997
 31
0.0
  0
LINE
  5
C2F5
  8
0
 62
     5
 10
14.0827
 20
109.641997
 30
0.0
 11
13.580545
 21
109.501997
 31
0.0
  0
ARC
  5
C2F6
  8
0
 62
     5
 10
12.813212
 20
109.361997
 30
0.0
 40
0.78
 50
349.660109
 51
10.339891
  0
ARC
  5
C2F7
  8
0
 62
     5
 10
12.813212
 20
109.361997
 30
0.0
 40
1.3
 50
347.561907
 51
12.438093
  0
ARC
  5
C2F8
  8
0
 62
     5
 10
47.428557
 20
101.78201
 30
0.0
 40
2.5
 50
270.0
 51
0.0
  0
LINE
  5
C2F9
  8
0
 62
     5
 10
49.922678
 20
99.98201
 30
0.0
 11
49.922678
 21
97.38201
 31
0.0
  0
ARC
  5
C2FA
  8
0
 62
     5
 10
41.628557
 20
100.28201
 30
0.0
 40
1.0
 50
270.0
 51
0.0
  0
LINE
  5
C2FB
  8
CENTER
 10
36.028557
 20
100.782054
 30
0.0
 11
36.028557
 21
80.322391
 31
0.0
  0
ARC
  5
C2FC
  8
HIDDEN
 10
41.478557
 20
87.18201
 30
0.0
 40
4.0
 50
270.0
 51
0.0
  0
LINE
  5
C2FD
  8
HIDDEN
 10
47.778557
 20
94.38201
 30
0.0
 11
45.478557
 21
94.38201
 31
0.0
  0
LINE
  5
C2FE
  8
0
 62
     5
 10
49.422678
 20
96.88201
 30
0.0
 11
34.904424
 21
96.88201
 31
0.0
  0
LINE
  5
C2FF
  8
0
 62
     5
 10
38.928557
 20
99.28201
 30
0.0
 11
47.428557
 21
99.28201
 31
0.0
  0
LINE
  5
C300
  8
HIDDEN
 10
45.478557
 20
87.18201
 30
0.0
 11
45.478557
 21
94.38201
 31
0.0
  0
LINE
  5
C301
  8
HIDDEN
 10
30.195017
 20
83.18201
 30
0.0
 11
41.478557
 21
83.18201
 31
0.0
  0
LINE
  5
C302
  8
HIDDEN
 10
30.578557
 20
84.628633
 30
0.0
 11
30.578557
 21
85.081545
 31
0.0
  0
LINE
  5
C303
  8
HIDDEN
 10
29.978694
 20
84.634205
 30
0.0
 11
29.977581
 21
84.633152
 31
0.0
  0
LINE
  5
C304
  8
HIDDEN
 10
31.725402
 20
86.64717
 30
0.0
 11
31.725431
 21
86.647228
 31
0.0
  0
LINE
  5
C305
  8
0
 62
     5
 10
39.528557
 20
96.90504
 30
0.0
 11
34.905228
 21
96.90504
 31
0.0
  0
LINE
  5
C306
  8
0
 62
     5
 10
39.528557
 20
97.18201
 30
0.0
 11
34.9149
 21
97.18201
 31
0.0
  0
LINE
  5
C307
  8
HIDDEN
 10
36.918392
 20
92.78201
 30
0.0
 11
36.918392
 21
97.28201
 31
0.0
  0
LINE
  5
C308
  8
0
 62
     5
 10
34.918392
 20
97.28201
 30
0.0
 11
34.782201
 21
93.38201
 31
0.0
  0
LINE
  5
C309
  8
0
 62
     5
 10
29.892753
 20
92.78201
 30
0.0
 11
29.892753
 21
96.08201
 31
0.0
  0
LINE
  5
C30A
  8
0
 62
     5
 10
30.26164
 20
96.08201
 30
0.0
 11
30.245251
 21
93.081827
 31
0.0
  0
LINE
  5
C30B
  8
HIDDEN
 10
32.198363
 20
91.28201
 30
0.0
 11
35.41843
 21
91.28201
 31
0.0
  0
LINE
  5
C30C
  8
0
 62
     5
 10
31.333348
 20
93.38201
 30
0.0
 11
34.782188
 21
93.38201
 31
0.0
  0
LINE
  5
C30D
  8
HIDDEN
 10
32.191229
 20
88.494351
 30
0.0
 11
32.191234
 21
88.494403
 31
0.0
  0
LINE
  5
C30E
  8
HIDDEN
 10
32.169842
 20
88.240249
 30
0.0
 11
32.169835
 21
88.240164
 31
0.0
  0
LINE
  5
C30F
  8
HIDDEN
 10
32.198363
 20
91.28201
 30
0.0
 11
32.198363
 21
88.670385
 31
0.0
  0
LINE
  5
C310
  8
0
 62
     5
 10
31.331708
 20
93.081827
 30
0.0
 11
31.333348
 21
93.38201
 31
0.0
  0
LINE
  5
C311
  8
0
 62
     5
 10
30.196683
 20
92.78201
 30
0.0
 11
30.245251
 21
93.081827
 31
0.0
  0
LINE
  5
C312
  8
0
 62
     5
 10
31.28314
 20
92.78201
 30
0.0
 11
31.331708
 21
93.081827
 31
0.0
  0
LINE
  5
C313
  8
0
 62
     5
 10
30.245251
 20
93.081827
 30
0.0
 11
31.331708
 21
93.081827
 31
0.0
  0
ARC
  5
C314
  8
HIDDEN
 10
35.418392
 20
92.78201
 30
0.0
 40
1.5
 50
270.0
 51
0.0
  0
LINE
  5
C315
  8
HIDDEN
 10
34.7555
 20
91.276116
 30
0.0
 11
34.758569
 21
91.282054
 31
0.0
  0
LINE
  5
C316
  8
0
  6
CONTINUOUS
 62
     5
 10
34.462029
 20
93.38201
 30
0.0
 11
34.451675
 21
93.081827
 31
0.0
  0
LINE
  5
C317
  8
0
  6
CONTINUOUS
 62
     5
 10
34.145028
 20
92.78201
 30
0.0
 11
34.451675
 21
93.081827
 31
0.0
  0
LINE
  5
C318
  8
HIDDEN
 10
36.927773
 20
97.28201
 30
0.0
 11
37.015262
 21
98.28201
 31
0.0
  0
LINE
  5
C319
  8
0
 62
     5
 10
36.927773
 20
97.28201
 30
0.0
 11
37.015262
 21
98.28201
 31
0.0
  0
LINE
  5
C31A
  8
0
 62
     5
 10
42.699152
 20
91.48201
 30
0.0
 11
42.769445
 21
96.88201
 31
0.0
  0
LINE
  5
C31B
  8
0
 62
     5
 10
43.556559
 20
96.88201
 30
0.0
 11
43.386857
 21
91.48201
 31
0.0
  0
LINE
  5
C31C
  8
0
 62
     5
 10
38.428557
 20
98.78201
 30
0.0
 11
38.428557
 21
98.48201
 31
0.0
  0
ARC
  5
C31D
  8
0
 62
     5
 10
38.928557
 20
98.78201
 30
0.0
 40
0.5
 50
90.0
 51
180.0
  0
LINE
  5
C31E
  8
0
 62
     5
 10
39.528557
 20
96.90504
 30
0.0
 11
39.528557
 21
97.18201
 31
0.0
  0
ARC
  5
C31F
  8
0
 62
     5
 10
38.228557
 20
98.48201
 30
0.0
 40
0.2
 50
270.0
 51
0.0
  0
LINE
  5
C320
  8
HIDDEN
 10
48.278557
 20
96.88201
 30
0.0
 11
48.278557
 21
94.88201
 31
0.0
  0
ARC
  5
C321
  8
HIDDEN
 10
47.778557
 20
94.88201
 30
0.0
 40
0.5
 50
270.0
 51
0.0
  0
LINE
  5
C322
  8
0
 62
     5
 10
49.900059
 20
97.233327
 30
0.0
 11
49.908061
 21
97.261996
 31
0.0
  0
LINE
  5
C323
  8
0
 62
     5
 10
49.890441
 20
97.205382
 30
0.0
 11
49.900059
 21
97.233327
 31
0.0
  0
LINE
  5
C324
  8
0
 62
     5
 10
49.878981
 20
97.177591
 30
0.0
 11
49.890441
 21
97.205382
 31
0.0
  0
LINE
  5
C325
  8
0
 62
     5
 10
49.865752
 20
97.15031
 30
0.0
 11
49.878981
 21
97.177591
 31
0.0
  0
LINE
  5
C326
  8
0
 62
     5
 10
49.850598
 20
97.12339
 30
0.0
 11
49.865752
 21
97.15031
 31
0.0
  0
LINE
  5
C327
  8
0
 62
     5
 10
49.834042
 20
97.097793
 30
0.0
 11
49.850598
 21
97.12339
 31
0.0
  0
LINE
  5
C328
  8
0
 62
     5
 10
49.816939
 20
97.074507
 30
0.0
 11
49.834042
 21
97.097793
 31
0.0
  0
LINE
  5
C329
  8
0
 62
     5
 10
49.798853
 20
97.052628
 30
0.0
 11
49.816939
 21
97.074507
 31
0.0
  0
LINE
  5
C32A
  8
0
 62
     5
 10
49.779571
 20
97.031829
 30
0.0
 11
49.798853
 21
97.052628
 31
0.0
  0
LINE
  5
C32B
  8
0
 62
     5
 10
49.75876
 20
97.01181
 30
0.0
 11
49.779571
 21
97.031829
 31
0.0
  0
LINE
  5
C32C
  8
0
 62
     5
 10
49.735427
 20
96.991897
 30
0.0
 11
49.75876
 21
97.01181
 31
0.0
  0
LINE
  5
C32D
  8
0
 62
     5
 10
49.921941
 20
97.354874
 30
0.0
 11
49.922678
 21
97.38201
 31
0.0
  0
LINE
  5
C32E
  8
0
 62
     5
 10
49.919191
 20
97.323069
 30
0.0
 11
49.921941
 21
97.354874
 31
0.0
  0
LINE
  5
C32F
  8
0
 62
     5
 10
49.914518
 20
97.292046
 30
0.0
 11
49.919191
 21
97.323069
 31
0.0
  0
LINE
  5
C330
  8
0
 62
     5
 10
49.908061
 20
97.261996
 30
0.0
 11
49.914518
 21
97.292046
 31
0.0
  0
LINE
  5
C331
  8
0
 62
     5
 10
49.710983
 20
96.973501
 30
0.0
 11
49.735427
 21
96.991897
 31
0.0
  0
LINE
  5
C332
  8
0
 62
     5
 10
49.687267
 20
96.957755
 30
0.0
 11
49.710983
 21
96.973501
 31
0.0
  0
LINE
  5
C333
  8
0
 62
     5
 10
49.662611
 20
96.94334
 30
0.0
 11
49.687267
 21
96.957755
 31
0.0
  0
LINE
  5
C334
  8
0
 62
     5
 10
49.63527
 20
96.929457
 30
0.0
 11
49.662611
 21
96.94334
 31
0.0
  0
LINE
  5
C335
  8
0
 62
     5
 10
49.606765
 20
96.917132
 30
0.0
 11
49.63527
 21
96.929457
 31
0.0
  0
LINE
  5
C336
  8
0
 62
     5
 10
49.578333
 20
96.906856
 30
0.0
 11
49.606765
 21
96.917132
 31
0.0
  0
LINE
  5
C337
  8
0
 62
     5
 10
49.549149
 20
96.898269
 30
0.0
 11
49.578333
 21
96.906856
 31
0.0
  0
LINE
  5
C338
  8
0
 62
     5
 10
49.422678
 20
96.88201
 30
0.0
 11
49.455189
 21
96.883068
 31
0.0
  0
LINE
  5
C339
  8
0
 62
     5
 10
49.5185
 20
96.891278
 30
0.0
 11
49.549149
 21
96.898269
 31
0.0
  0
LINE
  5
C33A
  8
0
 62
     5
 10
49.487035
 20
96.886169
 30
0.0
 11
49.5185
 21
96.891278
 31
0.0
  0
LINE
  5
C33B
  8
0
 62
     5
 10
49.455189
 20
96.883068
 30
0.0
 11
49.487035
 21
96.886169
 31
0.0
  0
LINE
  5
C33C
  8
0
 62
     5
 10
45.895194
 20
110.841577
 30
0.0
 11
46.397349
 21
110.701577
 31
0.0
  0
LINE
  5
C33D
  8
0
 62
     5
 10
46.455194
 20
110.281577
 30
0.0
 11
45.895194
 21
110.281577
 31
0.0
  0
LINE
  5
C33E
  8
0
 62
     5
 10
45.895194
 20
110.841577
 30
0.0
 11
46.455194
 21
110.841577
 31
0.0
  0
LINE
  5
C33F
  8
0
 62
     5
 10
45.895194
 20
110.281577
 30
0.0
 11
46.397349
 21
110.421577
 31
0.0
  0
LINE
  5
C340
  8
0
 62
     5
 10
48.928557
 20
107.28201
 30
0.0
 11
45.614879
 21
107.28201
 31
0.0
  0
CIRCLE
  5
C341
  8
0
 62
     5
 10
47.164682
 20
110.561577
 30
0.0
 40
2.25
  0
CIRCLE
  5
C342
  8
0
 62
     5
 10
47.164682
 20
110.561577
 30
0.0
 40
3.0
  0
ARC
  5
C343
  8
0
 62
     5
 10
47.164682
 20
110.561577
 30
0.0
 40
3.1
 50
90.0
 51
217.879967
  0
ARC
  5
C344
  8
0
 62
     5
 10
29.628557
 20
120.28201
 30
0.0
 40
20.25
 50
311.21021
 51
318.78979
  0
ARC
  5
C345
  8
0
 62
     5
 10
43.628557
 20
104.295688
 30
0.0
 40
1.0
 50
131.21021
 51
180.0
  0
LINE
  5
C346
  8
0
 62
     5
 10
42.628557
 20
104.295688
 30
0.0
 11
42.628557
 21
100.28201
 31
0.0
  0
ARC
  5
C347
  8
0
 62
     5
 10
47.164682
 20
110.561577
 30
0.0
 40
1.3
 50
167.561905
 51
192.438093
  0
LINE
  5
C348
  8
0
 62
     5
 10
44.671414
 20
106.725648
 30
0.0
 11
44.862582
 21
106.940834
 31
0.0
  0
LINE
  5
C349
  8
0
 62
     5
 10
44.928557
 20
108.044139
 30
0.0
 11
44.928557
 21
107.395098
 31
0.0
  0
ARC
  5
C34A
  8
0
 62
     5
 10
43.928557
 20
107.395098
 30
0.0
 40
1.0
 50
317.975372
 51
0.0
  0
ARC
  5
C34B
  8
0
 62
     5
 10
43.928557
 20
108.044139
 30
0.0
 40
1.0
 50
0.0
 51
37.879967
  0
ARC
  5
C34C
  8
0
 62
     5
 10
45.614879
 20
106.28201
 30
0.0
 40
1.0
 50
90.0
 51
138.78979
  0
LINE
  5
C34D
  8
0
 62
     5
 10
46.727479
 20
110.998781
 30
0.0
 11
46.884682
 21
111.271065
 31
0.0
  0
LINE
  5
C34E
  8
0
 62
     5
 10
47.024682
 20
111.27291
 30
0.0
 11
46.81556
 21
110.9107
 31
0.0
  0
LINE
  5
C34F
  8
0
 62
     5
 10
47.513805
 20
110.9107
 30
0.0
 11
47.304682
 21
111.27291
 31
0.0
  0
LINE
  5
C350
  8
0
 62
     5
 10
47.444682
 20
111.271065
 30
0.0
 11
47.601886
 21
110.998781
 31
0.0
  0
LINE
  5
C351
  8
0
 62
     5
 10
47.024682
 20
109.794244
 30
0.0
 11
47.304682
 21
111.32891
 31
0.0
  0
LINE
  5
C352
  8
0
 62
     5
 10
47.024682
 20
109.850244
 30
0.0
 11
47.304682
 21
111.27291
 31
0.0
  0
LINE
  5
C353
  8
0
 62
     5
 10
47.304682
 20
109.850244
 30
0.0
 11
47.024682
 21
111.27291
 31
0.0
  0
LINE
  5
C354
  8
0
 62
     5
 10
47.304682
 20
109.794244
 30
0.0
 11
47.024682
 21
111.32891
 31
0.0
  0
ARC
  5
C355
  8
0
 62
     5
 10
47.164682
 20
110.561577
 30
0.0
 40
3.1
 50
333.071521
 51
26.928479
  0
LINE
  5
C356
  8
0
 62
     5
 10
49.928557
 20
99.98201
 30
0.0
 11
49.928557
 21
109.157656
 31
0.0
  0
LINE
  5
C357
  8
0
 62
     5
 10
49.162566
 20
99.98201
 30
0.0
 11
49.928557
 21
99.98201
 31
0.0
  0
LINE
  5
C358
  8
0
 62
     5
 10
46.727479
 20
110.124374
 30
0.0
 11
47.601886
 21
110.998781
 31
0.0
  0
LINE
  5
C359
  8
0
 62
     5
 10
46.455194
 20
110.841577
 30
0.0
 11
46.727479
 21
110.998781
 31
0.0
  0
LINE
  5
C35A
  8
0
 62
     5
 10
46.81556
 20
110.9107
 30
0.0
 11
46.453349
 21
110.701577
 31
0.0
  0
LINE
  5
C35B
  8
0
 62
     5
 10
47.513805
 20
110.212455
 30
0.0
 11
47.876015
 21
110.421577
 31
0.0
  0
LINE
  5
C35C
  8
0
 62
     5
 10
47.87417
 20
110.281577
 30
0.0
 11
47.601886
 21
110.124374
 31
0.0
  0
LINE
  5
C35D
  8
0
 62
     5
 10
46.455194
 20
110.281577
 30
0.0
 11
46.453349
 21
110.421577
 31
0.0
  0
LINE
  5
C35E
  8
0
 62
     5
 10
47.87417
 20
110.841577
 30
0.0
 11
47.876015
 21
110.701577
 31
0.0
  0
LINE
  5
C35F
  8
0
 62
     5
 10
46.455194
 20
110.841577
 30
0.0
 11
46.453349
 21
110.701577
 31
0.0
  0
LINE
  5
C360
  8
0
 62
     5
 10
47.87417
 20
110.281577
 30
0.0
 11
47.876015
 21
110.421577
 31
0.0
  0
LINE
  5
C361
  8
0
 62
     5
 10
47.601886
 20
110.124374
 30
0.0
 11
46.727479
 21
110.998781
 31
0.0
  0
LINE
  5
C362
  8
0
 62
     5
 10
46.727479
 20
110.124374
 30
0.0
 11
46.455194
 21
110.281577
 31
0.0
  0
LINE
  5
C363
  8
0
 62
     5
 10
46.453349
 20
110.421577
 30
0.0
 11
46.81556
 21
110.212455
 31
0.0
  0
LINE
  5
C364
  8
0
 62
     5
 10
47.876015
 20
110.701577
 30
0.0
 11
47.513805
 21
110.9107
 31
0.0
  0
LINE
  5
C365
  8
0
 62
     5
 10
47.601886
 20
110.998781
 30
0.0
 11
47.87417
 21
110.841577
 31
0.0
  0
LINE
  5
C366
  8
0
 62
     5
 10
46.397349
 20
110.701577
 30
0.0
 11
47.932015
 21
110.421577
 31
0.0
  0
LINE
  5
C367
  8
0
 62
     5
 10
46.453349
 20
110.701577
 30
0.0
 11
47.876015
 21
110.421577
 31
0.0
  0
LINE
  5
C368
  8
0
 62
     5
 10
48.43417
 20
110.281577
 30
0.0
 11
47.932015
 21
110.421577
 31
0.0
  0
LINE
  5
C369
  8
0
 62
     5
 10
48.43417
 20
110.281577
 30
0.0
 11
47.87417
 21
110.281577
 31
0.0
  0
LINE
  5
C36A
  8
0
 62
     5
 10
46.397349
 20
110.421577
 30
0.0
 11
46.453349
 21
110.421577
 31
0.0
  0
LINE
  5
C36B
  8
0
 62
     5
 10
47.876015
 20
110.421577
 30
0.0
 11
47.932015
 21
110.421577
 31
0.0
  0
LINE
  5
C36C
  8
0
 62
     5
 10
47.932015
 20
110.701577
 30
0.0
 11
47.876015
 21
110.701577
 31
0.0
  0
LINE
  5
C36D
  8
0
 62
     5
 10
46.453349
 20
110.701577
 30
0.0
 11
46.397349
 21
110.701577
 31
0.0
  0
LINE
  5
C36E
  8
0
 62
     5
 10
47.87417
 20
110.841577
 30
0.0
 11
48.43417
 21
110.841577
 31
0.0
  0
LINE
  5
C36F
  8
0
 62
     5
 10
46.453349
 20
110.421577
 30
0.0
 11
47.876015
 21
110.701577
 31
0.0
  0
LINE
  5
C370
  8
0
 62
     5
 10
46.397349
 20
110.421577
 30
0.0
 11
47.932015
 21
110.701577
 31
0.0
  0
LINE
  5
C371
  8
0
 62
     5
 10
48.43417
 20
110.841577
 30
0.0
 11
47.932015
 21
110.701577
 31
0.0
  0
ARC
  5
C372
  8
0
 62
     5
 10
47.164682
 20
110.561577
 30
0.0
 40
0.78
 50
169.660109
 51
190.339891
  0
ARC
  5
C373
  8
0
 62
     5
 10
47.164682
 20
110.561577
 30
0.0
 40
0.78
 50
349.660109
 51
10.339891
  0
ARC
  5
C374
  8
0
 62
     5
 10
47.164682
 20
110.561577
 30
0.0
 40
1.3
 50
347.561907
 51
12.438093
  0
LINE
  5
C375
  8
0
 62
     5
 10
49.928557
 20
109.157656
 30
0.0
 11
49.847123
 21
109.17729
 31
0.0
  0
LINE
  5
C376
  8
0
 62
     5
 10
49.847123
 20
109.17729
 30
0.0
 11
49.826937
 21
109.182201
 31
0.0
  0
LINE
  5
C377
  8
0
 62
     5
 10
46.884682
 20
109.292089
 30
0.0
 11
47.024682
 21
109.794244
 31
0.0
  0
LINE
  5
C378
  8
0
 62
     5
 10
46.884682
 20
109.292089
 30
0.0
 11
46.884682
 21
109.852089
 31
0.0
  0
LINE
  5
C379
  8
0
 62
     5
 10
47.024682
 20
109.850244
 30
0.0
 11
47.024682
 21
109.794244
 31
0.0
  0
LINE
  5
C37A
  8
0
 62
     5
 10
47.304682
 20
109.794244
 30
0.0
 11
47.304682
 21
109.850244
 31
0.0
  0
LINE
  5
C37B
  8
0
 62
     5
 10
47.444682
 20
109.852089
 30
0.0
 11
47.444682
 21
109.292089
 31
0.0
  0
LINE
  5
C37C
  8
0
 62
     5
 10
47.444682
 20
109.292089
 30
0.0
 11
47.304682
 21
109.794244
 31
0.0
  0
LINE
  5
C37D
  8
0
 62
     5
 10
47.444682
 20
109.852089
 30
0.0
 11
47.304682
 21
109.850244
 31
0.0
  0
LINE
  5
C37E
  8
0
 62
     5
 10
46.884682
 20
109.852089
 30
0.0
 11
47.024682
 21
109.850244
 31
0.0
  0
ARC
  5
C37F
  8
0
 62
     5
 10
47.164682
 20
110.561577
 30
0.0
 40
0.78
 50
259.660109
 51
280.339891
  0
ARC
  5
C380
  8
0
 62
     5
 10
47.164682
 20
110.561577
 30
0.0
 40
1.3
 50
257.561907
 51
282.438093
  0
ARC
  5
C381
  8
0
 62
     5
 10
48.928557
 20
108.28201
 30
0.0
 40
1.0
 50
270.0
 51
0.0
  0
LINE
  5
C382
  8
0
 62
     5
 10
47.304682
 20
109.850244
 30
0.0
 11
47.513805
 21
110.212455
 31
0.0
  0
LINE
  5
C383
  8
0
 62
     5
 10
47.601886
 20
110.124374
 30
0.0
 11
47.444682
 21
109.852089
 31
0.0
  0
LINE
  5
C384
  8
0
 62
     5
 10
46.884682
 20
109.852089
 30
0.0
 11
46.727479
 21
110.124374
 31
0.0
  0
LINE
  5
C385
  8
0
 62
     5
 10
46.81556
 20
110.212455
 30
0.0
 11
47.024682
 21
109.850244
 31
0.0
  0
LINE
  5
C386
  8
0
 62
     5
 10
49.928557
 20
111.965499
 30
0.0
 11
49.928557
 21
117.425439
 31
0.0
  0
LINE
  5
C387
  8
0
 62
     5
 10
49.826937
 20
111.940954
 30
0.0
 11
49.928557
 21
111.965499
 31
0.0
  0
LINE
  5
C388
  8
0
 62
     5
 10
48.928557
 20
113.661577
 30
0.0
 11
47.164682
 21
113.661577
 31
0.0
  0
LINE
  5
C389
  8
0
 62
     5
 10
47.444682
 20
111.831065
 30
0.0
 11
47.304682
 21
111.32891
 31
0.0
  0
LINE
  5
C38A
  8
0
 62
     5
 10
46.884682
 20
111.271065
 30
0.0
 11
46.884682
 21
111.831065
 31
0.0
  0
LINE
  5
C38B
  8
0
 62
     5
 10
47.024682
 20
111.32891
 30
0.0
 11
47.024682
 21
111.27291
 31
0.0
  0
LINE
  5
C38C
  8
0
 62
     5
 10
47.304682
 20
111.27291
 30
0.0
 11
47.304682
 21
111.32891
 31
0.0
  0
LINE
  5
C38D
  8
0
 62
     5
 10
47.444682
 20
111.831065
 30
0.0
 11
47.444682
 21
111.271065
 31
0.0
  0
LINE
  5
C38E
  8
0
 62
     5
 10
46.884682
 20
111.831065
 30
0.0
 11
47.024682
 21
111.32891
 31
0.0
  0
LINE
  5
C38F
  8
0
 62
     5
 10
46.884682
 20
111.271065
 30
0.0
 11
47.024682
 21
111.27291
 31
0.0
  0
LINE
  5
C390
  8
0
 62
     5
 10
47.444682
 20
111.271065
 30
0.0
 11
47.304682
 21
111.27291
 31
0.0
  0
ARC
  5
C391
  8
0
 62
     5
 10
47.164682
 20
110.561577
 30
0.0
 40
0.78
 50
79.660109
 51
100.339891
  0
ARC
  5
C392
  8
0
 62
     5
 10
47.164682
 20
110.561577
 30
0.0
 40
1.3
 50
77.5619
 51
102.438093
  0
ARC
  5
C393
  8
0
 62
     5
 10
48.928557
 20
114.661577
 30
0.0
 40
1.0
 50
270.0
 51
0.0
  0
LINE
  5
C394
  8
0
 62
     5
 10
49.928557
 20
117.425439
 30
0.0
 11
49.917699
 21
117.426199
 31
0.0
  0
ARC
  5
C395
  8
0
 62
     5
 10
29.628557
 20
120.28201
 30
0.0
 40
20.5
 50
81.990057
 51
98.009943
  0
LINE
  5
C396
  8
0
 62
     5
 10
13.642235
 20
133.28201
 30
0.0
 11
10.328557
 21
133.28201
 31
0.0
  0
LINE
  5
C397
  8
0
 62
     5
 10
11.828557
 20
140.58201
 30
0.0
 11
18.504203
 21
140.58201
 31
0.0
  0
LINE
  5
C398
  8
0
 62
     5
 10
9.328557
 20
138.08201
 30
0.0
 11
9.328557
 21
123.138581
 31
0.0
  0
ARC
  5
C399
  8
0
 62
     5
 10
10.328557
 20
132.28201
 30
0.0
 40
1.0
 50
90.0
 51
180.0
  0
ARC
  5
C39A
  8
0
 62
     5
 10
11.828557
 20
138.08201
 30
0.0
 40
2.5
 50
90.0
 51
180.0
  0
ARC
  5
C39B
  8
0
 62
     5
 10
29.628557
 20
120.28201
 30
0.0
 40
20.25
 50
131.21021
 51
138.78979
  0
ARC
  5
C39C
  8
0
 62
     5
 10
19.908124
 20
137.818135
 30
0.0
 40
3.1
 50
232.120033
 51
0.0
  0
ARC
  5
C39D
  8
0
 62
     5
 10
13.642235
 20
134.28201
 30
0.0
 40
1.0
 50
270.0
 51
318.78979
  0
LINE
  5
C39E
  8
0
 62
     5
 10
26.771986
 20
140.58201
 30
0.0
 11
21.312046
 21
140.58201
 31
0.0
  0
CIRCLE
  5
C39F
  8
0
 62
     5
 10
19.908124
 20
137.818135
 30
0.0
 40
3.0
  0
CIRCLE
  5
C3A0
  8
0
 62
     5
 10
19.908124
 20
137.818135
 30
0.0
 40
2.25
  0
ARC
  5
C3A1
  8
0
 62
     5
 10
17.628557
 20
139.58201
 30
0.0
 40
1.0
 50
90.0
 51
180.0
  0
ARC
  5
C3A2
  8
0
 62
     5
 10
17.390686
 20
134.58201
 30
0.0
 40
1.0
 50
52.120033
 51
90.0
  0
LINE
  5
C3A3
  8
0
 62
     5
 10
17.390686
 20
135.58201
 30
0.0
 11
16.741645
 21
135.58201
 31
0.0
  0
LINE
  5
C3A4
  8
0
 62
     5
 10
16.287381
 20
135.516035
 30
0.0
 11
16.072195
 21
135.324867
 31
0.0
  0
ARC
  5
C3A5
  8
0
 62
     5
 10
15.628557
 20
136.268332
 30
0.0
 40
1.0
 50
311.21021
 51
0.0
  0
ARC
  5
C3A6
  8
0
 62
     5
 10
16.741645
 20
134.58201
 30
0.0
 40
1.0
 50
90.0
 51
132.024628
  0
LINE
  5
C3A7
  8
0
 62
     5
 10
16.628557
 20
136.268332
 30
0.0
 11
16.628557
 21
139.58201
 31
0.0
  0
LINE
  5
C3A8
  8
0
 62
     5
 10
20.617612
 20
137.538135
 30
0.0
 11
20.619457
 21
137.678135
 31
0.0
  0
LINE
  5
C3A9
  8
0
 62
     5
 10
20.617612
 20
138.098135
 30
0.0
 11
20.619457
 21
137.958135
 31
0.0
  0
LINE
  5
C3AA
  8
0
 62
     5
 10
21.177612
 20
137.538135
 30
0.0
 11
20.675457
 21
137.678135
 31
0.0
  0
LINE
  5
C3AB
  8
0
 62
     5
 10
21.177612
 20
137.538135
 30
0.0
 11
20.617612
 21
137.538135
 31
0.0
  0
LINE
  5
C3AC
  8
0
 62
     5
 10
20.619457
 20
137.678135
 30
0.0
 11
20.675457
 21
137.678135
 31
0.0
  0
LINE
  5
C3AD
  8
0
 62
     5
 10
20.675457
 20
137.958135
 30
0.0
 11
20.619457
 21
137.958135
 31
0.0
  0
LINE
  5
C3AE
  8
0
 62
     5
 10
20.617612
 20
138.098135
 30
0.0
 11
21.177612
 21
138.098135
 31
0.0
  0
LINE
  5
C3AF
  8
0
 62
     5
 10
21.177612
 20
138.098135
 30
0.0
 11
20.675457
 21
137.958135
 31
0.0
  0
ARC
  5
C3B0
  8
0
 62
     5
 10
19.908124
 20
137.818135
 30
0.0
 40
0.78
 50
349.660109
 51
10.339891
  0
ARC
  5
C3B1
  8
0
 62
     5
 10
19.908124
 20
137.818135
 30
0.0
 40
1.3
 50
347.561907
 51
12.438093
  0
LINE
  5
C3B2
  8
0
 62
     5
 10
20.345328
 20
137.380932
 30
0.0
 11
20.188124
 21
137.108647
 31
0.0
  0
LINE
  5
C3B3
  8
0
 62
     5
 10
20.188124
 20
139.087623
 30
0.0
 11
20.188124
 21
138.527623
 31
0.0
  0
LINE
  5
C3B4
  8
0
 62
     5
 10
20.188124
 20
137.108647
 30
0.0
 11
20.188124
 21
136.548647
 31
0.0
  0
LINE
  5
C3B5
  8
0
 62
     5
 10
20.188124
 20
138.527623
 30
0.0
 11
20.345328
 21
138.255339
 31
0.0
  0
LINE
  5
C3B6
  8
0
 62
     5
 10
20.257247
 20
137.469013
 30
0.0
 11
20.619457
 21
137.678135
 31
0.0
  0
LINE
  5
C3B7
  8
0
 62
     5
 10
20.617612
 20
137.538135
 30
0.0
 11
20.345328
 21
137.380932
 31
0.0
  0
LINE
  5
C3B8
  8
0
 62
     5
 10
20.619457
 20
137.958135
 30
0.0
 11
20.257247
 21
138.167258
 31
0.0
  0
LINE
  5
C3B9
  8
0
 62
     5
 10
20.345328
 20
138.255339
 30
0.0
 11
20.617612
 21
138.098135
 31
0.0
  0
LINE
  5
C3BA
  8
0
 62
     5
 10
19.470921
 20
138.255339
 30
0.0
 11
19.628124
 21
138.527623
 31
0.0
  0
LINE
  5
C3BB
  8
0
 62
     5
 10
19.768124
 20
138.529468
 30
0.0
 11
19.559002
 21
138.167258
 31
0.0
  0
LINE
  5
C3BC
  8
0
 62
     5
 10
19.768124
 20
137.050802
 30
0.0
 11
20.048124
 21
138.585468
 31
0.0
  0
LINE
  5
C3BD
  8
0
 62
     5
 10
19.768124
 20
137.106802
 30
0.0
 11
20.048124
 21
138.529468
 31
0.0
  0
LINE
  5
C3BE
  8
0
 62
     5
 10
19.628124
 20
136.548647
 30
0.0
 11
19.768124
 21
137.050802
 31
0.0
  0
LINE
  5
C3BF
  8
0
 62
     5
 10
19.198636
 20
138.098135
 30
0.0
 11
19.470921
 21
138.255339
 31
0.0
  0
LINE
  5
C3C0
  8
0
 62
     5
 10
19.559002
 20
138.167258
 30
0.0
 11
19.196791
 21
137.958135
 31
0.0
  0
LINE
  5
C3C1
  8
0
 62
     5
 10
19.198636
 20
137.538135
 30
0.0
 11
19.196791
 21
137.678135
 31
0.0
  0
LINE
  5
C3C2
  8
0
 62
     5
 10
19.628124
 20
136.548647
 30
0.0
 11
19.628124
 21
137.108647
 31
0.0
  0
LINE
  5
C3C3
  8
0
 62
     5
 10
19.628124
 20
138.527623
 30
0.0
 11
19.628124
 21
139.087623
 31
0.0
  0
LINE
  5
C3C4
  8
0
 62
     5
 10
19.768124
 20
138.585468
 30
0.0
 11
19.768124
 21
138.529468
 31
0.0
  0
LINE
  5
C3C5
  8
0
 62
     5
 10
19.768124
 20
137.106802
 30
0.0
 11
19.768124
 21
137.050802
 31
0.0
  0
LINE
  5
C3C6
  8
0
 62
     5
 10
20.048124
 20
137.050802
 30
0.0
 11
20.048124
 21
137.106802
 31
0.0
  0
LINE
  5
C3C7
  8
0
 62
     5
 10
20.048124
 20
138.529468
 30
0.0
 11
20.048124
 21
138.585468
 31
0.0
  0
LINE
  5
C3C8
  8
0
 62
     5
 10
19.198636
 20
138.098135
 30
0.0
 11
19.196791
 21
137.958135
 31
0.0
  0
LINE
  5
C3C9
  8
0
 62
     5
 10
20.048124
 20
137.106802
 30
0.0
 11
19.768124
 21
138.529468
 31
0.0
  0
LINE
  5
C3CA
  8
0
 62
     5
 10
20.048124
 20
137.050802
 30
0.0
 11
19.768124
 21
138.585468
 31
0.0
  0
LINE
  5
C3CB
  8
0
 62
     5
 10
19.628124
 20
139.087623
 30
0.0
 11
19.768124
 21
138.585468
 31
0.0
  0
LINE
  5
C3CC
  8
0
 62
     5
 10
19.628124
 20
137.108647
 30
0.0
 11
19.470921
 21
137.380932
 31
0.0
  0
LINE
  5
C3CD
  8
0
 62
     5
 10
19.559002
 20
137.469013
 30
0.0
 11
19.768124
 21
137.106802
 31
0.0
  0
LINE
  5
C3CE
  8
0
 62
     5
 10
19.470921
 20
137.380932
 30
0.0
 11
19.198636
 21
137.538135
 31
0.0
  0
LINE
  5
C3CF
  8
0
 62
     5
 10
19.196791
 20
137.678135
 30
0.0
 11
19.559002
 21
137.469013
 31
0.0
  0
LINE
  5
C3D0
  8
0
 62
     5
 10
18.638636
 20
138.098135
 30
0.0
 11
19.140791
 21
137.958135
 31
0.0
  0
LINE
  5
C3D1
  8
0
 62
     5
 10
19.628124
 20
138.527623
 30
0.0
 11
19.768124
 21
138.529468
 31
0.0
  0
LINE
  5
C3D2
  8
0
 62
     5
 10
19.198636
 20
137.538135
 30
0.0
 11
18.638636
 21
137.538135
 31
0.0
  0
LINE
  5
C3D3
  8
0
 62
     5
 10
19.140791
 20
137.678135
 30
0.0
 11
19.196791
 21
137.678135
 31
0.0
  0
LINE
  5
C3D4
  8
0
 62
     5
 10
19.196791
 20
137.958135
 30
0.0
 11
19.140791
 21
137.958135
 31
0.0
  0
LINE
  5
C3D5
  8
0
 62
     5
 10
18.638636
 20
138.098135
 30
0.0
 11
19.198636
 21
138.098135
 31
0.0
  0
LINE
  5
C3D6
  8
0
 62
     5
 10
19.628124
 20
137.108647
 30
0.0
 11
19.768124
 21
137.106802
 31
0.0
  0
LINE
  5
C3D7
  8
0
 62
     5
 10
18.638636
 20
137.538135
 30
0.0
 11
19.140791
 21
137.678135
 31
0.0
  0
ARC
  5
C3D8
  8
0
 62
     5
 10
19.908124
 20
137.818135
 30
0.0
 40
0.78
 50
169.660109
 51
190.339891
  0
ARC
  5
C3D9
  8
0
 62
     5
 10
19.908124
 20
137.818135
 30
0.0
 40
0.78
 50
259.660109
 51
280.339891
  0
ARC
  5
C3DA
  8
0
 62
     5
 10
19.908124
 20
137.818135
 30
0.0
 40
0.78
 50
79.660109
 51
100.339891
  0
ARC
  5
C3DB
  8
0
 62
     5
 10
19.908124
 20
137.818135
 30
0.0
 40
1.3
 50
167.561905
 51
192.438093
  0
LINE
  5
C3DC
  8
0
 62
     5
 10
20.048124
 20
137.106802
 30
0.0
 11
20.257247
 21
137.469013
 31
0.0
  0
LINE
  5
C3DD
  8
0
 62
     5
 10
19.470921
 20
137.380932
 30
0.0
 11
20.345328
 21
138.255339
 31
0.0
  0
LINE
  5
C3DE
  8
0
 62
     5
 10
20.188124
 20
139.087623
 30
0.0
 11
20.048124
 21
138.585468
 31
0.0
  0
LINE
  5
C3DF
  8
0
 62
     5
 10
20.188124
 20
136.548647
 30
0.0
 11
20.048124
 21
137.050802
 31
0.0
  0
LINE
  5
C3E0
  8
0
 62
     5
 10
20.257247
 20
138.167258
 30
0.0
 11
20.048124
 21
138.529468
 31
0.0
  0
LINE
  5
C3E1
  8
0
 62
     5
 10
20.345328
 20
137.380932
 30
0.0
 11
19.470921
 21
138.255339
 31
0.0
  0
LINE
  5
C3E2
  8
0
 62
     5
 10
20.188124
 20
137.108647
 30
0.0
 11
20.048124
 21
137.106802
 31
0.0
  0
LINE
  5
C3E3
  8
0
 62
     5
 10
20.188124
 20
138.527623
 30
0.0
 11
20.048124
 21
138.529468
 31
0.0
  0
ARC
  5
C3E4
  8
0
 62
     5
 10
19.908124
 20
137.818135
 30
0.0
 40
1.3
 50
77.5619
 51
102.438093
  0
ARC
  5
C3E5
  8
0
 62
     5
 10
19.908124
 20
137.818135
 30
0.0
 40
1.3
 50
257.561907
 51
282.438093
  0
LINE
  5
C3E6
  8
0
 62
     5
 10
19.140791
 20
137.958135
 30
0.0
 11
20.675457
 21
137.678135
 31
0.0
  0
LINE
  5
C3E7
  8
0
 62
     5
 10
19.196791
 20
137.958135
 30
0.0
 11
20.619457
 21
137.678135
 31
0.0
  0
LINE
  5
C3E8
  8
0
 62
     5
 10
19.196791
 20
137.678135
 30
0.0
 11
20.619457
 21
137.958135
 31
0.0
  0
LINE
  5
C3E9
  8
0
 62
     5
 10
19.140791
 20
137.678135
 30
0.0
 11
20.675457
 21
137.958135
 31
0.0
  0
LINE
  5
C3EA
  8
0
 62
     5
 10
21.295118
 20
140.511733
 30
0.0
 11
21.312046
 21
140.58201
 31
0.0
  0
LINE
  5
C3EB
  8
0
 62
     5
 10
21.287501
 20
140.48039
 30
0.0
 11
21.295118
 21
140.511733
 31
0.0
  0
LINE
  5
C3EC
  8
0
 62
     5
 10
18.528748
 20
140.48039
 30
0.0
 11
18.504203
 21
140.58201
 31
0.0
  0
ARC
  5
C3ED
  8
0
 62
     5
 10
19.908124
 20
137.818135
 30
0.0
 40
3.1
 50
63.071521
 51
116.928479
  0
ARC
  5
C3EE
  8
0
 62
     5
 10
24.008124
 20
139.58201
 30
0.0
 40
1.0
 50
90.0
 51
180.0
  0
LINE
  5
C3EF
  8
0
 62
     5
 10
23.008124
 20
139.58201
 30
0.0
 11
23.008124
 21
137.818135
 31
0.0
  0
LINE
  5
C3F0
  8
0
 62
     5
 10
26.772324
 20
140.577179
 30
0.0
 11
26.771986
 21
140.58201
 31
0.0
  0
LINE
  5
C3F1
  8
CENTER
 10
43.274331
 20
133.927784
 30
0.0
 11
49.439255
 21
140.092708
 31
0.0
  0
ARC
  5
C3F2
  8
CENTER
 10
29.628557
 20
120.28201
 30
0.0
 40
23.0
 50
34.153368
 51
56.779047
  0
LINE
  5
C3F3
  8
0
 62
     5
 10
42.950353
 20
140.28201
 30
0.0
 11
47.128557
 21
140.28201
 31
0.0
  0
ARC
  5
C3F4
  8
0
 62
     5
 10
45.892013
 20
136.545466
 30
0.0
 40
2.25
 50
293.458891
 51
178.625298
  0
LINE
  5
C3F5
  8
0
 62
     5
 10
45.582693
 20
134.48001
 30
0.0
 11
48.928557
 21
134.48001
 31
0.0
  0
LINE
  5
C3F6
  8
0
 62
     5
 10
48.928557
 20
134.48201
 30
0.0
 11
45.579138
 21
134.48201
 31
0.0
  0
LINE
  5
C3F7
  8
0
 62
     5
 10
46.006698
 20
130.764819
 30
0.0
 11
46.881105
 21
131.639226
 31
0.0
  0
LINE
  5
C3F8
  8
0
 62
     5
 10
46.303902
 20
131.913356
 30
0.0
 11
46.094779
 21
131.551145
 31
0.0
  0
LINE
  5
C3F9
  8
0
 62
     5
 10
46.163902
 20
129.932535
 30
0.0
 11
46.303902
 21
130.43469
 31
0.0
  0
LINE
  5
C3FA
  8
0
 62
     5
 10
46.163902
 20
132.471511
 30
0.0
 11
46.303902
 21
131.969356
 31
0.0
  0
LINE
  5
C3FB
  8
0
 62
     5
 10
46.094779
 20
130.8529
 30
0.0
 11
46.303902
 21
130.49069
 31
0.0
  0
LINE
  5
C3FC
  8
0
 62
     5
 10
46.881105
 20
130.764819
 30
0.0
 11
46.006698
 21
131.639226
 31
0.0
  0
LINE
  5
C3FD
  8
0
 62
     5
 10
45.676569
 20
131.342023
 30
0.0
 11
47.211235
 21
131.062023
 31
0.0
  0
LINE
  5
C3FE
  8
0
 62
     5
 10
45.732569
 20
131.342023
 30
0.0
 11
47.155235
 21
131.062023
 31
0.0
  0
LINE
  5
C3FF
  8
0
 62
     5
 10
46.163902
 20
131.911511
 30
0.0
 11
46.303902
 21
131.913356
 31
0.0
  0
LINE
  5
C400
  8
0
 62
     5
 10
46.163902
 20
130.492535
 30
0.0
 11
46.303902
 21
130.49069
 31
0.0
  0
LINE
  5
C401
  8
0
 62
     5
 10
45.732569
 20
131.062023
 30
0.0
 11
47.155235
 21
131.342023
 31
0.0
  0
LINE
  5
C402
  8
0
 62
     5
 10
45.676569
 20
131.062023
 30
0.0
 11
47.211235
 21
131.342023
 31
0.0
  0
ARC
  5
C403
  8
0
 62
     5
 10
46.443902
 20
131.202023
 30
0.0
 40
1.3
 50
77.5619
 51
102.438093
  0
ARC
  5
C404
  8
0
 62
     5
 10
46.443902
 20
131.202023
 30
0.0
 40
1.3
 50
257.561907
 51
282.438093
  0
CIRCLE
  5
C405
  8
0
 62
     5
 10
46.443902
 20
131.202023
 30
0.0
 40
2.25
  0
CIRCLE
  5
C406
  8
0
 62
     5
 10
46.443902
 20
131.202023
 30
0.0
 40
3.0
  0
ARC
  5
C407
  8
0
 62
     5
 10
46.336557
 20
131.08201
 30
0.0
 40
3.1
 50
180.0
 51
270.0
  0
ARC
  5
C408
  8
0
 62
     5
 10
47.836557
 20
138.49001
 30
0.0
 40
4.6
 50
180.0
 51
240.661371
  0
LINE
  5
C409
  8
0
 62
     5
 10
43.236557
 20
131.08201
 30
0.0
 11
43.236557
 21
139.58201
 31
0.0
  0
LINE
  5
C40A
  8
0
 62
     5
 10
45.572008
 20
134.439097
 30
0.0
 11
45.530933
 21
134.28001
 31
0.0
  0
LINE
  5
C40B
  8
0
 62
     5
 10
45.582693
 20
134.48001
 30
0.0
 11
45.572008
 21
134.439097
 31
0.0
  0
LINE
  5
C40C
  8
0
 62
     5
 10
46.006698
 20
131.639226
 30
0.0
 11
46.163902
 21
131.911511
 31
0.0
  0
LINE
  5
C40D
  8
0
 62
     5
 10
45.734414
 20
131.482023
 30
0.0
 11
46.006698
 21
131.639226
 31
0.0
  0
LINE
  5
C40E
  8
0
 62
     5
 10
46.094779
 20
131.551145
 30
0.0
 11
45.732569
 21
131.342023
 31
0.0
  0
LINE
  5
C40F
  8
0
 62
     5
 10
45.734414
 20
130.922023
 30
0.0
 11
45.732569
 21
131.062023
 31
0.0
  0
LINE
  5
C410
  8
0
 62
     5
 10
46.163902
 20
129.932535
 30
0.0
 11
46.163902
 21
130.492535
 31
0.0
  0
LINE
  5
C411
  8
0
 62
     5
 10
46.163902
 20
131.911511
 30
0.0
 11
46.163902
 21
132.471511
 31
0.0
  0
LINE
  5
C412
  8
0
 62
     5
 10
45.734414
 20
131.482023
 30
0.0
 11
45.732569
 21
131.342023
 31
0.0
  0
LINE
  5
C413
  8
0
 62
     5
 10
46.163902
 20
130.492535
 30
0.0
 11
46.006698
 21
130.764819
 31
0.0
  0
LINE
  5
C414
  8
0
 62
     5
 10
46.006698
 20
130.764819
 30
0.0
 11
45.734414
 21
130.922023
 31
0.0
  0
LINE
  5
C415
  8
0
 62
     5
 10
45.732569
 20
131.062023
 30
0.0
 11
46.094779
 21
130.8529
 31
0.0
  0
LINE
  5
C416
  8
0
 62
     5
 10
45.174414
 20
131.482023
 30
0.0
 11
45.676569
 21
131.342023
 31
0.0
  0
LINE
  5
C417
  8
0
 62
     5
 10
45.734414
 20
130.922023
 30
0.0
 11
45.174414
 21
130.922023
 31
0.0
  0
LINE
  5
C418
  8
0
 62
     5
 10
45.676569
 20
131.062023
 30
0.0
 11
45.732569
 21
131.062023
 31
0.0
  0
LINE
  5
C419
  8
0
 62
     5
 10
45.732569
 20
131.342023
 30
0.0
 11
45.676569
 21
131.342023
 31
0.0
  0
LINE
  5
C41A
  8
0
 62
     5
 10
45.174414
 20
131.482023
 30
0.0
 11
45.734414
 21
131.482023
 31
0.0
  0
LINE
  5
C41B
  8
0
 62
     5
 10
45.174414
 20
130.922023
 30
0.0
 11
45.676569
 21
131.062023
 31
0.0
  0
ARC
  5
C41C
  8
0
 62
     5
 10
46.443902
 20
131.202023
 30
0.0
 40
0.78
 50
169.660109
 51
190.339891
  0
ARC
  5
C41D
  8
0
 62
     5
 10
46.443902
 20
131.202023
 30
0.0
 40
1.3
 50
167.561905
 51
192.438093
  0
LINE
  5
C41E
  8
0
 62
     5
 10
42.236557
 20
140.58201
 30
0.0
 11
32.485128
 21
140.58201
 31
0.0
  0
ARC
  5
C41F
  8
0
 62
     5
 10
42.236557
 20
139.58201
 30
0.0
 40
1.0
 50
0.0
 51
90.0
  0
LINE
  5
C420
  8
0
 62
     5
 10
49.628557
 20
137.78201
 30
0.0
 11
49.628557
 21
134.195688
 31
0.0
  0
ARC
  5
C421
  8
0
 62
     5
 10
48.928557
 20
133.48001
 30
0.0
 40
1.0
 50
0.0
 51
90.0
  0
LINE
  5
C422
  8
0
 62
     5
 10
49.928557
 20
123.138581
 30
0.0
 11
49.928557
 21
133.48001
 31
0.0
  0
LINE
  5
C423
  8
0
 62
     5
 10
48.928557
 20
127.98201
 30
0.0
 11
46.336557
 21
127.98201
 31
0.0
  0
LINE
  5
C424
  8
0
 62
     5
 10
49.928557
 20
123.138581
 30
0.0
 11
49.923726
 21
123.138243
 31
0.0
  0
ARC
  5
C425
  8
0
 62
     5
 10
48.928557
 20
126.98201
 30
0.0
 40
1.0
 50
0.0
 51
90.0
  0
LINE
  5
C426
  8
0
 62
     5
 10
49.926974
 20
133.53769
 30
0.0
 11
49.922265
 21
133.593543
 31
0.0
  0
LINE
  5
C427
  8
0
 62
     5
 10
49.928557
 20
133.481484
 30
0.0
 11
49.926974
 21
133.53769
 31
0.0
  0
LINE
  5
C428
  8
0
 62
     5
 10
49.922265
 20
133.593543
 30
0.0
 11
49.914416
 21
133.64913
 31
0.0
  0
LINE
  5
C429
  8
0
 62
     5
 10
49.90347
 20
133.704189
 30
0.0
 11
49.889448
 21
133.758545
 31
0.0
  0
LINE
  5
C42A
  8
0
 62
     5
 10
49.914416
 20
133.64913
 30
0.0
 11
49.90347
 21
133.704189
 31
0.0
  0
LINE
  5
C42B
  8
0
 62
     5
 10
49.872408
 20
133.812029
 30
0.0
 11
49.852391
 21
133.864468
 31
0.0
  0
LINE
  5
C42C
  8
0
 62
     5
 10
49.889448
 20
133.758545
 30
0.0
 11
49.872408
 21
133.812029
 31
0.0
  0
LINE
  5
C42D
  8
0
 62
     5
 10
49.829474
 20
133.915704
 30
0.0
 11
49.803714
 21
133.96557
 31
0.0
  0
LINE
  5
C42E
  8
0
 62
     5
 10
49.852391
 20
133.864468
 30
0.0
 11
49.829474
 21
133.915704
 31
0.0
  0
LINE
  5
C42F
  8
0
 62
     5
 10
49.803714
 20
133.96557
 30
0.0
 11
49.775206
 21
134.013916
 31
0.0
  0
LINE
  5
C430
  8
0
 62
     5
 10
49.74403
 20
134.060578
 30
0.0
 11
49.710294
 21
134.10542
 31
0.0
  0
LINE
  5
C431
  8
0
 62
     5
 10
49.775206
 20
134.013916
 30
0.0
 11
49.74403
 21
134.060578
 31
0.0
  0
LINE
  5
C432
  8
0
 62
     5
 10
49.674093
 20
134.148294
 30
0.0
 11
49.635552
 21
134.189075
 31
0.0
  0
LINE
  5
C433
  8
0
 62
     5
 10
49.710294
 20
134.10542
 30
0.0
 11
49.674093
 21
134.148294
 31
0.0
  0
LINE
  5
C434
  8
0
 62
     5
 10
49.594784
 20
134.227621
 30
0.0
 11
49.551926
 21
134.263824
 31
0.0
  0
LINE
  5
C435
  8
0
 62
     5
 10
49.635552
 20
134.189075
 30
0.0
 11
49.594784
 21
134.227621
 31
0.0
  0
LINE
  5
C436
  8
0
 62
     5
 10
49.507104
 20
134.297558
 30
0.0
 11
49.460468
 21
134.32873
 31
0.0
  0
LINE
  5
C437
  8
0
 62
     5
 10
49.551926
 20
134.263824
 30
0.0
 11
49.507104
 21
134.297558
 31
0.0
  0
LINE
  5
C438
  8
0
 62
     5
 10
49.412155
 20
134.35723
 30
0.0
 11
49.362327
 21
134.382981
 31
0.0
  0
LINE
  5
C439
  8
0
 62
     5
 10
49.460468
 20
134.32873
 30
0.0
 11
49.412155
 21
134.35723
 31
0.0
  0
LINE
  5
C43A
  8
0
 62
     5
 10
49.362327
 20
134.382981
 30
0.0
 11
49.311134
 21
134.40589
 31
0.0
  0
LINE
  5
C43B
  8
0
 62
     5
 10
49.205311
 20
134.442926
 30
0.0
 11
49.151012
 21
134.45694
 31
0.0
  0
LINE
  5
C43C
  8
0
 62
     5
 10
49.258743
 20
134.425897
 30
0.0
 11
49.205311
 21
134.442926
 31
0.0
  0
LINE
  5
C43D
  8
0
 62
     5
 10
49.096012
 20
134.467879
 30
0.0
 11
49.040487
 21
134.475723
 31
0.0
  0
LINE
  5
C43E
  8
0
 62
     5
 10
48.984697
 20
134.480428
 30
0.0
 11
48.928557
 21
134.48201
 31
0.0
  0
LINE
  5
C43F
  8
0
 62
     5
 10
49.040487
 20
134.475723
 30
0.0
 11
48.984697
 21
134.480428
 31
0.0
  0
LINE
  5
C440
  8
0
 62
     5
 10
49.151012
 20
134.45694
 30
0.0
 11
49.096012
 21
134.467879
 31
0.0
  0
LINE
  5
C441
  8
0
 62
     5
 10
49.311134
 20
134.40589
 30
0.0
 11
49.258743
 21
134.425897
 31
0.0
  0
LINE
  5
C442
  8
0
 62
     5
 10
46.583902
 20
130.49069
 30
0.0
 11
46.793024
 21
130.8529
 31
0.0
  0
LINE
  5
C443
  8
0
 62
     5
 10
46.881105
 20
130.764819
 30
0.0
 11
46.723902
 21
130.492535
 31
0.0
  0
LINE
  5
C444
  8
0
 62
     5
 10
46.793024
 20
130.8529
 30
0.0
 11
47.155235
 21
131.062023
 31
0.0
  0
LINE
  5
C445
  8
0
 62
     5
 10
47.15339
 20
130.922023
 30
0.0
 11
46.881105
 21
130.764819
 31
0.0
  0
LINE
  5
C446
  8
0
 62
     5
 10
46.303902
 20
130.43469
 30
0.0
 11
46.583902
 21
131.969356
 31
0.0
  0
LINE
  5
C447
  8
0
 62
     5
 10
46.303902
 20
130.49069
 30
0.0
 11
46.583902
 21
131.913356
 31
0.0
  0
LINE
  5
C448
  8
0
 62
     5
 10
46.723902
 20
132.471511
 30
0.0
 11
46.583902
 21
131.969356
 31
0.0
  0
LINE
  5
C449
  8
0
 62
     5
 10
47.15339
 20
131.482023
 30
0.0
 11
47.155235
 21
131.342023
 31
0.0
  0
LINE
  5
C44A
  8
0
 62
     5
 10
46.303902
 20
131.969356
 30
0.0
 11
46.303902
 21
131.913356
 31
0.0
  0
LINE
  5
C44B
  8
0
 62
     5
 10
46.303902
 20
130.49069
 30
0.0
 11
46.303902
 21
130.43469
 31
0.0
  0
LINE
  5
C44C
  8
0
 62
     5
 10
46.583902
 20
130.43469
 30
0.0
 11
46.583902
 21
130.49069
 31
0.0
  0
LINE
  5
C44D
  8
0
 62
     5
 10
46.583902
 20
131.913356
 30
0.0
 11
46.583902
 21
131.969356
 31
0.0
  0
LINE
  5
C44E
  8
0
 62
     5
 10
46.723902
 20
132.47151
 30
0.0
 11
46.723902
 21
131.911511
 31
0.0
  0
LINE
  5
C44F
  8
0
 62
     5
 10
46.723902
 20
130.492535
 30
0.0
 11
46.723902
 21
129.932535
 31
0.0
  0
LINE
  5
C450
  8
0
 62
     5
 10
47.15339
 20
130.922023
 30
0.0
 11
47.155235
 21
131.062023
 31
0.0
  0
LINE
  5
C451
  8
0
 62
     5
 10
46.723902
 20
129.932535
 30
0.0
 11
46.583902
 21
130.43469
 31
0.0
  0
LINE
  5
C452
  8
0
 62
     5
 10
46.583902
 20
130.49069
 30
0.0
 11
46.303902
 21
131.913356
 31
0.0
  0
LINE
  5
C453
  8
0
 62
     5
 10
46.583902
 20
130.43469
 30
0.0
 11
46.303902
 21
131.969356
 31
0.0
  0
LINE
  5
C454
  8
0
 62
     5
 10
46.793024
 20
131.551145
 30
0.0
 11
46.583902
 21
131.913356
 31
0.0
  0
LINE
  5
C455
  8
0
 62
     5
 10
46.723902
 20
131.911511
 30
0.0
 11
46.881105
 21
131.639226
 31
0.0
  0
LINE
  5
C456
  8
0
 62
     5
 10
47.155235
 20
131.342023
 30
0.0
 11
46.793024
 21
131.551145
 31
0.0
  0
LINE
  5
C457
  8
0
 62
     5
 10
46.881105
 20
131.639226
 30
0.0
 11
47.15339
 21
131.482023
 31
0.0
  0
LINE
  5
C458
  8
0
 62
     5
 10
47.71339
 20
130.922023
 30
0.0
 11
47.211235
 21
131.062023
 31
0.0
  0
LINE
  5
C459
  8
0
 62
     5
 10
46.723902
 20
130.492535
 30
0.0
 11
46.583902
 21
130.49069
 31
0.0
  0
LINE
  5
C45A
  8
0
 62
     5
 10
47.71339
 20
130.922023
 30
0.0
 11
47.15339
 21
130.922023
 31
0.0
  0
LINE
  5
C45B
  8
0
 62
     5
 10
47.155235
 20
131.062023
 30
0.0
 11
47.211235
 21
131.062023
 31
0.0
  0
LINE
  5
C45C
  8
0
 62
     5
 10
47.211235
 20
131.342023
 30
0.0
 11
47.155235
 21
131.342023
 31
0.0
  0
LINE
  5
C45D
  8
0
 62
     5
 10
47.15339
 20
131.482023
 30
0.0
 11
47.71339
 21
131.482023
 31
0.0
  0
LINE
  5
C45E
  8
0
 62
     5
 10
46.723902
 20
131.911511
 30
0.0
 11
46.583902
 21
131.913356
 31
0.0
  0
LINE
  5
C45F
  8
0
 62
     5
 10
47.71339
 20
131.482023
 30
0.0
 11
47.211235
 21
131.342023
 31
0.0
  0
ARC
  5
C460
  8
0
 62
     5
 10
46.443902
 20
131.202023
 30
0.0
 40
0.78
 50
259.660109
 51
280.339891
  0
ARC
  5
C461
  8
0
 62
     5
 10
46.443902
 20
131.202023
 30
0.0
 40
0.78
 50
349.660109
 51
10.339891
  0
ARC
  5
C462
  8
0
 62
     5
 10
46.443902
 20
131.202023
 30
0.0
 40
0.78
 50
79.660109
 51
100.339891
  0
ARC
  5
C463
  8
0
 62
     5
 10
46.443902
 20
131.202023
 30
0.0
 40
1.3
 50
347.561907
 51
12.438093
  0
ARC
  5
C464
  8
0
 62
     5
 10
47.128557
 20
137.78201
 30
0.0
 40
2.5
 50
0.0
 51
90.0
  0
LINE
  5
C465
  8
HIDDEN
 10
188.312678
 20
83.234615
 30
7.50142
 11
172.889436
 21
83.18201
 31
0.0
  0
LINE
  5
C466
  8
0
 62
     5
 10
116.439436
 20
99.28201
 30
0.0
 11
164.589436
 21
99.968466
 31
0.0
  0
LINE
  5
C467
  8
0
 62
     5
 10
116.439436
 20
134.48201
 30
0.0
 11
164.539436
 21
132.88443
 31
0.0
  0
LINE
  5
C468
  8
0
 62
     5
 10
116.439436
 20
140.58201
 30
0.0
 11
164.539436
 21
140.58201
 31
0.0
  0
LINE
  5
C469
  8
HIDDEN
 10
123.149274
 20
94.73201
 30
0.0
 11
137.496217
 21
94.73201
 31
0.0
  0
LINE
  5
C46A
  8
HIDDEN
 10
123.149298
 20
87.43201
 30
0.0
 11
137.496217
 21
87.43201
 31
0.0
  0
LINE
  5
C46B
  8
0
 62
     5
 10
164.539436
 20
140.918135
 30
0.0
 11
116.439436
 21
140.918135
 31
0.0
  0
LINE
  5
C46C
  8
0
 62
     5
 10
164.539436
 20
140.78201
 30
0.0
 11
116.439436
 21
140.78201
 31
0.0
  0
LINE
  5
C46D
  8
0
 62
     5
 10
115.939436
 20
106.332158
 30
0.0
 11
115.939436
 21
140.918135
 31
0.0
  0
LINE
  5
C46E
  8
0
 62
     5
 10
116.439436
 20
99.28201
 30
0.0
 11
116.439436
 21
140.918135
 31
0.0
  0
LINE
  5
C46F
  8
0
 62
     5
 10
90.239436
 20
98.48201
 30
0.0
 11
90.239436
 21
139.78201
 31
0.0
  0
ARC
  5
C470
  8
HIDDEN
 10
98.465588
 20
90.521541
 30
0.0
 40
6.239561
 50
177.799927
 51
270.16526
  0
LINE
  5
C471
  8
0
 62
     5
 10
92.99242
 20
97.28201
 30
0.0
 11
112.060514
 21
97.28201
 31
0.0
  0
LINE
  5
C472
  8
0
 62
     5
 10
94.139436
 20
107.28201
 30
0.0
 11
108.439436
 21
107.28201
 31
0.0
  0
LINE
  5
C473
  8
0
 62
     5
 10
94.363052
 20
96.08201
 30
0.0
 11
95.770962
 21
96.08201
 31
0.0
  0
LINE
  5
C474
  8
0
 62
     5
 10
109.277773
 20
92.78201
 30
0.0
 11
94.6011
 21
92.78201
 31
0.0
  0
LINE
  5
C475
  8
0
 62
     5
 10
91.239436
 20
99.28201
 30
0.0
 11
115.939436
 21
99.28201
 31
0.0
  0
LINE
  5
C476
  8
0
 62
     5
 10
113.439436
 20
98.28201
 30
0.0
 11
90.439436
 21
98.28201
 31
0.0
  0
LINE
  5
C477
  8
0
 62
     5
 10
91.818359
 20
97.28201
 30
0.0
 11
112.060514
 21
97.28201
 31
0.0
  0
ARC
  5
C478
  8
0
 62
     5
 10
91.239436
 20
100.28201
 30
0.0
 40
1.0
 50
180.0
 51
270.0
  0
LINE
  5
C479
  8
HIDDEN
 10
91.827736
 20
97.28201
 30
0.0
 11
91.827736
 21
92.78201
 31
0.0
  0
LINE
  5
C47A
  8
0
 62
     5
 10
94.466531
 20
93.081827
 30
0.0
 11
94.363052
 21
96.08201
 31
0.0
  0
LINE
  5
C47B
  8
0
 62
     5
 10
93.827736
 20
97.28201
 30
0.0
 11
93.963927
 21
93.38201
 31
0.0
  0
ARC
  5
C47C
  8
HIDDEN
 10
93.327736
 20
92.78201
 30
0.0
 40
1.5
 50
180.0
 51
222.995554
  0
LINE
  5
C47D
  8
HIDDEN
 10
92.230626
 20
90.28201
 30
0.0
 11
92.230626
 21
91.762137
 31
0.0
  0
LINE
  5
C47E
  8
0
 62
     5
 10
93.96394
 20
93.38201
 30
0.0
 11
94.284099
 21
93.38201
 31
0.0
  0
LINE
  5
C47F
  8
0
 62
     5
 10
94.294453
 20
93.081827
 30
0.0
 11
94.466531
 21
93.081827
 31
0.0
  0
LINE
  5
C480
  8
0
 62
     5
 10
94.466531
 20
93.081827
 30
0.0
 11
94.773178
 21
92.78201
 31
0.0
  0
LINE
  5
C481
  8
0
 62
     5
 10
94.6011
 20
92.78201
 30
0.0
 11
94.294453
 21
93.081827
 31
0.0
  0
LINE
  5
C482
  8
0
 62
     5
 10
94.284099
 20
93.38201
 30
0.0
 11
94.294453
 21
93.081827
 31
0.0
  0
ARC
  5
C483
  8
0
 62
     5
 10
90.439436
 20
98.48201
 30
0.0
 40
0.2
 50
180.0
 51
270.0
  0
LINE
  5
C484
  8
HIDDEN
 10
91.818355
 20
97.28201
 30
0.0
 11
91.730866
 21
98.28201
 31
0.0
  0
LINE
  5
C485
  8
0
 62
     5
 10
91.818355
 20
97.28201
 30
0.0
 11
91.730866
 21
98.28201
 31
0.0
  0
LINE
  5
C486
  8
0
 62
     5
 10
93.939436
 20
107.48201
 30
0.0
 11
93.939436
 21
113.661577
 31
0.0
  0
LINE
  5
C487
  8
0
 62
     5
 10
90.482193
 20
111.200061
 30
0.0
 11
90.47743
 21
111.131012
 31
0.0
  0
LINE
  5
C488
  8
0
 62
     5
 10
92.139436
 20
108.311678
 30
0.0
 11
92.139436
 21
112.811476
 31
0.0
  0
ARC
  5
C489
  8
0
 62
     5
 10
91.44569
 20
109.111577
 30
0.0
 40
0.8
 50
196.191339
 51
269.999997
  0
LINE
  5
C48A
  8
0
 62
     5
 10
90.488115
 20
110.841577
 30
0.0
 11
90.581963
 21
110.841577
 31
0.0
  0
LINE
  5
C48B
  8
0
 62
     5
 10
90.581963
 20
110.281577
 30
0.0
 11
90.488115
 21
110.281577
 31
0.0
  0
LINE
  5
C48C
  8
0
 62
     5
 10
90.477443
 20
110.922309
 30
0.0
 11
90.482203
 21
110.882476
 31
0.0
  0
LINE
  5
C48D
  8
0
 62
     5
 10
90.482203
 20
110.882476
 30
0.0
 11
90.488115
 21
110.841577
 31
0.0
  0
LINE
  5
C48E
  8
0
 62
     5
 10
90.471379
 20
110.124374
 30
0.0
 11
90.473806
 21
110.059551
 31
0.0
  0
LINE
  5
C48F
  8
0
 62
     5
 10
90.471379
 20
110.998781
 30
0.0
 11
90.473835
 21
110.961077
 31
0.0
  0
LINE
  5
C490
  8
0
 62
     5
 10
90.473835
 20
110.961077
 30
0.0
 11
90.477443
 21
110.922309
 31
0.0
  0
LINE
  5
C491
  8
0
 62
     5
 10
90.488115
 20
110.281577
 30
0.0
 11
90.482288
 21
110.241481
 31
0.0
  0
LINE
  5
C492
  8
0
 62
     5
 10
90.482288
 20
110.241481
 30
0.0
 11
90.477556
 21
110.201915
 31
0.0
  0
LINE
  5
C493
  8
0
 62
     5
 10
90.477556
 20
110.201915
 30
0.0
 11
90.47392
 21
110.162879
 31
0.0
  0
LINE
  5
C494
  8
0
 62
     5
 10
90.47392
 20
110.162879
 30
0.0
 11
90.471379
 21
110.124374
 31
0.0
  0
LINE
  5
C495
  8
0
 62
     5
 10
90.47743
 20
111.131012
 30
0.0
 11
90.473825
 21
111.063919
 31
0.0
  0
LINE
  5
C496
  8
0
 62
     5
 10
90.473825
 20
111.063919
 30
0.0
 11
90.471379
 21
110.998781
 31
0.0
  0
LINE
  5
C497
  8
0
 62
     5
 10
90.581963
 20
110.841577
 30
0.0
 11
90.581963
 21
110.281577
 31
0.0
  0
ARC
  5
C498
  8
0
 62
     5
 10
96.439436
 20
110.561577
 30
0.0
 40
6.0
 50
192.513325
 51
196.19135
  0
LINE
  5
C499
  8
0
 62
     5
 10
90.542303
 20
109.491338
 30
0.0
 11
90.561028
 21
109.393306
 31
0.0
  0
LINE
  5
C49A
  8
0
 62
     5
 10
90.561028
 20
109.393306
 30
0.0
 11
90.581963
 21
109.292089
 31
0.0
  0
LINE
  5
C49B
  8
0
 62
     5
 10
90.488115
 20
109.852089
 30
0.0
 11
90.498868
 21
109.766502
 31
0.0
  0
LINE
  5
C49C
  8
0
 62
     5
 10
90.498868
 20
109.766502
 30
0.0
 11
90.511484
 21
109.677848
 31
0.0
  0
LINE
  5
C49D
  8
0
 62
     5
 10
90.511484
 20
109.677848
 30
0.0
 11
90.525875
 21
109.586156
 31
0.0
  0
LINE
  5
C49E
  8
0
 62
     5
 10
90.525875
 20
109.586156
 30
0.0
 11
90.542303
 21
109.491338
 31
0.0
  0
LINE
  5
C49F
  8
0
 62
     5
 10
90.477404
 20
109.992563
 30
0.0
 11
90.482174
 21
109.923409
 31
0.0
  0
LINE
  5
C4A0
  8
0
 62
     5
 10
90.482174
 20
109.923409
 30
0.0
 11
90.488115
 21
109.852089
 31
0.0
  0
LINE
  5
C4A1
  8
0
 62
     5
 10
90.581963
 20
109.292089
 30
0.0
 11
90.581963
 21
109.261577
 31
0.0
  0
LINE
  5
C4A2
  8
0
 62
     5
 10
90.473806
 20
110.059551
 30
0.0
 11
90.477404
 21
109.992563
 31
0.0
  0
ARC
  5
C4A3
  8
0
 62
     5
 10
94.139436
 20
107.48201
 30
0.0
 40
0.2
 50
180.0
 51
270.0
  0
LINE
  5
C4A4
  8
0
 62
     5
 10
93.139436
 20
107.561577
 30
0.0
 11
93.939436
 21
107.561577
 31
0.0
  0
LINE
  5
C4A5
  8
0
 62
     5
 10
91.44569
 20
108.311577
 30
0.0
 11
92.139436
 21
108.311577
 31
0.0
  0
ARC
  5
C4A6
  8
0
 62
     5
 10
93.139436
 20
108.561577
 30
0.0
 40
1.0
 50
180.0
 51
270.0
  0
ARC
  5
C4A7
  8
0
 62
     5
 10
91.44569
 20
112.011577
 30
0.0
 40
0.8
 50
90.000003
 51
163.808661
  0
LINE
  5
C4A8
  8
0
 62
     5
 10
91.239436
 20
113.661577
 30
0.0
 11
93.939436
 21
113.661577
 31
0.0
  0
ARC
  5
C4A9
  8
0
 62
     5
 10
96.439436
 20
110.561577
 30
0.0
 40
6.0
 50
163.80865
 51
167.486675
  0
LINE
  5
C4AA
  8
0
 62
     5
 10
90.541768
 20
111.628868
 30
0.0
 11
90.525326
 21
111.533669
 31
0.0
  0
LINE
  5
C4AB
  8
0
 62
     5
 10
90.525326
 20
111.533669
 30
0.0
 11
90.511042
 21
111.442336
 31
0.0
  0
LINE
  5
C4AC
  8
0
 62
     5
 10
90.511042
 20
111.442336
 30
0.0
 11
90.498603
 21
111.354793
 31
0.0
  0
LINE
  5
C4AD
  8
0
 62
     5
 10
90.498603
 20
111.354793
 30
0.0
 11
90.488115
 21
111.271065
 31
0.0
  0
LINE
  5
C4AE
  8
0
 62
     5
 10
90.488115
 20
111.271065
 30
0.0
 11
90.482193
 21
111.200061
 31
0.0
  0
LINE
  5
C4AF
  8
0
 62
     5
 10
90.581963
 20
111.861577
 30
0.0
 11
90.581963
 21
111.831065
 31
0.0
  0
LINE
  5
C4B0
  8
0
 62
     5
 10
90.581963
 20
111.831065
 30
0.0
 11
90.560682
 21
111.728008
 31
0.0
  0
LINE
  5
C4B1
  8
0
 62
     5
 10
90.560682
 20
111.728008
 30
0.0
 11
90.541768
 21
111.628868
 31
0.0
  0
ARC
  5
C4B2
  8
0
 62
     5
 10
91.239436
 20
114.661577
 30
0.0
 40
1.0
 50
180.0
 51
270.0
  0
LINE
  5
C4B3
  8
0
 62
     5
 10
93.139436
 20
113.561577
 30
0.0
 11
93.939436
 21
113.561577
 31
0.0
  0
LINE
  5
C4B4
  8
0
 62
     5
 10
91.44569
 20
112.811577
 30
0.0
 11
92.139436
 21
112.811577
 31
0.0
  0
ARC
  5
C4B5
  8
0
 62
     5
 10
93.139436
 20
112.561577
 30
0.0
 40
1.0
 50
90.0
 51
180.0
  0
LINE
  5
C4B6
  8
0
 62
     5
 10
115.939436
 20
100.452994
 30
0.0
 11
115.939436
 21
99.28201
 31
0.0
  0
ARC
  5
C4B7
  8
0
 62
     5
 10
109.439436
 20
99.78201
 30
0.0
 40
0.5
 50
180.0
 51
270.0
  0
ARC
  5
C4B8
  8
0
 62
     5
 10
111.439436
 20
99.78201
 30
0.0
 40
0.5
 50
270.0
 51
0.0
  0
LINE
  5
C4B9
  8
CENTER
 10
101.939436
 20
101.28201
 30
0.0
 11
101.939436
 21
81.62704
 31
0.0
  0
LINE
  5
C4BA
  8
HIDDEN
 10
118.161149
 20
84.28201
 30
0.0
 11
98.485777
 21
84.282012
 31
0.0
  0
LINE
  5
C4BB
  8
0
 62
     5
 10
100.340785
 20
93.081827
 30
0.0
 11
106.464453
 21
93.081827
 31
0.0
  0
LINE
  5
C4BC
  8
0
 62
     5
 10
95.770962
 20
96.08201
 30
0.0
 11
95.874441
 21
93.081827
 31
0.0
  0
LINE
  5
C4BD
  8
0
 62
     5
 10
96.036165
 20
93.38201
 30
0.0
 11
100.342425
 21
93.38201
 31
0.0
  0
LINE
  5
C4BE
  8
0
 62
     5
 10
95.874441
 20
93.081827
 30
0.0
 11
96.046519
 21
93.081827
 31
0.0
  0
LINE
  5
C4BF
  8
0
 62
     5
 10
96.353166
 20
92.78201
 30
0.0
 11
96.046519
 21
93.081827
 31
0.0
  0
LINE
  5
C4C0
  8
0
 62
     5
 10
96.181088
 20
92.78201
 30
0.0
 11
95.874441
 21
93.081827
 31
0.0
  0
LINE
  5
C4C1
  8
0
 62
     5
 10
96.046519
 20
93.081827
 30
0.0
 11
96.036165
 21
93.38201
 31
0.0
  0
LINE
  5
C4C2
  8
0
 62
     5
 10
100.342425
 20
93.38201
 30
0.0
 11
100.340785
 21
93.081827
 31
0.0
  0
LINE
  5
C4C3
  8
0
 62
     5
 10
100.292217
 20
92.78201
 30
0.0
 11
100.340785
 21
93.081827
 31
0.0
  0
LINE
  5
C4C4
  8
0
 62
     5
 10
110.051137
 20
97.28201
 30
0.0
 11
109.914946
 21
93.38201
 31
0.0
  0
LINE
  5
C4C5
  8
0
 62
     5
 10
109.914933
 20
93.38201
 30
0.0
 11
106.466093
 21
93.38201
 31
0.0
  0
LINE
  5
C4C6
  8
0
 62
     5
 10
106.464453
 20
93.081827
 30
0.0
 11
106.466093
 21
93.38201
 31
0.0
  0
LINE
  5
C4C7
  8
0
 62
     5
 10
106.415885
 20
92.78201
 30
0.0
 11
106.464453
 21
93.081827
 31
0.0
  0
LINE
  5
C4C8
  8
0
 62
     5
 10
109.277773
 20
92.78201
 30
0.0
 11
109.58442
 21
93.081827
 31
0.0
  0
LINE
  5
C4C9
  8
0
 62
     5
 10
109.594774
 20
93.38201
 30
0.0
 11
109.58442
 21
93.081827
 31
0.0
  0
LINE
  5
C4CA
  8
HIDDEN
 10
120.359564
 20
85.48201
 30
0.0
 11
119.129651
 21
84.597469
 31
0.0
  0
LINE
  5
C4CB
  8
HIDDEN
 10
121.693203
 20
85.48201
 30
0.0
 11
120.31044
 21
85.48201
 31
0.0
  0
LINE
  5
C4CC
  8
HIDDEN
 10
120.359564
 20
96.68201
 30
0.0
 11
119.129651
 21
97.566551
 31
0.0
  0
LINE
  5
C4CD
  8
HIDDEN
 10
118.161149
 20
97.88201
 30
0.0
 11
112.113011
 21
97.88201
 31
0.0
  0
LINE
  5
C4CE
  8
HIDDEN
 10
112.113011
 20
97.88201
 30
0.0
 11
112.148007
 21
98.28201
 31
0.0
  0
LINE
  5
C4CF
  8
0
 62
     5
 10
113.639436
 20
98.78201
 30
0.0
 11
113.639436
 21
98.48201
 31
0.0
  0
ARC
  5
C4D0
  8
0
 62
     5
 10
114.139436
 20
98.78201
 30
0.0
 40
0.5
 50
90.0
 51
180.0
  0
LINE
  5
C4D1
  8
0
 62
     5
 10
112.060518
 20
97.28201
 30
0.0
 11
112.148007
 21
98.28201
 31
0.0
  0
ARC
  5
C4D2
  8
0
 62
     5
 10
113.439436
 20
98.48201
 30
0.0
 40
0.2
 50
270.0
 51
0.0
  0
LINE
  5
C4D3
  8
HIDDEN
 10
121.693203
 20
96.68201
 30
0.0
 11
120.31044
 21
96.68201
 31
0.0
  0
LINE
  5
C4D4
  8
0
 62
     5
 10
108.939436
 20
99.78201
 30
0.0
 11
108.939436
 21
106.867796
 31
0.0
  0
ARC
  5
C4D5
  8
0
 62
     5
 10
108.439436
 20
106.78201
 30
0.0
 40
0.5
 50
0.0
 51
90.0
  0
LINE
  5
C4D6
  8
0
 62
     5
 10
113.988325
 20
105.232158
 30
0.0
 11
114.043796
 21
105.423824
 31
0.0
  0
LINE
  5
C4D7
  8
0
 62
     5
 10
111.939436
 20
106.867796
 30
0.0
 11
111.939436
 21
99.78201
 31
0.0
  0
LINE
  5
C4D8
  8
0
 62
     5
 10
115.739436
 20
100.452994
 30
0.0
 11
115.739436
 21
106.330356
 31
0.0
  0
LINE
  5
C4D9
  8
0
 62
     5
 10
116.439436
 20
100.452994
 30
0.0
 11
115.739436
 21
100.452994
 31
0.0
  0
LINE
  5
C4DA
  8
0
 62
     5
 10
113.83067
 20
104.433018
 30
0.0
 11
113.819215
 21
104.326671
 31
0.0
  0
LINE
  5
C4DB
  8
0
 62
     5
 10
113.819215
 20
104.326671
 30
0.0
 11
113.810112
 21
104.222718
 31
0.0
  0
LINE
  5
C4DC
  8
0
 62
     5
 10
113.988325
 20
105.232158
 30
0.0
 11
113.988325
 21
105.210846
 31
0.0
  0
LINE
  5
C4DD
  8
0
 62
     5
 10
113.988325
 20
105.210846
 30
0.0
 11
113.961833
 21
105.109764
 31
0.0
  0
LINE
  5
C4DE
  8
0
 62
     5
 10
113.961833
 20
105.109764
 30
0.0
 11
113.937539
 21
105.011816
 31
0.0
  0
LINE
  5
C4DF
  8
0
 62
     5
 10
113.937539
 20
105.011816
 30
0.0
 11
113.915522
 21
104.917034
 31
0.0
  0
LINE
  5
C4E0
  8
0
 62
     5
 10
113.915522
 20
104.917034
 30
0.0
 11
113.895543
 21
104.825321
 31
0.0
  0
LINE
  5
C4E1
  8
0
 62
     5
 10
113.886224
 20
104.781473
 30
0.0
 11
113.892611
 21
104.811008
 31
0.0
  0
LINE
  5
C4E2
  8
0
 62
     5
 10
113.895543
 20
104.825321
 30
0.0
 11
113.877363
 21
104.736581
 31
0.0
  0
LINE
  5
C4E3
  8
0
 62
     5
 10
113.861062
 20
104.650846
 30
0.0
 11
113.886224
 21
104.781473
 31
0.0
  0
LINE
  5
C4E4
  8
0
 62
     5
 10
113.877363
 20
104.736581
 30
0.0
 11
113.861062
 21
104.650846
 31
0.0
  0
LINE
  5
C4E5
  8
0
 62
     5
 10
113.861062
 20
104.650846
 30
0.0
 11
113.844637
 21
104.540991
 31
0.0
  0
LINE
  5
C4E6
  8
0
 62
     5
 10
113.844637
 20
104.540991
 30
0.0
 11
113.83067
 21
104.433018
 31
0.0
  0
LINE
  5
C4E7
  8
0
 62
     5
 10
115.000316
 20
100.632158
 30
0.0
 11
115.739436
 21
100.632158
 31
0.0
  0
LINE
  5
C4E8
  8
0
 62
     5
 10
113.861062
 20
103.662158
 30
0.0
 11
113.988325
 21
103.662158
 31
0.0
  0
LINE
  5
C4E9
  8
0
 62
     5
 10
113.988325
 20
103.102158
 30
0.0
 11
113.861062
 21
103.102158
 31
0.0
  0
LINE
  5
C4EA
  8
0
 62
     5
 10
113.988325
 20
101.532158
 30
0.0
 11
114.043796
 21
101.340491
 31
0.0
  0
LINE
  5
C4EB
  8
0
 62
     5
 10
113.806237
 20
103.940321
 30
0.0
 11
113.811754
 21
103.897327
 31
0.0
  0
LINE
  5
C4EC
  8
0
 62
     5
 10
113.82913
 20
102.344475
 30
0.0
 11
113.843572
 21
102.232031
 31
0.0
  0
LINE
  5
C4ED
  8
0
 62
     5
 10
113.843572
 20
102.232031
 30
0.0
 11
113.861062
 21
102.11347
 31
0.0
  0
LINE
  5
C4EE
  8
0
 62
     5
 10
113.811754
 20
103.897327
 30
0.0
 11
113.818537
 21
103.853282
 31
0.0
  0
LINE
  5
C4EF
  8
0
 62
     5
 10
113.818537
 20
103.853282
 30
0.0
 11
113.826674
 21
103.807963
 31
0.0
  0
LINE
  5
C4F0
  8
0
 62
     5
 10
113.861062
 20
102.11347
 30
0.0
 11
113.886224
 21
101.982843
 31
0.0
  0
LINE
  5
C4F1
  8
0
 62
     5
 10
113.826674
 20
103.807963
 30
0.0
 11
113.836361
 21
103.761149
 31
0.0
  0
LINE
  5
C4F2
  8
0
 62
     5
 10
113.886224
 20
101.982843
 30
0.0
 11
113.915822
 21
101.845967
 31
0.0
  0
LINE
  5
C4F3
  8
0
 62
     5
 10
113.836361
 20
103.761149
 30
0.0
 11
113.847852
 21
103.712511
 31
0.0
  0
LINE
  5
C4F4
  8
0
 62
     5
 10
113.915822
 20
101.845967
 30
0.0
 11
113.949856
 21
101.702843
 31
0.0
  0
LINE
  5
C4F5
  8
0
 62
     5
 10
113.949856
 20
101.702843
 30
0.0
 11
113.988325
 21
101.55347
 31
0.0
  0
LINE
  5
C4F6
  8
0
 62
     5
 10
113.847852
 20
103.712511
 30
0.0
 11
113.861062
 21
103.662158
 31
0.0
  0
LINE
  5
C4F7
  8
0
 62
     5
 10
113.801816
 20
103.982596
 30
0.0
 11
113.806237
 21
103.940321
 31
0.0
  0
LINE
  5
C4F8
  8
0
 62
     5
 10
113.817943
 20
102.450355
 30
0.0
 11
113.82913
 21
102.344475
 31
0.0
  0
LINE
  5
C4F9
  8
0
 62
     5
 10
113.806248
 20
102.824083
 30
0.0
 11
113.801821
 21
102.781769
 31
0.0
  0
LINE
  5
C4FA
  8
0
 62
     5
 10
113.801821
 20
102.781769
 30
0.0
 11
113.798546
 21
102.740273
 31
0.0
  0
LINE
  5
C4FB
  8
0
 62
     5
 10
113.803205
 20
104.121928
 30
0.0
 11
113.798546
 21
104.024043
 31
0.0
  0
LINE
  5
C4FC
  8
0
 62
     5
 10
113.988325
 20
101.55347
 30
0.0
 11
113.988325
 21
101.532158
 31
0.0
  0
LINE
  5
C4FD
  8
0
 62
     5
 10
113.988325
 20
103.662158
 30
0.0
 11
113.988325
 21
103.102158
 31
0.0
  0
LINE
  5
C4FE
  8
0
 62
     5
 10
113.798546
 20
102.740273
 30
0.0
 11
113.802857
 21
102.647805
 31
0.0
  0
LINE
  5
C4FF
  8
0
 62
     5
 10
113.802857
 20
102.647805
 30
0.0
 11
113.809392
 21
102.551016
 31
0.0
  0
LINE
  5
C500
  8
0
 62
     5
 10
113.798546
 20
104.024043
 30
0.0
 11
113.801816
 21
103.982596
 31
0.0
  0
LINE
  5
C501
  8
0
 62
     5
 10
113.809392
 20
102.551016
 30
0.0
 11
113.817943
 21
102.450355
 31
0.0
  0
LINE
  5
C502
  8
0
 62
     5
 10
113.861062
 20
103.102158
 30
0.0
 11
113.847865
 21
103.051861
 31
0.0
  0
LINE
  5
C503
  8
0
 62
     5
 10
113.847865
 20
103.051861
 30
0.0
 11
113.836382
 21
103.003263
 31
0.0
  0
LINE
  5
C504
  8
0
 62
     5
 10
113.836382
 20
103.003263
 30
0.0
 11
113.826697
 21
102.956474
 31
0.0
  0
LINE
  5
C505
  8
0
 62
     5
 10
113.826697
 20
102.956474
 30
0.0
 11
113.818558
 21
102.911162
 31
0.0
  0
LINE
  5
C506
  8
0
 62
     5
 10
113.818558
 20
102.911162
 30
0.0
 11
113.81177
 21
102.867104
 31
0.0
  0
LINE
  5
C507
  8
0
 62
     5
 10
113.81177
 20
102.867104
 30
0.0
 11
113.806248
 21
102.824083
 31
0.0
  0
ARC
  5
C508
  8
0
 62
     5
 10
115.000316
 20
101.632158
 30
0.0
 40
1.0
 50
196.957755
 51
269.999998
  0
LINE
  5
C509
  8
0
 62
     5
 10
113.810112
 20
104.222718
 30
0.0
 11
113.803205
 21
104.121928
 31
0.0
  0
LINE
  5
C50A
  8
0
 62
     5
 10
115.939436
 20
99.53201
 30
0.0
 11
116.439436
 21
99.53201
 31
0.0
  0
LINE
  5
C50B
  8
0
 62
     5
 10
116.439436
 20
106.332158
 30
0.0
 11
115.739436
 21
106.332158
 31
0.0
  0
LINE
  5
C50C
  8
0
 62
     5
 10
112.439436
 20
107.28201
 30
0.0
 11
115.939436
 21
107.28201
 31
0.0
  0
LINE
  5
C50D
  8
0
 62
     5
 10
115.000316
 20
106.132158
 30
0.0
 11
115.739436
 21
106.132158
 31
0.0
  0
ARC
  5
C50E
  8
0
 62
     5
 10
112.439436
 20
106.78201
 30
0.0
 40
0.5
 50
90.0
 51
180.0
  0
ARC
  5
C50F
  8
0
 62
     5
 10
115.000316
 20
105.132158
 30
0.0
 40
1.0
 50
90.000002
 51
163.042245
  0
LINE
  5
C510
  8
0
 62
     5
 10
115.939436
 20
107.53201
 30
0.0
 11
116.439436
 21
107.53201
 31
0.0
  0
LINE
  5
C511
  8
0
 62
     5
 10
115.939436
 20
140.918135
 30
0.0
 11
94.139436
 21
140.918135
 31
0.0
  0
LINE
  5
C512
  8
0
 62
     5
 10
94.139436
 20
134.48001
 30
0.0
 11
115.939436
 21
134.48001
 31
0.0
  0
LINE
  5
C513
  8
0
 62
     5
 10
115.939436
 20
140.78201
 30
0.0
 11
91.239436
 21
140.78201
 31
0.0
  0
LINE
  5
C514
  8
0
 62
     5
 10
91.239436
 20
140.58201
 30
0.0
 11
115.939436
 21
140.58201
 31
0.0
  0
LINE
  5
C515
  8
0
 62
     5
 10
93.939436
 20
127.98201
 30
0.0
 11
93.939436
 21
140.58201
 31
0.0
  0
ARC
  5
C516
  8
0
 62
     5
 10
93.139436
 20
129.202023
 30
0.0
 40
1.0
 50
180.0
 51
270.0
  0
LINE
  5
C517
  8
0
 62
     5
 10
93.939436
 20
127.98201
 30
0.0
 11
91.239436
 21
127.98201
 31
0.0
  0
ARC
  5
C518
  8
0
 62
     5
 10
91.239436
 20
126.98201
 30
0.0
 40
1.0
 50
90.0
 51
180.0
  0
LINE
  5
C519
  8
0
 62
     5
 10
93.139436
 20
128.202023
 30
0.0
 11
93.939436
 21
128.202023
 31
0.0
  0
ARC
  5
C51A
  8
0
 62
     5
 10
91.44569
 20
129.752023
 30
0.0
 40
0.8
 50
196.191339
 51
269.999997
  0
ARC
  5
C51B
  8
0
 62
     5
 10
91.44569
 20
132.652023
 30
0.0
 40
0.8
 50
90.000003
 51
163.808661
  0
ARC
  5
C51C
  8
0
 62
     5
 10
96.439436
 20
131.202023
 30
0.0
 40
6.0
 50
163.80865
 51
167.486675
  0
ARC
  5
C51D
  8
0
 62
     5
 10
96.439436
 20
131.202023
 30
0.0
 40
6.0
 50
192.513325
 51
196.19135
  0
LINE
  5
C51E
  8
0
 62
     5
 10
90.488115
 20
131.482023
 30
0.0
 11
90.581963
 21
131.482023
 31
0.0
  0
LINE
  5
C51F
  8
0
 62
     5
 10
90.581963
 20
130.922023
 30
0.0
 11
90.488115
 21
130.922023
 31
0.0
  0
LINE
  5
C520
  8
0
 62
     5
 10
90.511484
 20
130.318294
 30
0.0
 11
90.525875
 21
130.226602
 31
0.0
  0
LINE
  5
C521
  8
0
 62
     5
 10
90.525875
 20
130.226602
 30
0.0
 11
90.542303
 21
130.131783
 31
0.0
  0
LINE
  5
C522
  8
0
 62
     5
 10
90.542303
 20
130.131783
 30
0.0
 11
90.561028
 21
130.033751
 31
0.0
  0
LINE
  5
C523
  8
0
 62
     5
 10
90.561028
 20
130.033751
 30
0.0
 11
90.581963
 21
129.932535
 31
0.0
  0
LINE
  5
C524
  8
0
 62
     5
 10
90.477443
 20
131.562755
 30
0.0
 11
90.482203
 21
131.522921
 31
0.0
  0
LINE
  5
C525
  8
0
 62
     5
 10
90.488115
 20
130.492535
 30
0.0
 11
90.498868
 21
130.406948
 31
0.0
  0
LINE
  5
C526
  8
0
 62
     5
 10
90.498868
 20
130.406948
 30
0.0
 11
90.511484
 21
130.318294
 31
0.0
  0
LINE
  5
C527
  8
0
 62
     5
 10
90.482203
 20
131.522921
 30
0.0
 11
90.488115
 21
131.482023
 31
0.0
  0
LINE
  5
C528
  8
0
 62
     5
 10
90.471379
 20
130.764819
 30
0.0
 11
90.473806
 21
130.699997
 31
0.0
  0
LINE
  5
C529
  8
0
 62
     5
 10
90.473806
 20
130.699997
 30
0.0
 11
90.477404
 21
130.633009
 31
0.0
  0
LINE
  5
C52A
  8
0
 62
     5
 10
90.471379
 20
131.639226
 30
0.0
 11
90.473835
 21
131.601523
 31
0.0
  0
LINE
  5
C52B
  8
0
 62
     5
 10
90.477404
 20
130.633009
 30
0.0
 11
90.482174
 21
130.563855
 31
0.0
  0
LINE
  5
C52C
  8
0
 62
     5
 10
90.482174
 20
130.563855
 30
0.0
 11
90.488115
 21
130.492535
 31
0.0
  0
LINE
  5
C52D
  8
0
 62
     5
 10
90.473835
 20
131.601523
 30
0.0
 11
90.477443
 21
131.562755
 31
0.0
  0
LINE
  5
C52E
  8
0
 62
     5
 10
90.488115
 20
130.922023
 30
0.0
 11
90.482288
 21
130.881927
 31
0.0
  0
LINE
  5
C52F
  8
0
 62
     5
 10
90.511042
 20
132.082782
 30
0.0
 11
90.498603
 21
131.995239
 31
0.0
  0
LINE
  5
C530
  8
0
 62
     5
 10
90.498603
 20
131.995239
 30
0.0
 11
90.488115
 21
131.911511
 31
0.0
  0
LINE
  5
C531
  8
0
 62
     5
 10
90.482288
 20
130.881927
 30
0.0
 11
90.477556
 21
130.842361
 31
0.0
  0
LINE
  5
C532
  8
0
 62
     5
 10
90.477556
 20
130.842361
 30
0.0
 11
90.47392
 21
130.803325
 31
0.0
  0
LINE
  5
C533
  8
0
 62
     5
 10
90.488115
 20
131.911511
 30
0.0
 11
90.482193
 21
131.840507
 31
0.0
  0
LINE
  5
C534
  8
0
 62
     5
 10
90.482193
 20
131.840507
 30
0.0
 11
90.47743
 21
131.771458
 31
0.0
  0
LINE
  5
C535
  8
0
 62
     5
 10
90.47392
 20
130.803325
 30
0.0
 11
90.471379
 21
130.764819
 31
0.0
  0
LINE
  5
C536
  8
0
 62
     5
 10
90.47743
 20
131.771458
 30
0.0
 11
90.473825
 21
131.704364
 31
0.0
  0
LINE
  5
C537
  8
0
 62
     5
 10
90.473825
 20
131.704364
 30
0.0
 11
90.471379
 21
131.639226
 31
0.0
  0
LINE
  5
C538
  8
0
 62
     5
 10
90.581963
 20
129.932535
 30
0.0
 11
90.581963
 21
129.902023
 31
0.0
  0
LINE
  5
C539
  8
0
 62
     5
 10
90.581963
 20
131.482023
 30
0.0
 11
90.581963
 21
130.922023
 31
0.0
  0
LINE
  5
C53A
  8
0
 62
     5
 10
90.581963
 20
132.502023
 30
0.0
 11
90.581963
 21
132.471511
 31
0.0
  0
LINE
  5
C53B
  8
0
 62
     5
 10
90.581963
 20
132.47151
 30
0.0
 11
90.560682
 21
132.368454
 31
0.0
  0
LINE
  5
C53C
  8
0
 62
     5
 10
90.560682
 20
132.368454
 30
0.0
 11
90.541768
 21
132.269313
 31
0.0
  0
LINE
  5
C53D
  8
0
 62
     5
 10
90.541768
 20
132.269313
 30
0.0
 11
90.525326
 21
132.174115
 31
0.0
  0
LINE
  5
C53E
  8
0
 62
     5
 10
90.525326
 20
132.174115
 30
0.0
 11
90.511042
 21
132.082782
 31
0.0
  0
ARC
  5
C53F
  8
0
 62
     5
 10
94.139436
 20
134.28001
 30
0.0
 40
0.2
 50
90.0
 51
180.0
  0
LINE
  5
C540
  8
0
 62
     5
 10
93.139436
 20
134.202023
 30
0.0
 11
93.939436
 21
134.202023
 31
0.0
  0
LINE
  5
C541
  8
0
 62
     5
 10
91.44569
 20
133.452023
 30
0.0
 11
92.139436
 21
133.452023
 31
0.0
  0
LINE
  5
C542
  8
0
 62
     5
 10
91.44569
 20
128.952023
 30
0.0
 11
92.139436
 21
128.952023
 31
0.0
  0
LINE
  5
C543
  8
0
 62
     5
 10
92.139436
 20
128.952124
 30
0.0
 11
92.139436
 21
133.451922
 31
0.0
  0
ARC
  5
C544
  8
0
 62
     5
 10
93.139436
 20
133.202023
 30
0.0
 40
1.0
 50
90.0
 51
180.0
  0
ARC
  5
C545
  8
0
 62
     5
 10
91.239436
 20
139.78201
 30
0.0
 40
1.0
 50
90.0
 51
180.0
  0
ARC
  5
C546
  8
0
 62
     5
 10
91.239436
 20
139.58201
 30
0.0
 40
1.0
 50
90.0
 51
180.0
  0
LINE
  5
C547
  8
0
 62
     5
 10
93.939436
 20
137.118879
 30
0.0
 11
93.943751
 21
137.25917
 31
0.0
  0
ARC
  5
C548
  8
0
 62
     5
 10
93.139436
 20
139.818135
 30
0.0
 40
1.0
 50
90.0
 51
105.390908
  0
ARC
  5
C549
  8
0
 62
     5
 10
94.139436
 20
140.718135
 30
0.0
 40
0.2
 50
90.0
 51
161.360907
  0
LINE
  5
C54A
  8
0
 62
     5
 10
93.139436
 20
140.818135
 30
0.0
 11
93.939436
 21
140.818135
 31
0.0
  0
LINE
  5
C54B
  8
0
 62
     5
 10
93.939436
 20
140.78201
 30
0.0
 11
93.939436
 21
140.818135
 31
0.0
  0
LINE
  5
C54C
  8
0
 62
     5
 10
115.939436
 20
134.23001
 30
0.0
 11
116.439436
 21
134.23001
 31
0.0
  0
LINE
  5
C54D
  8
0
 62
     5
 10
115.939436
 20
140.33201
 30
0.0
 11
116.439436
 21
140.33201
 31
0.0
  0
LINE
  5
C54E
  8
0
 62
     5
 10
115.939436
 20
140.668135
 30
0.0
 11
116.439436
 21
140.668135
 31
0.0
  0
LINE
  5
C54F
  8
0
 62
     5
 10
115.939436
 20
140.53201
 30
0.0
 11
116.439436
 21
140.53201
 31
0.0
  0
LINE
  5
C550
  8
0
 62
     5
 10
192.739436
 20
100.28201
 30
0.0
 11
192.739436
 21
140.28201
 31
0.0
  0
LINE
  5
C551
  8
HIDDEN
 10
162.204916
 20
92.891059
 30
0.0
 11
157.824182
 21
92.891059
 31
0.0
  0
LINE
  5
C552
  8
HIDDEN
 10
156.914943
 20
81.672961
 30
0.0
 11
162.182894
 21
81.672961
 31
0.0
  0
LINE
  5
C553
  8
0
 62
     5
 10
158.567076
 20
99.487812
 30
0.0
 11
158.5737
 21
99.520188
 31
0.0
  0
LINE
  5
C554
  8
0
 62
     5
 10
138.32898
 20
99.496102
 30
0.0
 11
138.352722
 21
99.476104
 31
0.0
  0
LINE
  5
C555
  8
CENTER
 10
148.539436
 20
102.419326
 30
0.0
 11
148.539436
 21
78.746724
 31
0.0
  0
LINE
  5
C556
  8
0
 62
     5
 10
158.359972
 20
96.58201
 30
0.0
 11
138.718901
 21
96.58201
 31
0.0
  0
LINE
  5
C557
  8
0
 62
     5
 10
157.923842
 20
93.28201
 30
0.0
 11
139.155031
 21
93.28201
 31
0.0
  0
LINE
  5
C558
  8
0
 62
     5
 10
144.111332
 20
88.08201
 30
0.0
 11
152.967541
 21
88.08201
 31
0.0
  0
LINE
  5
C559
  8
0
 62
     5
 10
152.647277
 20
87.78201
 30
0.0
 11
144.431596
 21
87.78201
 31
0.0
  0
LINE
  5
C55A
  8
HIDDEN
 10
141.281791
 20
87.48201
 30
0.0
 11
141.281791
 21
90.78201
 31
0.0
  0
POLYLINE
  5
C55B
  8
HIDDEN
 66
     1
 10
0.0
 20
0.0
 30
0.0
 70
     8
  0
VERTEX
  5
C55C
  8
0
 10
137.496
 20
91.082
 30
0.0
 70
    32
  0
VERTEX
  5
C55D
  8
0
 10
137.537
 20
91.0798
 30
0.0
 70
    32
  0
VERTEX
  5
C55E
  8
0
 10
137.579
 20
91.0732
 30
0.0
 70
    32
  0
VERTEX
  5
C55F
  8
0
 10
137.619
 20
91.0623
 30
0.0
 70
    32
  0
VERTEX
  5
C560
  8
0
 10
137.66
 20
91.0469
 30
0.0
 70
    32
  0
VERTEX
  5
C561
  8
0
 10
137.7
 20
91.0273
 30
0.0
 70
    32
  0
VERTEX
  5
C562
  8
0
 10
137.74
 20
91.0034
 30
0.0
 70
    32
  0
VERTEX
  5
C563
  8
0
 10
137.779
 20
90.9753
 30
0.0
 70
    32
  0
VERTEX
  5
C564
  8
0
 10
137.818
 20
90.9431
 30
0.0
 70
    32
  0
VERTEX
  5
C565
  8
0
 10
137.855
 20
90.9068
 30
0.0
 70
    32
  0
VERTEX
  5
C566
  8
0
 10
137.892
 20
90.8665
 30
0.0
 70
    32
  0
VERTEX
  5
C567
  8
0
 10
137.928
 20
90.8224
 30
0.0
 70
    32
  0
VERTEX
  5
C568
  8
0
 10
137.963
 20
90.7744
 30
0.0
 70
    32
  0
VERTEX
  5
C569
  8
0
 10
137.997
 20
90.7229
 30
0.0
 70
    32
  0
VERTEX
  5
C56A
  8
0
 10
138.029
 20
90.6678
 30
0.0
 70
    32
  0
VERTEX
  5
C56B
  8
0
 10
138.06
 20
90.6092
 30
0.0
 70
    32
  0
VERTEX
  5
C56C
  8
0
 10
138.09
 20
90.5475
 30
0.0
 70
    32
  0
VERTEX
  5
C56D
  8
0
 10
138.119
 20
90.4826
 30
0.0
 70
    32
  0
VERTEX
  5
C56E
  8
0
 10
138.145
 20
90.4148
 30
0.0
 70
    32
  0
VERTEX
  5
C56F
  8
0
 10
138.171
 20
90.3442
 30
0.0
 70
    32
  0
VERTEX
  5
C570
  8
0
 10
138.195
 20
90.2709
 30
0.0
 70
    32
  0
VERTEX
  5
C571
  8
0
 10
138.217
 20
90.1952
 30
0.0
 70
    32
  0
VERTEX
  5
C572
  8
0
 10
138.237
 20
90.1173
 30
0.0
 70
    32
  0
VERTEX
  5
C573
  8
0
 10
138.255
 20
90.0373
 30
0.0
 70
    32
  0
VERTEX
  5
C574
  8
0
 10
138.272
 20
89.9554
 30
0.0
 70
    32
  0
VERTEX
  5
C575
  8
0
 10
138.287
 20
89.8718
 30
0.0
 70
    32
  0
VERTEX
  5
C576
  8
0
 10
138.3
 20
89.7868
 30
0.0
 70
    32
  0
VERTEX
  5
C577
  8
0
 10
138.311
 20
89.7004
 30
0.0
 70
    32
  0
VERTEX
  5
C578
  8
0
 10
138.32
 20
89.613
 30
0.0
 70
    32
  0
VERTEX
  5
C579
  8
0
 10
138.327
 20
89.5248
 30
0.0
 70
    32
  0
VERTEX
  5
C57A
  8
0
 10
138.332
 20
89.4359
 30
0.0
 70
    32
  0
VERTEX
  5
C57B
  8
0
 10
138.335
 20
89.3466
 30
0.0
 70
    32
  0
VERTEX
  5
C57C
  8
0
 10
138.336
 20
89.257
 30
0.0
 70
    32
  0
VERTEX
  5
C57D
  8
0
 10
138.335
 20
89.1675
 30
0.0
 70
    32
  0
VERTEX
  5
C57E
  8
0
 10
138.332
 20
89.0781
 30
0.0
 70
    32
  0
VERTEX
  5
C57F
  8
0
 10
138.327
 20
88.9892
 30
0.0
 70
    32
  0
VERTEX
  5
C580
  8
0
 10
138.32
 20
88.901
 30
0.0
 70
    32
  0
VERTEX
  5
C581
  8
0
 10
138.311
 20
88.8136
 30
0.0
 70
    32
  0
VERTEX
  5
C582
  8
0
 10
138.3
 20
88.7272
 30
0.0
 70
    32
  0
VERTEX
  5
C583
  8
0
 10
138.287
 20
88.6422
 30
0.0
 70
    32
  0
VERTEX
  5
C584
  8
0
 10
138.272
 20
88.5586
 30
0.0
 70
    32
  0
VERTEX
  5
C585
  8
0
 10
138.255
 20
88.4767
 30
0.0
 70
    32
  0
VERTEX
  5
C586
  8
0
 10
138.237
 20
88.3967
 30
0.0
 70
    32
  0
VERTEX
  5
C587
  8
0
 10
138.217
 20
88.3188
 30
0.0
 70
    32
  0
VERTEX
  5
C588
  8
0
 10
138.195
 20
88.2431
 30
0.0
 70
    32
  0
VERTEX
  5
C589
  8
0
 10
138.171
 20
88.1699
 30
0.0
 70
    32
  0
VERTEX
  5
C58A
  8
0
 10
138.145
 20
88.0992
 30
0.0
 70
    32
  0
VERTEX
  5
C58B
  8
0
 10
138.119
 20
88.0314
 30
0.0
 70
    32
  0
VERTEX
  5
C58C
  8
0
 10
138.09
 20
87.9665
 30
0.0
 70
    32
  0
VERTEX
  5
C58D
  8
0
 10
138.06
 20
87.9048
 30
0.0
 70
    32
  0
VERTEX
  5
C58E
  8
0
 10
138.029
 20
87.8463
 30
0.0
 70
    32
  0
VERTEX
  5
C58F
  8
0
 10
137.997
 20
87.7912
 30
0.0
 70
    32
  0
VERTEX
  5
C590
  8
0
 10
137.963
 20
87.7396
 30
0.0
 70
    32
  0
VERTEX
  5
C591
  8
0
 10
137.928
 20
87.6917
 30
0.0
 70
    32
  0
VERTEX
  5
C592
  8
0
 10
137.892
 20
87.6475
 30
0.0
 70
    32
  0
VERTEX
  5
C593
  8
0
 10
137.855
 20
87.6072
 30
0.0
 70
    32
  0
VERTEX
  5
C594
  8
0
 10
137.818
 20
87.5709
 30
0.0
 70
    32
  0
VERTEX
  5
C595
  8
0
 10
137.779
 20
87.5387
 30
0.0
 70
    32
  0
VERTEX
  5
C596
  8
0
 10
137.74
 20
87.5106
 30
0.0
 70
    32
  0
VERTEX
  5
C597
  8
0
 10
137.7
 20
87.4867
 30
0.0
 70
    32
  0
VERTEX
  5
C598
  8
0
 10
137.66
 20
87.4671
 30
0.0
 70
    32
  0
VERTEX
  5
C599
  8
0
 10
137.619
 20
87.4518
 30
0.0
 70
    32
  0
VERTEX
  5
C59A
  8
0
 10
137.579
 20
87.4408
 30
0.0
 70
    32
  0
VERTEX
  5
C59B
  8
0
 10
137.537
 20
87.4342
 30
0.0
 70
    32
  0
VERTEX
  5
C59C
  8
0
 10
137.496
 20
87.432
 30
0.0
 70
    32
  0
VERTEX
  5
C59D
  8
0
 10
137.455
 20
87.4342
 30
0.0
 70
    32
  0
VERTEX
  5
C59E
  8
0
 10
137.414
 20
87.4408
 30
0.0
 70
    32
  0
VERTEX
  5
C59F
  8
0
 10
137.373
 20
87.4518
 30
0.0
 70
    32
  0
VERTEX
  5
C5A0
  8
0
 10
137.332
 20
87.4671
 30
0.0
 70
    32
  0
VERTEX
  5
C5A1
  8
0
 10
137.292
 20
87.4867
 30
0.0
 70
    32
  0
VERTEX
  5
C5A2
  8
0
 10
137.252
 20
87.5106
 30
0.0
 70
    32
  0
VERTEX
  5
C5A3
  8
0
 10
137.213
 20
87.5387
 30
0.0
 70
    32
  0
VERTEX
  5
C5A4
  8
0
 10
137.175
 20
87.5709
 30
0.0
 70
    32
  0
VERTEX
  5
C5A5
  8
0
 10
137.137
 20
87.6072
 30
0.0
 70
    32
  0
VERTEX
  5
C5A6
  8
0
 10
137.1
 20
87.6475
 30
0.0
 70
    32
  0
VERTEX
  5
C5A7
  8
0
 10
137.064
 20
87.6917
 30
0.0
 70
    32
  0
VERTEX
  5
C5A8
  8
0
 10
137.03
 20
87.7396
 30
0.0
 70
    32
  0
VERTEX
  5
C5A9
  8
0
 10
136.996
 20
87.7912
 30
0.0
 70
    32
  0
VERTEX
  5
C5AA
  8
0
 10
136.963
 20
87.8463
 30
0.0
 70
    32
  0
VERTEX
  5
C5AB
  8
0
 10
136.932
 20
87.9048
 30
0.0
 70
    32
  0
VERTEX
  5
C5AC
  8
0
 10
136.902
 20
87.9665
 30
0.0
 70
    32
  0
VERTEX
  5
C5AD
  8
0
 10
136.874
 20
88.0314
 30
0.0
 70
    32
  0
VERTEX
  5
C5AE
  8
0
 10
136.847
 20
88.0992
 30
0.0
 70
    32
  0
VERTEX
  5
C5AF
  8
0
 10
136.822
 20
88.1699
 30
0.0
 70
    32
  0
VERTEX
  5
C5B0
  8
0
 10
136.798
 20
88.2431
 30
0.0
 70
    32
  0
VERTEX
  5
C5B1
  8
0
 10
136.776
 20
88.3188
 30
0.0
 70
    32
  0
VERTEX
  5
C5B2
  8
0
 10
136.755
 20
88.3967
 30
0.0
 70
    32
  0
VERTEX
  5
C5B3
  8
0
 10
136.737
 20
88.4767
 30
0.0
 70
    32
  0
VERTEX
  5
C5B4
  8
0
 10
136.72
 20
88.5586
 30
0.0
 70
    32
  0
VERTEX
  5
C5B5
  8
0
 10
136.705
 20
88.6422
 30
0.0
 70
    32
  0
VERTEX
  5
C5B6
  8
0
 10
136.692
 20
88.7272
 30
0.0
 70
    32
  0
VERTEX
  5
C5B7
  8
0
 10
136.681
 20
88.8136
 30
0.0
 70
    32
  0
VERTEX
  5
C5B8
  8
0
 10
136.672
 20
88.901
 30
0.0
 70
    32
  0
VERTEX
  5
C5B9
  8
0
 10
136.665
 20
88.9892
 30
0.0
 70
    32
  0
VERTEX
  5
C5BA
  8
0
 10
136.66
 20
89.0781
 30
0.0
 70
    32
  0
VERTEX
  5
C5BB
  8
0
 10
136.657
 20
89.1675
 30
0.0
 70
    32
  0
VERTEX
  5
C5BC
  8
0
 10
136.656
 20
89.257
 30
0.0
 70
    32
  0
VERTEX
  5
C5BD
  8
0
 10
136.657
 20
89.3466
 30
0.0
 70
    32
  0
VERTEX
  5
C5BE
  8
0
 10
136.66
 20
89.4359
 30
0.0
 70
    32
  0
VERTEX
  5
C5BF
  8
0
 10
136.665
 20
89.5248
 30
0.0
 70
    32
  0
VERTEX
  5
C5C0
  8
0
 10
136.672
 20
89.613
 30
0.0
 70
    32
  0
VERTEX
  5
C5C1
  8
0
 10
136.681
 20
89.7004
 30
0.0
 70
    32
  0
VERTEX
  5
C5C2
  8
0
 10
136.692
 20
89.7868
 30
0.0
 70
    32
  0
VERTEX
  5
C5C3
  8
0
 10
136.705
 20
89.8718
 30
0.0
 70
    32
  0
VERTEX
  5
C5C4
  8
0
 10
136.72
 20
89.9554
 30
0.0
 70
    32
  0
VERTEX
  5
C5C5
  8
0
 10
136.737
 20
90.0373
 30
0.0
 70
    32
  0
VERTEX
  5
C5C6
  8
0
 10
136.755
 20
90.1173
 30
0.0
 70
    32
  0
VERTEX
  5
C5C7
  8
0
 10
136.776
 20
90.1952
 30
0.0
 70
    32
  0
VERTEX
  5
C5C8
  8
0
 10
136.798
 20
90.2709
 30
0.0
 70
    32
  0
VERTEX
  5
C5C9
  8
0
 10
136.822
 20
90.3442
 30
0.0
 70
    32
  0
VERTEX
  5
C5CA
  8
0
 10
136.847
 20
90.4148
 30
0.0
 70
    32
  0
VERTEX
  5
C5CB
  8
0
 10
136.874
 20
90.4826
 30
0.0
 70
    32
  0
VERTEX
  5
C5CC
  8
0
 10
136.902
 20
90.5475
 30
0.0
 70
    32
  0
VERTEX
  5
C5CD
  8
0
 10
136.932
 20
90.6092
 30
0.0
 70
    32
  0
VERTEX
  5
C5CE
  8
0
 10
136.963
 20
90.6678
 30
0.0
 70
    32
  0
VERTEX
  5
C5CF
  8
0
 10
136.996
 20
90.7229
 30
0.0
 70
    32
  0
VERTEX
  5
C5D0
  8
0
 10
137.03
 20
90.7744
 30
0.0
 70
    32
  0
VERTEX
  5
C5D1
  8
0
 10
137.064
 20
90.8224
 30
0.0
 70
    32
  0
VERTEX
  5
C5D2
  8
0
 10
137.1
 20
90.8665
 30
0.0
 70
    32
  0
VERTEX
  5
C5D3
  8
0
 10
137.137
 20
90.9068
 30
0.0
 70
    32
  0
VERTEX
  5
C5D4
  8
0
 10
137.175
 20
90.9431
 30
0.0
 70
    32
  0
VERTEX
  5
C5D5
  8
0
 10
137.213
 20
90.9753
 30
0.0
 70
    32
  0
VERTEX
  5
C5D6
  8
0
 10
137.252
 20
91.0034
 30
0.0
 70
    32
  0
VERTEX
  5
C5D7
  8
0
 10
137.292
 20
91.0273
 30
0.0
 70
    32
  0
VERTEX
  5
C5D8
  8
0
 10
137.332
 20
91.0469
 30
0.0
 70
    32
  0
VERTEX
  5
C5D9
  8
0
 10
137.373
 20
91.0623
 30
0.0
 70
    32
  0
VERTEX
  5
C5DA
  8
0
 10
137.414
 20
91.0732
 30
0.0
 70
    32
  0
VERTEX
  5
C5DB
  8
0
 10
137.455
 20
91.0798
 30
0.0
 70
    32
  0
VERTEX
  5
C5DC
  8
0
 10
137.496
 20
91.082
 30
0.0
 70
    32
  0
SEQEND
  5
C5DD
  8
0
  0
LINE
  5
C5DE
  8
0
 62
     5
 10
144.111332
 20
88.08201
 30
0.0
 11
144.431596
 21
87.78201
 31
0.0
  0
POLYLINE
  5
C5DF
  8
HIDDEN
 66
     1
 10
0.0
 20
0.0
 30
0.0
 70
     8
  0
VERTEX
  5
C5E0
  8
0
 10
137.496
 20
94.732
 30
0.0
 70
    32
  0
VERTEX
  5
C5E1
  8
0
 10
137.517
 20
94.7315
 30
0.0
 70
    32
  0
VERTEX
  5
C5E2
  8
0
 10
137.537
 20
94.7298
 30
0.0
 70
    32
  0
VERTEX
  5
C5E3
  8
0
 10
137.558
 20
94.7271
 30
0.0
 70
    32
  0
VERTEX
  5
C5E4
  8
0
 10
137.579
 20
94.7232
 30
0.0
 70
    32
  0
VERTEX
  5
C5E5
  8
0
 10
137.599
 20
94.7183
 30
0.0
 70
    32
  0
VERTEX
  5
C5E6
  8
0
 10
137.619
 20
94.7123
 30
0.0
 70
    32
  0
VERTEX
  5
C5E7
  8
0
 10
137.64
 20
94.7051
 30
0.0
 70
    32
  0
VERTEX
  5
C5E8
  8
0
 10
137.66
 20
94.6969
 30
0.0
 70
    32
  0
VERTEX
  5
C5E9
  8
0
 10
137.68
 20
94.6877
 30
0.0
 70
    32
  0
VERTEX
  5
C5EA
  8
0
 10
137.7
 20
94.6773
 30
0.0
 70
    32
  0
VERTEX
  5
C5EB
  8
0
 10
137.72
 20
94.6659
 30
0.0
 70
    32
  0
VERTEX
  5
C5EC
  8
0
 10
137.74
 20
94.6534
 30
0.0
 70
    32
  0
VERTEX
  5
C5ED
  8
0
 10
137.76
 20
94.6399
 30
0.0
 70
    32
  0
VERTEX
  5
C5EE
  8
0
 10
137.779
 20
94.6253
 30
0.0
 70
    32
  0
VERTEX
  5
C5EF
  8
0
 10
137.798
 20
94.6097
 30
0.0
 70
    32
  0
VERTEX
  5
C5F0
  8
0
 10
137.818
 20
94.5931
 30
0.0
 70
    32
  0
VERTEX
  5
C5F1
  8
0
 10
137.837
 20
94.5754
 30
0.0
 70
    32
  0
VERTEX
  5
C5F2
  8
0
 10
137.855
 20
94.5568
 30
0.0
 70
    32
  0
VERTEX
  5
C5F3
  8
0
 10
137.874
 20
94.5371
 30
0.0
 70
    32
  0
VERTEX
  5
C5F4
  8
0
 10
137.892
 20
94.5165
 30
0.0
 70
    32
  0
VERTEX
  5
C5F5
  8
0
 10
137.91
 20
94.4949
 30
0.0
 70
    32
  0
VERTEX
  5
C5F6
  8
0
 10
137.928
 20
94.4724
 30
0.0
 70
    32
  0
VERTEX
  5
C5F7
  8
0
 10
137.946
 20
94.4489
 30
0.0
 70
    32
  0
VERTEX
  5
C5F8
  8
0
 10
137.963
 20
94.4244
 30
0.0
 70
    32
  0
VERTEX
  5
C5F9
  8
0
 10
137.98
 20
94.3991
 30
0.0
 70
    32
  0
VERTEX
  5
C5FA
  8
0
 10
137.997
 20
94.3729
 30
0.0
 70
    32
  0
VERTEX
  5
C5FB
  8
0
 10
138.013
 20
94.3457
 30
0.0
 70
    32
  0
VERTEX
  5
C5FC
  8
0
 10
138.029
 20
94.3178
 30
0.0
 70
    32
  0
VERTEX
  5
C5FD
  8
0
 10
138.045
 20
94.2889
 30
0.0
 70
    32
  0
VERTEX
  5
C5FE
  8
0
 10
138.06
 20
94.2592
 30
0.0
 70
    32
  0
VERTEX
  5
C5FF
  8
0
 10
138.075
 20
94.2288
 30
0.0
 70
    32
  0
VERTEX
  5
C600
  8
0
 10
138.09
 20
94.1975
 30
0.0
 70
    32
  0
VERTEX
  5
C601
  8
0
 10
138.105
 20
94.1654
 30
0.0
 70
    32
  0
VERTEX
  5
C602
  8
0
 10
138.119
 20
94.1326
 30
0.0
 70
    32
  0
VERTEX
  5
C603
  8
0
 10
138.132
 20
94.0991
 30
0.0
 70
    32
  0
VERTEX
  5
C604
  8
0
 10
138.145
 20
94.0648
 30
0.0
 70
    32
  0
VERTEX
  5
C605
  8
0
 10
138.158
 20
94.0298
 30
0.0
 70
    32
  0
VERTEX
  5
C606
  8
0
 10
138.171
 20
93.9942
 30
0.0
 70
    32
  0
VERTEX
  5
C607
  8
0
 10
138.183
 20
93.9579
 30
0.0
 70
    32
  0
VERTEX
  5
C608
  8
0
 10
138.195
 20
93.9209
 30
0.0
 70
    32
  0
VERTEX
  5
C609
  8
0
 10
138.206
 20
93.8834
 30
0.0
 70
    32
  0
VERTEX
  5
C60A
  8
0
 10
138.217
 20
93.8452
 30
0.0
 70
    32
  0
VERTEX
  5
C60B
  8
0
 10
138.227
 20
93.8065
 30
0.0
 70
    32
  0
VERTEX
  5
C60C
  8
0
 10
138.237
 20
93.7673
 30
0.0
 70
    32
  0
VERTEX
  5
C60D
  8
0
 10
138.246
 20
93.7276
 30
0.0
 70
    32
  0
VERTEX
  5
C60E
  8
0
 10
138.255
 20
93.6873
 30
0.0
 70
    32
  0
VERTEX
  5
C60F
  8
0
 10
138.264
 20
93.6466
 30
0.0
 70
    32
  0
VERTEX
  5
C610
  8
0
 10
138.272
 20
93.6054
 30
0.0
 70
    32
  0
VERTEX
  5
C611
  8
0
 10
138.28
 20
93.5638
 30
0.0
 70
    32
  0
VERTEX
  5
C612
  8
0
 10
138.287
 20
93.5218
 30
0.0
 70
    32
  0
VERTEX
  5
C613
  8
0
 10
138.294
 20
93.4795
 30
0.0
 70
    32
  0
VERTEX
  5
C614
  8
0
 10
138.3
 20
93.4368
 30
0.0
 70
    32
  0
VERTEX
  5
C615
  8
0
 10
138.306
 20
93.3938
 30
0.0
 70
    32
  0
VERTEX
  5
C616
  8
0
 10
138.311
 20
93.3504
 30
0.0
 70
    32
  0
VERTEX
  5
C617
  8
0
 10
138.316
 20
93.3069
 30
0.0
 70
    32
  0
VERTEX
  5
C618
  8
0
 10
138.32
 20
93.263
 30
0.0
 70
    32
  0
VERTEX
  5
C619
  8
0
 10
138.324
 20
93.219
 30
0.0
 70
    32
  0
VERTEX
  5
C61A
  8
0
 10
138.327
 20
93.1748
 30
0.0
 70
    32
  0
VERTEX
  5
C61B
  8
0
 10
138.33
 20
93.1304
 30
0.0
 70
    32
  0
VERTEX
  5
C61C
  8
0
 10
138.332
 20
93.0859
 30
0.0
 70
    32
  0
VERTEX
  5
C61D
  8
0
 10
138.334
 20
93.0413
 30
0.0
 70
    32
  0
VERTEX
  5
C61E
  8
0
 10
138.335
 20
92.9966
 30
0.0
 70
    32
  0
VERTEX
  5
C61F
  8
0
 10
138.336
 20
92.9518
 30
0.0
 70
    32
  0
VERTEX
  5
C620
  8
0
 10
138.336
 20
92.907
 30
0.0
 70
    32
  0
VERTEX
  5
C621
  8
0
 10
138.336
 20
92.8622
 30
0.0
 70
    32
  0
VERTEX
  5
C622
  8
0
 10
138.335
 20
92.8175
 30
0.0
 70
    32
  0
VERTEX
  5
C623
  8
0
 10
138.334
 20
92.7728
 30
0.0
 70
    32
  0
VERTEX
  5
C624
  8
0
 10
138.332
 20
92.7281
 30
0.0
 70
    32
  0
VERTEX
  5
C625
  8
0
 10
138.33
 20
92.6836
 30
0.0
 70
    32
  0
VERTEX
  5
C626
  8
0
 10
138.327
 20
92.6392
 30
0.0
 70
    32
  0
VERTEX
  5
C627
  8
0
 10
138.324
 20
92.595
 30
0.0
 70
    32
  0
VERTEX
  5
C628
  8
0
 10
138.32
 20
92.551
 30
0.0
 70
    32
  0
VERTEX
  5
C629
  8
0
 10
138.316
 20
92.5072
 30
0.0
 70
    32
  0
VERTEX
  5
C62A
  8
0
 10
138.311
 20
92.4636
 30
0.0
 70
    32
  0
VERTEX
  5
C62B
  8
0
 10
138.306
 20
92.4203
 30
0.0
 70
    32
  0
VERTEX
  5
C62C
  8
0
 10
138.3
 20
92.3772
 30
0.0
 70
    32
  0
VERTEX
  5
C62D
  8
0
 10
138.294
 20
92.3345
 30
0.0
 70
    32
  0
VERTEX
  5
C62E
  8
0
 10
138.287
 20
92.2922
 30
0.0
 70
    32
  0
VERTEX
  5
C62F
  8
0
 10
138.28
 20
92.2502
 30
0.0
 70
    32
  0
VERTEX
  5
C630
  8
0
 10
138.272
 20
92.2086
 30
0.0
 70
    32
  0
VERTEX
  5
C631
  8
0
 10
138.264
 20
92.1674
 30
0.0
 70
    32
  0
VERTEX
  5
C632
  8
0
 10
138.255
 20
92.1267
 30
0.0
 70
    32
  0
VERTEX
  5
C633
  8
0
 10
138.246
 20
92.0865
 30
0.0
 70
    32
  0
VERTEX
  5
C634
  8
0
 10
138.237
 20
92.0467
 30
0.0
 70
    32
  0
VERTEX
  5
C635
  8
0
 10
138.227
 20
92.0075
 30
0.0
 70
    32
  0
VERTEX
  5
C636
  8
0
 10
138.217
 20
91.9688
 30
0.0
 70
    32
  0
VERTEX
  5
C637
  8
0
 10
138.206
 20
91.9306
 30
0.0
 70
    32
  0
VERTEX
  5
C638
  8
0
 10
138.195
 20
91.8931
 30
0.0
 70
    32
  0
VERTEX
  5
C639
  8
0
 10
138.183
 20
91.8562
 30
0.0
 70
    32
  0
VERTEX
  5
C63A
  8
0
 10
138.171
 20
91.8199
 30
0.0
 70
    32
  0
VERTEX
  5
C63B
  8
0
 10
138.158
 20
91.7842
 30
0.0
 70
    32
  0
VERTEX
  5
C63C
  8
0
 10
138.145
 20
91.7492
 30
0.0
 70
    32
  0
VERTEX
  5
C63D
  8
0
 10
138.132
 20
91.715
 30
0.0
 70
    32
  0
VERTEX
  5
C63E
  8
0
 10
138.119
 20
91.6814
 30
0.0
 70
    32
  0
VERTEX
  5
C63F
  8
0
 10
138.105
 20
91.6486
 30
0.0
 70
    32
  0
VERTEX
  5
C640
  8
0
 10
138.09
 20
91.6165
 30
0.0
 70
    32
  0
VERTEX
  5
C641
  8
0
 10
138.075
 20
91.5853
 30
0.0
 70
    32
  0
VERTEX
  5
C642
  8
0
 10
138.06
 20
91.5548
 30
0.0
 70
    32
  0
VERTEX
  5
C643
  8
0
 10
138.045
 20
91.5251
 30
0.0
 70
    32
  0
VERTEX
  5
C644
  8
0
 10
138.029
 20
91.4963
 30
0.0
 70
    32
  0
VERTEX
  5
C645
  8
0
 10
138.013
 20
91.4683
 30
0.0
 70
    32
  0
VERTEX
  5
C646
  8
0
 10
137.997
 20
91.4412
 30
0.0
 70
    32
  0
VERTEX
  5
C647
  8
0
 10
137.98
 20
91.4149
 30
0.0
 70
    32
  0
VERTEX
  5
C648
  8
0
 10
137.963
 20
91.3896
 30
0.0
 70
    32
  0
VERTEX
  5
C649
  8
0
 10
137.946
 20
91.3652
 30
0.0
 70
    32
  0
VERTEX
  5
C64A
  8
0
 10
137.928
 20
91.3417
 30
0.0
 70
    32
  0
VERTEX
  5
C64B
  8
0
 10
137.91
 20
91.3191
 30
0.0
 70
    32
  0
VERTEX
  5
C64C
  8
0
 10
137.892
 20
91.2975
 30
0.0
 70
    32
  0
VERTEX
  5
C64D
  8
0
 10
137.874
 20
91.2769
 30
0.0
 70
    32
  0
VERTEX
  5
C64E
  8
0
 10
137.855
 20
91.2572
 30
0.0
 70
    32
  0
VERTEX
  5
C64F
  8
0
 10
137.837
 20
91.2386
 30
0.0
 70
    32
  0
VERTEX
  5
C650
  8
0
 10
137.818
 20
91.2209
 30
0.0
 70
    32
  0
VERTEX
  5
C651
  8
0
 10
137.798
 20
91.2043
 30
0.0
 70
    32
  0
VERTEX
  5
C652
  8
0
 10
137.779
 20
91.1887
 30
0.0
 70
    32
  0
VERTEX
  5
C653
  8
0
 10
137.76
 20
91.1741
 30
0.0
 70
    32
  0
VERTEX
  5
C654
  8
0
 10
137.74
 20
91.1606
 30
0.0
 70
    32
  0
VERTEX
  5
C655
  8
0
 10
137.72
 20
91.1481
 30
0.0
 70
    32
  0
VERTEX
  5
C656
  8
0
 10
137.7
 20
91.1367
 30
0.0
 70
    32
  0
VERTEX
  5
C657
  8
0
 10
137.68
 20
91.1264
 30
0.0
 70
    32
  0
VERTEX
  5
C658
  8
0
 10
137.66
 20
91.1171
 30
0.0
 70
    32
  0
VERTEX
  5
C659
  8
0
 10
137.64
 20
91.1089
 30
0.0
 70
    32
  0
VERTEX
  5
C65A
  8
0
 10
137.619
 20
91.1018
 30
0.0
 70
    32
  0
VERTEX
  5
C65B
  8
0
 10
137.599
 20
91.0957
 30
0.0
 70
    32
  0
VERTEX
  5
C65C
  8
0
 10
137.579
 20
91.0908
 30
0.0
 70
    32
  0
VERTEX
  5
C65D
  8
0
 10
137.558
 20
91.087
 30
0.0
 70
    32
  0
VERTEX
  5
C65E
  8
0
 10
137.537
 20
91.0842
 30
0.0
 70
    32
  0
VERTEX
  5
C65F
  8
0
 10
137.517
 20
91.0826
 30
0.0
 70
    32
  0
VERTEX
  5
C660
  8
0
 10
137.496
 20
91.082
 30
0.0
 70
    32
  0
SEQEND
  5
C661
  8
0
  0
LINE
  5
C662
  8
0
 62
     5
 10
139.155031
 20
93.28201
 30
0.0
 11
139.155031
 21
95.48201
 31
0.0
  0
LINE
  5
C663
  8
HIDDEN
 10
139.754691
 20
90.78201
 30
0.0
 11
141.281791
 21
90.78201
 31
0.0
  0
LINE
  5
C664
  8
HIDDEN
 10
139.254691
 20
93.28201
 30
0.0
 11
139.254691
 21
91.28201
 31
0.0
  0
LINE
  5
C665
  8
0
 62
     5
 10
144.111332
 20
88.08201
 30
0.0
 11
144.111332
 21
93.28201
 31
0.0
  0
LINE
  5
C666
  8
0
 62
     5
 10
138.352722
 20
99.476104
 30
0.0
 11
138.375178
 21
99.454672
 31
0.0
  0
LINE
  5
C667
  8
0
 62
     5
 10
138.433986
 20
99.382617
 30
0.0
 11
138.450484
 21
99.356321
 31
0.0
  0
LINE
  5
C668
  8
0
 62
     5
 10
138.415888
 20
99.407837
 30
0.0
 11
138.433986
 21
99.382617
 31
0.0
  0
LINE
  5
C669
  8
0
 62
     5
 10
138.396261
 20
99.431887
 30
0.0
 11
138.415888
 21
99.407837
 31
0.0
  0
LINE
  5
C66A
  8
0
 62
     5
 10
138.375178
 20
99.454672
 30
0.0
 11
138.396261
 21
99.431887
 31
0.0
  0
LINE
  5
C66B
  8
0
 62
     5
 10
138.478432
 20
99.300917
 30
0.0
 11
138.489774
 21
99.272021
 31
0.0
  0
LINE
  5
C66C
  8
0
 62
     5
 10
138.465318
 20
99.329053
 30
0.0
 11
138.478432
 21
99.300917
 31
0.0
  0
LINE
  5
C66D
  8
0
 62
     5
 10
138.450484
 20
99.356321
 30
0.0
 11
138.465318
 21
99.329053
 31
0.0
  0
LINE
  5
C66E
  8
0
 62
     5
 10
138.506977
 20
99.212399
 30
0.0
 11
138.512771
 21
99.181902
 31
0.0
  0
LINE
  5
C66F
  8
0
 62
     5
 10
138.499301
 20
99.242477
 30
0.0
 11
138.506977
 21
99.212399
 31
0.0
  0
LINE
  5
C670
  8
0
 62
     5
 10
138.489774
 20
99.272021
 30
0.0
 11
138.499301
 21
99.242477
 31
0.0
  0
LINE
  5
C671
  8
0
 62
     5
 10
138.512771
 20
99.181902
 30
0.0
 11
138.516662
 21
99.151105
 31
0.0
  0
LINE
  5
C672
  8
0
 62
     5
 10
138.518634
 20
99.120125
 30
0.0
 11
138.518898
 21
99.103866
 31
0.0
  0
LINE
  5
C673
  8
0
 62
     5
 10
138.516662
 20
99.151105
 30
0.0
 11
138.518634
 21
99.120125
 31
0.0
  0
ARC
  5
C674
  8
0
 62
     5
 10
138.718898
 20
96.78201
 30
0.0
 40
0.2
 50
180.0
 51
270.0
  0
LINE
  5
C675
  8
0
 62
     5
 10
138.738661
 20
94.68201
 30
0.0
 11
138.738661
 21
95.48201
 31
0.0
  0
LINE
  5
C676
  8
0
 62
     5
 10
138.518898
 20
96.28201
 30
0.0
 11
138.518898
 21
95.48201
 31
0.0
  0
LINE
  5
C677
  8
0
 62
     5
 10
138.818898
 20
96.58201
 30
0.0
 11
138.518898
 21
96.28201
 31
0.0
  0
LINE
  5
C678
  8
0
 62
     5
 10
138.519885
 20
95.48201
 30
0.0
 11
139.155031
 21
95.48201
 31
0.0
  0
LINE
  5
C679
  8
0
 62
     5
 10
138.739746
 20
94.68201
 30
0.0
 11
139.155031
 21
94.68201
 31
0.0
  0
LINE
  5
C67A
  8
0
 62
     5
 10
138.518898
 20
96.78201
 30
0.0
 11
138.518898
 21
99.103879
 31
0.0
  0
LINE
  5
C67B
  8
0
 62
     5
 10
152.368006
 20
88.08201
 30
0.0
 11
152.179442
 21
87.78201
 31
0.0
  0
LINE
  5
C67C
  8
0
 62
     5
 10
152.647277
 20
87.78201
 30
0.0
 11
152.967541
 21
88.08201
 31
0.0
  0
LINE
  5
C67D
  8
0
 62
     5
 10
144.710867
 20
88.08201
 30
0.0
 11
144.899431
 21
87.78201
 31
0.0
  0
LINE
  5
C67E
  8
HIDDEN
 10
156.50311
 20
81.48201
 30
0.0
 11
147.692267
 21
81.48201
 31
0.0
  0
POLYLINE
  5
C67F
  8
HIDDEN
 66
     1
 10
0.0
 20
0.0
 30
0.0
  0
VERTEX
  5
CAB0
  8
HIDDEN
 10
156.897059
 20
81.687888
 30
0.0
  0
VERTEX
  5
CAB1
  8
HIDDEN
 10
156.847522
 20
81.628537
 30
0.0
  0
VERTEX
  5
CAB2
  8
HIDDEN
 10
156.789459
 20
81.577493
 30
0.0
  0
VERTEX
  5
CAB3
  8
HIDDEN
 10
156.72422
 20
81.536599
 30
0.0
  0
VERTEX
  5
CAB4
  8
HIDDEN
 10
156.653639
 20
81.506475
 30
0.0
  0
VERTEX
  5
CAB5
  8
HIDDEN
 10
156.580213
 20
81.488424
 30
0.0
  0
VERTEX
  5
CAB6
  8
HIDDEN
 10
156.50311
 20
81.48201
 30
0.0
  0
SEQEND
  5
CAB7
  8
HIDDEN
  0
LINE
  5
C688
  8
0
 62
     5
 10
144.710867
 20
93.28201
 30
0.0
 11
144.710867
 21
88.08201
 31
0.0
  0
LINE
  5
C689
  8
0
 62
     5
 10
152.368006
 20
88.08201
 30
0.0
 11
152.368006
 21
93.28201
 31
0.0
  0
LINE
  5
C68A
  8
0
 62
     5
 10
157.923842
 20
93.28201
 30
0.0
 11
157.923842
 21
94.68201
 31
0.0
  0
ARC
  5
C68B
  8
0
 62
     5
 10
157.1276
 20
93.99691
 30
0.0
 40
0.7
 50
285.500442
 51
355.0
  0
LINE
  5
C68C
  8
0
 62
     5
 10
153.880246
 20
95.48201
 30
0.0
 11
153.880246
 21
93.28201
 31
0.0
  0
ARC
  5
C68D
  8
0
 62
     5
 10
155.152825
 20
93.99691
 30
0.0
 40
0.7
 50
185.0
 51
254.499559
  0
LINE
  5
C68E
  8
0
 62
     5
 10
156.169412
 20
93.315614
 30
0.0
 11
157.287966
 21
93.315614
 31
0.0
  0
LINE
  5
C68F
  8
0
 62
     5
 10
154.992459
 20
93.315614
 30
0.0
 11
156.111013
 21
93.315614
 31
0.0
  0
LINE
  5
C690
  8
0
  6
CONTINUOUS
 62
     5
 10
154.988609
 20
93.316528
 30
0.0
 11
154.984766
 21
93.317463
 31
0.0
  0
LINE
  5
C691
  8
0
  6
CONTINUOUS
 62
     5
 10
154.992459
 20
93.315614
 30
0.0
 11
154.988609
 21
93.316528
 31
0.0
  0
LINE
  5
C692
  8
0
 62
     5
 10
152.967541
 20
88.08201
 30
0.0
 11
152.967541
 21
93.28201
 31
0.0
  0
LINE
  5
C693
  8
HIDDEN
 10
157.824182
 20
93.28201
 30
0.0
 11
157.824182
 21
92.891059
 31
0.0
  0
LINE
  5
C694
  8
0
  6
CONTINUOUS
 62
     5
 10
157.314047
 20
93.322195
 30
0.0
 11
157.309438
 21
93.320995
 31
0.0
  0
LINE
  5
C695
  8
0
  6
CONTINUOUS
 62
     5
 10
157.310979
 20
93.321419
 30
0.0
 11
157.314794
 21
93.322462
 31
0.0
  0
LINE
  5
C696
  8
0
  6
CONTINUOUS
 62
     5
 10
157.314794
 20
93.322462
 30
0.0
 11
157.318603
 21
93.323527
 31
0.0
  0
LINE
  5
C697
  8
0
  6
CONTINUOUS
 62
     5
 10
157.310959
 20
93.321379
 30
0.0
 11
157.314794
 21
93.322462
 31
0.0
  0
LINE
  5
C698
  8
0
  6
CONTINUOUS
 62
     5
 10
157.318603
 20
93.323527
 30
0.0
 11
157.314047
 21
93.322195
 31
0.0
  0
LINE
  5
C699
  8
0
 62
     5
 10
153.881332
 20
95.48201
 30
0.0
 11
158.558988
 21
95.48201
 31
0.0
  0
LINE
  5
C69A
  8
0
 62
     5
 10
153.941298
 20
94.68201
 30
0.0
 11
158.339355
 21
94.68201
 31
0.0
  0
LINE
  5
C69B
  8
0
 62
     5
 10
154.455489
 20
93.935901
 30
0.0
 11
154.390212
 21
94.68201
 31
0.0
  0
LINE
  5
C69C
  8
0
 62
     5
 10
153.940212
 20
94.68201
 30
0.0
 11
153.940212
 21
95.48201
 31
0.0
  0
LINE
  5
C69D
  8
0
 62
     5
 10
158.562606
 20
99.45507
 30
0.0
 11
158.567076
 21
99.487812
 31
0.0
  0
LINE
  5
C69E
  8
0
 62
     5
 10
158.560308
 20
99.422104
 30
0.0
 11
158.562606
 21
99.45507
 31
0.0
  0
LINE
  5
C69F
  8
0
 62
     5
 10
158.559975
 20
99.403841
 30
0.0
 11
158.560308
 21
99.422104
 31
0.0
  0
LINE
  5
C6A0
  8
0
 62
     5
 10
157.824936
 20
93.935901
 30
0.0
 11
157.890212
 21
94.68201
 31
0.0
  0
ARC
  5
C6A1
  8
0
 62
     5
 10
158.359975
 20
96.78201
 30
0.0
 40
0.2
 50
270.0
 51
0.0
  0
LINE
  5
C6A2
  8
0
 62
     5
 10
158.259975
 20
96.58201
 30
0.0
 11
158.559975
 21
96.28201
 31
0.0
  0
LINE
  5
C6A3
  8
0
 62
     5
 10
158.559975
 20
96.28201
 30
0.0
 11
158.559975
 21
95.48201
 31
0.0
  0
LINE
  5
C6A4
  8
0
 62
     5
 10
158.340212
 20
94.68201
 30
0.0
 11
158.340212
 21
95.48201
 31
0.0
  0
LINE
  5
C6A5
  8
0
 62
     5
 10
158.559975
 20
96.78201
 30
0.0
 11
158.559975
 21
99.403808
 31
0.0
  0
LINE
  5
C6A6
  8
0
 62
     5
 10
138.104572
 20
99.596471
 30
0.0
 11
138.134975
 21
99.590205
 31
0.0
  0
LINE
  5
C6A7
  8
0
 62
     5
 10
138.25097
 20
99.546746
 30
0.0
 11
138.278006
 21
99.531491
 31
0.0
  0
LINE
  5
C6A8
  8
0
 62
     5
 10
138.22304
 20
99.560293
 30
0.0
 11
138.25097
 21
99.546746
 31
0.0
  0
LINE
  5
C6A9
  8
0
 62
     5
 10
138.194324
 20
99.572082
 30
0.0
 11
138.22304
 21
99.560293
 31
0.0
  0
LINE
  5
C6AA
  8
0
 62
     5
 10
138.164931
 20
99.582065
 30
0.0
 11
138.194324
 21
99.572082
 31
0.0
  0
LINE
  5
C6AB
  8
0
 62
     5
 10
138.134975
 20
99.590205
 30
0.0
 11
138.164931
 21
99.582065
 31
0.0
  0
LINE
  5
C6AC
  8
0
 62
     5
 10
138.304042
 20
99.514588
 30
0.0
 11
138.32898
 21
99.496102
 31
0.0
  0
LINE
  5
C6AD
  8
0
 62
     5
 10
138.278006
 20
99.531491
 30
0.0
 11
138.304042
 21
99.514588
 31
0.0
  0
LINE
  5
C6AE
  8
0
 62
     5
 10
158.954678
 20
99.892627
 30
0.0
 11
158.987193
 21
99.898515
 31
0.0
  0
LINE
  5
C6AF
  8
0
 62
     5
 10
158.922622
 20
99.884605
 30
0.0
 11
158.954678
 21
99.892627
 31
0.0
  0
LINE
  5
C6B0
  8
0
 62
     5
 10
158.582447
 20
99.552055
 30
0.0
 11
158.593281
 21
99.583275
 31
0.0
  0
LINE
  5
C6B1
  8
0
 62
     5
 10
158.5737
 20
99.520188
 30
0.0
 11
158.582447
 21
99.552055
 31
0.0
  0
LINE
  5
C6B2
  8
0
 62
     5
 10
158.637779
 20
99.671704
 30
0.0
 11
158.656395
 21
99.699008
 31
0.0
  0
LINE
  5
C6B3
  8
0
 62
     5
 10
158.621007
 20
99.64323
 30
0.0
 11
158.637779
 21
99.671704
 31
0.0
  0
LINE
  5
C6B4
  8
0
 62
     5
 10
158.606153
 20
99.613711
 30
0.0
 11
158.621007
 21
99.64323
 31
0.0
  0
LINE
  5
C6B5
  8
0
 62
     5
 10
158.593281
 20
99.583275
 30
0.0
 11
158.606153
 21
99.613711
 31
0.0
  0
LINE
  5
C6B6
  8
0
 62
     5
 10
158.722458
 20
99.772734
 30
0.0
 11
158.747563
 21
99.794224
 31
0.0
  0
LINE
  5
C6B7
  8
0
 62
     5
 10
158.698827
 20
99.749633
 30
0.0
 11
158.722458
 21
99.772734
 31
0.0
  0
LINE
  5
C6B8
  8
0
 62
     5
 10
158.676774
 20
99.725022
 30
0.0
 11
158.698827
 21
99.749633
 31
0.0
  0
LINE
  5
C6B9
  8
0
 62
     5
 10
158.656395
 20
99.699008
 30
0.0
 11
158.676774
 21
99.725022
 31
0.0
  0
LINE
  5
C6BA
  8
0
 62
     5
 10
158.891166
 20
99.874482
 30
0.0
 11
158.922622
 21
99.884605
 31
0.0
  0
LINE
  5
C6BB
  8
0
 62
     5
 10
158.860446
 20
99.862304
 30
0.0
 11
158.891166
 21
99.874482
 31
0.0
  0
LINE
  5
C6BC
  8
0
 62
     5
 10
158.830598
 20
99.848122
 30
0.0
 11
158.860446
 21
99.862304
 31
0.0
  0
LINE
  5
C6BD
  8
0
 62
     5
 10
158.801752
 20
99.832
 30
0.0
 11
158.830598
 21
99.848122
 31
0.0
  0
LINE
  5
C6BE
  8
0
 62
     5
 10
158.774033
 20
99.814008
 30
0.0
 11
158.801752
 21
99.832
 31
0.0
  0
LINE
  5
C6BF
  8
0
 62
     5
 10
158.747563
 20
99.794224
 30
0.0
 11
158.774033
 21
99.814008
 31
0.0
  0
LINE
  5
C6C0
  8
0
 62
     5
 10
182.739436
 20
99.680918
 30
0.0
 11
182.739436
 21
97.38201
 31
0.0
  0
LINE
  5
C6C1
  8
0
 62
     5
 10
164.589436
 20
99.982542
 30
0.0
 11
164.589436
 21
97.38201
 31
0.0
  0
LINE
  5
C6C2
  8
CENTER
 10
173.239436
 20
100.320789
 30
0.0
 11
173.239436
 21
79.179625
 31
0.0
  0
LINE
  5
C6C3
  8
0
 62
     5
 10
182.239436
 20
96.88201
 30
0.0
 11
165.089436
 21
96.88201
 31
0.0
  0
POLYLINE
  5
C6C4
  8
HIDDEN
 66
     1
 10
0.0
 20
0.0
 30
0.0
 70
     8
  0
VERTEX
  5
C6C5
  8
0
 10
166.219
 20
84.0229
 30
0.0
 70
    32
  0
VERTEX
  5
C6C6
  8
0
 10
166.236
 20
84.025
 30
0.0
 70
    32
  0
VERTEX
  5
C6C7
  8
0
 10
166.253
 20
84.0291
 30
0.0
 70
    32
  0
VERTEX
  5
C6C8
  8
0
 10
166.27
 20
84.0352
 30
0.0
 70
    32
  0
VERTEX
  5
C6C9
  8
0
 10
166.287
 20
84.0431
 30
0.0
 70
    32
  0
VERTEX
  5
C6CA
  8
0
 10
166.304
 20
84.053
 30
0.0
 70
    32
  0
VERTEX
  5
C6CB
  8
0
 10
166.321
 20
84.0649
 30
0.0
 70
    32
  0
VERTEX
  5
C6CC
  8
0
 10
166.338
 20
84.0786
 30
0.0
 70
    32
  0
VERTEX
  5
C6CD
  8
0
 10
166.354
 20
84.0943
 30
0.0
 70
    32
  0
VERTEX
  5
C6CE
  8
0
 10
166.371
 20
84.1118
 30
0.0
 70
    32
  0
VERTEX
  5
C6CF
  8
0
 10
166.387
 20
84.1313
 30
0.0
 70
    32
  0
VERTEX
  5
C6D0
  8
0
 10
166.404
 20
84.1526
 30
0.0
 70
    32
  0
VERTEX
  5
C6D1
  8
0
 10
166.42
 20
84.1758
 30
0.0
 70
    32
  0
VERTEX
  5
C6D2
  8
0
 10
166.436
 20
84.2009
 30
0.0
 70
    32
  0
VERTEX
  5
C6D3
  8
0
 10
166.452
 20
84.2278
 30
0.0
 70
    32
  0
VERTEX
  5
C6D4
  8
0
 10
166.468
 20
84.2565
 30
0.0
 70
    32
  0
VERTEX
  5
C6D5
  8
0
 10
166.484
 20
84.287
 30
0.0
 70
    32
  0
VERTEX
  5
C6D6
  8
0
 10
166.5
 20
84.3193
 30
0.0
 70
    32
  0
VERTEX
  5
C6D7
  8
0
 10
166.515
 20
84.3534
 30
0.0
 70
    32
  0
VERTEX
  5
C6D8
  8
0
 10
166.53
 20
84.3892
 30
0.0
 70
    32
  0
VERTEX
  5
C6D9
  8
0
 10
166.545
 20
84.4267
 30
0.0
 70
    32
  0
VERTEX
  5
C6DA
  8
0
 10
166.56
 20
84.466
 30
0.0
 70
    32
  0
VERTEX
  5
C6DB
  8
0
 10
166.575
 20
84.5069
 30
0.0
 70
    32
  0
VERTEX
  5
C6DC
  8
0
 10
166.589
 20
84.5495
 30
0.0
 70
    32
  0
VERTEX
  5
C6DD
  8
0
 10
166.603
 20
84.5937
 30
0.0
 70
    32
  0
VERTEX
  5
C6DE
  8
0
 10
166.617
 20
84.6396
 30
0.0
 70
    32
  0
VERTEX
  5
C6DF
  8
0
 10
166.631
 20
84.687
 30
0.0
 70
    32
  0
VERTEX
  5
C6E0
  8
0
 10
166.644
 20
84.7359
 30
0.0
 70
    32
  0
VERTEX
  5
C6E1
  8
0
 10
166.658
 20
84.7864
 30
0.0
 70
    32
  0
VERTEX
  5
C6E2
  8
0
 10
166.671
 20
84.8383
 30
0.0
 70
    32
  0
VERTEX
  5
C6E3
  8
0
 10
166.683
 20
84.8918
 30
0.0
 70
    32
  0
VERTEX
  5
C6E4
  8
0
 10
166.696
 20
84.9466
 30
0.0
 70
    32
  0
VERTEX
  5
C6E5
  8
0
 10
166.708
 20
85.0028
 30
0.0
 70
    32
  0
VERTEX
  5
C6E6
  8
0
 10
166.719
 20
85.0604
 30
0.0
 70
    32
  0
VERTEX
  5
C6E7
  8
0
 10
166.731
 20
85.1194
 30
0.0
 70
    32
  0
VERTEX
  5
C6E8
  8
0
 10
166.742
 20
85.1796
 30
0.0
 70
    32
  0
VERTEX
  5
C6E9
  8
0
 10
166.753
 20
85.241
 30
0.0
 70
    32
  0
VERTEX
  5
C6EA
  8
0
 10
166.763
 20
85.3037
 30
0.0
 70
    32
  0
VERTEX
  5
C6EB
  8
0
 10
166.774
 20
85.3676
 30
0.0
 70
    32
  0
VERTEX
  5
C6EC
  8
0
 10
166.783
 20
85.4326
 30
0.0
 70
    32
  0
VERTEX
  5
C6ED
  8
0
 10
166.793
 20
85.4987
 30
0.0
 70
    32
  0
VERTEX
  5
C6EE
  8
0
 10
166.802
 20
85.5659
 30
0.0
 70
    32
  0
VERTEX
  5
C6EF
  8
0
 10
166.811
 20
85.6341
 30
0.0
 70
    32
  0
VERTEX
  5
C6F0
  8
0
 10
166.819
 20
85.7033
 30
0.0
 70
    32
  0
VERTEX
  5
C6F1
  8
0
 10
166.827
 20
85.7734
 30
0.0
 70
    32
  0
VERTEX
  5
C6F2
  8
0
 10
166.835
 20
85.8444
 30
0.0
 70
    32
  0
VERTEX
  5
C6F3
  8
0
 10
166.842
 20
85.9163
 30
0.0
 70
    32
  0
VERTEX
  5
C6F4
  8
0
 10
166.849
 20
85.989
 30
0.0
 70
    32
  0
VERTEX
  5
C6F5
  8
0
 10
166.856
 20
86.0625
 30
0.0
 70
    32
  0
VERTEX
  5
C6F6
  8
0
 10
166.862
 20
86.1367
 30
0.0
 70
    32
  0
VERTEX
  5
C6F7
  8
0
 10
166.868
 20
86.2115
 30
0.0
 70
    32
  0
VERTEX
  5
C6F8
  8
0
 10
166.873
 20
86.2871
 30
0.0
 70
    32
  0
VERTEX
  5
C6F9
  8
0
 10
166.878
 20
86.3632
 30
0.0
 70
    32
  0
VERTEX
  5
C6FA
  8
0
 10
166.883
 20
86.4398
 30
0.0
 70
    32
  0
VERTEX
  5
C6FB
  8
0
 10
166.887
 20
86.517
 30
0.0
 70
    32
  0
VERTEX
  5
C6FC
  8
0
 10
166.891
 20
86.5946
 30
0.0
 70
    32
  0
VERTEX
  5
C6FD
  8
0
 10
166.894
 20
86.6726
 30
0.0
 70
    32
  0
VERTEX
  5
C6FE
  8
0
 10
166.897
 20
86.751
 30
0.0
 70
    32
  0
VERTEX
  5
C6FF
  8
0
 10
166.9
 20
86.8298
 30
0.0
 70
    32
  0
VERTEX
  5
C700
  8
0
 10
166.902
 20
86.9087
 30
0.0
 70
    32
  0
VERTEX
  5
C701
  8
0
 10
166.904
 20
86.9879
 30
0.0
 70
    32
  0
VERTEX
  5
C702
  8
0
 10
166.905
 20
87.0673
 30
0.0
 70
    32
  0
VERTEX
  5
C703
  8
0
 10
166.906
 20
87.1468
 30
0.0
 70
    32
  0
VERTEX
  5
C704
  8
0
 10
166.907
 20
87.2264
 30
0.0
 70
    32
  0
VERTEX
  5
C705
  8
0
 10
166.907
 20
87.306
 30
0.0
 70
    32
  0
VERTEX
  5
C706
  8
0
 10
166.906
 20
87.3856
 30
0.0
 70
    32
  0
VERTEX
  5
C707
  8
0
 10
166.906
 20
87.4652
 30
0.0
 70
    32
  0
VERTEX
  5
C708
  8
0
 10
166.904
 20
87.5446
 30
0.0
 70
    32
  0
VERTEX
  5
C709
  8
0
 10
166.903
 20
87.6239
 30
0.0
 70
    32
  0
VERTEX
  5
C70A
  8
0
 10
166.901
 20
87.703
 30
0.0
 70
    32
  0
VERTEX
  5
C70B
  8
0
 10
166.898
 20
87.7818
 30
0.0
 70
    32
  0
VERTEX
  5
C70C
  8
0
 10
166.896
 20
87.8603
 30
0.0
 70
    32
  0
VERTEX
  5
C70D
  8
0
 10
166.892
 20
87.9385
 30
0.0
 70
    32
  0
VERTEX
  5
C70E
  8
0
 10
166.889
 20
88.0163
 30
0.0
 70
    32
  0
VERTEX
  5
C70F
  8
0
 10
166.885
 20
88.0936
 30
0.0
 70
    32
  0
VERTEX
  5
C710
  8
0
 10
166.88
 20
88.1705
 30
0.0
 70
    32
  0
VERTEX
  5
C711
  8
0
 10
166.875
 20
88.2468
 30
0.0
 70
    32
  0
VERTEX
  5
C712
  8
0
 10
166.87
 20
88.3226
 30
0.0
 70
    32
  0
VERTEX
  5
C713
  8
0
 10
166.864
 20
88.3977
 30
0.0
 70
    32
  0
VERTEX
  5
C714
  8
0
 10
166.858
 20
88.4722
 30
0.0
 70
    32
  0
VERTEX
  5
C715
  8
0
 10
166.852
 20
88.546
 30
0.0
 70
    32
  0
VERTEX
  5
C716
  8
0
 10
166.845
 20
88.619
 30
0.0
 70
    32
  0
VERTEX
  5
C717
  8
0
 10
166.838
 20
88.6912
 30
0.0
 70
    32
  0
VERTEX
  5
C718
  8
0
 10
166.83
 20
88.7626
 30
0.0
 70
    32
  0
VERTEX
  5
C719
  8
0
 10
166.823
 20
88.8331
 30
0.0
 70
    32
  0
VERTEX
  5
C71A
  8
0
 10
166.814
 20
88.9026
 30
0.0
 70
    32
  0
VERTEX
  5
C71B
  8
0
 10
166.806
 20
88.9712
 30
0.0
 70
    32
  0
VERTEX
  5
C71C
  8
0
 10
166.797
 20
89.0388
 30
0.0
 70
    32
  0
VERTEX
  5
C71D
  8
0
 10
166.787
 20
89.1053
 30
0.0
 70
    32
  0
VERTEX
  5
C71E
  8
0
 10
166.777
 20
89.1708
 30
0.0
 70
    32
  0
VERTEX
  5
C71F
  8
0
 10
166.767
 20
89.2351
 30
0.0
 70
    32
  0
VERTEX
  5
C720
  8
0
 10
166.757
 20
89.2983
 30
0.0
 70
    32
  0
VERTEX
  5
C721
  8
0
 10
166.746
 20
89.3602
 30
0.0
 70
    32
  0
VERTEX
  5
C722
  8
0
 10
166.735
 20
89.4209
 30
0.0
 70
    32
  0
VERTEX
  5
C723
  8
0
 10
166.724
 20
89.4804
 30
0.0
 70
    32
  0
VERTEX
  5
C724
  8
0
 10
166.712
 20
89.5385
 30
0.0
 70
    32
  0
VERTEX
  5
C725
  8
0
 10
166.7
 20
89.5953
 30
0.0
 70
    32
  0
VERTEX
  5
C726
  8
0
 10
166.688
 20
89.6507
 30
0.0
 70
    32
  0
VERTEX
  5
C727
  8
0
 10
166.676
 20
89.7047
 30
0.0
 70
    32
  0
VERTEX
  5
C728
  8
0
 10
166.663
 20
89.7572
 30
0.0
 70
    32
  0
VERTEX
  5
C729
  8
0
 10
166.65
 20
89.8083
 30
0.0
 70
    32
  0
VERTEX
  5
C72A
  8
0
 10
166.636
 20
89.8578
 30
0.0
 70
    32
  0
VERTEX
  5
C72B
  8
0
 10
166.623
 20
89.9058
 30
0.0
 70
    32
  0
VERTEX
  5
C72C
  8
0
 10
166.609
 20
89.9523
 30
0.0
 70
    32
  0
VERTEX
  5
C72D
  8
0
 10
166.595
 20
89.9972
 30
0.0
 70
    32
  0
VERTEX
  5
C72E
  8
0
 10
166.58
 20
90.0404
 30
0.0
 70
    32
  0
VERTEX
  5
C72F
  8
0
 10
166.566
 20
90.082
 30
0.0
 70
    32
  0
VERTEX
  5
C730
  8
0
 10
166.551
 20
90.1219
 30
0.0
 70
    32
  0
VERTEX
  5
C731
  8
0
 10
166.536
 20
90.1601
 30
0.0
 70
    32
  0
VERTEX
  5
C732
  8
0
 10
166.521
 20
90.1966
 30
0.0
 70
    32
  0
VERTEX
  5
C733
  8
0
 10
166.506
 20
90.2314
 30
0.0
 70
    32
  0
VERTEX
  5
C734
  8
0
 10
166.49
 20
90.2644
 30
0.0
 70
    32
  0
VERTEX
  5
C735
  8
0
 10
166.475
 20
90.2957
 30
0.0
 70
    32
  0
VERTEX
  5
C736
  8
0
 10
166.459
 20
90.3251
 30
0.0
 70
    32
  0
VERTEX
  5
C737
  8
0
 10
166.443
 20
90.3527
 30
0.0
 70
    32
  0
VERTEX
  5
C738
  8
0
 10
166.427
 20
90.3785
 30
0.0
 70
    32
  0
VERTEX
  5
C739
  8
0
 10
166.41
 20
90.4024
 30
0.0
 70
    32
  0
VERTEX
  5
C73A
  8
0
 10
166.394
 20
90.4245
 30
0.0
 70
    32
  0
VERTEX
  5
C73B
  8
0
 10
166.377
 20
90.4447
 30
0.0
 70
    32
  0
VERTEX
  5
C73C
  8
0
 10
166.361
 20
90.463
 30
0.0
 70
    32
  0
VERTEX
  5
C73D
  8
0
 10
166.344
 20
90.4794
 30
0.0
 70
    32
  0
VERTEX
  5
C73E
  8
0
 10
166.327
 20
90.4939
 30
0.0
 70
    32
  0
VERTEX
  5
C73F
  8
0
 10
166.311
 20
90.5065
 30
0.0
 70
    32
  0
VERTEX
  5
C740
  8
0
 10
166.294
 20
90.5172
 30
0.0
 70
    32
  0
VERTEX
  5
C741
  8
0
 10
166.277
 20
90.5259
 30
0.0
 70
    32
  0
VERTEX
  5
C742
  8
0
 10
166.26
 20
90.5327
 30
0.0
 70
    32
  0
VERTEX
  5
C743
  8
0
 10
166.243
 20
90.5376
 30
0.0
 70
    32
  0
VERTEX
  5
C744
  8
0
 10
166.226
 20
90.5405
 30
0.0
 70
    32
  0
VERTEX
  5
C745
  8
0
 10
166.209
 20
90.5415
 30
0.0
 70
    32
  0
SEQEND
  5
C746
  8
0
  0
LINE
  5
C747
  8
HIDDEN
 10
166.250923
 20
84.047821
 30
0.0
 11
163.000277
 21
82.104351
 31
0.0
  0
POLYLINE
  5
C748
  8
HIDDEN
 66
     1
 10
0.0
 20
0.0
 30
0.0
  0
VERTEX
  5
CAB8
  8
HIDDEN
 10
162.998787
 20
82.106844
 30
0.0
  0
VERTEX
  5
CAB9
  8
HIDDEN
 10
162.991321
 20
82.103697
 30
0.0
  0
VERTEX
  5
CABA
  8
HIDDEN
 10
162.983852
 20
82.100762
 30
0.0
  0
VERTEX
  5
CABB
  8
HIDDEN
 10
162.976378
 20
82.09804
 30
0.0
  0
VERTEX
  5
CABC
  8
HIDDEN
 10
162.9689
 20
82.095531
 30
0.0
  0
VERTEX
  5
CABD
  8
HIDDEN
 10
162.961419
 20
82.093235
 30
0.0
  0
VERTEX
  5
CABE
  8
HIDDEN
 10
162.953935
 20
82.091153
 30
0.0
  0
SEQEND
  5
CABF
  8
HIDDEN
  0
LINE
  5
C751
  8
HIDDEN
 10
166.702293
 20
85.03201
 30
0.0
 11
168.56377
 21
85.03201
 31
0.0
  0
LINE
  5
C752
  8
HIDDEN
 10
166.889436
 20
89.18201
 30
0.0
 11
166.889436
 21
94.38201
 31
0.0
  0
LINE
  5
C753
  8
HIDDEN
 10
166.208642
 20
90.541478
 30
0.0
 11
163.019481
 21
92.448187
 31
0.0
  0
POLYLINE
  5
C754
  8
HIDDEN
 66
     1
 10
0.0
 20
0.0
 30
0.0
  0
VERTEX
  5
CAC0
  8
HIDDEN
 10
162.974304
 20
92.466698
 30
0.0
  0
VERTEX
  5
CAC1
  8
HIDDEN
 10
162.981778
 20
92.464035
 30
0.0
  0
VERTEX
  5
CAC2
  8
HIDDEN
 10
162.989249
 20
92.461159
 30
0.0
  0
VERTEX
  5
CAC3
  8
HIDDEN
 10
162.996716
 20
92.45807
 30
0.0
  0
VERTEX
  5
CAC4
  8
HIDDEN
 10
163.004178
 20
92.454769
 30
0.0
  0
VERTEX
  5
CAC5
  8
HIDDEN
 10
163.011635
 20
92.451255
 30
0.0
  0
VERTEX
  5
CAC6
  8
HIDDEN
 10
163.019087
 20
92.447528
 30
0.0
  0
SEQEND
  5
CAC7
  8
HIDDEN
  0
LINE
  5
C75D
  8
HIDDEN
 10
166.702293
 20
89.53201
 30
0.0
 11
166.889436
 21
89.53201
 31
0.0
  0
ARC
  5
C75E
  8
HIDDEN
 10
165.739436
 20
94.88201
 30
0.0
 40
0.5
 50
180.0
 51
270.0
  0
ARC
  5
C75F
  8
0
 62
     5
 10
165.089436
 20
97.38201
 30
0.0
 40
0.5
 50
180.0
 51
270.0
  0
LINE
  5
C760
  8
HIDDEN
 10
165.239436
 20
94.88201
 30
0.0
 11
165.239436
 21
96.88201
 31
0.0
  0
LINE
  5
C761
  8
HIDDEN
 10
166.889436
 20
94.38201
 30
0.0
 11
165.739436
 21
94.38201
 31
0.0
  0
LINE
  5
C762
  8
0
 62
     5
 10
169.706137
 20
91.48201
 30
0.0
 11
169.536435
 21
96.88201
 31
0.0
  0
LINE
  5
C763
  8
0
 62
     5
 10
176.942438
 20
96.88201
 30
0.0
 11
176.772736
 21
91.48201
 31
0.0
  0
LINE
  5
C764
  8
0
 62
     5
 10
176.085032
 20
91.48201
 30
0.0
 11
176.155324
 21
96.88201
 31
0.0
  0
LINE
  5
C765
  8
0
 62
     5
 10
170.323549
 20
96.88201
 30
0.0
 11
170.393841
 21
91.48201
 31
0.0
  0
LINE
  5
C766
  8
0
 62
     5
 10
169.706137
 20
91.48201
 30
0.0
 11
176.772736
 21
91.48201
 31
0.0
  0
POLYLINE
  5
C767
  8
HIDDEN
 66
     1
 10
0.0
 20
0.0
 30
0.0
 70
     8
  0
VERTEX
  5
C768
  8
0
 10
191.953
 20
85.3522
 30
0.0
 70
    32
  0
VERTEX
  5
C769
  8
0
 10
191.965
 20
85.3532
 30
0.0
 70
    32
  0
VERTEX
  5
C76A
  8
0
 10
191.977
 20
85.3569
 30
0.0
 70
    32
  0
VERTEX
  5
C76B
  8
0
 10
191.989
 20
85.3632
 30
0.0
 70
    32
  0
VERTEX
  5
C76C
  8
0
 10
192.001
 20
85.3722
 30
0.0
 70
    32
  0
VERTEX
  5
C76D
  8
0
 10
192.013
 20
85.3838
 30
0.0
 70
    32
  0
VERTEX
  5
C76E
  8
0
 10
192.025
 20
85.3981
 30
0.0
 70
    32
  0
VERTEX
  5
C76F
  8
0
 10
192.036
 20
85.4149
 30
0.0
 70
    32
  0
VERTEX
  5
C770
  8
0
 10
192.048
 20
85.4344
 30
0.0
 70
    32
  0
VERTEX
  5
C771
  8
0
 10
192.06
 20
85.4565
 30
0.0
 70
    32
  0
VERTEX
  5
C772
  8
0
 10
192.071
 20
85.4811
 30
0.0
 70
    32
  0
VERTEX
  5
C773
  8
0
 10
192.083
 20
85.5084
 30
0.0
 70
    32
  0
VERTEX
  5
C774
  8
0
 10
192.094
 20
85.5381
 30
0.0
 70
    32
  0
VERTEX
  5
C775
  8
0
 10
192.106
 20
85.5704
 30
0.0
 70
    32
  0
VERTEX
  5
C776
  8
0
 10
192.117
 20
85.6053
 30
0.0
 70
    32
  0
VERTEX
  5
C777
  8
0
 10
192.128
 20
85.6426
 30
0.0
 70
    32
  0
VERTEX
  5
C778
  8
0
 10
192.139
 20
85.6824
 30
0.0
 70
    32
  0
VERTEX
  5
C779
  8
0
 10
192.15
 20
85.7246
 30
0.0
 70
    32
  0
VERTEX
  5
C77A
  8
0
 10
192.161
 20
85.7693
 30
0.0
 70
    32
  0
VERTEX
  5
C77B
  8
0
 10
192.172
 20
85.8163
 30
0.0
 70
    32
  0
VERTEX
  5
C77C
  8
0
 10
192.182
 20
85.8657
 30
0.0
 70
    32
  0
VERTEX
  5
C77D
  8
0
 10
192.193
 20
85.9175
 30
0.0
 70
    32
  0
VERTEX
  5
C77E
  8
0
 10
192.203
 20
85.9715
 30
0.0
 70
    32
  0
VERTEX
  5
C77F
  8
0
 10
192.213
 20
86.0279
 30
0.0
 70
    32
  0
VERTEX
  5
C780
  8
0
 10
192.223
 20
86.0864
 30
0.0
 70
    32
  0
VERTEX
  5
C781
  8
0
 10
192.233
 20
86.1472
 30
0.0
 70
    32
  0
VERTEX
  5
C782
  8
0
 10
192.243
 20
86.2101
 30
0.0
 70
    32
  0
VERTEX
  5
C783
  8
0
 10
192.252
 20
86.2752
 30
0.0
 70
    32
  0
VERTEX
  5
C784
  8
0
 10
192.262
 20
86.3424
 30
0.0
 70
    32
  0
VERTEX
  5
C785
  8
0
 10
192.271
 20
86.4116
 30
0.0
 70
    32
  0
VERTEX
  5
C786
  8
0
 10
192.28
 20
86.4828
 30
0.0
 70
    32
  0
VERTEX
  5
C787
  8
0
 10
192.288
 20
86.556
 30
0.0
 70
    32
  0
VERTEX
  5
C788
  8
0
 10
192.297
 20
86.6311
 30
0.0
 70
    32
  0
VERTEX
  5
C789
  8
0
 10
192.305
 20
86.708
 30
0.0
 70
    32
  0
VERTEX
  5
C78A
  8
0
 10
192.313
 20
86.7868
 30
0.0
 70
    32
  0
VERTEX
  5
C78B
  8
0
 10
192.321
 20
86.8674
 30
0.0
 70
    32
  0
VERTEX
  5
C78C
  8
0
 10
192.329
 20
86.9497
 30
0.0
 70
    32
  0
VERTEX
  5
C78D
  8
0
 10
192.336
 20
87.0337
 30
0.0
 70
    32
  0
VERTEX
  5
C78E
  8
0
 10
192.344
 20
87.1193
 30
0.0
 70
    32
  0
VERTEX
  5
C78F
  8
0
 10
192.351
 20
87.2065
 30
0.0
 70
    32
  0
VERTEX
  5
C790
  8
0
 10
192.357
 20
87.2952
 30
0.0
 70
    32
  0
VERTEX
  5
C791
  8
0
 10
192.364
 20
87.3854
 30
0.0
 70
    32
  0
VERTEX
  5
C792
  8
0
 10
192.37
 20
87.477
 30
0.0
 70
    32
  0
VERTEX
  5
C793
  8
0
 10
192.376
 20
87.57
 30
0.0
 70
    32
  0
VERTEX
  5
C794
  8
0
 10
192.382
 20
87.6643
 30
0.0
 70
    32
  0
VERTEX
  5
C795
  8
0
 10
192.387
 20
87.7598
 30
0.0
 70
    32
  0
VERTEX
  5
C796
  8
0
 10
192.393
 20
87.8566
 30
0.0
 70
    32
  0
VERTEX
  5
C797
  8
0
 10
192.398
 20
87.9544
 30
0.0
 70
    32
  0
VERTEX
  5
C798
  8
0
 10
192.402
 20
88.0533
 30
0.0
 70
    32
  0
VERTEX
  5
C799
  8
0
 10
192.407
 20
88.1533
 30
0.0
 70
    32
  0
VERTEX
  5
C79A
  8
0
 10
192.411
 20
88.2542
 30
0.0
 70
    32
  0
VERTEX
  5
C79B
  8
0
 10
192.415
 20
88.356
 30
0.0
 70
    32
  0
VERTEX
  5
C79C
  8
0
 10
192.418
 20
88.4586
 30
0.0
 70
    32
  0
VERTEX
  5
C79D
  8
0
 10
192.422
 20
88.562
 30
0.0
 70
    32
  0
VERTEX
  5
C79E
  8
0
 10
192.425
 20
88.6661
 30
0.0
 70
    32
  0
VERTEX
  5
C79F
  8
0
 10
192.428
 20
88.7709
 30
0.0
 70
    32
  0
VERTEX
  5
C7A0
  8
0
 10
192.43
 20
88.8762
 30
0.0
 70
    32
  0
VERTEX
  5
C7A1
  8
0
 10
192.432
 20
88.982
 30
0.0
 70
    32
  0
VERTEX
  5
C7A2
  8
0
 10
192.434
 20
89.0883
 30
0.0
 70
    32
  0
VERTEX
  5
C7A3
  8
0
 10
192.436
 20
89.195
 30
0.0
 70
    32
  0
VERTEX
  5
C7A4
  8
0
 10
192.437
 20
89.302
 30
0.0
 70
    32
  0
VERTEX
  5
C7A5
  8
0
 10
192.438
 20
89.4093
 30
0.0
 70
    32
  0
VERTEX
  5
C7A6
  8
0
 10
192.439
 20
89.5168
 30
0.0
 70
    32
  0
VERTEX
  5
C7A7
  8
0
 10
192.439
 20
89.6244
 30
0.0
 70
    32
  0
VERTEX
  5
C7A8
  8
0
 10
192.439
 20
89.732
 30
0.0
 70
    32
  0
VERTEX
  5
C7A9
  8
0
 10
192.439
 20
89.8397
 30
0.0
 70
    32
  0
VERTEX
  5
C7AA
  8
0
 10
192.439
 20
89.9473
 30
0.0
 70
    32
  0
VERTEX
  5
C7AB
  8
0
 10
192.438
 20
90.0547
 30
0.0
 70
    32
  0
VERTEX
  5
C7AC
  8
0
 10
192.437
 20
90.162
 30
0.0
 70
    32
  0
VERTEX
  5
C7AD
  8
0
 10
192.436
 20
90.269
 30
0.0
 70
    32
  0
VERTEX
  5
C7AE
  8
0
 10
192.434
 20
90.3757
 30
0.0
 70
    32
  0
VERTEX
  5
C7AF
  8
0
 10
192.432
 20
90.482
 30
0.0
 70
    32
  0
VERTEX
  5
C7B0
  8
0
 10
192.43
 20
90.5878
 30
0.0
 70
    32
  0
VERTEX
  5
C7B1
  8
0
 10
192.428
 20
90.6932
 30
0.0
 70
    32
  0
VERTEX
  5
C7B2
  8
0
 10
192.425
 20
90.7979
 30
0.0
 70
    32
  0
VERTEX
  5
C7B3
  8
0
 10
192.422
 20
90.902
 30
0.0
 70
    32
  0
VERTEX
  5
C7B4
  8
0
 10
192.418
 20
91.0054
 30
0.0
 70
    32
  0
VERTEX
  5
C7B5
  8
0
 10
192.415
 20
91.108
 30
0.0
 70
    32
  0
VERTEX
  5
C7B6
  8
0
 10
192.411
 20
91.2098
 30
0.0
 70
    32
  0
VERTEX
  5
C7B7
  8
0
 10
192.407
 20
91.3107
 30
0.0
 70
    32
  0
VERTEX
  5
C7B8
  8
0
 10
192.402
 20
91.4107
 30
0.0
 70
    32
  0
VERTEX
  5
C7B9
  8
0
 10
192.398
 20
91.5096
 30
0.0
 70
    32
  0
VERTEX
  5
C7BA
  8
0
 10
192.393
 20
91.6075
 30
0.0
 70
    32
  0
VERTEX
  5
C7BB
  8
0
 10
192.387
 20
91.7042
 30
0.0
 70
    32
  0
VERTEX
  5
C7BC
  8
0
 10
192.382
 20
91.7997
 30
0.0
 70
    32
  0
VERTEX
  5
C7BD
  8
0
 10
192.376
 20
91.894
 30
0.0
 70
    32
  0
VERTEX
  5
C7BE
  8
0
 10
192.37
 20
91.987
 30
0.0
 70
    32
  0
VERTEX
  5
C7BF
  8
0
 10
192.364
 20
92.0786
 30
0.0
 70
    32
  0
VERTEX
  5
C7C0
  8
0
 10
192.357
 20
92.1688
 30
0.0
 70
    32
  0
VERTEX
  5
C7C1
  8
0
 10
192.351
 20
92.2575
 30
0.0
 70
    32
  0
VERTEX
  5
C7C2
  8
0
 10
192.344
 20
92.3447
 30
0.0
 70
    32
  0
VERTEX
  5
C7C3
  8
0
 10
192.336
 20
92.4303
 30
0.0
 70
    32
  0
VERTEX
  5
C7C4
  8
0
 10
192.329
 20
92.5143
 30
0.0
 70
    32
  0
VERTEX
  5
C7C5
  8
0
 10
192.321
 20
92.5966
 30
0.0
 70
    32
  0
VERTEX
  5
C7C6
  8
0
 10
192.313
 20
92.6772
 30
0.0
 70
    32
  0
VERTEX
  5
C7C7
  8
0
 10
192.305
 20
92.756
 30
0.0
 70
    32
  0
VERTEX
  5
C7C8
  8
0
 10
192.297
 20
92.833
 30
0.0
 70
    32
  0
VERTEX
  5
C7C9
  8
0
 10
192.288
 20
92.9081
 30
0.0
 70
    32
  0
VERTEX
  5
C7CA
  8
0
 10
192.28
 20
92.9812
 30
0.0
 70
    32
  0
VERTEX
  5
C7CB
  8
0
 10
192.271
 20
93.0524
 30
0.0
 70
    32
  0
VERTEX
  5
C7CC
  8
0
 10
192.262
 20
93.1217
 30
0.0
 70
    32
  0
VERTEX
  5
C7CD
  8
0
 10
192.252
 20
93.1888
 30
0.0
 70
    32
  0
VERTEX
  5
C7CE
  8
0
 10
192.243
 20
93.2539
 30
0.0
 70
    32
  0
VERTEX
  5
C7CF
  8
0
 10
192.233
 20
93.3168
 30
0.0
 70
    32
  0
VERTEX
  5
C7D0
  8
0
 10
192.223
 20
93.3776
 30
0.0
 70
    32
  0
VERTEX
  5
C7D1
  8
0
 10
192.213
 20
93.4362
 30
0.0
 70
    32
  0
VERTEX
  5
C7D2
  8
0
 10
192.203
 20
93.4925
 30
0.0
 70
    32
  0
VERTEX
  5
C7D3
  8
0
 10
192.193
 20
93.5465
 30
0.0
 70
    32
  0
VERTEX
  5
C7D4
  8
0
 10
192.182
 20
93.5983
 30
0.0
 70
    32
  0
VERTEX
  5
C7D5
  8
0
 10
192.172
 20
93.6477
 30
0.0
 70
    32
  0
VERTEX
  5
C7D6
  8
0
 10
192.161
 20
93.6948
 30
0.0
 70
    32
  0
VERTEX
  5
C7D7
  8
0
 10
192.15
 20
93.7394
 30
0.0
 70
    32
  0
VERTEX
  5
C7D8
  8
0
 10
192.139
 20
93.7817
 30
0.0
 70
    32
  0
VERTEX
  5
C7D9
  8
0
 10
192.128
 20
93.8214
 30
0.0
 70
    32
  0
VERTEX
  5
C7DA
  8
0
 10
192.117
 20
93.8588
 30
0.0
 70
    32
  0
VERTEX
  5
C7DB
  8
0
 10
192.106
 20
93.8936
 30
0.0
 70
    32
  0
VERTEX
  5
C7DC
  8
0
 10
192.094
 20
93.9259
 30
0.0
 70
    32
  0
VERTEX
  5
C7DD
  8
0
 10
192.083
 20
93.9557
 30
0.0
 70
    32
  0
VERTEX
  5
C7DE
  8
0
 10
192.071
 20
93.9829
 30
0.0
 70
    32
  0
VERTEX
  5
C7DF
  8
0
 10
192.06
 20
94.0075
 30
0.0
 70
    32
  0
VERTEX
  5
C7E0
  8
0
 10
192.048
 20
94.0296
 30
0.0
 70
    32
  0
VERTEX
  5
C7E1
  8
0
 10
192.036
 20
94.0491
 30
0.0
 70
    32
  0
VERTEX
  5
C7E2
  8
0
 10
192.025
 20
94.0659
 30
0.0
 70
    32
  0
VERTEX
  5
C7E3
  8
0
 10
192.013
 20
94.0802
 30
0.0
 70
    32
  0
VERTEX
  5
C7E4
  8
0
 10
192.001
 20
94.0918
 30
0.0
 70
    32
  0
VERTEX
  5
C7E5
  8
0
 10
191.989
 20
94.1008
 30
0.0
 70
    32
  0
VERTEX
  5
C7E6
  8
0
 10
191.977
 20
94.1071
 30
0.0
 70
    32
  0
VERTEX
  5
C7E7
  8
0
 10
191.965
 20
94.1108
 30
0.0
 70
    32
  0
VERTEX
  5
C7E8
  8
0
 10
191.953
 20
94.1119
 30
0.0
 70
    32
  0
SEQEND
  5
C7E9
  8
0
  0
LINE
  5
C7EA
  8
HIDDEN
 10
191.941224
 20
85.34308
 30
0.0
 11
188.776797
 21
83.497734
 31
0.0
  0
POLYLINE
  5
C7EB
  8
HIDDEN
 66
     1
 10
0.0
 20
0.0
 30
0.0
  0
VERTEX
  5
CAC8
  8
HIDDEN
 10
188.195914
 20
83.182648
 30
0.0
  0
VERTEX
  5
CAC9
  8
HIDDEN
 10
188.190342
 20
83.183446
 30
0.0
  0
VERTEX
  5
CACA
  8
HIDDEN
 10
188.187556
 20
83.183965
 30
0.0
  0
VERTEX
  5
CACB
  8
HIDDEN
 10
188.187312
 20
83.184015
 30
0.0
  0
SEQEND
  5
CACC
  8
HIDDEN
  0
POLYLINE
  5
C7F1
  8
HIDDEN
 66
     1
 10
0.0
 20
0.0
 30
0.0
  0
VERTEX
  5
CACD
  8
HIDDEN
 10
188.20706
 20
83.18201
 30
0.0
  0
VERTEX
  5
CACE
  8
HIDDEN
 10
188.200094
 20
83.182259
 30
0.0
  0
VERTEX
  5
CACF
  8
HIDDEN
 10
188.193702
 20
83.182927
 30
0.0
  0
VERTEX
  5
CAD0
  8
HIDDEN
 10
188.187312
 20
83.184015
 30
0.0
  0
VERTEX
  5
CAD1
  8
HIDDEN
 10
188.180923
 20
83.185522
 30
0.0
  0
SEQEND
  5
CAD2
  8
HIDDEN
  0
POLYLINE
  5
C7F8
  8
HIDDEN
 66
     1
 10
0.0
 20
0.0
 30
0.0
  0
VERTEX
  5
CAD3
  8
HIDDEN
 10
188.207059
 20
83.18201
 30
0.0
  0
VERTEX
  5
CAD4
  8
HIDDEN
 10
188.204273
 20
83.18205
 30
0.0
  0
VERTEX
  5
CAD5
  8
HIDDEN
 10
188.1987
 20
83.182369
 30
0.0
  0
SEQEND
  5
CAD6
  8
HIDDEN
  0
LINE
  5
C7FD
  8
HIDDEN
 10
188.208121
 20
83.182016
 30
0.0
 11
188.20706
 21
83.18201
 31
0.0
  0
LINE
  5
C7FE
  8
HIDDEN
 10
188.213517
 20
83.182224
 30
0.0
 11
188.211667
 21
83.182119
 31
0.0
  0
POLYLINE
  5
C7FF
  8
HIDDEN
 66
     1
 10
0.0
 20
0.0
 30
0.0
  0
VERTEX
  5
CAD7
  8
HIDDEN
 10
188.219269
 20
83.182776
 30
0.0
  0
VERTEX
  5
CAD8
  8
HIDDEN
 10
188.212877
 20
83.182184
 30
0.0
  0
VERTEX
  5
CAD9
  8
HIDDEN
 10
188.20706
 20
83.18201
 30
0.0
  0
SEQEND
  5
CADA
  8
HIDDEN
  0
POLYLINE
  5
C804
  8
HIDDEN
 66
     1
 10
0.0
 20
0.0
 30
0.0
  0
VERTEX
  5
CADB
  8
HIDDEN
 10
188.219268
 20
83.182776
 30
0.0
  0
VERTEX
  5
CADC
  8
HIDDEN
 10
188.216482
 20
83.182466
 30
0.0
  0
VERTEX
  5
CADD
  8
HIDDEN
 10
188.213516
 20
83.182224
 30
0.0
  0
SEQEND
  5
CADE
  8
HIDDEN
  0
LINE
  5
C809
  8
HIDDEN
 10
188.194851
 20
96.281244
 30
0.0
 11
181.239436
 21
96.281244
 31
0.0
  0
LINE
  5
C80A
  8
HIDDEN
 10
181.239436
 20
96.88201
 30
0.0
 11
181.239436
 21
96.281244
 31
0.0
  0
ARC
  5
C80B
  8
0
 62
     5
 10
182.239436
 20
97.38201
 30
0.0
 40
0.5
 50
270.0
 51
0.0
  0
LINE
  5
C80C
  8
HIDDEN
 10
191.941224
 20
94.12094
 30
0.0
 11
188.683109
 21
96.020921
 31
0.0
  0
LINE
  5
C80D
  8
HIDDEN
 10
187.919885
 20
96.28201
 30
0.0
 11
187.918898
 21
96.28201
 31
0.0
  0
LINE
  5
C80E
  8
HIDDEN
 10
188.226807
 20
96.280005
 30
0.0
 11
188.233196
 21
96.278498
 31
0.0
  0
LINE
  5
C80F
  8
HIDDEN
 10
188.225743
 20
96.280216
 30
0.0
 11
188.227447
 21
96.279873
 31
0.0
  0
LINE
  5
C810
  8
HIDDEN
 10
188.219777
 20
96.281179
 30
0.0
 11
188.221482
 21
96.280941
 31
0.0
  0
POLYLINE
  5
C811
  8
HIDDEN
 66
     1
 10
0.0
 20
0.0
 30
0.0
  0
VERTEX
  5
CADF
  8
HIDDEN
 10
188.20706
 20
96.28201
 30
0.0
  0
VERTEX
  5
CAE0
  8
HIDDEN
 10
188.214026
 20
96.281761
 30
0.0
  0
VERTEX
  5
CAE1
  8
HIDDEN
 10
188.220417
 20
96.281093
 30
0.0
  0
VERTEX
  5
CAE2
  8
HIDDEN
 10
188.226807
 20
96.280005
 30
0.0
  0
SEQEND
  5
CAE3
  8
HIDDEN
  0
POLYLINE
  5
C817
  8
HIDDEN
 66
     1
 10
0.0
 20
0.0
 30
0.0
  0
VERTEX
  5
CAE4
  8
HIDDEN
 10
188.207828
 20
96.282007
 30
0.0
  0
VERTEX
  5
CAE5
  8
HIDDEN
 10
188.210614
 20
96.281945
 30
0.0
  0
VERTEX
  5
CAE6
  8
HIDDEN
 10
188.213401
 20
96.281803
 30
0.0
  0
VERTEX
  5
CAE7
  8
HIDDEN
 10
188.216187
 20
96.281582
 30
0.0
  0
VERTEX
  5
CAE8
  8
HIDDEN
 10
188.219778
 20
96.281179
 30
0.0
  0
SEQEND
  5
CAE9
  8
HIDDEN
  0
POLYLINE
  5
C81E
  8
HIDDEN
 66
     1
 10
0.0
 20
0.0
 30
0.0
  0
VERTEX
  5
CAEA
  8
HIDDEN
 10
188.194851
 20
96.281244
 30
0.0
  0
VERTEX
  5
CAEB
  8
HIDDEN
 10
188.201242
 20
96.281836
 30
0.0
  0
VERTEX
  5
CAEC
  8
HIDDEN
 10
188.20706
 20
96.28201
 30
0.0
  0
SEQEND
  5
CAED
  8
HIDDEN
  0
LINE
  5
C823
  8
0
 62
     5
 10
183.234118
 20
100.18089
 30
0.0
 11
164.539436
 21
100.18089
 31
0.0
  0
LINE
  5
C824
  8
0
 62
     5
 10
164.539436
 20
99.98201
 30
0.0
 11
164.589436
 21
99.982542
 31
0.0
  0
LINE
  5
C825
  8
0
 62
     5
 10
164.539436
 20
99.98201
 30
0.0
 11
164.539436
 21
140.918135
 31
0.0
  0
LINE
  5
C826
  8
0
 62
     5
 10
183.234118
 20
100.18089
 30
0.0
 11
192.739436
 21
100.28201
 31
0.0
  0
ARC
  5
C827
  8
0
 62
     5
 10
183.239436
 20
99.680918
 30
0.0
 40
0.5
 50
90.609507
 51
180.0
  0
LINE
  5
C828
  8
0
 62
     5
 10
173.941866
 20
137.93691
 30
0.0
 11
177.71752
 21
137.790173
 31
0.0
  0
LINE
  5
C829
  8
0
 62
     5
 10
177.602428
 20
132.875903
 30
0.0
 11
176.60072
 21
132.875574
 31
0.0
  0
LINE
  5
C82A
  8
0
 62
     5
 10
164.539436
 20
140.58201
 30
0.0
 11
192.739436
 21
140.28201
 31
0.0
  0
LINE
  5
C82B
  8
0
 62
     5
 10
192.739436
 20
132.766963
 30
0.0
 11
164.539436
 21
132.89001
 31
0.0
  0
LINE
  5
C82C
  8
0
 62
     5
 10
169.384693
 20
132.8818
 30
0.0
 11
169.195235
 21
132.882154
 31
0.0
  0
LINE
  5
C82D
  8
0
 62
     5
 10
165.656073
 20
132.890379
 30
0.0
 11
164.993366
 21
132.892123
 31
0.0
  0
LINE
  5
C82E
  8
0
 62
     5
 10
164.993366
 20
132.892123
 30
0.0
 11
164.857047
 21
132.892419
 31
0.0
  0
LINE
  5
C82F
  8
0
 62
     5
 10
166.971977
 20
132.886985
 30
0.0
 11
165.656073
 21
132.890379
 31
0.0
  0
LINE
  5
C830
  8
0
 62
     5
 10
168.054602
 20
132.88448
 30
0.0
 11
166.971977
 21
132.886985
 31
0.0
  0
LINE
  5
C831
  8
0
 62
     5
 10
168.506279
 20
132.88352
 30
0.0
 11
168.054602
 21
132.88448
 31
0.0
  0
LINE
  5
C832
  8
0
 62
     5
 10
168.668731
 20
132.883187
 30
0.0
 11
168.506279
 21
132.88352
 31
0.0
  0
LINE
  5
C833
  8
0
 62
     5
 10
169.195235
 20
132.882154
 30
0.0
 11
168.668731
 21
132.883187
 31
0.0
  0
LINE
  5
C834
  8
0
 62
     5
 10
173.674886
 20
132.876332
 30
0.0
 11
172.652267
 21
132.877179
 31
0.0
  0
LINE
  5
C835
  8
0
 62
     5
 10
172.652267
 20
132.877179
 30
0.0
 11
171.744435
 21
132.878174
 31
0.0
  0
LINE
  5
C836
  8
0
 62
     5
 10
169.999018
 20
132.880714
 30
0.0
 11
169.384693
 21
132.8818
 31
0.0
  0
LINE
  5
C837
  8
0
 62
     5
 10
170.450096
 20
132.87998
 30
0.0
 11
169.999018
 21
132.880714
 31
0.0
  0
LINE
  5
C838
  8
0
 62
     5
 10
171.196125
 20
132.878885
 30
0.0
 11
170.450096
 21
132.87998
 31
0.0
  0
LINE
  5
C839
  8
0
 62
     5
 10
169.939436
 20
132.880799
 30
0.0
 11
169.939436
 21
132.913888
 31
0.0
  0
LINE
  5
C83A
  8
0
 62
     5
 10
171.744435
 20
132.878174
 30
0.0
 11
171.196125
 21
132.878885
 31
0.0
  0
LINE
  5
C83B
  8
0
 62
     5
 10
174.428062
 20
132.875898
 30
0.0
 11
173.674886
 21
132.876332
 31
0.0
  0
LINE
  5
C83C
  8
0
 62
     5
 10
175.244485
 20
132.875612
 30
0.0
 11
174.428062
 21
132.875898
 31
0.0
  0
LINE
  5
C83D
  8
0
 62
     5
 10
176.130033
 20
132.875525
 30
0.0
 11
175.244485
 21
132.875612
 31
0.0
  0
LINE
  5
C83E
  8
0
 62
     5
 10
176.60072
 20
132.875574
 30
0.0
 11
176.130033
 21
132.875525
 31
0.0
  0
LINE
  5
C83F
  8
0
 62
     5
 10
168.993573
 20
138.123476
 30
0.0
 11
169.354408
 21
138.110068
 31
0.0
  0
LINE
  5
C840
  8
0
 62
     5
 10
165.107013
 20
138.270342
 30
0.0
 11
165.303019
 21
138.261786
 31
0.0
  0
LINE
  5
C841
  8
0
 62
     5
 10
164.648341
 20
138.309581
 30
0.0
 11
164.659817
 21
138.306653
 31
0.0
  0
LINE
  5
C842
  8
0
 62
     5
 10
164.659817
 20
138.306653
 30
0.0
 11
164.671924
 21
138.303998
 31
0.0
  0
LINE
  5
C843
  8
0
 62
     5
 10
164.671924
 20
138.303998
 30
0.0
 11
164.684674
 21
138.301581
 31
0.0
  0
LINE
  5
C844
  8
0
 62
     5
 10
164.684674
 20
138.301581
 30
0.0
 11
164.698072
 21
138.299356
 31
0.0
  0
LINE
  5
C845
  8
0
 62
     5
 10
164.698072
 20
138.299356
 30
0.0
 11
164.712093
 21
138.297304
 31
0.0
  0
LINE
  5
C846
  8
0
 62
     5
 10
164.712093
 20
138.297304
 30
0.0
 11
164.726729
 21
138.295394
 31
0.0
  0
LINE
  5
C847
  8
0
 62
     5
 10
164.726729
 20
138.295394
 30
0.0
 11
164.741936
 21
138.293612
 31
0.0
  0
LINE
  5
C848
  8
0
 62
     5
 10
164.741936
 20
138.293612
 30
0.0
 11
164.757649
 21
138.291942
 31
0.0
  0
LINE
  5
C849
  8
0
 62
     5
 10
164.757649
 20
138.291942
 30
0.0
 11
164.773919
 21
138.290365
 31
0.0
  0
LINE
  5
C84A
  8
0
 62
     5
 10
164.773919
 20
138.290365
 30
0.0
 11
164.790763
 21
138.288861
 31
0.0
  0
LINE
  5
C84B
  8
0
 62
     5
 10
164.790763
 20
138.288861
 30
0.0
 11
164.808223
 21
138.287417
 31
0.0
  0
LINE
  5
C84C
  8
0
 62
     5
 10
164.808223
 20
138.287417
 30
0.0
 11
164.826337
 21
138.286019
 31
0.0
  0
LINE
  5
C84D
  8
0
 62
     5
 10
164.826337
 20
138.286019
 30
0.0
 11
164.845138
 21
138.28466
 31
0.0
  0
LINE
  5
C84E
  8
0
 62
     5
 10
164.845138
 20
138.28466
 30
0.0
 11
164.884943
 21
138.28202
 31
0.0
  0
LINE
  5
C84F
  8
0
 62
     5
 10
164.884943
 20
138.28202
 30
0.0
 11
164.927912
 21
138.27944
 31
0.0
  0
LINE
  5
C850
  8
0
 62
     5
 10
164.927912
 20
138.27944
 30
0.0
 11
164.998876
 21
138.275594
 31
0.0
  0
LINE
  5
C851
  8
0
 62
     5
 10
164.998876
 20
138.275594
 30
0.0
 11
165.107013
 21
138.270342
 31
0.0
  0
LINE
  5
C852
  8
0
 62
     5
 10
164.601561
 20
138.329778
 30
0.0
 11
164.609433
 21
138.324875
 31
0.0
  0
LINE
  5
C853
  8
0
 62
     5
 10
164.609433
 20
138.324875
 30
0.0
 11
164.61805
 21
138.320436
 31
0.0
  0
LINE
  5
C854
  8
0
 62
     5
 10
164.61805
 20
138.320436
 30
0.0
 11
164.627431
 21
138.316434
 31
0.0
  0
LINE
  5
C855
  8
0
 62
     5
 10
164.627431
 20
138.316434
 30
0.0
 11
164.637537
 21
138.312827
 31
0.0
  0
LINE
  5
C856
  8
0
 62
     5
 10
164.637537
 20
138.312827
 30
0.0
 11
164.648341
 21
138.309581
 31
0.0
  0
LINE
  5
C857
  8
0
 62
     5
 10
164.58803
 20
138.341103
 30
0.0
 11
164.594448
 21
138.335174
 31
0.0
  0
LINE
  5
C858
  8
0
 62
     5
 10
164.594448
 20
138.335174
 30
0.0
 11
164.601561
 21
138.329778
 31
0.0
  0
LINE
  5
C859
  8
0
 62
     5
 10
164.577104
 20
138.354709
 30
0.0
 11
164.582267
 21
138.347603
 31
0.0
  0
LINE
  5
C85A
  8
0
 62
     5
 10
164.582267
 20
138.347603
 30
0.0
 11
164.58803
 21
138.341103
 31
0.0
  0
LINE
  5
C85B
  8
0
 62
     5
 10
164.568367
 20
138.370884
 30
0.0
 11
164.572484
 21
138.362472
 31
0.0
  0
LINE
  5
C85C
  8
0
 62
     5
 10
164.572484
 20
138.362472
 30
0.0
 11
164.577104
 21
138.354709
 31
0.0
  0
LINE
  5
C85D
  8
0
 62
     5
 10
164.55862
 20
138.400014
 30
0.0
 11
164.561475
 21
138.389689
 31
0.0
  0
LINE
  5
C85E
  8
0
 62
     5
 10
164.561475
 20
138.389689
 30
0.0
 11
164.564711
 21
138.37997
 31
0.0
  0
LINE
  5
C85F
  8
0
 62
     5
 10
164.564711
 20
138.37997
 30
0.0
 11
164.568367
 21
138.370884
 31
0.0
  0
LINE
  5
C860
  8
0
 62
     5
 10
164.550131
 20
138.447151
 30
0.0
 11
164.551896
 21
138.434491
 31
0.0
  0
LINE
  5
C861
  8
0
 62
     5
 10
164.551896
 20
138.434491
 30
0.0
 11
164.553871
 21
138.42242
 31
0.0
  0
LINE
  5
C862
  8
0
 62
     5
 10
164.553871
 20
138.42242
 30
0.0
 11
164.556101
 21
138.410934
 31
0.0
  0
LINE
  5
C863
  8
0
 62
     5
 10
164.556101
 20
138.410934
 30
0.0
 11
164.55862
 21
138.400014
 31
0.0
  0
LINE
  5
C864
  8
0
 62
     5
 10
164.548556
 20
138.460414
 30
0.0
 11
164.550131
 21
138.447151
 31
0.0
  0
LINE
  5
C865
  8
0
 62
     5
 10
164.545866
 20
138.488791
 30
0.0
 11
164.54713
 21
138.474296
 31
0.0
  0
LINE
  5
C866
  8
0
 62
     5
 10
164.54713
 20
138.474296
 30
0.0
 11
164.548556
 21
138.460414
 31
0.0
  0
LINE
  5
C867
  8
0
 62
     5
 10
165.303019
 20
138.261786
 30
0.0
 11
165.973168
 21
138.235533
 31
0.0
  0
LINE
  5
C868
  8
0
 62
     5
 10
165.973168
 20
138.235533
 30
0.0
 11
166.310354
 21
138.222867
 31
0.0
  0
LINE
  5
C869
  8
0
 62
     5
 10
166.310354
 20
138.222867
 30
0.0
 11
168.993573
 21
138.123476
 31
0.0
  0
LINE
  5
C86A
  8
0
 62
     5
 10
169.74359
 20
138.095578
 30
0.0
 11
173.941866
 21
137.93691
 31
0.0
  0
LINE
  5
C86B
  8
0
 62
     5
 10
169.354408
 20
138.110068
 30
0.0
 11
169.74359
 21
138.095578
 31
0.0
  0
LINE
  5
C86C
  8
0
 62
     5
 10
190.739436
 20
132.801041
 30
0.0
 11
190.739436
 21
137.952337
 31
0.0
  0
LINE
  5
C86D
  8
0
 62
     5
 10
185.786853
 20
132.891064
 30
0.0
 11
184.927918
 21
132.88835
 31
0.0
  0
LINE
  5
C86E
  8
0
 62
     5
 10
181.852815
 20
132.880875
 30
0.0
 11
181.164969
 21
132.879663
 31
0.0
  0
LINE
  5
C86F
  8
0
 62
     5
 10
181.164969
 20
132.879663
 30
0.0
 11
179.8753
 21
132.877822
 31
0.0
  0
LINE
  5
C870
  8
0
 62
     5
 10
178.691059
 20
132.876616
 30
0.0
 11
177.602428
 21
132.875903
 31
0.0
  0
LINE
  5
C871
  8
0
 62
     5
 10
179.8753
 20
132.877822
 30
0.0
 11
178.691059
 21
132.876616
 31
0.0
  0
LINE
  5
C872
  8
0
 62
     5
 10
182.571248
 20
132.882317
 30
0.0
 11
181.852815
 21
132.880875
 31
0.0
  0
LINE
  5
C873
  8
0
 62
     5
 10
183.322097
 20
132.88402
 30
0.0
 11
182.571248
 21
132.882317
 31
0.0
  0
LINE
  5
C874
  8
0
 62
     5
 10
184.106941
 20
132.886017
 30
0.0
 11
183.322097
 21
132.88402
 31
0.0
  0
LINE
  5
C875
  8
0
 62
     5
 10
184.927918
 20
132.88835
 30
0.0
 11
184.106941
 21
132.886017
 31
0.0
  0
LINE
  5
C876
  8
0
 62
     5
 10
190.739436
 20
132.912553
 30
0.0
 11
189.653448
 21
132.906956
 31
0.0
  0
LINE
  5
C877
  8
0
 62
     5
 10
187.628273
 20
132.897859
 30
0.0
 11
186.686268
 21
132.894215
 31
0.0
  0
LINE
  5
C878
  8
0
 62
     5
 10
188.615924
 20
132.902074
 30
0.0
 11
187.628273
 21
132.897859
 31
0.0
  0
LINE
  5
C879
  8
0
 62
     5
 10
189.653448
 20
132.906956
 30
0.0
 11
188.615924
 21
132.902074
 31
0.0
  0
LINE
  5
C87A
  8
0
 62
     5
 10
186.686268
 20
132.894215
 30
0.0
 11
185.786853
 21
132.891064
 31
0.0
  0
LINE
  5
C87B
  8
0
 62
     5
 10
190.739436
 20
132.801041
 30
0.0
 11
192.739436
 21
132.794071
 31
0.0
  0
LINE
  5
C87C
  8
0
 62
     5
 10
184.617937
 20
137.510157
 30
0.0
 11
187.776051
 21
137.376359
 31
0.0
  0
LINE
  5
C87D
  8
0
 62
     5
 10
181.270651
 20
137.648004
 30
0.0
 11
184.617937
 21
137.510157
 31
0.0
  0
LINE
  5
C87E
  8
0
 62
     5
 10
177.71752
 20
137.790173
 30
0.0
 11
181.270651
 21
137.648004
 31
0.0
  0
LINE
  5
C87F
  8
0
 62
     5
 10
187.776051
 20
137.376359
 30
0.0
 11
190.739436
 21
137.246855
 31
0.0
  0
LINE
  5
C880
  8
0
 62
     5
 10
192.739436
 20
137.933643
 30
0.0
 11
190.739436
 21
137.952337
 31
0.0
  0
LINE
  5
C881
  8
CENTER
 10
305.974898
 20
120.28201
 30
0.0
 11
256.578737
 21
120.28201
 31
0.0
  0
LINE
  5
C882
  8
0
 62
     5
 10
201.239436
 20
124.68201
 30
0.0
 11
201.239436
 21
115.88201
 31
0.0
  0
LINE
  5
C883
  8
0
 62
     5
 10
222.339436
 20
124.28201
 30
0.0
 11
222.339436
 21
116.28201
 31
0.0
  0
LINE
  5
C884
  8
0
 62
     5
 10
222.739436
 20
116.68201
 30
0.0
 11
222.739436
 21
123.88201
 31
0.0
  0
LINE
  5
C885
  8
0
 62
     5
 10
200.239436
 20
135.082004
 30
0.0
 11
200.239436
 21
105.482016
 31
0.0
  0
LINE
  5
C886
  8
0
 62
     5
 10
200.039436
 20
135.28201
 30
0.0
 11
200.039436
 21
105.28201
 31
0.0
  0
LINE
  5
C887
  8
0
 62
     5
 10
197.739436
 20
140.28201
 30
0.0
 11
197.739436
 21
100.28201
 31
0.0
  0
POLYLINE
  5
C888
  8
HIDDEN
 66
     1
 10
0.0
 20
0.0
 30
0.0
 70
     8
  0
VERTEX
  5
C889
  8
0
 10
206.791
 20
89.732
 30
0.0
 70
    32
  0
VERTEX
  5
C88A
  8
0
 10
206.822
 20
89.7301
 30
0.0
 70
    32
  0
VERTEX
  5
C88B
  8
0
 10
206.852
 20
89.7242
 30
0.0
 70
    32
  0
VERTEX
  5
C88C
  8
0
 10
206.882
 20
89.7144
 30
0.0
 70
    32
  0
VERTEX
  5
C88D
  8
0
 10
206.912
 20
89.7008
 30
0.0
 70
    32
  0
VERTEX
  5
C88E
  8
0
 10
206.942
 20
89.6833
 30
0.0
 70
    32
  0
VERTEX
  5
C88F
  8
0
 10
206.971
 20
89.662
 30
0.0
 70
    32
  0
VERTEX
  5
C890
  8
0
 10
207.0
 20
89.637
 30
0.0
 70
    32
  0
VERTEX
  5
C891
  8
0
 10
207.028
 20
89.6083
 30
0.0
 70
    32
  0
VERTEX
  5
C892
  8
0
 10
207.056
 20
89.576
 30
0.0
 70
    32
  0
VERTEX
  5
C893
  8
0
 10
207.083
 20
89.5401
 30
0.0
 70
    32
  0
VERTEX
  5
C894
  8
0
 10
207.11
 20
89.5008
 30
0.0
 70
    32
  0
VERTEX
  5
C895
  8
0
 10
207.135
 20
89.4581
 30
0.0
 70
    32
  0
VERTEX
  5
C896
  8
0
 10
207.16
 20
89.4122
 30
0.0
 70
    32
  0
VERTEX
  5
C897
  8
0
 10
207.184
 20
89.3632
 30
0.0
 70
    32
  0
VERTEX
  5
C898
  8
0
 10
207.207
 20
89.3111
 30
0.0
 70
    32
  0
VERTEX
  5
C899
  8
0
 10
207.229
 20
89.2561
 30
0.0
 70
    32
  0
VERTEX
  5
C89A
  8
0
 10
207.25
 20
89.1983
 30
0.0
 70
    32
  0
VERTEX
  5
C89B
  8
0
 10
207.27
 20
89.1379
 30
0.0
 70
    32
  0
VERTEX
  5
C89C
  8
0
 10
207.289
 20
89.075
 30
0.0
 70
    32
  0
VERTEX
  5
C89D
  8
0
 10
207.306
 20
89.0098
 30
0.0
 70
    32
  0
VERTEX
  5
C89E
  8
0
 10
207.322
 20
88.9424
 30
0.0
 70
    32
  0
VERTEX
  5
C89F
  8
0
 10
207.337
 20
88.873
 30
0.0
 70
    32
  0
VERTEX
  5
C8A0
  8
0
 10
207.351
 20
88.8018
 30
0.0
 70
    32
  0
VERTEX
  5
C8A1
  8
0
 10
207.363
 20
88.7289
 30
0.0
 70
    32
  0
VERTEX
  5
C8A2
  8
0
 10
207.374
 20
88.6545
 30
0.0
 70
    32
  0
VERTEX
  5
C8A3
  8
0
 10
207.384
 20
88.5787
 30
0.0
 70
    32
  0
VERTEX
  5
C8A4
  8
0
 10
207.392
 20
88.5019
 30
0.0
 70
    32
  0
VERTEX
  5
C8A5
  8
0
 10
207.399
 20
88.424
 30
0.0
 70
    32
  0
VERTEX
  5
C8A6
  8
0
 10
207.404
 20
88.3454
 30
0.0
 70
    32
  0
VERTEX
  5
C8A7
  8
0
 10
207.408
 20
88.2663
 30
0.0
 70
    32
  0
VERTEX
  5
C8A8
  8
0
 10
207.41
 20
88.1867
 30
0.0
 70
    32
  0
VERTEX
  5
C8A9
  8
0
 10
207.411
 20
88.107
 30
0.0
 70
    32
  0
VERTEX
  5
C8AA
  8
0
 10
207.41
 20
88.0273
 30
0.0
 70
    32
  0
VERTEX
  5
C8AB
  8
0
 10
207.408
 20
87.9477
 30
0.0
 70
    32
  0
VERTEX
  5
C8AC
  8
0
 10
207.404
 20
87.8686
 30
0.0
 70
    32
  0
VERTEX
  5
C8AD
  8
0
 10
207.399
 20
87.79
 30
0.0
 70
    32
  0
VERTEX
  5
C8AE
  8
0
 10
207.392
 20
87.7122
 30
0.0
 70
    32
  0
VERTEX
  5
C8AF
  8
0
 10
207.384
 20
87.6353
 30
0.0
 70
    32
  0
VERTEX
  5
C8B0
  8
0
 10
207.374
 20
87.5596
 30
0.0
 70
    32
  0
VERTEX
  5
C8B1
  8
0
 10
207.363
 20
87.4851
 30
0.0
 70
    32
  0
VERTEX
  5
C8B2
  8
0
 10
207.351
 20
87.4122
 30
0.0
 70
    32
  0
VERTEX
  5
C8B3
  8
0
 10
207.337
 20
87.341
 30
0.0
 70
    32
  0
VERTEX
  5
C8B4
  8
0
 10
207.322
 20
87.2716
 30
0.0
 70
    32
  0
VERTEX
  5
C8B5
  8
0
 10
207.306
 20
87.2042
 30
0.0
 70
    32
  0
VERTEX
  5
C8B6
  8
0
 10
207.289
 20
87.139
 30
0.0
 70
    32
  0
VERTEX
  5
C8B7
  8
0
 10
207.27
 20
87.0761
 30
0.0
 70
    32
  0
VERTEX
  5
C8B8
  8
0
 10
207.25
 20
87.0157
 30
0.0
 70
    32
  0
VERTEX
  5
C8B9
  8
0
 10
207.229
 20
86.958
 30
0.0
 70
    32
  0
VERTEX
  5
C8BA
  8
0
 10
207.207
 20
86.903
 30
0.0
 70
    32
  0
VERTEX
  5
C8BB
  8
0
 10
207.184
 20
86.8509
 30
0.0
 70
    32
  0
VERTEX
  5
C8BC
  8
0
 10
207.16
 20
86.8018
 30
0.0
 70
    32
  0
VERTEX
  5
C8BD
  8
0
 10
207.135
 20
86.7559
 30
0.0
 70
    32
  0
VERTEX
  5
C8BE
  8
0
 10
207.11
 20
86.7132
 30
0.0
 70
    32
  0
VERTEX
  5
C8BF
  8
0
 10
207.083
 20
86.6739
 30
0.0
 70
    32
  0
VERTEX
  5
C8C0
  8
0
 10
207.056
 20
86.638
 30
0.0
 70
    32
  0
VERTEX
  5
C8C1
  8
0
 10
207.028
 20
86.6057
 30
0.0
 70
    32
  0
VERTEX
  5
C8C2
  8
0
 10
207.0
 20
86.577
 30
0.0
 70
    32
  0
VERTEX
  5
C8C3
  8
0
 10
206.971
 20
86.552
 30
0.0
 70
    32
  0
VERTEX
  5
C8C4
  8
0
 10
206.942
 20
86.5307
 30
0.0
 70
    32
  0
VERTEX
  5
C8C5
  8
0
 10
206.912
 20
86.5132
 30
0.0
 70
    32
  0
VERTEX
  5
C8C6
  8
0
 10
206.882
 20
86.4996
 30
0.0
 70
    32
  0
VERTEX
  5
C8C7
  8
0
 10
206.852
 20
86.4898
 30
0.0
 70
    32
  0
VERTEX
  5
C8C8
  8
0
 10
206.822
 20
86.484
 30
0.0
 70
    32
  0
VERTEX
  5
C8C9
  8
0
 10
206.791
 20
86.482
 30
0.0
 70
    32
  0
VERTEX
  5
C8CA
  8
0
 10
206.761
 20
86.484
 30
0.0
 70
    32
  0
VERTEX
  5
C8CB
  8
0
 10
206.731
 20
86.4898
 30
0.0
 70
    32
  0
VERTEX
  5
C8CC
  8
0
 10
206.701
 20
86.4996
 30
0.0
 70
    32
  0
VERTEX
  5
C8CD
  8
0
 10
206.671
 20
86.5132
 30
0.0
 70
    32
  0
VERTEX
  5
C8CE
  8
0
 10
206.641
 20
86.5307
 30
0.0
 70
    32
  0
VERTEX
  5
C8CF
  8
0
 10
206.612
 20
86.552
 30
0.0
 70
    32
  0
VERTEX
  5
C8D0
  8
0
 10
206.583
 20
86.577
 30
0.0
 70
    32
  0
VERTEX
  5
C8D1
  8
0
 10
206.554
 20
86.6057
 30
0.0
 70
    32
  0
VERTEX
  5
C8D2
  8
0
 10
206.527
 20
86.638
 30
0.0
 70
    32
  0
VERTEX
  5
C8D3
  8
0
 10
206.5
 20
86.6739
 30
0.0
 70
    32
  0
VERTEX
  5
C8D4
  8
0
 10
206.473
 20
86.7132
 30
0.0
 70
    32
  0
VERTEX
  5
C8D5
  8
0
 10
206.447
 20
86.7559
 30
0.0
 70
    32
  0
VERTEX
  5
C8D6
  8
0
 10
206.423
 20
86.8018
 30
0.0
 70
    32
  0
VERTEX
  5
C8D7
  8
0
 10
206.399
 20
86.8509
 30
0.0
 70
    32
  0
VERTEX
  5
C8D8
  8
0
 10
206.376
 20
86.903
 30
0.0
 70
    32
  0
VERTEX
  5
C8D9
  8
0
 10
206.354
 20
86.958
 30
0.0
 70
    32
  0
VERTEX
  5
C8DA
  8
0
 10
206.333
 20
87.0157
 30
0.0
 70
    32
  0
VERTEX
  5
C8DB
  8
0
 10
206.313
 20
87.0761
 30
0.0
 70
    32
  0
VERTEX
  5
C8DC
  8
0
 10
206.294
 20
87.139
 30
0.0
 70
    32
  0
VERTEX
  5
C8DD
  8
0
 10
206.277
 20
87.2042
 30
0.0
 70
    32
  0
VERTEX
  5
C8DE
  8
0
 10
206.26
 20
87.2716
 30
0.0
 70
    32
  0
VERTEX
  5
C8DF
  8
0
 10
206.245
 20
87.341
 30
0.0
 70
    32
  0
VERTEX
  5
C8E0
  8
0
 10
206.232
 20
87.4122
 30
0.0
 70
    32
  0
VERTEX
  5
C8E1
  8
0
 10
206.219
 20
87.4851
 30
0.0
 70
    32
  0
VERTEX
  5
C8E2
  8
0
 10
206.208
 20
87.5596
 30
0.0
 70
    32
  0
VERTEX
  5
C8E3
  8
0
 10
206.199
 20
87.6353
 30
0.0
 70
    32
  0
VERTEX
  5
C8E4
  8
0
 10
206.191
 20
87.7122
 30
0.0
 70
    32
  0
VERTEX
  5
C8E5
  8
0
 10
206.184
 20
87.79
 30
0.0
 70
    32
  0
VERTEX
  5
C8E6
  8
0
 10
206.179
 20
87.8686
 30
0.0
 70
    32
  0
VERTEX
  5
C8E7
  8
0
 10
206.175
 20
87.9477
 30
0.0
 70
    32
  0
VERTEX
  5
C8E8
  8
0
 10
206.173
 20
88.0273
 30
0.0
 70
    32
  0
VERTEX
  5
C8E9
  8
0
 10
206.172
 20
88.107
 30
0.0
 70
    32
  0
VERTEX
  5
C8EA
  8
0
 10
206.173
 20
88.1867
 30
0.0
 70
    32
  0
VERTEX
  5
C8EB
  8
0
 10
206.175
 20
88.2663
 30
0.0
 70
    32
  0
VERTEX
  5
C8EC
  8
0
 10
206.179
 20
88.3454
 30
0.0
 70
    32
  0
VERTEX
  5
C8ED
  8
0
 10
206.184
 20
88.424
 30
0.0
 70
    32
  0
VERTEX
  5
C8EE
  8
0
 10
206.191
 20
88.5019
 30
0.0
 70
    32
  0
VERTEX
  5
C8EF
  8
0
 10
206.199
 20
88.5787
 30
0.0
 70
    32
  0
VERTEX
  5
C8F0
  8
0
 10
206.208
 20
88.6545
 30
0.0
 70
    32
  0
VERTEX
  5
C8F1
  8
0
 10
206.219
 20
88.7289
 30
0.0
 70
    32
  0
VERTEX
  5
C8F2
  8
0
 10
206.232
 20
88.8018
 30
0.0
 70
    32
  0
VERTEX
  5
C8F3
  8
0
 10
206.245
 20
88.873
 30
0.0
 70
    32
  0
VERTEX
  5
C8F4
  8
0
 10
206.26
 20
88.9424
 30
0.0
 70
    32
  0
VERTEX
  5
C8F5
  8
0
 10
206.277
 20
89.0098
 30
0.0
 70
    32
  0
VERTEX
  5
C8F6
  8
0
 10
206.294
 20
89.075
 30
0.0
 70
    32
  0
VERTEX
  5
C8F7
  8
0
 10
206.313
 20
89.1379
 30
0.0
 70
    32
  0
VERTEX
  5
C8F8
  8
0
 10
206.333
 20
89.1983
 30
0.0
 70
    32
  0
VERTEX
  5
C8F9
  8
0
 10
206.354
 20
89.2561
 30
0.0
 70
    32
  0
VERTEX
  5
C8FA
  8
0
 10
206.376
 20
89.3111
 30
0.0
 70
    32
  0
VERTEX
  5
C8FB
  8
0
 10
206.399
 20
89.3632
 30
0.0
 70
    32
  0
VERTEX
  5
C8FC
  8
0
 10
206.423
 20
89.4122
 30
0.0
 70
    32
  0
VERTEX
  5
C8FD
  8
0
 10
206.447
 20
89.4581
 30
0.0
 70
    32
  0
VERTEX
  5
C8FE
  8
0
 10
206.473
 20
89.5008
 30
0.0
 70
    32
  0
VERTEX
  5
C8FF
  8
0
 10
206.5
 20
89.5401
 30
0.0
 70
    32
  0
VERTEX
  5
C900
  8
0
 10
206.527
 20
89.576
 30
0.0
 70
    32
  0
VERTEX
  5
C901
  8
0
 10
206.554
 20
89.6083
 30
0.0
 70
    32
  0
VERTEX
  5
C902
  8
0
 10
206.583
 20
89.637
 30
0.0
 70
    32
  0
VERTEX
  5
C903
  8
0
 10
206.612
 20
89.662
 30
0.0
 70
    32
  0
VERTEX
  5
C904
  8
0
 10
206.641
 20
89.6833
 30
0.0
 70
    32
  0
VERTEX
  5
C905
  8
0
 10
206.671
 20
89.7008
 30
0.0
 70
    32
  0
VERTEX
  5
C906
  8
0
 10
206.701
 20
89.7144
 30
0.0
 70
    32
  0
VERTEX
  5
C907
  8
0
 10
206.731
 20
89.7242
 30
0.0
 70
    32
  0
VERTEX
  5
C908
  8
0
 10
206.761
 20
89.7301
 30
0.0
 70
    32
  0
VERTEX
  5
C909
  8
0
 10
206.791
 20
89.732
 30
0.0
 70
    32
  0
SEQEND
  5
C90A
  8
0
  0
POLYLINE
  5
C90B
  8
HIDDEN
 66
     1
 10
0.0
 20
0.0
 30
0.0
 70
     8
  0
VERTEX
  5
C90C
  8
0
 10
206.791
 20
92.982
 30
0.0
 70
    32
  0
VERTEX
  5
C90D
  8
0
 10
206.807
 20
92.9815
 30
0.0
 70
    32
  0
VERTEX
  5
C90E
  8
0
 10
206.822
 20
92.9801
 30
0.0
 70
    32
  0
VERTEX
  5
C90F
  8
0
 10
206.837
 20
92.9776
 30
0.0
 70
    32
  0
VERTEX
  5
C910
  8
0
 10
206.852
 20
92.9742
 30
0.0
 70
    32
  0
VERTEX
  5
C911
  8
0
 10
206.867
 20
92.9698
 30
0.0
 70
    32
  0
VERTEX
  5
C912
  8
0
 10
206.882
 20
92.9644
 30
0.0
 70
    32
  0
VERTEX
  5
C913
  8
0
 10
206.897
 20
92.9581
 30
0.0
 70
    32
  0
VERTEX
  5
C914
  8
0
 10
206.912
 20
92.9508
 30
0.0
 70
    32
  0
VERTEX
  5
C915
  8
0
 10
206.927
 20
92.9425
 30
0.0
 70
    32
  0
VERTEX
  5
C916
  8
0
 10
206.942
 20
92.9333
 30
0.0
 70
    32
  0
VERTEX
  5
C917
  8
0
 10
206.957
 20
92.9231
 30
0.0
 70
    32
  0
VERTEX
  5
C918
  8
0
 10
206.971
 20
92.912
 30
0.0
 70
    32
  0
VERTEX
  5
C919
  8
0
 10
206.986
 20
92.9
 30
0.0
 70
    32
  0
VERTEX
  5
C91A
  8
0
 10
207.0
 20
92.887
 30
0.0
 70
    32
  0
VERTEX
  5
C91B
  8
0
 10
207.014
 20
92.8731
 30
0.0
 70
    32
  0
VERTEX
  5
C91C
  8
0
 10
207.028
 20
92.8583
 30
0.0
 70
    32
  0
VERTEX
  5
C91D
  8
0
 10
207.042
 20
92.8426
 30
0.0
 70
    32
  0
VERTEX
  5
C91E
  8
0
 10
207.056
 20
92.826
 30
0.0
 70
    32
  0
VERTEX
  5
C91F
  8
0
 10
207.07
 20
92.8085
 30
0.0
 70
    32
  0
VERTEX
  5
C920
  8
0
 10
207.083
 20
92.7901
 30
0.0
 70
    32
  0
VERTEX
  5
C921
  8
0
 10
207.097
 20
92.7709
 30
0.0
 70
    32
  0
VERTEX
  5
C922
  8
0
 10
207.11
 20
92.7508
 30
0.0
 70
    32
  0
VERTEX
  5
C923
  8
0
 10
207.123
 20
92.7299
 30
0.0
 70
    32
  0
VERTEX
  5
C924
  8
0
 10
207.135
 20
92.7081
 30
0.0
 70
    32
  0
VERTEX
  5
C925
  8
0
 10
207.148
 20
92.6856
 30
0.0
 70
    32
  0
VERTEX
  5
C926
  8
0
 10
207.16
 20
92.6622
 30
0.0
 70
    32
  0
VERTEX
  5
C927
  8
0
 10
207.172
 20
92.6381
 30
0.0
 70
    32
  0
VERTEX
  5
C928
  8
0
 10
207.184
 20
92.6132
 30
0.0
 70
    32
  0
VERTEX
  5
C929
  8
0
 10
207.196
 20
92.5875
 30
0.0
 70
    32
  0
VERTEX
  5
C92A
  8
0
 10
207.207
 20
92.5611
 30
0.0
 70
    32
  0
VERTEX
  5
C92B
  8
0
 10
207.218
 20
92.5339
 30
0.0
 70
    32
  0
VERTEX
  5
C92C
  8
0
 10
207.229
 20
92.5061
 30
0.0
 70
    32
  0
VERTEX
  5
C92D
  8
0
 10
207.24
 20
92.4775
 30
0.0
 70
    32
  0
VERTEX
  5
C92E
  8
0
 10
207.25
 20
92.4483
 30
0.0
 70
    32
  0
VERTEX
  5
C92F
  8
0
 10
207.26
 20
92.4184
 30
0.0
 70
    32
  0
VERTEX
  5
C930
  8
0
 10
207.27
 20
92.3879
 30
0.0
 70
    32
  0
VERTEX
  5
C931
  8
0
 10
207.28
 20
92.3568
 30
0.0
 70
    32
  0
VERTEX
  5
C932
  8
0
 10
207.289
 20
92.325
 30
0.0
 70
    32
  0
VERTEX
  5
C933
  8
0
 10
207.298
 20
92.2927
 30
0.0
 70
    32
  0
VERTEX
  5
C934
  8
0
 10
207.306
 20
92.2598
 30
0.0
 70
    32
  0
VERTEX
  5
C935
  8
0
 10
207.315
 20
92.2264
 30
0.0
 70
    32
  0
VERTEX
  5
C936
  8
0
 10
207.322
 20
92.1924
 30
0.0
 70
    32
  0
VERTEX
  5
C937
  8
0
 10
207.33
 20
92.158
 30
0.0
 70
    32
  0
VERTEX
  5
C938
  8
0
 10
207.337
 20
92.123
 30
0.0
 70
    32
  0
VERTEX
  5
C939
  8
0
 10
207.344
 20
92.0876
 30
0.0
 70
    32
  0
VERTEX
  5
C93A
  8
0
 10
207.351
 20
92.0518
 30
0.0
 70
    32
  0
VERTEX
  5
C93B
  8
0
 10
207.357
 20
92.0155
 30
0.0
 70
    32
  0
VERTEX
  5
C93C
  8
0
 10
207.363
 20
91.9789
 30
0.0
 70
    32
  0
VERTEX
  5
C93D
  8
0
 10
207.369
 20
91.9418
 30
0.0
 70
    32
  0
VERTEX
  5
C93E
  8
0
 10
207.374
 20
91.9045
 30
0.0
 70
    32
  0
VERTEX
  5
C93F
  8
0
 10
207.379
 20
91.8667
 30
0.0
 70
    32
  0
VERTEX
  5
C940
  8
0
 10
207.384
 20
91.8287
 30
0.0
 70
    32
  0
VERTEX
  5
C941
  8
0
 10
207.388
 20
91.7904
 30
0.0
 70
    32
  0
VERTEX
  5
C942
  8
0
 10
207.392
 20
91.7519
 30
0.0
 70
    32
  0
VERTEX
  5
C943
  8
0
 10
207.396
 20
91.713
 30
0.0
 70
    32
  0
VERTEX
  5
C944
  8
0
 10
207.399
 20
91.674
 30
0.0
 70
    32
  0
VERTEX
  5
C945
  8
0
 10
207.401
 20
91.6348
 30
0.0
 70
    32
  0
VERTEX
  5
C946
  8
0
 10
207.404
 20
91.5954
 30
0.0
 70
    32
  0
VERTEX
  5
C947
  8
0
 10
207.406
 20
91.5559
 30
0.0
 70
    32
  0
VERTEX
  5
C948
  8
0
 10
207.408
 20
91.5163
 30
0.0
 70
    32
  0
VERTEX
  5
C949
  8
0
 10
207.409
 20
91.4766
 30
0.0
 70
    32
  0
VERTEX
  5
C94A
  8
0
 10
207.41
 20
91.4367
 30
0.0
 70
    32
  0
VERTEX
  5
C94B
  8
0
 10
207.41
 20
91.3969
 30
0.0
 70
    32
  0
VERTEX
  5
C94C
  8
0
 10
207.411
 20
91.357
 30
0.0
 70
    32
  0
VERTEX
  5
C94D
  8
0
 10
207.41
 20
91.3171
 30
0.0
 70
    32
  0
VERTEX
  5
C94E
  8
0
 10
207.41
 20
91.2773
 30
0.0
 70
    32
  0
VERTEX
  5
C94F
  8
0
 10
207.409
 20
91.2375
 30
0.0
 70
    32
  0
VERTEX
  5
C950
  8
0
 10
207.408
 20
91.1977
 30
0.0
 70
    32
  0
VERTEX
  5
C951
  8
0
 10
207.406
 20
91.1581
 30
0.0
 70
    32
  0
VERTEX
  5
C952
  8
0
 10
207.404
 20
91.1186
 30
0.0
 70
    32
  0
VERTEX
  5
C953
  8
0
 10
207.401
 20
91.0792
 30
0.0
 70
    32
  0
VERTEX
  5
C954
  8
0
 10
207.399
 20
91.04
 30
0.0
 70
    32
  0
VERTEX
  5
C955
  8
0
 10
207.396
 20
91.001
 30
0.0
 70
    32
  0
VERTEX
  5
C956
  8
0
 10
207.392
 20
90.9622
 30
0.0
 70
    32
  0
VERTEX
  5
C957
  8
0
 10
207.388
 20
90.9236
 30
0.0
 70
    32
  0
VERTEX
  5
C958
  8
0
 10
207.384
 20
90.8853
 30
0.0
 70
    32
  0
VERTEX
  5
C959
  8
0
 10
207.379
 20
90.8473
 30
0.0
 70
    32
  0
VERTEX
  5
C95A
  8
0
 10
207.374
 20
90.8096
 30
0.0
 70
    32
  0
VERTEX
  5
C95B
  8
0
 10
207.369
 20
90.7722
 30
0.0
 70
    32
  0
VERTEX
  5
C95C
  8
0
 10
207.363
 20
90.7351
 30
0.0
 70
    32
  0
VERTEX
  5
C95D
  8
0
 10
207.357
 20
90.6985
 30
0.0
 70
    32
  0
VERTEX
  5
C95E
  8
0
 10
207.351
 20
90.6622
 30
0.0
 70
    32
  0
VERTEX
  5
C95F
  8
0
 10
207.344
 20
90.6264
 30
0.0
 70
    32
  0
VERTEX
  5
C960
  8
0
 10
207.337
 20
90.591
 30
0.0
 70
    32
  0
VERTEX
  5
C961
  8
0
 10
207.33
 20
90.5561
 30
0.0
 70
    32
  0
VERTEX
  5
C962
  8
0
 10
207.322
 20
90.5216
 30
0.0
 70
    32
  0
VERTEX
  5
C963
  8
0
 10
207.315
 20
90.4876
 30
0.0
 70
    32
  0
VERTEX
  5
C964
  8
0
 10
207.306
 20
90.4542
 30
0.0
 70
    32
  0
VERTEX
  5
C965
  8
0
 10
207.298
 20
90.4213
 30
0.0
 70
    32
  0
VERTEX
  5
C966
  8
0
 10
207.289
 20
90.389
 30
0.0
 70
    32
  0
VERTEX
  5
C967
  8
0
 10
207.28
 20
90.3573
 30
0.0
 70
    32
  0
VERTEX
  5
C968
  8
0
 10
207.27
 20
90.3261
 30
0.0
 70
    32
  0
VERTEX
  5
C969
  8
0
 10
207.26
 20
90.2956
 30
0.0
 70
    32
  0
VERTEX
  5
C96A
  8
0
 10
207.25
 20
90.2657
 30
0.0
 70
    32
  0
VERTEX
  5
C96B
  8
0
 10
207.24
 20
90.2365
 30
0.0
 70
    32
  0
VERTEX
  5
C96C
  8
0
 10
207.229
 20
90.208
 30
0.0
 70
    32
  0
VERTEX
  5
C96D
  8
0
 10
207.218
 20
90.1801
 30
0.0
 70
    32
  0
VERTEX
  5
C96E
  8
0
 10
207.207
 20
90.153
 30
0.0
 70
    32
  0
VERTEX
  5
C96F
  8
0
 10
207.196
 20
90.1265
 30
0.0
 70
    32
  0
VERTEX
  5
C970
  8
0
 10
207.184
 20
90.1009
 30
0.0
 70
    32
  0
VERTEX
  5
C971
  8
0
 10
207.172
 20
90.0759
 30
0.0
 70
    32
  0
VERTEX
  5
C972
  8
0
 10
207.16
 20
90.0518
 30
0.0
 70
    32
  0
VERTEX
  5
C973
  8
0
 10
207.148
 20
90.0284
 30
0.0
 70
    32
  0
VERTEX
  5
C974
  8
0
 10
207.135
 20
90.0059
 30
0.0
 70
    32
  0
VERTEX
  5
C975
  8
0
 10
207.123
 20
89.9841
 30
0.0
 70
    32
  0
VERTEX
  5
C976
  8
0
 10
207.11
 20
89.9632
 30
0.0
 70
    32
  0
VERTEX
  5
C977
  8
0
 10
207.097
 20
89.9431
 30
0.0
 70
    32
  0
VERTEX
  5
C978
  8
0
 10
207.083
 20
89.9239
 30
0.0
 70
    32
  0
VERTEX
  5
C979
  8
0
 10
207.07
 20
89.9055
 30
0.0
 70
    32
  0
VERTEX
  5
C97A
  8
0
 10
207.056
 20
89.888
 30
0.0
 70
    32
  0
VERTEX
  5
C97B
  8
0
 10
207.042
 20
89.8714
 30
0.0
 70
    32
  0
VERTEX
  5
C97C
  8
0
 10
207.028
 20
89.8557
 30
0.0
 70
    32
  0
VERTEX
  5
C97D
  8
0
 10
207.014
 20
89.8409
 30
0.0
 70
    32
  0
VERTEX
  5
C97E
  8
0
 10
207.0
 20
89.827
 30
0.0
 70
    32
  0
VERTEX
  5
C97F
  8
0
 10
206.986
 20
89.814
 30
0.0
 70
    32
  0
VERTEX
  5
C980
  8
0
 10
206.971
 20
89.802
 30
0.0
 70
    32
  0
VERTEX
  5
C981
  8
0
 10
206.957
 20
89.7909
 30
0.0
 70
    32
  0
VERTEX
  5
C982
  8
0
 10
206.942
 20
89.7807
 30
0.0
 70
    32
  0
VERTEX
  5
C983
  8
0
 10
206.927
 20
89.7715
 30
0.0
 70
    32
  0
VERTEX
  5
C984
  8
0
 10
206.912
 20
89.7632
 30
0.0
 70
    32
  0
VERTEX
  5
C985
  8
0
 10
206.897
 20
89.7559
 30
0.0
 70
    32
  0
VERTEX
  5
C986
  8
0
 10
206.882
 20
89.7496
 30
0.0
 70
    32
  0
VERTEX
  5
C987
  8
0
 10
206.867
 20
89.7442
 30
0.0
 70
    32
  0
VERTEX
  5
C988
  8
0
 10
206.852
 20
89.7398
 30
0.0
 70
    32
  0
VERTEX
  5
C989
  8
0
 10
206.837
 20
89.7364
 30
0.0
 70
    32
  0
VERTEX
  5
C98A
  8
0
 10
206.822
 20
89.734
 30
0.0
 70
    32
  0
VERTEX
  5
C98B
  8
0
 10
206.807
 20
89.7325
 30
0.0
 70
    32
  0
VERTEX
  5
C98C
  8
0
 10
206.791
 20
89.732
 30
0.0
 70
    32
  0
SEQEND
  5
C98D
  8
0
  0
LINE
  5
C98E
  8
0
 62
     5
 10
201.639436
 20
116.28201
 30
0.0
 11
222.339436
 21
116.28201
 31
0.0
  0
LINE
  5
C98F
  8
0
 62
     5
 10
200.039436
 20
105.28201
 30
0.0
 11
200.239436
 21
105.48201
 31
0.0
  0
LINE
  5
C990
  8
0
 62
     5
 10
197.939436
 20
105.28201
 30
0.0
 11
200.039436
 21
105.28201
 31
0.0
  0
ARC
  5
C991
  8
0
 62
     5
 10
197.939436
 20
105.08201
 30
0.0
 40
0.2
 50
90.0
 51
180.0
  0
ARC
  5
C992
  8
0
 62
     5
 10
201.639436
 20
115.88201
 30
0.0
 40
0.4
 50
90.0
 51
180.0
  0
LINE
  5
C993
  8
0
 62
     5
 10
201.239436
 20
115.88201
 30
0.0
 11
201.239436
 21
115.28201
 31
0.0
  0
LINE
  5
C994
  8
0
 62
     5
 10
200.239436
 20
115.28201
 30
0.0
 11
201.239436
 21
115.28201
 31
0.0
  0
LINE
  5
C995
  8
0
 62
     5
 10
222.739436
 20
116.68201
 30
0.0
 11
222.339436
 21
116.28201
 31
0.0
  0
LINE
  5
C996
  8
0
 62
     5
 10
201.639436
 20
124.28201
 30
0.0
 11
222.339436
 21
124.28201
 31
0.0
  0
ARC
  5
C997
  8
0
 62
     5
 10
201.639436
 20
124.68201
 30
0.0
 40
0.4
 50
180.0
 51
270.0
  0
LINE
  5
C998
  8
0
 62
     5
 10
200.239436
 20
125.28201
 30
0.0
 11
201.239436
 21
125.28201
 31
0.0
  0
LINE
  5
C999
  8
0
 62
     5
 10
201.239436
 20
125.282008
 30
0.0
 11
201.239436
 21
124.68201
 31
0.0
  0
LINE
  5
C99A
  8
0
 62
     5
 10
197.939436
 20
135.28201
 30
0.0
 11
200.039436
 21
135.28201
 31
0.0
  0
ARC
  5
C99B
  8
0
 62
     5
 10
197.939436
 20
135.48201
 30
0.0
 40
0.2
 50
180.0
 51
270.0
  0
LINE
  5
C99C
  8
0
 62
     5
 10
200.039436
 20
135.28201
 30
0.0
 11
200.239436
 21
135.08201
 31
0.0
  0
LINE
  5
C99D
  8
0
 62
     5
 10
222.739436
 20
123.88201
 30
0.0
 11
222.339436
 21
124.28201
 31
0.0
  0
ARC
  5
C99E
  8
0
 62
     5
 10
280.943662
 20
120.28201
 30
0.0
 40
20.5
 50
351.990057
 51
8.009943
  0
LINE
  5
C99F
  8
0
 62
     5
 10
301.243662
 20
107.082536
 30
0.0
 11
301.243662
 21
138.082151
 31
0.0
  0
LINE
  5
C9A0
  8
0
 62
     5
 10
300.943662
 20
102.78201
 30
0.0
 11
300.943662
 21
137.78201
 31
0.0
  0
CIRCLE
  5
C9A1
  8
0
 62
     5
 10
280.943662
 20
120.28201
 30
0.0
 40
4.0
  0
CIRCLE
  5
C9A2
  8
0
 62
     5
 10
280.943662
 20
120.28201
 30
0.0
 40
5.0
  0
ARC
  5
C9A3
  8
0
 62
     5
 10
280.943662
 20
120.28201
 30
0.0
 40
20.5
 50
171.990057
 51
188.009943
  0
LINE
  5
C9A4
  8
0
 62
     5
 10
260.643662
 20
99.98201
 30
0.0
 11
260.643662
 21
133.481484
 31
0.0
  0
LINE
  5
C9A5
  8
0
 62
     5
 10
260.943662
 20
137.78201
 30
0.0
 11
260.943662
 21
102.78201
 31
0.0
  0
LINE
  5
C9A6
  8
CENTER
 10
280.943662
 20
145.309975
 30
0.0
 11
280.943662
 21
76.886561
 31
0.0
  0
CIRCLE
  5
C9A7
  8
0
 62
     5
 10
280.943662
 20
120.28201
 30
0.0
 40
15.0
  0
CIRCLE
  5
C9A8
  8
0
 62
     5
 10
280.943662
 20
120.28201
 30
0.0
 40
14.8
  0
LINE
  5
C9A9
  8
HIDDEN
 10
297.5136
 20
93.28201
 30
0.0
 11
286.317416
 21
93.28201
 31
0.0
  0
LINE
  5
C9AA
  8
0
 62
     5
 10
263.443662
 20
100.28201
 30
0.0
 11
298.443662
 21
100.28201
 31
0.0
  0
LINE
  5
C9AB
  8
0
 62
     5
 10
295.260133
 20
92.78201
 30
0.0
 11
291.640154
 21
92.78201
 31
0.0
  0
LINE
  5
C9AC
  8
0
 62
     5
 10
281.958529
 20
93.28201
 30
0.0
 11
297.51284
 21
93.28201
 31
0.0
  0
LINE
  5
C9AD
  8
0
 62
     5
 10
297.313616
 20
96.58201
 30
0.0
 11
282.062236
 21
96.58201
 31
0.0
  0
LINE
  5
C9AE
  8
0
 62
     5
 10
291.640154
 20
93.081827
 30
0.0
 11
292.446813
 21
93.081827
 31
0.0
  0
LINE
  5
C9AF
  8
0
 62
     5
 10
292.551745
 20
99.98201
 30
0.0
 11
288.569551
 21
99.98201
 31
0.0
  0
LINE
  5
C9B0
  8
0
 62
     5
 10
288.144194
 20
99.67028
 30
0.0
 11
288.144194
 21
97.38201
 31
0.0
  0
LINE
  5
C9B1
  8
0
 62
     5
 10
260.649541
 20
99.987861
 30
0.0
 11
260.649541
 21
97.38201
 31
0.0
  0
LINE
  5
C9B2
  8
CENTER
 10
285.843662
 20
102.281578
 30
0.0
 11
285.843662
 21
79.191467
 31
0.0
  0
LINE
  5
C9B3
  8
CENTER
 10
286.743662
 20
102.281578
 30
0.0
 11
286.743662
 21
79.514876
 31
0.0
  0
LINE
  5
C9B4
  8
CENTER
 10
274.543662
 20
101.669341
 30
0.0
 11
274.543662
 21
81.465492
 31
0.0
  0
LINE
  5
C9B5
  8
HIDDEN
 10
269.093662
 20
83.18201
 30
0.0
 11
279.993662
 21
83.18201
 31
0.0
  0
LINE
  5
C9B6
  8
0
 62
     5
 10
278.05305
 20
97.18201
 30
0.0
 11
271.034275
 21
97.18201
 31
0.0
  0
LINE
  5
C9B7
  8
0
 62
     5
 10
267.185362
 20
91.48201
 30
0.0
 11
281.901962
 21
91.48201
 31
0.0
  0
LINE
  5
C9B8
  8
0
 62
     5
 10
261.149541
 20
96.88201
 30
0.0
 11
287.644194
 21
96.88201
 31
0.0
  0
LINE
  5
C9B9
  8
HIDDEN
 10
265.093662
 20
94.38201
 30
0.0
 11
265.093662
 21
87.18201
 31
0.0
  0
LINE
  5
C9BA
  8
0
 62
     5
 10
267.185362
 20
91.48201
 30
0.0
 11
267.015661
 21
96.88201
 31
0.0
  0
LINE
  5
C9BB
  8
HIDDEN
 10
262.793662
 20
94.38201
 30
0.0
 11
265.093662
 21
94.38201
 31
0.0
  0
LINE
  5
C9BC
  8
HIDDEN
 10
262.293662
 20
96.88201
 30
0.0
 11
262.293662
 21
94.88201
 31
0.0
  0
ARC
  5
C9BD
  8
HIDDEN
 10
262.793662
 20
94.88201
 30
0.0
 40
0.5
 50
180.0
 51
270.0
  0
LINE
  5
C9BE
  8
0
 62
     5
 10
267.802774
 20
96.88201
 30
0.0
 11
267.873067
 21
91.48201
 31
0.0
  0
LINE
  5
C9BF
  8
0
 62
     5
 10
271.043662
 20
97.08201
 30
0.0
 11
271.043662
 21
97.18201
 31
0.0
  0
ARC
  5
C9C0
  8
0
 62
     5
 10
270.843662
 20
97.08201
 30
0.0
 40
0.2
 50
270.0
 51
0.0
  0
LINE
  5
C9C1
  8
HIDDEN
 10
283.993662
 20
94.38201
 30
0.0
 11
283.993662
 21
87.18201
 31
0.0
  0
LINE
  5
C9C2
  8
0
 62
     5
 10
290.852054
 20
87.78201
 30
0.0
 11
291.040619
 21
88.08201
 31
0.0
  0
LINE
  5
C9C3
  8
0
 62
     5
 10
282.167435
 20
87.78201
 30
0.0
 11
281.847171
 21
88.08201
 31
0.0
  0
LINE
  5
C9C4
  8
0
 62
     5
 10
282.446706
 20
88.08201
 30
0.0
 11
282.63527
 21
87.78201
 31
0.0
  0
LINE
  5
C9C5
  8
0
 62
     5
 10
291.319889
 20
87.78201
 30
0.0
 11
291.640154
 21
88.08201
 31
0.0
  0
LINE
  5
C9C6
  8
HIDDEN
 10
283.460317
 20
81.48201
 30
0.0
 11
289.014728
 21
81.48201
 31
0.0
  0
LINE
  5
C9C7
  8
0
 62
     5
 10
291.319889
 20
87.78201
 30
0.0
 11
282.167435
 21
87.78201
 31
0.0
  0
LINE
  5
C9C8
  8
HIDDEN
 10
286.293662
 20
94.38201
 30
0.0
 11
283.993662
 21
94.38201
 31
0.0
  0
LINE
  5
C9C9
  8
0
 62
     5
 10
281.847171
 20
88.08201
 30
0.0
 11
291.640154
 21
88.08201
 31
0.0
  0
ARC
  5
C9CA
  8
0
 62
     5
 10
282.147965
 20
93.996822
 30
0.0
 40
0.699781
 50
283.230161
 51
355.005599
  0
LINE
  5
C9CB
  8
0
 62
     5
 10
283.34145
 20
93.28201
 30
0.0
 11
283.34145
 21
95.48201
 31
0.0
  0
LINE
  5
C9CC
  8
0
 62
     5
 10
282.071664
 20
96.88201
 30
0.0
 11
281.901962
 21
91.48201
 31
0.0
  0
LINE
  5
C9CD
  8
0
 62
     5
 10
281.214257
 20
91.48201
 30
0.0
 11
281.28455
 21
96.88201
 31
0.0
  0
LINE
  5
C9CE
  8
0
 62
     5
 10
281.959663
 20
93.315614
 30
0.0
 11
282.308119
 21
93.315614
 31
0.0
  0
LINE
  5
C9CF
  8
0
 62
     5
 10
281.847171
 20
91.48201
 30
0.0
 11
281.847171
 21
88.08201
 31
0.0
  0
LINE
  5
C9D0
  8
0
 62
     5
 10
282.446706
 20
93.28201
 30
0.0
 11
282.446706
 21
88.08201
 31
0.0
  0
LINE
  5
C9D1
  8
0
 62
     5
 10
278.064051
 20
97.184957
 30
0.0
 11
278.058179
 21
97.18276
 31
0.0
  0
LINE
  5
C9D2
  8
0
 62
     5
 10
278.043662
 20
97.08201
 30
0.0
 11
278.043662
 21
97.18201
 31
0.0
  0
ARC
  5
C9D3
  8
0
 62
     5
 10
278.243662
 20
97.08201
 30
0.0
 40
0.2
 50
180.0
 51
270.0
  0
LINE
  5
C9D4
  8
0
 62
     5
 10
282.002575
 20
94.68201
 30
0.0
 11
283.303979
 21
94.68201
 31
0.0
  0
LINE
  5
C9D5
  8
0
 62
     5
 10
283.34145
 20
95.48201
 30
0.0
 11
282.027667
 21
95.48201
 31
0.0
  0
LINE
  5
C9D6
  8
0
 62
     5
 10
283.303979
 20
94.68201
 30
0.0
 11
283.303979
 21
95.48201
 31
0.0
  0
LINE
  5
C9D7
  8
0
 62
     5
 10
282.845089
 20
93.935901
 30
0.0
 11
282.910365
 21
94.68201
 31
0.0
  0
LINE
  5
C9D8
  8
0
 62
     5
 10
291.640154
 20
88.08201
 30
0.0
 11
291.640154
 21
93.28201
 31
0.0
  0
LINE
  5
C9D9
  8
0
 62
     5
 10
291.040619
 20
93.28201
 30
0.0
 11
291.040619
 21
88.08201
 31
0.0
  0
ARC
  5
C9DA
  8
0
 62
     5
 10
287.644194
 20
97.38201
 30
0.0
 40
0.5
 50
270.0
 51
0.0
  0
LINE
  5
C9DB
  8
HIDDEN
 10
286.793662
 20
96.88201
 30
0.0
 11
286.793662
 21
94.88201
 31
0.0
  0
ARC
  5
C9DC
  8
HIDDEN
 10
286.293662
 20
94.88201
 30
0.0
 40
0.5
 50
270.0
 51
0.0
  0
ARC
  5
C9DD
  8
0
 62
     5
 10
263.407537
 20
110.561577
 30
0.0
 40
3.1
 50
153.071521
 51
206.928479
  0
ARC
  5
C9DE
  8
0
 62
     5
 10
264.04381
 20
103.382158
 30
0.0
 40
1.5
 50
255.0
 51
195.0
  0
CIRCLE
  5
C9DF
  8
0
 62
     5
 10
264.04381
 20
103.382158
 30
0.0
 40
1.25
  0
LINE
  5
C9E0
  8
0
 62
     5
 10
260.643662
 20
99.98201
 30
0.0
 11
260.64957
 21
99.987918
 31
0.0
  0
LINE
  5
C9E1
  8
0
 62
     5
 10
260.649544
 20
99.987861
 30
0.0
 11
260.64957
 21
99.987918
 31
0.0
  0
LINE
  5
C9E2
  8
0
 62
     5
 10
260.649541
 20
99.98201
 30
0.0
 11
260.643662
 21
99.98201
 31
0.0
  0
ARC
  5
C9E3
  8
0
 62
     5
 10
263.443662
 20
102.78201
 30
0.0
 40
2.5
 50
180.0
 51
270.0
  0
LINE
  5
C9E4
  8
0
 62
     5
 10
288.144222
 20
99.675599
 30
0.0
 11
288.144194
 21
99.67028
 31
0.0
  0
LINE
  5
C9E5
  8
0
 62
     5
 10
299.543662
 20
100.28201
 30
0.0
 11
299.543662
 21
98.48201
 31
0.0
  0
LINE
  5
C9E6
  8
0
 62
     5
 10
297.513619
 20
96.78201
 30
0.0
 11
297.513619
 21
100.28201
 31
0.0
  0
LINE
  5
C9E7
  8
HIDDEN
 10
293.71644
 20
90.78201
 30
0.0
 11
293.71644
 21
85.48201
 31
0.0
  0
LINE
  5
C9E8
  8
0
 62
     5
 10
296.116946
 20
96.58201
 30
0.0
 11
296.116946
 21
93.28201
 31
0.0
  0
LINE
  5
C9E9
  8
0
 62
     5
 10
297.513619
 20
93.28201
 30
0.0
 11
297.513619
 21
96.28201
 31
0.0
  0
LINE
  5
C9EA
  8
HIDDEN
 10
293.71644
 20
90.78201
 30
0.0
 11
297.013623
 21
90.78201
 31
0.0
  0
LINE
  5
C9EB
  8
0
 62
     5
 10
292.446813
 20
93.081827
 30
0.0
 11
292.398245
 21
92.78201
 31
0.0
  0
LINE
  5
C9EC
  8
0
 62
     5
 10
292.446813
 20
93.081827
 30
0.0
 11
292.447907
 21
93.28201
 31
0.0
  0
LINE
  5
C9ED
  8
0
 62
     5
 10
295.260133
 20
92.78201
 30
0.0
 11
295.56678
 21
93.081827
 31
0.0
  0
LINE
  5
C9EE
  8
0
 62
     5
 10
295.573685
 20
93.28201
 30
0.0
 11
295.56678
 21
93.081827
 31
0.0
  0
LINE
  5
C9EF
  8
HIDDEN
 10
297.513619
 20
93.28201
 30
0.0
 11
297.513619
 21
91.28201
 31
0.0
  0
ARC
  5
C9F0
  8
HIDDEN
 10
297.013619
 20
91.28201
 30
0.0
 40
0.5
 50
270.000446
 51
0.0
  0
LINE
  5
C9F1
  8
0
 62
     5
 10
298.042879
 20
97.28201
 30
0.0
 11
298.130367
 21
98.28201
 31
0.0
  0
LINE
  5
C9F2
  8
0
 62
     5
 10
297.213619
 20
96.58201
 30
0.0
 11
297.513619
 21
96.28201
 31
0.0
  0
ARC
  5
C9F3
  8
0
 62
     5
 10
297.313619
 20
96.78201
 30
0.0
 40
0.2
 50
270.0
 51
0.0
  0
LINE
  5
C9F4
  8
0
 62
     5
 10
298.042874
 20
97.28201
 30
0.0
 11
297.513619
 21
97.28201
 31
0.0
  0
LINE
  5
C9F5
  8
0
 62
     5
 10
299.343662
 20
98.28201
 30
0.0
 11
297.513619
 21
98.28201
 31
0.0
  0
ARC
  5
C9F6
  8
0
 62
     5
 10
299.343662
 20
98.48201
 30
0.0
 40
0.2
 50
270.0
 51
0.0
  0
ARC
  5
C9F7
  8
CENTER
 10
280.943662
 20
120.28201
 30
0.0
 40
23.0
 50
304.153368
 51
326.779047
  0
LINE
  5
C9F8
  8
CENTER
 10
294.589437
 20
106.636236
 30
0.0
 11
300.75436
 21
100.471312
 31
0.0
  0
ARC
  5
C9F9
  8
0
 62
     5
 10
298.443662
 20
102.78201
 30
0.0
 40
2.5
 50
270.0
 51
0.0
  0
ARC
  5
C9FA
  8
0
 62
     5
 10
299.151662
 20
102.07401
 30
0.0
 40
4.6
 50
119.389441
 51
155.737338
  0
CIRCLE
  5
C9FB
  8
0
 62
     5
 10
297.207118
 20
104.018554
 30
0.0
 40
2.25
  0
ARC
  5
C9FC
  8
0
 62
     5
 10
299.043662
 20
100.28201
 30
0.0
 40
0.5
 50
0.0
 51
27.289401
  0
LINE
  5
C9FD
  8
0
 62
     5
 10
297.157011
 20
106.267322
 30
0.0
 11
296.894243
 21
106.08201
 31
0.0
  0
LINE
  5
C9FE
  8
0
 62
     5
 10
298.102607
 20
106.08201
 30
0.0
 11
296.894243
 21
106.08201
 31
0.0
  0
LINE
  5
C9FF
  8
0
 62
     5
 10
298.443662
 20
140.28201
 30
0.0
 11
263.443662
 21
140.28201
 31
0.0
  0
LINE
  5
CA00
  8
0
 62
     5
 10
268.33587
 20
140.58201
 30
0.0
 11
298.743804
 21
140.58201
 31
0.0
  0
ARC
  5
CA01
  8
CENTER
 10
280.943662
 20
120.28201
 30
0.0
 40
23.0
 50
123.220953
 51
145.846632
  0
LINE
  5
CA02
  8
CENTER
 10
267.297888
 20
133.927784
 30
0.0
 11
261.132964
 21
140.092708
 31
0.0
  0
CIRCLE
  5
CA03
  8
0
 62
     5
 10
264.680206
 20
136.545466
 30
0.0
 40
2.25
  0
ARC
  5
CA04
  8
0
 62
     5
 10
262.735663
 20
138.49001
 30
0.0
 40
4.6
 50
299.389441
 51
335.737338
  0
LINE
  5
CA05
  8
0
 62
     5
 10
263.784717
 20
134.48201
 30
0.0
 11
264.993081
 21
134.48201
 31
0.0
  0
LINE
  5
CA06
  8
0
 62
     5
 10
264.730314
 20
134.296698
 30
0.0
 11
264.993081
 21
134.48201
 31
0.0
  0
ARC
  5
CA07
  8
0
 62
     5
 10
268.335663
 20
139.58201
 30
0.0
 40
1.0
 50
90.0
 51
135.559576
  0
ARC
  5
CA08
  8
0
 62
     5
 10
263.443662
 20
137.78201
 30
0.0
 40
2.5
 50
90.0
 51
180.0
  0
ARC
  5
CA09
  8
0
 62
     5
 10
280.943662
 20
120.28201
 30
0.0
 40
20.5
 50
81.990057
 51
98.009943
  0
ARC
  5
CA0A
  8
0
 62
     5
 10
290.664095
 20
137.818135
 30
0.0
 40
3.1
 50
63.071521
 51
116.928479
  0
ARC
  5
CA0B
  8
0
 62
     5
 10
298.443662
 20
137.78201
 30
0.0
 40
2.5
 50
0.0
 51
90.0
  0
ARC
  5
CA0C
  8
0
 62
     5
 10
297.843514
 20
137.181862
 30
0.0
 40
1.5
 50
255.0
 51
195.0
  0
CIRCLE
  5
CA0D
  8
0
 62
     5
 10
297.843514
 20
137.181862
 30
0.0
 40
1.25
  0
POLYLINE
  5
CA0E
  8
HIDDEN
 66
     1
 10
0.0
 20
0.0
 30
0.0
 70
     2
  0
VERTEX
  5
CA0F
  8
HIDDEN
 10
16.8558
 20
85.482
 30
0.0
 42
0.022906
  0
VERTEX
  5
CA10
  8
HIDDEN
 10
16.880162
 20
84.951234
 30
0.0
 42
0.038994
 70
     1
  0
VERTEX
  5
CA11
  8
HIDDEN
 10
16.9329
 20
84.6433
 30
0.0
 42
0.008701
  0
VERTEX
  5
CA12
  8
HIDDEN
 10
17.09199
 20
84.057009
 30
0.0
 42
0.017411
 70
     1
  0
VERTEX
  5
CA13
  8
HIDDEN
 10
17.1867
 20
83.7685
 30
0.0
 42
0.034788
  0
VERTEX
  5
CA14
  8
HIDDEN
 10
17.367408
 20
83.365533
 30
0.0
 42
0.038007
 70
     1
  0
VERTEX
  5
CA15
  8
HIDDEN
 10
17.5846
 20
83.0245
 30
0.0
 42
0.067109
  0
VERTEX
  5
CA16
  8
HIDDEN
 10
17.899826
 20
82.703985
 30
0.0
 42
0.03935
 70
     1
  0
VERTEX
  5
CA17
  8
HIDDEN
 10
18.5388
 20
82.2844
 30
0.0
 42
0.0247
  0
VERTEX
  5
CA18
  8
HIDDEN
 10
19.349162
 20
81.889958
 30
0.0
 42
0.040111
 70
     1
  0
VERTEX
  5
CA19
  8
HIDDEN
 10
19.8759
 20
81.7134
 30
0.0
 42
0.013618
  0
VERTEX
  5
CA1A
  8
HIDDEN
 10
20.217191
 20
81.63851
 30
0.0
 42
0.007326
 70
     1
  0
VERTEX
  5
CA1B
  8
HIDDEN
 10
20.8568
 20
81.526
 30
0.0
 42
0.024198
  0
VERTEX
  5
CA1C
  8
HIDDEN
 10
21.100972
 20
81.498764
 30
0.0
 42
0.013009
 70
     1
  0
VERTEX
  5
CA1D
  8
HIDDEN
 10
21.557491
 20
81.48201
 30
0.0
  0
SEQEND
  5
CA1E
  8
HIDDEN
  0
POLYLINE
  5
CA1F
  8
HIDDEN
 66
     1
 10
0.0
 20
0.0
 30
0.0
 70
     2
  0
VERTEX
  5
CA20
  8
HIDDEN
 10
21.192997
 20
84.282012
 30
0.0
 42
-0.036095
  0
VERTEX
  5
CA21
  8
HIDDEN
 10
20.59462
 20
84.299871
 30
0.0
 42
-0.051814
 70
     1
  0
VERTEX
  5
CA22
  8
HIDDEN
 10
20.1858
 20
84.3851
 30
0.0
 42
-0.012242
  0
VERTEX
  5
CA23
  8
HIDDEN
 10
19.636434
 20
84.575452
 30
0.0
 42
-0.03491
 70
     1
  0
VERTEX
  5
CA24
  8
HIDDEN
 10
19.450732
 20
84.660129
 30
0.0
 42
-0.04317
  0
VERTEX
  5
CA25
  8
HIDDEN
 10
19.074425
 20
84.908776
 30
0.0
 42
-0.035022
 70
     1
  0
VERTEX
  5
CA26
  8
HIDDEN
 10
18.6642
 20
85.2835
 30
0.0
 42
-0.026731
  0
VERTEX
  5
CA27
  8
HIDDEN
 10
18.308753
 20
85.699447
 30
0.0
 42
-0.026746
 70
     1
  0
VERTEX
  5
CA28
  8
HIDDEN
 10
17.9999
 20
86.1507
 30
0.0
 42
-0.027615
  0
VERTEX
  5
CA29
  8
HIDDEN
 10
17.657998
 20
86.78938
 30
0.0
 42
-0.039684
 70
     1
  0
VERTEX
  5
CA2A
  8
HIDDEN
 10
17.4817
 20
87.2621
 30
0.0
 42
-0.01702
  0
VERTEX
  5
CA2B
  8
HIDDEN
 10
17.415662
 20
87.527804
 30
0.0
 42
-0.008186
 70
     1
  0
VERTEX
  5
CA2C
  8
HIDDEN
 10
17.3064
 20
88.0863
 30
0.0
 42
-0.025707
  0
VERTEX
  5
CA2D
  8
HIDDEN
 10
17.280181
 20
88.294253
 30
0.0
 42
-0.014004
 70
     1
  0
VERTEX
  5
CA2E
  8
HIDDEN
 10
17.262493
 20
88.678417
 30
0.0
  0
SEQEND
  5
CA2F
  8
HIDDEN
  0
POLYLINE
  5
CA30
  8
HIDDEN
  6
CONTINUOUS
 66
     1
 10
0.0
 20
0.0
 30
0.0
 70
     2
  0
VERTEX
  5
CA31
  8
HIDDEN
  6
CONTINUOUS
 10
27.1353
 20
81.4831
 30
0.0
 42
0.02064
  0
VERTEX
  5
CA32
  8
HIDDEN
  6
CONTINUOUS
 10
27.634374
 20
81.504526
 30
0.0
 42
0.035131
 70
     1
  0
VERTEX
  5
CA33
  8
HIDDEN
  6
CONTINUOUS
 10
27.9246
 20
81.5497
 30
0.0
 42
0.006141
  0
VERTEX
  5
CA34
  8
HIDDEN
  6
CONTINUOUS
 10
28.464092
 20
81.679967
 30
0.0
 42
0.014407
 70
     1
  0
VERTEX
  5
CA35
  8
HIDDEN
  6
CONTINUOUS
 10
28.6916
 20
81.7449
 30
0.0
 42
0.029723
  0
VERTEX
  5
CA36
  8
HIDDEN
  6
CONTINUOUS
 10
29.089838
 20
81.897651
 30
0.0
 42
0.037182
 70
     1
  0
VERTEX
  5
CA37
  8
HIDDEN
  6
CONTINUOUS
 10
29.3892
 20
82.0612
 30
0.0
 42
0.052139
  0
VERTEX
  5
CA38
  8
HIDDEN
  6
CONTINUOUS
 10
29.639762
 20
82.263212
 30
0.0
 42
0.04925
 70
     1
  0
VERTEX
  5
CA39
  8
HIDDEN
  6
CONTINUOUS
 10
29.8565
 20
82.526
 30
0.0
 42
0.023034
  0
VERTEX
  5
CA3A
  8
HIDDEN
  6
CONTINUOUS
 10
30.036047
 20
82.822042
 30
0.0
 42
0.031935
 70
     1
  0
VERTEX
  5
CA3B
  8
HIDDEN
  6
CONTINUOUS
 10
30.1414
 20
83.0486
 30
0.0
 42
0.01384
  0
VERTEX
  5
CA3C
  8
HIDDEN
  6
CONTINUOUS
 10
30.197016
 20
83.203972
 30
0.0
 42
0.003529
 70
     1
  0
VERTEX
  5
CA3D
  8
HIDDEN
  6
CONTINUOUS
 10
30.3938
 20
83.8204
 30
0.0
 42
0.019191
  0
VERTEX
  5
CA3E
  8
HIDDEN
  6
CONTINUOUS
 10
30.471356
 20
84.107804
 30
0.0
 42
0.011296
 70
     1
  0
VERTEX
  5
CA3F
  8
HIDDEN
  6
CONTINUOUS
 10
30.5731
 20
84.6031
 30
0.0
  0
SEQEND
  5
CA40
  8
HIDDEN
  6
CONTINUOUS
  0
POLYLINE
  5
CA41
  8
HIDDEN
  6
CONTINUOUS
 66
     1
 10
0.0
 20
0.0
 30
0.0
 70
     2
  0
VERTEX
  5
CA42
  8
HIDDEN
  6
CONTINUOUS
 10
28.4813
 20
84.2898
 30
0.0
 42
0.041404
  0
VERTEX
  5
CA43
  8
HIDDEN
  6
CONTINUOUS
 10
29.070683
 20
84.325
 30
0.0
 42
0.060878
 70
     1
  0
VERTEX
  5
CA44
  8
HIDDEN
  6
CONTINUOUS
 10
29.4591
 20
84.43
 30
0.0
 42
0.015366
  0
VERTEX
  5
CA45
  8
HIDDEN
  6
CONTINUOUS
 10
29.982129
 20
84.661286
 30
0.0
 42
0.033762
 70
     1
  0
VERTEX
  5
CA46
  8
HIDDEN
  6
CONTINUOUS
 10
30.2089
 20
84.7895
 30
0.0
 42
0.043229
  0
VERTEX
  5
CA47
  8
HIDDEN
  6
CONTINUOUS
 10
30.650949
 20
85.138626
 30
0.0
 42
0.03688
 70
     1
  0
VERTEX
  5
CA48
  8
HIDDEN
  6
CONTINUOUS
 10
31.097
 20
85.625
 30
0.0
 42
0.029253
  0
VERTEX
  5
CA49
  8
HIDDEN
  6
CONTINUOUS
 10
31.457333
 20
86.140597
 30
0.0
 42
0.032326
 70
     1
  0
VERTEX
  5
CA4A
  8
HIDDEN
  6
CONTINUOUS
 10
31.7237
 20
86.6438
 30
0.0
 42
0.029666
  0
VERTEX
  5
CA4B
  8
HIDDEN
  6
CONTINUOUS
 10
31.898316
 20
87.103654
 30
0.0
 42
0.016675
 70
     1
  0
VERTEX
  5
CA4C
  8
HIDDEN
  6
CONTINUOUS
 10
32.1318
 20
87.9465
 30
0.0
 42
0.036304
  0
VERTEX
  5
CA4D
  8
HIDDEN
  6
CONTINUOUS
 10
32.171845
 20
88.188006
 30
0.0
 42
0.018378
 70
     1
  0
VERTEX
  5
CA4E
  8
HIDDEN
  6
CONTINUOUS
 10
32.1984
 20
88.6704
 30
0.0
  0
SEQEND
  5
CA4F
  8
HIDDEN
  6
CONTINUOUS
  0
ARC
  5
CA50
  8
HIDDEN
  6
CONTINUOUS
 10
118.159607
 20
96.232816
 30
0.0
 40
1.649194
 50
53.956128
 51
89.946404
  0
POLYLINE
  5
CA51
  8
HIDDEN
  6
CONTINUOUS
 66
     1
 10
0.0
 20
0.0
 30
0.0
 70
     2
  0
VERTEX
  5
CA52
  8
HIDDEN
  6
CONTINUOUS
 10
121.719
 20
96.6817
 30
0.0
 42
-0.036926
  0
VERTEX
  5
CA53
  8
HIDDEN
  6
CONTINUOUS
 10
121.926939
 20
96.660711
 30
0.0
 42
-0.059674
 70
     1
  0
VERTEX
  5
CA54
  8
HIDDEN
  6
CONTINUOUS
 10
122.051
 20
96.6232
 30
0.0
 42
-0.032252
  0
VERTEX
  5
CA55
  8
HIDDEN
  6
CONTINUOUS
 10
122.332311
 20
96.477706
 30
0.0
 42
-0.055439
 70
     1
  0
VERTEX
  5
CA56
  8
HIDDEN
  6
CONTINUOUS
 10
122.479
 20
96.3656
 30
0.0
 42
-0.038717
  0
VERTEX
  5
CA57
  8
HIDDEN
  6
CONTINUOUS
 10
122.644029
 20
96.181223
 30
0.0
 42
-0.043543
 70
     1
  0
VERTEX
  5
CA58
  8
HIDDEN
  6
CONTINUOUS
 10
122.762
 20
95.9954
 30
0.0
 42
-0.024883
  0
VERTEX
  5
CA59
  8
HIDDEN
  6
CONTINUOUS
 10
122.896447
 20
95.701367
 30
0.0
 42
-0.026498
 70
     1
  0
VERTEX
  5
CA5A
  8
HIDDEN
  6
CONTINUOUS
 10
122.993724
 20
95.413741
 30
0.0
 42
-0.012896
  0
VERTEX
  5
CA5B
  8
HIDDEN
  6
CONTINUOUS
 10
123.08018
 20
95.071377
 30
0.0
 42
-0.011952
 70
     1
  0
VERTEX
  5
CA5C
  8
HIDDEN
  6
CONTINUOUS
 10
123.155
 20
94.6978
 30
0.0
 42
-0.016199
  0
VERTEX
  5
CA5D
  8
HIDDEN
  6
CONTINUOUS
 10
123.276077
 20
93.847033
 30
0.0
 42
-0.013206
 70
     1
  0
VERTEX
  5
CA5E
  8
HIDDEN
  6
CONTINUOUS
 10
123.363
 20
92.7966
 30
0.0
 42
-0.00721
  0
VERTEX
  5
CA5F
  8
HIDDEN
  6
CONTINUOUS
 10
123.402901
 20
91.840993
 30
0.0
 42
-0.008227
 70
     1
  0
VERTEX
  5
CA60
  8
HIDDEN
  6
CONTINUOUS
 10
123.412
 20
91.0028
 30
0.0
 42
-0.008137
  0
VERTEX
  5
CA61
  8
HIDDEN
  6
CONTINUOUS
 10
123.387476
 20
89.881744
 30
0.0
 42
-0.009599
 70
     1
  0
VERTEX
  5
CA62
  8
HIDDEN
  6
CONTINUOUS
 10
123.333
 20
88.9328
 30
0.0
 42
-0.007887
  0
VERTEX
  5
CA63
  8
HIDDEN
  6
CONTINUOUS
 10
123.287759
 20
88.444117
 30
0.0
 42
-0.006134
 70
     1
  0
VERTEX
  5
CA64
  8
HIDDEN
  6
CONTINUOUS
 10
123.212
 20
87.8177
 30
0.0
 42
-0.018723
  0
VERTEX
  5
CA65
  8
HIDDEN
  6
CONTINUOUS
 10
123.110892
 20
87.228911
 30
0.0
 42
-0.019513
 70
     1
  0
VERTEX
  5
CA66
  8
HIDDEN
  6
CONTINUOUS
 10
122.971
 20
86.673
 30
0.0
 42
-0.031948
  0
VERTEX
  5
CA67
  8
HIDDEN
  6
CONTINUOUS
 10
122.85348
 20
86.350472
 30
0.0
 42
-0.036492
 70
     1
  0
VERTEX
  5
CA68
  8
HIDDEN
  6
CONTINUOUS
 10
122.713
 20
86.0847
 30
0.0
 42
-0.038501
  0
VERTEX
  5
CA69
  8
HIDDEN
  6
CONTINUOUS
 10
122.580597
 20
85.905437
 30
0.0
 42
-0.039511
 70
     1
  0
VERTEX
  5
CA6A
  8
HIDDEN
  6
CONTINUOUS
 10
122.426
 20
85.7529
 30
0.0
 42
-0.040788
  0
VERTEX
  5
CA6B
  8
HIDDEN
  6
CONTINUOUS
 10
122.320512
 20
85.677881
 30
0.0
 42
-0.020478
 70
     1
  0
VERTEX
  5
CA6C
  8
HIDDEN
  6
CONTINUOUS
 10
122.094
 20
85.5554
 30
0.0
 42
-0.067999
  0
VERTEX
  5
CA6D
  8
HIDDEN
  6
CONTINUOUS
 10
121.941745
 20
85.505121
 30
0.0
 42
-0.044976
 70
     1
  0
VERTEX
  5
CA6E
  8
HIDDEN
  6
CONTINUOUS
 10
121.701
 20
85.4826
 30
0.0
  0
SEQEND
  5
CA6F
  8
HIDDEN
  6
CONTINUOUS
  0
ARC
  5
CA70
  8
HIDDEN
  6
CONTINUOUS
 10
118.168775
 20
85.90351
 30
0.0
 40
1.621528
 50
269.725283
 51
306.355223
  0
ARC
  5
CA71
  8
HIDDEN
  6
CONTINUOUS
 10
139.757525
 20
91.28959
 30
0.0
 40
0.50742
 50
181.279708
 51
269.376081
  0
ARC
  5
CA72
  8
HIDDEN
  6
CONTINUOUS
 10
147.15472
 20
87.331642
 30
0.0
 40
5.874279
 50
178.67965
 51
275.250406
  0
POLYLINE
  5
CA73
  8
HIDDEN
 66
     1
 10
0.0
 20
0.0
 30
0.0
  0
VERTEX
  5
CAEE
  8
HIDDEN
 10
162.204916
 20
92.891059
 30
0.0
  0
VERTEX
  5
CAEF
  8
HIDDEN
 10
162.972
 20
92.4682
 30
0.0
  0
SEQEND
  5
CAF0
  8
HIDDEN
  0
POLYLINE
  5
CA77
  8
HIDDEN
 66
     1
 10
0.0
 20
0.0
 30
0.0
  0
VERTEX
  5
CAF1
  8
HIDDEN
 10
162.182894
 20
81.672961
 30
0.0
  0
VERTEX
  5
CAF2
  8
HIDDEN
 10
162.954
 20
82.0912
 30
0.0
  0
SEQEND
  5
CAF3
  8
HIDDEN
  0
ARC
  5
CA7B
  8
HIDDEN
 10
172.910838
 20
89.203849
 30
14.1169
 40
6.021877
 50
180.207888
 51
269.796375
  0
POLYLINE
  5
CA7C
  8
HIDDEN
 66
     1
 10
0.0
 20
0.0
 30
0.0
  0
VERTEX
  5
CAF4
  8
HIDDEN
 10
188.233
 20
96.2785
 30
0.0
  0
VERTEX
  5
CAF5
  8
HIDDEN
 10
188.684
 20
96.0204
 30
0.0
  0
SEQEND
  5
CAF6
  8
HIDDEN
  0
POLYLINE
  5
CA80
  8
HIDDEN
 66
     1
 10
0.0
 20
0.0
 30
7.53836
  0
VERTEX
  5
CAF7
  8
HIDDEN
 10
188.22
 20
83.1832
 30
7.53836
  0
VERTEX
  5
CAF8
  8
HIDDEN
 10
188.681
 20
83.443
 30
7.53836
  0
SEQEND
  5
CAF9
  8
HIDDEN
  0
ARC
  5
CA84
  8
HIDDEN
 10
269.157193
 20
87.237723
 30
0.0
 40
4.056215
 50
179.617797
 51
269.107337
  0
ARC
  5
CA85
  8
HIDDEN
 10
279.901722
 20
87.313627
 30
29.9613
 40
4.126342
 50
272.962769
 51
358.542098
  0
ARC
  5
CA86
  8
HIDDEN
 10
283.288361
 20
85.519839
 30
0.0
 40
4.039862
 50
215.358484
 51
272.179534
  0
POLYLINE
  5
CA87
  8
HIDDEN
 66
     1
 10
0.0
 20
0.0
 30
0.0
 70
     2
  0
VERTEX
  5
CA88
  8
HIDDEN
 10
289.085
 20
81.4852
 30
0.0
 42
0.033371
  0
VERTEX
  5
CA89
  8
HIDDEN
 10
290.044421
 20
81.550437
 30
0.0
 42
0.053397
 70
     1
  0
VERTEX
  5
CA8A
  8
HIDDEN
 10
290.629
 20
81.6943
 30
0.0
 42
0.016366
  0
VERTEX
  5
CA8B
  8
HIDDEN
 10
291.679815
 20
82.114888
 30
0.0
 42
0.032699
 70
     1
  0
VERTEX
  5
CA8C
  8
HIDDEN
 10
292.183
 20
82.3761
 30
0.0
 42
0.039218
  0
VERTEX
  5
CA8D
  8
HIDDEN
 10
292.771948
 20
82.798865
 30
0.0
 42
0.061283
 70
     1
  0
VERTEX
  5
CA8E
  8
HIDDEN
 10
293.088
 20
83.1399
 30
0.0
 42
0.06187
  0
VERTEX
  5
CA8F
  8
HIDDEN
 10
293.264708
 20
83.462288
 30
0.0
 42
0.023244
 70
     1
  0
VERTEX
  5
CA90
  8
HIDDEN
 10
293.582
 20
84.3846
 30
0.0
 42
0.040762
  0
VERTEX
  5
CA91
  8
HIDDEN
 10
293.674954
 20
84.835331
 30
0.0
 42
0.028925
 70
     1
  0
VERTEX
  5
CA92
  8
HIDDEN
 10
293.71644
 20
85.48201
 30
0.0
  0
SEQEND
  5
CA93
  8
HIDDEN
  0
ARC
  5
CA94
  8
0
 62
     5
 10
298.743864
 20
138.082212
 30
0.0
 40
2.499798
 50
359.99861
 51
90.00139
  0
ARC
  5
CA95
  8
0
 62
     5
 10
269.330225
 20
139.563613
 30
0.0
 40
1.018411
 50
89.696151
 51
135.137372
  0
ARC
  5
CA96
  8
0
 62
     5
 10
261.646738
 20
131.888411
 30
0.0
 40
1.003077
 50
134.500788
 51
179.906601
  0
ARC
  5
CA97
  8
0
 62
     5
 10
261.680574
 20
131.97225
 30
0.0
 40
1.036912
 50
135.290211
 51
180.026328
  0
ARC
  5
CA98
  8
0
 62
     5
 10
261.64252
 20
133.482025
 30
0.0
 40
0.998858
 50
134.399476
 51
180.031026
  0
ARC
  5
CA99
  8
0
  6
BYBLOCK
 62
     5
 10
278.041383
 20
97.240911
 30
0.0
 40
0.060046
 50
281.203785
 51
307.600102
  0
ARC
  5
CA9A
  8
0
  6
BYBLOCK
 62
     5
 10
277.282904
 20
98.058448
 30
0.0
 40
1.175
 50
312.585846
 51
324.85188
  0
ARC
  5
CA9B
  8
0
  6
BYBLOCK
 62
     5
 10
271.046322
 20
97.242636
 30
0.0
 40
0.061811
 50
228.493451
 51
258.760393
  0
ARC
  5
CA9C
  8
0
  6
BYBLOCK
 62
     5
 10
271.994739
 20
98.221258
 30
0.0
 40
1.42454
 50
216.095725
 51
226.010596
  0
ARC
  5
CA9D
  8
0
  6
BYBLOCK
 62
     5
 10
261.150029
 20
97.382497
 30
0.0
 40
0.500488
 50
180.055794
 51
269.944206
  0
ARC
  5
CA9E
  8
0
 62
     5
 10
292.552079
 20
100.980291
 30
0.0
 40
0.998281
 50
269.978172
 51
315.614439
  0
ARC
  5
CA9F
  8
0
 62
     5
 10
288.644271
 20
99.487841
 30
0.0
 40
0.500077
 50
90.008827
 51
180.002534
  0
ARC
  5
CAA0
  8
DEFPOINTS
  6
BYBLOCK
 10
300.245381
 20
108.673593
 30
0.0
 40
0.998281
 50
314.385561
 51
0.021828
  0
ARC
  5
CAA1
  8
0
 62
     5
 10
300.239478
 20
107.084232
 30
0.0
 40
1.004186
 50
314.527299
 51
359.903203
  0
ENDSEC
  0
EOF
