  0
SECTION
  2
HEADER
  9
$ACADVER
  1
AC1009
  9
$INSBASE
 10
0.0
 20
0.0
 30
0.0
  9
$EXTMIN
 10
-188.50346
 20
-323.97556
 30
0.0
  9
$EXTMAX
 10
622.12256
 20
142.927327
 30
0.0
  9
$LIMMIN
 10
0.0
 20
0.0
  9
$LIMMAX
 10
12.0
 20
9.0
  9
$ORTHOMODE
 70
     0
  9
$REGENMODE
 70
     1
  9
$FILLMODE
 70
     1
  9
$QTEXTMODE
 70
     0
  9
$MIRRTEXT
 70
     1
  9
$DRAGMODE
 70
     2
  9
$LTSCALE
 40
1.0
  9
$OSMODE
 70
     0
  9
$ATTMODE
 70
     1
  9
$TEXTSIZE
 40
0.2
  9
$TRACEWID
 40
0.05
  9
$TEXTSTYLE
  7
STANDARD
  9
$CLAYER
  8
0
  9
$CELTYPE
  6
CONTINUOUS
  9
$CECOLOR
 62
   256
  9
$DIMSCALE
 40
1.0
  9
$DIMASZ
 40
0.18
  9
$DIMEXO
 40
0.0625
  9
$DIMDLI
 40
0.38
  9
$DIMRND
 40
0.0
  9
$DIMDLE
 40
0.0
  9
$DIMEXE
 40
0.18
  9
$DIMTP
 40
0.0
  9
$DIMTM
 40
0.0
  9
$DIMTXT
 40
0.18
  9
$DIMCEN
 40
0.09
  9
$DIMTSZ
 40
0.0
  9
$DIMTOL
 70
     0
  9
$DIMLIM
 70
     0
  9
$DIMTIH
 70
     1
  9
$DIMTOH
 70
     1
  9
$DIMSE1
 70
     0
  9
$DIMSE2
 70
     0
  9
$DIMTAD
 70
     0
  9
$DIMZIN
 70
     0
  9
$DIMBLK
  1

  9
$DIMASO
 70
     1
  9
$DIMSHO
 70
     1
  9
$DIMPOST
  1

  9
$DIMAPOST
  1

  9
$DIMALT
 70
     0
  9
$DIMALTD
 70
     2
  9
$DIMALTF
 40
25.4
  9
$DIMLFAC
 40
1.0
  9
$DIMTOFL
 70
     0
  9
$DIMTVP
 40
0.0
  9
$DIMTIX
 70
     0
  9
$DIMSOXD
 70
     0
  9
$DIMSAH
 70
     0
  9
$DIMBLK1
  1

  9
$DIMBLK2
  1

  9
$DIMSTYLE
  2
STANDARD
  9
$DIMCLRD
 70
     0
  9
$DIMCLRE
 70
     0
  9
$DIMCLRT
 70
     0
  9
$DIMTFAC
 40
1.0
  9
$DIMGAP
 40
0.09
  9
$LUNITS
 70
     2
  9
$LUPREC
 70
     4
  9
$SKETCHINC
 40
0.1
  9
$FILLETRAD
 40
0.0
  9
$AUNITS
 70
     0
  9
$AUPREC
 70
     0
  9
$MENU
  1
.
  9
$ELEVATION
 40
0.0
  9
$PELEVATION
 40
0.0
  9
$THICKNESS
 40
0.0
  9
$LIMCHECK
 70
     0
  9
$BLIPMODE
 70
     0
  9
$CHAMFERA
 40
0.0
  9
$CHAMFERB
 40
0.0
  9
$SKPOLY
 70
     0
  9
$TDCREATE
 40
2451338.787879
  9
$TDUPDATE
 40
2451338.787879
  9
$TDINDWG
 40
0.0
  9
$TDUSRTIMER
 40
0.0
  9
$USRTIMER
 70
     1
  9
$ANGBASE
 50
0.0
  9
$ANGDIR
 70
     0
  9
$PDMODE
 70
     0
  9
$PDSIZE
 40
0.0
  9
$PLINEWID
 40
0.0
  9
$COORDS
 70
     1
  9
$SPLFRAME
 70
     0
  9
$SPLINETYPE
 70
     6
  9
$SPLINESEGS
 70
     8
  9
$ATTDIA
 70
     0
  9
$ATTREQ
 70
     1
  9
$HANDLING
 70
     1
  9
$HANDSEED
  5
2BE
  9
$SURFTAB1
 70
     6
  9
$SURFTAB2
 70
     6
  9
$SURFTYPE
 70
     6
  9
$SURFU
 70
     6
  9
$SURFV
 70
     6
  9
$UCSNAME
  2

  9
$UCSORG
 10
0.0
 20
0.0
 30
0.0
  9
$UCSXDIR
 10
1.0
 20
0.0
 30
0.0
  9
$UCSYDIR
 10
0.0
 20
1.0
 30
0.0
  9
$PUCSNAME
  2

  9
$PUCSORG
 10
0.0
 20
0.0
 30
0.0
  9
$PUCSXDIR
 10
1.0
 20
0.0
 30
0.0
  9
$PUCSYDIR
 10
0.0
 20
1.0
 30
0.0
  9
$USERI1
 70
     0
  9
$USERI2
 70
     0
  9
$USERI3
 70
     0
  9
$USERI4
 70
     0
  9
$USERI5
 70
     0
  9
$USERR1
 40
0.0
  9
$USERR2
 40
0.0
  9
$USERR3
 40
0.0
  9
$USERR4
 40
0.0
  9
$USERR5
 40
0.0
  9
$WORLDVIEW
 70
     1
  9
$SHADEDGE
 70
     3
  9
$SHADEDIF
 70
    70
  9
$TILEMODE
 70
     1
  9
$MAXACTVP
 70
    48
  9
$PLIMCHECK
 70
     0
  9
$PEXTMIN
 10
1.000000E+020
 20
1.000000E+020
 30
1.000000E+020
  9
$PEXTMAX
 10
-1.000000E+020
 20
-1.000000E+020
 30
-1.000000E+020
  9
$PLIMMIN
 10
0.0
 20
0.0
  9
$PLIMMAX
 10
12.0
 20
9.0
  9
$UNITMODE
 70
     0
  9
$VISRETAIN
 70
     1
  9
$PLINEGEN
 70
     0
  9
$PSLTSCALE
 70
     1
  0
ENDSEC
  0
SECTION
  2
TABLES
  0
TABLE
  2
VPORT
 70
     2
  0
VPORT
  2
*ACTIVE
 70
     0
 10
0.0
 20
0.0
 11
1.0
 21
1.0
 12
216.809549
 22
-81.475695
 13
0.0
 23
0.0
 14
1.0
 24
1.0
 15
0.0
 25
0.0
 16
0.0
 26
0.0
 36
1.0
 17
0.0
 27
0.0
 37
0.0
 40
686.142838
 41
1.602828
 42
50.0
 43
0.0
 44
0.0
 50
0.0
 51
0.0
 71
     0
 72
   100
 73
     1
 74
     1
 75
     0
 76
     0
 77
     0
 78
     0
  0
ENDTAB
  0
TABLE
  2
LTYPE
 70
     5
  0
LTYPE
  2
CONTINUOUS
 70
     0
  3
Solid line
 72
    65
 73
     0
 40
0.0
  0
LTYPE
  2
DASHED
 70
     0
  3
__ __ __ __ __ __ __ __ __ __ __ __ __ __ __
 72
    65
 73
     2
 40
3.5
 49
2.0
 49
-1.5
  0
LTYPE
  2
CENTER
 70
     0
  3
____ _ ____ _ ____ _ ____ _ ____ _ ____ _ ____
 72
    65
 73
     4
 40
17.5
 49
13.0
 49
-1.5
 49
1.5
 49
-1.5
  0
LTYPE
  2
PHANTOM
 70
     0
  3
_____ _ _ _____ _ _ _____ _ _ _____ _ _ ____  
 72
    65
 73
     6
 40
15.5
 49
8.0
 49
-1.5
 49
1.5
 49
-1.5
 49
1.5
 49
-1.5
  0
LTYPE
  2
DOT
 70
     0
  3
. . . . . . . . . . . . . . . . . . . . . . . .
 72
    65
 73
     2
 40
0.25
 49
0.0
 49
-0.25
  0
ENDTAB
  0
TABLE
  2
LAYER
 70
     1
  0
LAYER
  2
0
 70
     0
 62
     7
  6
CONTINUOUS
  0
ENDTAB
  0
TABLE
  2
STYLE
 70
     1
  0
STYLE
  2
STANDARD
 70
     0
 40
0.0
 41
1.0
 50
0.0
 71
     0
 42
0.2
  3
txt
  4

  0
ENDTAB
  0
TABLE
  2
VIEW
 70
     0
  0
ENDTAB
  0
TABLE
  2
UCS
 70
     0
  0
ENDTAB
  0
TABLE
  2
APPID
 70
     1
  0
APPID
  2
ACAD
 70
     0
  0
ENDTAB
  0
TABLE
  2
DIMSTYLE
 70
     1
  0
DIMSTYLE
  2
STANDARD
 70
     0
  3

  4

  5

  6

  7

 40
1.0
 41
0.18
 42
0.0625
 43
0.38
 44
0.18
 45
0.0
 46
0.0
 47
0.0
 48
0.0
140
0.18
141
0.09
142
0.0
143
25.4
144
1.0
145
0.0
146
1.0
147
0.09
 71
     0
 72
     0
 73
     1
 74
     1
 75
     0
 76
     0
 77
     0
 78
     0
170
     0
171
     2
172
     0
173
     0
174
     0
175
     0
176
     0
177
     0
178
     0
  0
ENDTAB
  0
ENDSEC
  0
SECTION
  2
BLOCKS
  0
BLOCK
  8
0
  2
$MODEL_SPACE
 70
     0
 10
0.0
 20
0.0
 30
0.0
  3
$MODEL_SPACE
  1

  0
ENDBLK
  5
2B8
  8
0
  0
BLOCK
 67
     1
  8
0
  2
$PAPER_SPACE
 70
     0
 10
0.0
 20
0.0
 30
0.0
  3
$PAPER_SPACE
  1

  0
ENDBLK
  5
2B6
 67
     1
  8
0
  0
ENDSEC
  0
SECTION
  2
ENTITIES
  0
POINT
  5
23
  8
0
  6
CONTINUOUS
 62
     7
 10
124.46175
 20
-289.68826
 30
0.0
  0
POINT
  5
24
  8
0
  6
CONTINUOUS
 62
     7
 10
70.743706
 20
-172.98862
 30
0.0
  0
POINT
  5
25
  8
0
  6
CONTINUOUS
 62
     7
 10
30.718987
 20
-172.98862
 30
0.0
  0
LINE
  5
26
  8
0
  6
CONTINUOUS
 62
     3
 10
293.16193
 20
-136.23862
 30
0.0
 11
293.16193
 21
-118.23862
 31
0.0
  0
LINE
  5
27
  8
0
  6
CONTINUOUS
 62
     3
 10
293.16193
 20
-118.23862
 30
0.0
 11
304.16193
 21
-118.23862
 31
0.0
  0
LINE
  5
28
  8
0
  6
CONTINUOUS
 62
     3
 10
293.16193
 20
-136.23862
 30
0.0
 11
304.16193
 21
-136.23862
 31
0.0
  0
LINE
  5
29
  8
0
  6
CONTINUOUS
 62
     3
 10
293.16193
 20
-134.93863
 30
0.0
 11
295.16193
 21
-134.93863
 31
0.0
  0
LINE
  5
2A
  8
0
  6
CONTINUOUS
 62
     3
 10
295.16193
 20
-133.73862
 30
0.0
 11
303.16193
 21
-133.73862
 31
0.0
  0
LINE
  5
2B
  8
0
  6
CONTINUOUS
 62
     3
 10
295.16193
 20
-119.53862
 30
0.0
 11
295.16193
 21
-134.93863
 31
0.0
  0
LINE
  5
2C
  8
0
  6
CONTINUOUS
 62
     3
 10
293.16193
 20
-119.53862
 30
0.0
 11
295.16193
 21
-119.53862
 31
0.0
  0
LINE
  5
2D
  8
0
  6
CONTINUOUS
 62
     3
 10
303.16193
 20
-120.73862
 30
0.0
 11
295.16193
 21
-120.73862
 31
0.0
  0
LINE
  5
2E
  8
0
  6
CENTER
 62
     4
 10
304.9295
 20
-127.23862
 30
0.0
 11
291.82031
 21
-127.23862
 31
0.0
  0
LINE
  5
2F
  8
0
  6
CONTINUOUS
 62
     3
 10
303.16193
 20
-133.73862
 30
0.0
 11
303.16193
 21
-120.73862
 31
0.0
  0
LINE
  5
30
  8
0
  6
CENTER
 62
     4
 10
117.16194
 20
-294.53848
 30
0.0
 11
117.16194
 21
-260.98862
 31
0.0
  0
LINE
  5
31
  8
0
  6
CONTINUOUS
 62
     3
 10
109.22374
 20
-288.31992
 30
0.0
 11
109.86174
 21
-288.68826
 31
0.0
  0
LINE
  5
32
  8
0
  6
CONTINUOUS
 62
     3
 10
130.66194
 20
-272.98862
 30
0.0
 11
130.66194
 21
-260.98862
 31
0.0
  0
LINE
  5
33
  8
0
  6
CONTINUOUS
 62
     3
 10
109.86174
 20
-288.68826
 30
0.0
 11
124.46175
 21
-288.68826
 31
0.0
  0
LINE
  5
34
  8
0
  6
CONTINUOUS
 62
     3
 10
125.09975
 20
-279.31992
 30
0.0
 11
124.46175
 21
-279.68826
 31
0.0
  0
LINE
  5
35
  8
0
  6
CONTINUOUS
 62
     3
 10
125.09975
 20
-288.31992
 30
0.0
 11
124.46175
 21
-288.68826
 31
0.0
  0
LINE
  5
36
  8
0
  6
CONTINUOUS
 62
     3
 10
124.46175
 20
-289.68826
 30
0.0
 11
124.46175
 21
-279.68826
 31
0.0
  0
LINE
  5
37
  8
0
  6
CONTINUOUS
 62
     3
 10
125.09975
 20
-288.31992
 30
0.0
 11
125.09975
 21
-275.18826
 31
0.0
  0
LINE
  5
38
  8
0
  6
CONTINUOUS
 62
     3
 10
109.86174
 20
-289.68826
 30
0.0
 11
124.46175
 21
-289.68826
 31
0.0
  0
LINE
  5
39
  8
0
  6
CONTINUOUS
 62
     3
 10
129.86174
 20
-275.18826
 30
0.0
 11
129.86174
 21
-272.98862
 31
0.0
  0
LINE
  5
3A
  8
0
  6
CONTINUOUS
 62
     3
 10
103.66194
 20
-272.98862
 30
0.0
 11
103.66194
 21
-260.98862
 31
0.0
  0
LINE
  5
3B
  8
0
  6
CONTINUOUS
 62
     3
 10
103.66194
 20
-272.98862
 30
0.0
 11
130.66194
 21
-272.98862
 31
0.0
  0
LINE
  5
3C
  8
0
  6
CONTINUOUS
 62
     3
 10
109.22374
 20
-279.31992
 30
0.0
 11
109.86174
 21
-279.68826
 31
0.0
  0
LINE
  5
3D
  8
0
  6
CONTINUOUS
 62
     3
 10
109.86174
 20
-279.68826
 30
0.0
 11
124.46175
 21
-279.68826
 31
0.0
  0
LINE
  5
3E
  8
0
  6
CONTINUOUS
 62
     3
 10
109.86174
 20
-289.68826
 30
0.0
 11
109.86174
 21
-279.68826
 31
0.0
  0
LINE
  5
3F
  8
0
  6
CONTINUOUS
 62
     3
 10
109.22374
 20
-288.31992
 30
0.0
 11
109.22374
 21
-275.18826
 31
0.0
  0
LINE
  5
40
  8
0
  6
CONTINUOUS
 62
     3
 10
104.46175
 20
-275.18826
 30
0.0
 11
104.46175
 21
-272.98862
 31
0.0
  0
LINE
  5
41
  8
0
  6
CONTINUOUS
 62
     3
 10
104.46175
 20
-275.18826
 30
0.0
 11
129.86174
 21
-275.18826
 31
0.0
  0
LINE
  5
42
  8
0
  6
CONTINUOUS
 62
     3
 10
87.661942
 20
-202.98862
 30
0.0
 11
87.661942
 21
-130.48862
 31
0.0
  0
LINE
  5
43
  8
0
  6
CENTER
 62
     4
 10
79.172516
 20
-207.98862
 30
0.0
 11
88.35939
 21
-207.98862
 31
0.0
  0
LINE
  5
44
  8
0
  6
CONTINUOUS
 62
     3
 10
88.161942
 20
-212.98862
 30
0.0
 11
82.161942
 21
-212.98862
 31
0.0
  0
LINE
  5
45
  8
0
  6
CONTINUOUS
 62
     3
 10
89.661942
 20
-214.08862
 30
0.0
 11
88.161942
 21
-214.08862
 31
0.0
  0
LINE
  5
46
  8
0
  6
CONTINUOUS
 62
     3
 10
89.661942
 20
-201.88863
 30
0.0
 11
88.161942
 21
-201.88863
 31
0.0
  0
LINE
  5
47
  8
0
  6
CONTINUOUS
 62
     3
 10
82.161942
 20
-202.98862
 30
0.0
 11
88.161942
 21
-202.98862
 31
0.0
  0
LINE
  5
48
  8
0
  6
CONTINUOUS
 62
     3
 10
88.161942
 20
-214.08862
 30
0.0
 11
88.161942
 21
-201.88863
 31
0.0
  0
LINE
  5
49
  8
0
  6
CONTINUOUS
 62
     3
 10
82.161942
 20
-212.98862
 30
0.0
 11
82.161942
 21
-202.98862
 31
0.0
  0
LINE
  5
4A
  8
0
  6
CONTINUOUS
 62
     3
 10
89.661942
 20
-109.08862
 30
0.0
 11
88.161942
 21
-109.08862
 31
0.0
  0
LINE
  5
4B
  8
0
  6
CONTINUOUS
 62
     3
 10
89.661942
 20
-96.888618
 30
0.0
 11
88.161942
 21
-96.888618
 31
0.0
  0
LINE
  5
4C
  8
0
  6
CONTINUOUS
 62
     3
 10
88.161942
 20
-109.08862
 30
0.0
 11
88.161942
 21
-96.888618
 31
0.0
  0
LINE
  5
4D
  8
0
  6
CONTINUOUS
 62
     3
 10
88.161942
 20
-97.988625
 30
0.0
 11
82.161942
 21
-97.988625
 31
0.0
  0
LINE
  5
4E
  8
0
  6
CONTINUOUS
 62
     3
 10
82.161942
 20
-107.98862
 30
0.0
 11
88.161942
 21
-107.98862
 31
0.0
  0
LINE
  5
4F
  8
0
  6
CONTINUOUS
 62
     3
 10
82.161942
 20
-107.98862
 30
0.0
 11
82.161942
 21
-97.988625
 31
0.0
  0
LINE
  5
50
  8
0
  6
CENTER
 62
     4
 10
80.723381
 20
-102.98862
 30
0.0
 11
90.981392
 21
-102.98862
 31
0.0
  0
LINE
  5
51
  8
0
  6
CONTINUOUS
 62
     3
 10
-113.38277
 20
-101.78862
 30
0.0
 11
-124.31293
 21
-101.78862
 31
0.0
  0
LINE
  5
52
  8
0
  6
CONTINUOUS
 62
     3
 10
125.66194
 20
-101.78862
 30
0.0
 11
125.66194
 21
-84.988625
 31
0.0
  0
LINE
  5
53
  8
0
  6
CONTINUOUS
 62
     3
 10
89.661942
 20
-244.18863
 30
0.0
 11
100.66194
 21
-244.18863
 31
0.0
  0
LINE
  5
54
  8
0
  6
CONTINUOUS
 62
     3
 10
100.66194
 20
-135.18863
 30
0.0
 11
100.66194
 21
-114.98852
 31
0.0
  0
LINE
  5
55
  8
0
  6
CONTINUOUS
 62
     3
 10
89.661942
 20
-135.18863
 30
0.0
 11
100.66194
 21
-135.18863
 31
0.0
  0
LINE
  5
56
  8
0
  6
CONTINUOUS
 62
     3
 10
82.461937
 20
-253.08862
 30
0.0
 11
81.461937
 21
-254.08862
 31
0.0
  0
LINE
  5
57
  8
0
  6
CENTER
 62
     4
 10
89.111641
 20
-127.23862
 30
0.0
 11
104.10258
 21
-127.23862
 31
0.0
  0
LINE
  5
58
  8
0
  6
CONTINUOUS
 62
     3
 10
100.66194
 20
-260.98862
 30
0.0
 11
100.66194
 21
-244.18863
 31
0.0
  0
LINE
  5
59
  8
0
  6
CONTINUOUS
 62
     3
 10
99.661942
 20
-134.93863
 30
0.0
 11
100.66194
 21
-134.93863
 31
0.0
  0
LINE
  5
5A
  8
0
  6
CONTINUOUS
 62
     3
 10
99.661942
 20
-133.73862
 30
0.0
 11
91.661942
 21
-133.73862
 31
0.0
  0
LINE
  5
5B
  8
0
  6
CONTINUOUS
 62
     3
 10
100.66194
 20
-119.53862
 30
0.0
 11
99.661942
 21
-119.53862
 31
0.0
  0
LINE
  5
5C
  8
0
  6
CONTINUOUS
 62
     3
 10
91.661942
 20
-133.73862
 30
0.0
 11
91.661942
 21
-120.73862
 31
0.0
  0
LINE
  5
5D
  8
0
  6
CONTINUOUS
 62
     3
 10
99.661942
 20
-120.73862
 30
0.0
 11
91.661942
 21
-120.73862
 31
0.0
  0
LINE
  5
5E
  8
0
  6
CONTINUOUS
 62
     3
 10
99.661942
 20
-134.93863
 30
0.0
 11
99.661942
 21
-119.53862
 31
0.0
  0
LINE
  5
5F
  8
0
  6
CONTINUOUS
 62
     3
 10
87.661942
 20
-215.48862
 30
0.0
 11
87.661942
 21
-212.98862
 31
0.0
  0
LINE
  5
60
  8
0
  6
CONTINUOUS
 62
     3
 10
136.66194
 20
-149.98862
 30
0.0
 11
136.66194
 21
-84.988625
 31
0.0
  0
LINE
  5
61
  8
0
  6
CONTINUOUS
 62
     3
 10
136.66194
 20
-260.98862
 30
0.0
 11
136.66194
 21
-84.988625
 31
0.0
  0
LINE
  5
62
  8
0
  6
CONTINUOUS
 62
     3
 10
-75.183258
 20
-289.68826
 30
0.0
 11
-60.583256
 21
-289.68826
 31
0.0
  0
LINE
  5
63
  8
0
  6
CONTINUOUS
 62
     3
 10
-75.821259
 20
-279.31992
 30
0.0
 11
-75.183258
 21
-279.68826
 31
0.0
  0
LINE
  5
64
  8
0
  6
CONTINUOUS
 62
     3
 10
-75.821259
 20
-288.31992
 30
0.0
 11
-75.183258
 21
-288.68826
 31
0.0
  0
LINE
  5
65
  8
0
  6
CONTINUOUS
 62
     3
 10
-75.183258
 20
-289.68826
 30
0.0
 11
-75.183258
 21
-279.68826
 31
0.0
  0
LINE
  5
66
  8
0
  6
CONTINUOUS
 62
     3
 10
-75.821259
 20
-288.31992
 30
0.0
 11
-75.821259
 21
-275.18826
 31
0.0
  0
LINE
  5
67
  8
0
  6
CONTINUOUS
 62
     3
 10
-80.58326
 20
-275.18826
 30
0.0
 11
-80.58326
 21
-272.98862
 31
0.0
  0
LINE
  5
68
  8
0
  6
CONTINUOUS
 62
     3
 10
-81.383064
 20
-272.98862
 30
0.0
 11
-81.383064
 21
-260.98853
 31
0.0
  0
LINE
  5
69
  8
0
  6
CONTINUOUS
 62
     3
 10
-80.58326
 20
-275.18826
 30
0.0
 11
-55.183258
 21
-275.18826
 31
0.0
  0
LINE
  5
6A
  8
0
  6
CONTINUOUS
 62
     3
 10
-75.183258
 20
-288.68826
 30
0.0
 11
-60.583256
 21
-288.68826
 31
0.0
  0
LINE
  5
6B
  8
0
  6
CONTINUOUS
 62
     3
 10
-75.183258
 20
-279.68826
 30
0.0
 11
-60.583256
 21
-279.68826
 31
0.0
  0
LINE
  5
6C
  8
0
  6
CONTINUOUS
 62
     3
 10
-81.383064
 20
-272.98862
 30
0.0
 11
-54.38306
 21
-272.98862
 31
0.0
  0
LINE
  5
6D
  8
0
  6
CONTINUOUS
 62
     3
 10
-55.183258
 20
-275.18826
 30
0.0
 11
-55.183258
 21
-272.98862
 31
0.0
  0
LINE
  5
6E
  8
0
  6
CONTINUOUS
 62
     3
 10
-59.945255
 20
-279.31992
 30
0.0
 11
-60.583256
 21
-279.68826
 31
0.0
  0
LINE
  5
6F
  8
0
  6
CONTINUOUS
 62
     3
 10
-59.945255
 20
-288.31992
 30
0.0
 11
-60.583256
 21
-288.68826
 31
0.0
  0
LINE
  5
70
  8
0
  6
CONTINUOUS
 62
     3
 10
-60.583256
 20
-289.68826
 30
0.0
 11
-60.583256
 21
-279.68826
 31
0.0
  0
LINE
  5
71
  8
0
  6
CONTINUOUS
 62
     3
 10
-59.945255
 20
-288.31992
 30
0.0
 11
-59.945255
 21
-275.18826
 31
0.0
  0
LINE
  5
72
  8
0
  6
CONTINUOUS
 62
     3
 10
-54.38306
 20
-272.98862
 30
0.0
 11
-54.38306
 21
-260.98853
 31
0.0
  0
LINE
  5
73
  8
0
  6
CONTINUOUS
 62
     3
 10
-42.882698
 20
-260.98853
 30
0.0
 11
-42.882698
 21
-257.48862
 31
0.0
  0
LINE
  5
74
  8
0
  6
CONTINUOUS
 62
     3
 10
-92.882698
 20
-260.98853
 30
0.0
 11
-92.882698
 21
-257.48862
 31
0.0
  0
LINE
  5
75
  8
0
  6
CONTINUOUS
 62
     3
 10
-92.882698
 20
-257.48862
 30
0.0
 11
-42.882698
 21
-257.48862
 31
0.0
  0
LINE
  5
76
  8
0
  6
CENTER
 62
     4
 10
-122.12157
 20
-204.30345
 30
0.0
 11
-134.55551
 21
-211.48219
 31
0.0
  0
LINE
  5
77
  8
0
  6
CONTINUOUS
 62
     3
 10
-126.00448
 20
-209.43199
 30
0.0
 11
-126.00448
 21
-206.54524
 31
0.0
  0
LINE
  5
78
  8
0
  6
CONTINUOUS
 62
     3
 10
-126.00448
 20
-206.54524
 30
0.0
 11
-128.50447
 21
-205.10187
 31
0.0
  0
LINE
  5
79
  8
0
  6
CONTINUOUS
 62
     3
 10
-128.50447
 20
-210.87537
 30
0.0
 11
-126.00448
 21
-209.43199
 31
0.0
  0
LINE
  5
7A
  8
0
  6
CONTINUOUS
 62
     3
 10
-131.00447
 20
-209.43199
 30
0.0
 11
-128.50447
 21
-210.87537
 31
0.0
  0
LINE
  5
7B
  8
0
  6
CONTINUOUS
 62
     3
 10
-131.00447
 20
-209.43199
 30
0.0
 11
-131.00447
 21
-206.54524
 31
0.0
  0
LINE
  5
7C
  8
0
  6
CONTINUOUS
 62
     3
 10
-131.00447
 20
-206.54524
 30
0.0
 11
-128.50447
 21
-205.10187
 31
0.0
  0
LINE
  5
7D
  8
0
  6
CONTINUOUS
 62
     3
 10
-7.26092
 20
-210.87537
 30
0.0
 11
-9.76092
 21
-209.43199
 31
0.0
  0
LINE
  5
7E
  8
0
  6
CONTINUOUS
 62
     3
 10
-4.76092
 20
-206.54524
 30
0.0
 11
-7.26092
 21
-205.10187
 31
0.0
  0
LINE
  5
7F
  8
0
  6
CONTINUOUS
 62
     3
 10
-4.76092
 20
-209.43199
 30
0.0
 11
-7.26092
 21
-210.87537
 31
0.0
  0
LINE
  5
80
  8
0
  6
CONTINUOUS
 62
     3
 10
-7.26092
 20
-205.10187
 30
0.0
 11
-9.76092
 21
-206.54524
 31
0.0
  0
LINE
  5
81
  8
0
  6
CONTINUOUS
 62
     3
 10
-4.76092
 20
-209.43199
 30
0.0
 11
-4.76092
 21
-206.54524
 31
0.0
  0
LINE
  5
82
  8
0
  6
CONTINUOUS
 62
     3
 10
-9.76092
 20
-206.54524
 30
0.0
 11
-9.76092
 21
-209.43199
 31
0.0
  0
LINE
  5
83
  8
0
  6
CENTER
 62
     4
 10
-13.643833
 20
-204.30345
 30
0.0
 11
-1.209884
 21
-211.48219
 31
0.0
  0
LINE
  5
84
  8
0
  6
CONTINUOUS
 62
     3
 10
-67.882698
 20
-105.87537
 30
0.0
 11
-65.382698
 21
-104.432
 31
0.0
  0
LINE
  5
85
  8
0
  6
CONTINUOUS
 62
     3
 10
-67.882698
 20
-100.10187
 30
0.0
 11
-65.382698
 21
-101.54524
 31
0.0
  0
LINE
  5
86
  8
0
  6
CONTINUOUS
 62
     3
 10
-65.382698
 20
-101.54524
 30
0.0
 11
-65.382698
 21
-104.432
 31
0.0
  0
LINE
  5
87
  8
0
  6
CONTINUOUS
 62
     3
 10
-70.382698
 20
-104.432
 30
0.0
 11
-67.882698
 21
-105.87537
 31
0.0
  0
LINE
  5
88
  8
0
  6
CONTINUOUS
 62
     3
 10
-70.382698
 20
-101.54524
 30
0.0
 11
-70.382698
 21
-104.432
 31
0.0
  0
LINE
  5
89
  8
0
  6
CONTINUOUS
 62
     3
 10
-67.882698
 20
-100.10187
 30
0.0
 11
-70.382698
 21
-101.54524
 31
0.0
  0
LINE
  5
8A
  8
0
  6
CONTINUOUS
 62
     3
 10
3.317302
 20
-127.48856
 30
0.0
 11
3.317302
 21
-116.55838
 31
0.0
  0
LINE
  5
8B
  8
0
  6
CONTINUOUS
 62
     3
 10
11.317302
 20
-135.48856
 30
0.0
 11
18.117403
 21
-135.48856
 31
0.0
  0
LINE
  5
8C
  8
0
  6
CONTINUOUS
 62
     3
 10
-22.382629
 20
-244.18863
 30
0.0
 11
-11.452459
 21
-244.18863
 31
0.0
  0
LINE
  5
8D
  8
0
  6
CONTINUOUS
 62
     3
 10
-30.382629
 20
-252.18863
 30
0.0
 11
-30.382629
 21
-258.98871
 31
0.0
  0
LINE
  5
8E
  8
0
  6
CONTINUOUS
 62
     3
 10
-139.0827
 20
-218.48869
 30
0.0
 11
-139.0827
 21
-229.41885
 31
0.0
  0
LINE
  5
8F
  8
0
  6
CONTINUOUS
 62
     3
 10
-147.0827
 20
-210.48869
 30
0.0
 11
-153.8828
 21
-210.48869
 31
0.0
  0
LINE
  5
90
  8
0
  6
CONTINUOUS
 62
     3
 10
-105.38277
 20
-93.78862
 30
0.0
 11
-105.38277
 21
-86.988518
 31
0.0
  0
LINE
  5
91
  8
0
  6
CONTINUOUS
 62
     3
 10
136.66194
 20
-101.78862
 30
0.0
 11
125.66194
 21
-101.78862
 31
0.0
  0
LINE
  5
92
  8
0
  6
CONTINUOUS
 62
     3
 10
-48.982765
 20
-314.86862
 30
0.0
 11
-47.982765
 21
-313.86862
 31
0.0
  0
LINE
  5
93
  8
0
  6
CONTINUOUS
 62
     3
 10
-86.782768
 20
-314.86862
 30
0.0
 11
-87.782768
 21
-313.86862
 31
0.0
  0
LINE
  5
94
  8
0
  6
CONTINUOUS
 62
     3
 10
-87.782768
 20
-313.86862
 30
0.0
 11
-47.982765
 21
-313.86862
 31
0.0
  0
LINE
  5
95
  8
0
  6
CONTINUOUS
 62
     3
 10
-86.782768
 20
-314.86862
 30
0.0
 11
-48.982765
 21
-314.86862
 31
0.0
  0
LINE
  5
97
  8
0
  6
CONTINUOUS
 62
     3
 10
-87.782768
 20
-313.86862
 30
0.0
 11
-87.782768
 21
-294.23862
 31
0.0
  0
LINE
  5
98
  8
0
  6
CONTINUOUS
 62
     3
 10
-86.782768
 20
-314.86862
 30
0.0
 11
-86.782768
 21
-297.28864
 31
0.0
  0
LINE
  5
99
  8
0
  6
CONTINUOUS
 62
     3
 10
-90.082764
 20
-294.23862
 30
0.0
 11
-90.082764
 21
-290.98862
 31
0.0
  0
LINE
  5
9A
  8
0
  6
CONTINUOUS
 62
     3
 10
-47.982765
 20
-313.86862
 30
0.0
 11
-47.982765
 21
-294.23862
 31
0.0
  0
LINE
  5
9B
  8
0
  6
CONTINUOUS
 62
     3
 10
-87.782768
 20
-297.28864
 30
0.0
 11
-47.982765
 21
-297.28864
 31
0.0
  0
LINE
  5
9C
  8
0
  6
CONTINUOUS
 62
     3
 10
-48.982765
 20
-314.86862
 30
0.0
 11
-48.982765
 21
-297.28864
 31
0.0
  0
LINE
  5
9D
  8
0
  6
CONTINUOUS
 62
     3
 10
-45.682766
 20
-294.23862
 30
0.0
 11
-45.682766
 21
-290.98862
 31
0.0
  0
LINE
  5
9E
  8
0
  6
CONTINUOUS
 62
     3
 10
-44.882767
 20
-286.78864
 30
0.0
 11
-44.882767
 21
-260.98862
 31
0.0
  0
LINE
  5
9F
  8
0
  6
CONTINUOUS
 62
     3
 10
-44.882767
 20
-290.98862
 30
0.0
 11
-44.882767
 21
-260.98862
 31
0.0
  0
LINE
  5
A0
  8
0
  6
CONTINUOUS
 62
     3
 10
-90.882767
 20
-286.78864
 30
0.0
 11
-90.882767
 21
-260.98862
 31
0.0
  0
LINE
  5
A1
  8
0
  6
CONTINUOUS
 62
     3
 10
-90.882767
 20
-290.98862
 30
0.0
 11
-90.882767
 21
-260.98862
 31
0.0
  0
LINE
  5
A2
  8
0
  6
CONTINUOUS
 62
     3
 10
500.13025
 20
-286.78864
 30
0.0
 11
500.13025
 21
-260.98862
 31
0.0
  0
LINE
  5
A3
  8
0
  6
CONTINUOUS
 62
     3
 10
500.13025
 20
-290.98862
 30
0.0
 11
500.13025
 21
-260.98862
 31
0.0
  0
LINE
  5
A4
  8
0
  6
CONTINUOUS
 62
     3
 10
546.13025
 20
-286.78864
 30
0.0
 11
546.13025
 21
-260.98862
 31
0.0
  0
LINE
  5
A5
  8
0
  6
CONTINUOUS
 62
     3
 10
546.13025
 20
-290.98862
 30
0.0
 11
546.13025
 21
-260.98862
 31
0.0
  0
LINE
  5
A6
  8
0
  6
CONTINUOUS
 62
     3
 10
500.93024
 20
-294.23862
 30
0.0
 11
500.93024
 21
-290.98862
 31
0.0
  0
LINE
  5
A7
  8
0
  6
CENTER
 62
     4
 10
523.13025
 20
-323.97556
 30
0.0
 11
523.13025
 21
-64.561378
 31
0.0
  0
LINE
  5
A8
  8
0
  6
CONTINUOUS
 62
     3
 10
504.23022
 20
-314.86862
 30
0.0
 11
542.03021
 21
-314.86862
 31
0.0
  0
LINE
  5
A9
  8
0
  6
CONTINUOUS
 62
     3
 10
503.23022
 20
-313.86862
 30
0.0
 11
543.03021
 21
-313.86862
 31
0.0
  0
LINE
  5
AA
  8
0
  6
CONTINUOUS
 62
     3
 10
503.23022
 20
-297.28864
 30
0.0
 11
543.03021
 21
-297.28864
 31
0.0
  0
LINE
  5
AB
  8
0
  6
CONTINUOUS
 62
     3
 10
504.23022
 20
-314.86862
 30
0.0
 11
503.23022
 21
-313.86862
 31
0.0
  0
LINE
  5
AC
  8
0
  6
CONTINUOUS
 62
     3
 10
504.23022
 20
-314.86862
 30
0.0
 11
504.23022
 21
-297.28864
 31
0.0
  0
LINE
  5
AD
  8
0
  6
CONTINUOUS
 62
     3
 10
503.23022
 20
-313.86862
 30
0.0
 11
503.23022
 21
-294.23862
 31
0.0
  0
LINE
  5
AE
  8
0
  6
CONTINUOUS
 62
     3
 10
542.03021
 20
-314.86862
 30
0.0
 11
542.03021
 21
-297.28864
 31
0.0
  0
LINE
  5
AF
  8
0
  6
CONTINUOUS
 62
     3
 10
543.03021
 20
-313.86862
 30
0.0
 11
543.03021
 21
-294.23862
 31
0.0
  0
LINE
  5
B0
  8
0
  6
CONTINUOUS
 62
     3
 10
154.66193
 20
-314.86862
 30
0.0
 11
153.66193
 21
-313.86862
 31
0.0
  0
LINE
  5
B1
  8
0
  6
CONTINUOUS
 62
     3
 10
154.66193
 20
-314.86862
 30
0.0
 11
154.66193
 21
-297.28864
 31
0.0
  0
LINE
  5
B2
  8
0
  6
CONTINUOUS
 62
     3
 10
153.66193
 20
-313.86862
 30
0.0
 11
153.66193
 21
-294.23862
 31
0.0
  0
LINE
  5
B3
  8
0
  6
CONTINUOUS
 62
     3
 10
191.66193
 20
-313.86862
 30
0.0
 11
191.66193
 21
-294.23862
 31
0.0
  0
LINE
  5
B4
  8
0
  6
CONTINUOUS
 62
     3
 10
99.661942
 20
-259.92993
 30
0.0
 11
99.661942
 21
-244.52995
 31
0.0
  0
LINE
  5
B5
  8
0
  6
CONTINUOUS
 62
     3
 10
100.66194
 20
-244.52995
 30
0.0
 11
99.661942
 21
-244.52995
 31
0.0
  0
LINE
  5
B6
  8
0
  6
CONTINUOUS
 62
     3
 10
99.661942
 20
-259.92993
 30
0.0
 11
100.66194
 21
-259.92993
 31
0.0
  0
LINE
  5
B7
  8
0
  6
CONTINUOUS
 62
     3
 10
86.711937
 20
-234.78862
 30
0.0
 11
86.711937
 21
-231.98862
 31
0.0
  0
LINE
  5
B8
  8
0
  6
CONTINUOUS
 62
     3
 10
89.661942
 20
-260.98862
 30
0.0
 11
89.661942
 21
-195.98862
 31
0.0
  0
LINE
  5
B9
  8
0
  6
CONTINUOUS
 62
     3
 10
87.161942
 20
-231.98862
 30
0.0
 11
87.161942
 21
-215.48862
 31
0.0
  0
LINE
  5
BA
  8
0
  6
CONTINUOUS
 62
     3
 10
89.661942
 20
-237.98862
 30
0.0
 11
89.661942
 21
-107.98862
 31
0.0
  0
LINE
  5
BB
  8
0
  6
CONTINUOUS
 62
     3
 10
89.661942
 20
-237.98862
 30
0.0
 11
89.661942
 21
-107.98862
 31
0.0
  0
LINE
  5
BC
  8
0
  6
CONTINUOUS
 62
     3
 10
89.661942
 20
-237.98862
 30
0.0
 11
89.661942
 21
-107.98862
 31
0.0
  0
LINE
  5
BD
  8
0
  6
CONTINUOUS
 62
     3
 10
89.661942
 20
-149.98862
 30
0.0
 11
89.661942
 21
-84.988625
 31
0.0
  0
LINE
  5
BE
  8
0
  6
CONTINUOUS
 62
     3
 10
136.66194
 20
-86.047295
 30
0.0
 11
135.66194
 21
-86.047295
 31
0.0
  0
LINE
  5
BF
  8
0
  6
CONTINUOUS
 62
     3
 10
135.66194
 20
-101.4473
 30
0.0
 11
136.66194
 21
-101.4473
 31
0.0
  0
LINE
  5
C0
  8
0
  6
CONTINUOUS
 62
     3
 10
135.66194
 20
-101.4473
 30
0.0
 11
135.66194
 21
-86.047295
 31
0.0
  0
LINE
  5
C1
  8
0
  6
CONTINUOUS
 62
     3
 10
135.66194
 20
-87.247299
 30
0.0
 11
127.66194
 21
-87.247299
 31
0.0
  0
LINE
  5
C2
  8
0
  6
CONTINUOUS
 62
     3
 10
135.66194
 20
-100.2473
 30
0.0
 11
127.66194
 21
-100.2473
 31
0.0
  0
LINE
  5
C3
  8
0
  6
CONTINUOUS
 62
     3
 10
127.66194
 20
-100.2473
 30
0.0
 11
127.66194
 21
-87.247299
 31
0.0
  0
LINE
  5
C4
  8
0
  6
CENTER
 62
     4
 10
124.69315
 20
-93.747299
 30
0.0
 11
139.68408
 21
-93.747299
 31
0.0
  0
LINE
  5
C5
  8
0
  6
CONTINUOUS
 62
     3
 10
74.661942
 20
-130.48862
 30
0.0
 11
89.661942
 21
-130.48862
 31
0.0
  0
LINE
  5
C6
  8
0
  6
CENTER
 62
     4
 10
70.743706
 20
-172.98862
 30
0.0
 11
384.44226
 21
-172.98862
 31
0.0
  0
LINE
  5
C7
  8
0
  6
CONTINUOUS
 62
     3
 10
74.661942
 20
-137.64427
 30
0.0
 11
80.661942
 21
-137.64427
 31
0.0
  0
LINE
  5
C8
  8
0
  6
CONTINUOUS
 62
     3
 10
74.661942
 20
-144.00824
 30
0.0
 11
80.661942
 21
-144.00824
 31
0.0
  0
LINE
  5
C9
  8
0
  6
CONTINUOUS
 62
     3
 10
74.661942
 20
-145.48495
 30
0.0
 11
87.661942
 21
-145.48495
 31
0.0
  0
LINE
  5
CA
  8
0
  6
CONTINUOUS
 62
     3
 10
49.661938
 20
-230.98862
 30
0.0
 11
49.661938
 21
-134.0696
 31
0.0
  0
LINE
  5
CB
  8
0
  6
CONTINUOUS
 62
     3
 10
49.661938
 20
-230.98862
 30
0.0
 11
49.661938
 21
-142.98862
 31
0.0
  0
LINE
  5
CC
  8
0
  6
CONTINUOUS
 62
     3
 10
50.306049
 20
-133.80434
 30
0.0
 11
74.661942
 21
-132.95381
 31
0.0
  0
LINE
  5
CD
  8
0
  6
CONTINUOUS
 62
     3
 10
74.661942
 20
-215.48862
 30
0.0
 11
74.661942
 21
-130.48862
 31
0.0
  0
LINE
  5
CE
  8
0
  6
CONTINUOUS
 62
     3
 10
74.661942
 20
-132.98862
 30
0.0
 11
74.661942
 21
-130.48862
 31
0.0
  0
LINE
  5
CF
  8
0
  6
CONTINUOUS
 62
     3
 10
48.161938
 20
-230.98862
 30
0.0
 11
48.161938
 21
-142.98862
 31
0.0
  0
LINE
  5
D0
  8
0
  6
CONTINUOUS
 62
     3
 10
80.661942
 20
-215.48862
 30
0.0
 11
80.661942
 21
-130.48862
 31
0.0
  0
LINE
  5
D1
  8
0
  6
CONTINUOUS
 62
     3
 10
74.661942
 20
-214.01181
 30
0.0
 11
80.661942
 21
-214.01181
 31
0.0
  0
LINE
  5
D2
  8
0
  6
CONTINUOUS
 62
     3
 10
74.661942
 20
-207.64784
 30
0.0
 11
80.661942
 21
-207.64784
 31
0.0
  0
LINE
  5
D3
  8
0
  6
CONTINUOUS
 62
     3
 10
74.661942
 20
-200.4921
 30
0.0
 11
87.661942
 21
-200.4921
 31
0.0
  0
LINE
  5
D4
  8
0
  6
CONTINUOUS
 62
     3
 10
49.661938
 20
-207.33601
 30
0.0
 11
74.661942
 21
-207.33601
 31
0.0
  0
LINE
  5
D5
  8
0
  6
CONTINUOUS
 62
     3
 10
48.161938
 20
-206.47359
 30
0.0
 11
49.661938
 21
-207.33601
 31
0.0
  0
LINE
  5
D6
  8
0
  6
CENTER
 62
     4
 10
67.661942
 20
-260.83136
 30
0.0
 11
67.661942
 21
-227.52943
 31
0.0
  0
LINE
  5
D7
  8
0
  6
CONTINUOUS
 62
     3
 10
74.661942
 20
-215.48862
 30
0.0
 11
80.661942
 21
-215.48862
 31
0.0
  0
LINE
  5
D8
  8
0
  6
CONTINUOUS
 62
     3
 10
52.861938
 20
-253.08862
 30
0.0
 11
52.861938
 21
-234.78862
 31
0.0
  0
LINE
  5
D9
  8
0
  6
CONTINUOUS
 62
     3
 10
52.861938
 20
-253.08862
 30
0.0
 11
53.861938
 21
-254.08862
 31
0.0
  0
LINE
  5
DA
  8
0
  6
CONTINUOUS
 62
     3
 10
52.861938
 20
-253.08862
 30
0.0
 11
82.461937
 21
-253.08862
 31
0.0
  0
LINE
  5
DB
  8
0
  6
CONTINUOUS
 62
     3
 10
53.861938
 20
-254.08862
 30
0.0
 11
53.861938
 21
-237.78862
 31
0.0
  0
LINE
  5
DC
  8
0
  6
CONTINUOUS
 62
     3
 10
48.611938
 20
-234.78862
 30
0.0
 11
86.711937
 21
-234.78862
 31
0.0
  0
LINE
  5
DD
  8
0
  6
CONTINUOUS
 62
     3
 10
48.611938
 20
-231.98862
 30
0.0
 11
87.161942
 21
-231.98862
 31
0.0
  0
LINE
  5
DE
  8
0
  6
CONTINUOUS
 62
     3
 10
48.611938
 20
-234.78862
 30
0.0
 11
48.611938
 21
-230.98862
 31
0.0
  0
LINE
  5
DF
  8
0
  6
CONTINUOUS
 62
     3
 10
52.861938
 20
-237.78862
 30
0.0
 11
82.461937
 21
-237.78862
 31
0.0
  0
LINE
  5
E0
  8
0
  6
CONTINUOUS
 62
     3
 10
48.161938
 20
-230.98862
 30
0.0
 11
87.161942
 21
-230.98862
 31
0.0
  0
LINE
  5
E1
  8
0
  6
CONTINUOUS
 62
     3
 10
80.661942
 20
-215.48862
 30
0.0
 11
89.661942
 21
-215.48862
 31
0.0
  0
LINE
  5
E2
  8
0
  6
CONTINUOUS
 62
     3
 10
99.661942
 20
-245.72995
 30
0.0
 11
91.661942
 21
-245.72995
 31
0.0
  0
LINE
  5
E3
  8
0
  6
CONTINUOUS
 62
     3
 10
91.661942
 20
-258.72995
 30
0.0
 11
91.661942
 21
-245.72995
 31
0.0
  0
LINE
  5
E4
  8
0
  6
CONTINUOUS
 62
     3
 10
99.661942
 20
-258.72995
 30
0.0
 11
91.661942
 21
-258.72995
 31
0.0
  0
LINE
  5
E5
  8
0
  6
CONTINUOUS
 62
     3
 10
82.461937
 20
-253.08862
 30
0.0
 11
82.461937
 21
-234.78862
 31
0.0
  0
LINE
  5
E6
  8
0
  6
CONTINUOUS
 62
     3
 10
81.461937
 20
-254.08862
 30
0.0
 11
81.461937
 21
-237.78862
 31
0.0
  0
LINE
  5
E7
  8
0
  6
CENTER
 62
     4
 10
88.645935
 20
-252.22995
 30
0.0
 11
102.51302
 21
-252.22995
 31
0.0
  0
LINE
  5
E8
  8
0
  6
CONTINUOUS
 62
     3
 10
80.661942
 20
-139.52527
 30
0.0
 11
79.661942
 21
-139.52527
 31
0.0
  0
LINE
  5
E9
  8
0
  6
CONTINUOUS
 62
     3
 10
75.661942
 20
-140.12527
 30
0.0
 11
79.661942
 21
-140.12527
 31
0.0
  0
LINE
  5
EA
  8
0
  6
CONTINUOUS
 62
     3
 10
79.661942
 20
-144.00824
 30
0.0
 11
79.661942
 21
-139.52527
 31
0.0
  0
LINE
  5
EB
  8
0
  6
CONTINUOUS
 62
     3
 10
75.661942
 20
-144.00824
 30
0.0
 11
75.661942
 21
-140.12527
 31
0.0
  0
LINE
  5
EC
  8
0
  6
CONTINUOUS
 62
     3
 10
79.661942
 20
-212.02306
 30
0.0
 11
80.661942
 21
-212.02306
 31
0.0
  0
LINE
  5
ED
  8
0
  6
CONTINUOUS
 62
     3
 10
79.661942
 20
-211.42305
 30
0.0
 11
75.661942
 21
-211.42305
 31
0.0
  0
LINE
  5
EE
  8
0
  6
CONTINUOUS
 62
     3
 10
79.661942
 20
-212.02306
 30
0.0
 11
79.661942
 21
-207.64784
 31
0.0
  0
LINE
  5
EF
  8
0
  6
CONTINUOUS
 62
     3
 10
75.661942
 20
-211.42305
 30
0.0
 11
75.661942
 21
-207.64784
 31
0.0
  0
LINE
  5
F0
  8
0
  6
CENTER
 62
     4
 10
73.862442
 20
-208.17305
 30
0.0
 11
81.673363
 21
-208.17305
 31
0.0
  0
LINE
  5
F1
  8
0
  6
CENTER
 62
     4
 10
72.791969
 20
-143.37527
 30
0.0
 11
82.231361
 21
-143.37527
 31
0.0
  0
LINE
  5
F2
  8
0
  6
CONTINUOUS
 62
     3
 10
53.861938
 20
-254.08862
 30
0.0
 11
81.461937
 21
-254.08862
 31
0.0
  0
LINE
  5
F3
  8
0
  6
CONTINUOUS
 62
     3
 10
-101.94868
 20
-203.83516
 30
0.0
 11
-101.5004
 21
-202.16212
 31
0.0
  0
LINE
  5
F4
  8
0
  6
CONTINUOUS
 62
     3
 10
-103.62172
 20
-204.28345
 30
0.0
 11
-101.94868
 21
-203.83516
 31
0.0
  0
LINE
  5
F5
  8
0
  6
CONTINUOUS
 62
     3
 10
-104.84646
 20
-203.0587
 30
0.0
 11
-103.62172
 21
-204.28345
 31
0.0
  0
LINE
  5
F6
  8
0
  6
CONTINUOUS
 62
     3
 10
-104.39817
 20
-201.38567
 30
0.0
 11
-104.84646
 21
-203.0587
 31
0.0
  0
LINE
  5
F7
  8
0
  6
CONTINUOUS
 62
     3
 10
-102.72514
 20
-200.93738
 30
0.0
 11
-104.39817
 21
-201.38567
 31
0.0
  0
LINE
  5
F8
  8
0
  6
CONTINUOUS
 62
     3
 10
-101.5004
 20
-202.16212
 30
0.0
 11
-102.72514
 21
-200.93738
 31
0.0
  0
LINE
  5
F9
  8
0
  6
CONTINUOUS
 62
     3
 10
-37.142555
 20
-209.3978
 30
0.0
 11
-36.694267
 21
-207.72476
 31
0.0
  0
LINE
  5
FA
  8
0
  6
CONTINUOUS
 62
     3
 10
-38.81559
 20
-209.84608
 30
0.0
 11
-37.142555
 21
-209.3978
 31
0.0
  0
LINE
  5
FB
  8
0
  6
CONTINUOUS
 62
     3
 10
-40.040337
 20
-208.62134
 30
0.0
 11
-38.81559
 21
-209.84608
 31
0.0
  0
LINE
  5
FC
  8
0
  6
CONTINUOUS
 62
     3
 10
-39.592049
 20
-206.9483
 30
0.0
 11
-40.040337
 21
-208.62134
 31
0.0
  0
LINE
  5
FD
  8
0
  6
CONTINUOUS
 62
     3
 10
-37.919014
 20
-206.50002
 30
0.0
 11
-39.592049
 21
-206.9483
 31
0.0
  0
LINE
  5
FE
  8
0
  6
CONTINUOUS
 62
     3
 10
-36.694267
 20
-207.72476
 30
0.0
 11
-37.919014
 21
-206.50002
 31
0.0
  0
LINE
  5
FF
  8
0
  6
CONTINUOUS
 62
     3
 10
-31.375704
 20
-144.60002
 30
0.0
 11
-30.927418
 21
-142.92699
 31
0.0
  0
LINE
  5
100
  8
0
  6
CONTINUOUS
 62
     3
 10
-33.048737
 20
-145.04831
 30
0.0
 11
-31.375704
 21
-144.60002
 31
0.0
  0
LINE
  5
101
  8
0
  6
CONTINUOUS
 62
     3
 10
-34.273483
 20
-143.82356
 30
0.0
 11
-33.048737
 21
-145.04831
 31
0.0
  0
LINE
  5
102
  8
0
  6
CONTINUOUS
 62
     3
 10
-33.825195
 20
-142.15053
 30
0.0
 11
-34.273483
 21
-143.82356
 31
0.0
  0
LINE
  5
103
  8
0
  6
CONTINUOUS
 62
     3
 10
-32.152161
 20
-141.70224
 30
0.0
 11
-33.825195
 21
-142.15053
 31
0.0
  0
LINE
  5
104
  8
0
  6
CONTINUOUS
 62
     3
 10
-30.927418
 20
-142.92699
 30
0.0
 11
-32.152161
 21
-141.70224
 31
0.0
  0
LINE
  5
105
  8
0
  6
CONTINUOUS
 62
     3
 10
-97.055405
 20
-136.024
 30
0.0
 11
-98.728439
 21
-136.47229
 31
0.0
  0
LINE
  5
106
  8
0
  6
CONTINUOUS
 62
     3
 10
-95.830666
 20
-137.24875
 30
0.0
 11
-97.055405
 21
-136.024
 31
0.0
  0
LINE
  5
107
  8
0
  6
CONTINUOUS
 62
     3
 10
-96.278954
 20
-138.92178
 30
0.0
 11
-95.830666
 21
-137.24875
 31
0.0
  0
LINE
  5
108
  8
0
  6
CONTINUOUS
 62
     3
 10
-97.951981
 20
-139.37007
 30
0.0
 11
-96.278954
 21
-138.92178
 31
0.0
  0
LINE
  5
109
  8
0
  6
CONTINUOUS
 62
     3
 10
-99.176727
 20
-138.14532
 30
0.0
 11
-97.951981
 21
-139.37007
 31
0.0
  0
LINE
  5
10A
  8
0
  6
CONTINUOUS
 62
     3
 10
-98.728439
 20
-136.47229
 30
0.0
 11
-99.176727
 21
-138.14532
 31
0.0
  0
LINE
  5
10B
  8
0
  6
CENTER
 62
     4
 10
-108.6135
 20
-102.4408
 30
0.0
 11
-118.54118
 21
-85.245544
 31
0.0
  0
LINE
  5
10C
  8
0
  6
CONTINUOUS
 62
     3
 10
-115.36475
 20
-90.747299
 30
0.0
 11
-117.0968
 21
-93.747299
 31
0.0
  0
LINE
  5
10D
  8
0
  6
CONTINUOUS
 62
     3
 10
-117.0968
 20
-93.747299
 30
0.0
 11
-115.36475
 21
-96.747299
 31
0.0
  0
LINE
  5
10E
  8
0
  6
CONTINUOUS
 62
     3
 10
-115.36475
 20
-96.747299
 30
0.0
 11
-111.90065
 21
-96.747299
 31
0.0
  0
LINE
  5
10F
  8
0
  6
CONTINUOUS
 62
     3
 10
-111.90065
 20
-96.747299
 30
0.0
 11
-110.16859
 21
-93.747299
 31
0.0
  0
LINE
  5
110
  8
0
  6
CONTINUOUS
 62
     3
 10
-110.16859
 20
-93.747299
 30
0.0
 11
-111.90065
 21
-90.747299
 31
0.0
  0
LINE
  5
111
  8
0
  6
CONTINUOUS
 62
     3
 10
-111.90065
 20
-90.747299
 30
0.0
 11
-115.36475
 21
-90.747299
 31
0.0
  0
LINE
  5
112
  8
0
  6
CONTINUOUS
 62
     3
 10
11.358627
 20
-123.77452
 30
0.0
 11
8.358627
 21
-125.50657
 31
0.0
  0
LINE
  5
113
  8
0
  6
CONTINUOUS
 62
     3
 10
11.358627
 20
-130.70273
 30
0.0
 11
14.358627
 21
-128.97067
 31
0.0
  0
LINE
  5
114
  8
0
  6
CONTINUOUS
 62
     3
 10
8.358627
 20
-125.50657
 30
0.0
 11
8.358627
 21
-128.97067
 31
0.0
  0
LINE
  5
115
  8
0
  6
CONTINUOUS
 62
     3
 10
14.358627
 20
-128.97067
 30
0.0
 11
14.358627
 21
-125.50657
 31
0.0
  0
LINE
  5
116
  8
0
  6
CONTINUOUS
 62
     3
 10
14.358627
 20
-125.50657
 30
0.0
 11
11.358627
 21
-123.77452
 31
0.0
  0
LINE
  5
117
  8
0
  6
CONTINUOUS
 62
     3
 10
8.358627
 20
-128.97067
 30
0.0
 11
11.358627
 21
-130.70273
 31
0.0
  0
LINE
  5
118
  8
0
  6
CENTER
 62
     4
 10
2.665125
 20
-132.25781
 30
0.0
 11
19.860376
 21
-122.33013
 31
0.0
  0
LINE
  5
119
  8
0
  6
CENTER
 62
     4
 10
-27.151894
 20
-243.53644
 30
0.0
 11
-17.224211
 21
-260.73169
 31
0.0
  0
LINE
  5
11A
  8
0
  6
CONTINUOUS
 62
     3
 10
-20.400646
 20
-255.22995
 30
0.0
 11
-18.668596
 21
-252.22995
 31
0.0
  0
LINE
  5
11B
  8
0
  6
CONTINUOUS
 62
     3
 10
-18.668596
 20
-252.22995
 30
0.0
 11
-20.400646
 21
-249.22995
 31
0.0
  0
LINE
  5
11C
  8
0
  6
CONTINUOUS
 62
     3
 10
-20.400646
 20
-249.22995
 30
0.0
 11
-23.86475
 21
-249.22995
 31
0.0
  0
LINE
  5
11D
  8
0
  6
CONTINUOUS
 62
     3
 10
-23.86475
 20
-249.22995
 30
0.0
 11
-25.5968
 21
-252.22995
 31
0.0
  0
LINE
  5
11E
  8
0
  6
CONTINUOUS
 62
     3
 10
-25.5968
 20
-252.22995
 30
0.0
 11
-23.86475
 21
-255.22995
 31
0.0
  0
LINE
  5
11F
  8
0
  6
CONTINUOUS
 62
     3
 10
-23.86475
 20
-255.22995
 30
0.0
 11
-20.400646
 21
-255.22995
 31
0.0
  0
LINE
  5
120
  8
0
  6
CENTER
 62
     4
 10
-138.43053
 20
-213.71942
 30
0.0
 11
-155.62578
 21
-223.64711
 31
0.0
  0
LINE
  5
121
  8
0
  6
CONTINUOUS
 62
     3
 10
-150.12402
 20
-220.47067
 30
0.0
 11
-147.12402
 21
-222.20273
 31
0.0
  0
LINE
  5
122
  8
0
  6
CONTINUOUS
 62
     3
 10
-147.12402
 20
-222.20273
 30
0.0
 11
-144.12402
 21
-220.47067
 31
0.0
  0
LINE
  5
123
  8
0
  6
CONTINUOUS
 62
     3
 10
-144.12402
 20
-220.47067
 30
0.0
 11
-144.12402
 21
-217.00658
 31
0.0
  0
LINE
  5
124
  8
0
  6
CONTINUOUS
 62
     3
 10
-144.12402
 20
-217.00658
 30
0.0
 11
-147.12402
 21
-215.27452
 31
0.0
  0
LINE
  5
125
  8
0
  6
CONTINUOUS
 62
     3
 10
-147.12402
 20
-215.27452
 30
0.0
 11
-150.12402
 21
-217.00658
 31
0.0
  0
LINE
  5
126
  8
0
  6
CONTINUOUS
 62
     3
 10
-150.12402
 20
-217.00658
 30
0.0
 11
-150.12402
 21
-220.47067
 31
0.0
  0
LINE
  5
127
  8
0
  6
CONTINUOUS
 62
     3
 10
446.88892
 20
-125.50657
 30
0.0
 11
443.88892
 21
-123.77452
 31
0.0
  0
LINE
  5
128
  8
0
  6
CONTINUOUS
 62
     3
 10
552.85876
 20
-140.60846
 30
0.0
 11
553.41913
 21
-142.69975
 31
0.0
  0
LINE
  5
129
  8
0
  6
CONTINUOUS
 62
     3
 10
553.41913
 20
-142.69975
 30
0.0
 11
555.51038
 21
-143.2601
 31
0.0
  0
LINE
  5
12A
  8
0
  6
CONTINUOUS
 62
     3
 10
556.48096
 20
-139.63788
 30
0.0
 11
554.38971
 21
-139.07753
 31
0.0
  0
LINE
  5
12B
  8
0
  6
CONTINUOUS
 62
     3
 10
554.38971
 20
-139.07753
 30
0.0
 11
552.85876
 21
-140.60846
 31
0.0
  0
LINE
  5
12C
  8
0
  6
CONTINUOUS
 62
     3
 10
557.04132
 20
-141.72917
 30
0.0
 11
556.48096
 21
-139.63788
 31
0.0
  0
LINE
  5
12D
  8
0
  6
CONTINUOUS
 62
     3
 10
555.51038
 20
-143.2601
 30
0.0
 11
557.04132
 21
-141.72917
 31
0.0
  0
LINE
  5
12E
  8
0
  6
CENTER
 62
     4
 10
547.80493
 20
-148.31395
 30
0.0
 11
562.17572
 21
-133.94315
 31
0.0
  0
LINE
  5
12F
  8
0
  6
CONTINUOUS
 62
     3
 10
553.41913
 20
-203.2775
 30
0.0
 11
552.85876
 21
-205.36879
 31
0.0
  0
LINE
  5
130
  8
0
  6
CONTINUOUS
 62
     3
 10
555.51038
 20
-202.71713
 30
0.0
 11
553.41913
 21
-203.2775
 31
0.0
  0
LINE
  5
131
  8
0
  6
CONTINUOUS
 62
     3
 10
556.48096
 20
-206.33936
 30
0.0
 11
557.04132
 21
-204.24806
 31
0.0
  0
LINE
  5
132
  8
0
  6
CONTINUOUS
 62
     3
 10
557.04132
 20
-204.24806
 30
0.0
 11
555.51038
 21
-202.71713
 31
0.0
  0
LINE
  5
133
  8
0
  6
CONTINUOUS
 62
     3
 10
554.38971
 20
-206.89972
 30
0.0
 11
556.48096
 21
-206.33936
 31
0.0
  0
LINE
  5
134
  8
0
  6
CONTINUOUS
 62
     3
 10
552.85876
 20
-205.36879
 30
0.0
 11
554.38971
 21
-206.89972
 31
0.0
  0
LINE
  5
135
  8
0
  6
CENTER
 62
     4
 10
547.80493
 20
-197.6633
 30
0.0
 11
562.17572
 21
-212.0341
 31
0.0
  0
LINE
  5
136
  8
0
  6
CONTINUOUS
 62
     3
 10
489.21915
 20
-204.24806
 30
0.0
 11
489.77951
 21
-206.33936
 31
0.0
  0
LINE
  5
137
  8
0
  6
CONTINUOUS
 62
     3
 10
490.75006
 20
-202.71713
 30
0.0
 11
489.21915
 21
-204.24806
 31
0.0
  0
LINE
  5
138
  8
0
  6
CONTINUOUS
 62
     3
 10
493.40173
 20
-205.36879
 30
0.0
 11
492.84137
 21
-203.2775
 31
0.0
  0
LINE
  5
139
  8
0
  6
CONTINUOUS
 62
     3
 10
492.84137
 20
-203.2775
 30
0.0
 11
490.75006
 21
-202.71713
 31
0.0
  0
LINE
  5
13A
  8
0
  6
CONTINUOUS
 62
     3
 10
491.87079
 20
-206.89972
 30
0.0
 11
493.40173
 21
-205.36879
 31
0.0
  0
LINE
  5
13B
  8
0
  6
CONTINUOUS
 62
     3
 10
489.77951
 20
-206.33936
 30
0.0
 11
491.87079
 21
-206.89972
 31
0.0
  0
LINE
  5
13C
  8
0
  6
CENTER
 62
     4
 10
498.45557
 20
-197.6633
 30
0.0
 11
484.08475
 21
-212.0341
 31
0.0
  0
LINE
  5
13D
  8
0
  6
CONTINUOUS
 62
     3
 10
490.75006
 20
-143.2601
 30
0.0
 11
492.84137
 21
-142.69975
 31
0.0
  0
LINE
  5
13E
  8
0
  6
CONTINUOUS
 62
     3
 10
489.21915
 20
-141.72917
 30
0.0
 11
490.75006
 21
-143.2601
 31
0.0
  0
LINE
  5
13F
  8
0
  6
CONTINUOUS
 62
     3
 10
489.77951
 20
-139.63788
 30
0.0
 11
489.21915
 21
-141.72917
 31
0.0
  0
LINE
  5
140
  8
0
  6
CONTINUOUS
 62
     3
 10
491.87079
 20
-139.07753
 30
0.0
 11
489.77951
 21
-139.63788
 31
0.0
  0
LINE
  5
141
  8
0
  6
CONTINUOUS
 62
     3
 10
492.84137
 20
-142.69975
 30
0.0
 11
493.40173
 21
-140.60846
 31
0.0
  0
LINE
  5
142
  8
0
  6
CONTINUOUS
 62
     3
 10
493.40173
 20
-140.60846
 30
0.0
 11
491.87079
 21
-139.07753
 31
0.0
  0
LINE
  5
143
  8
0
  6
CENTER
 62
     4
 10
498.45557
 20
-148.31395
 30
0.0
 11
484.08475
 21
-133.94315
 31
0.0
  0
LINE
  5
144
  8
0
  6
CONTINUOUS
 62
     3
 10
443.88892
 20
-130.70273
 30
0.0
 11
446.88892
 21
-128.97067
 31
0.0
  0
LINE
  5
145
  8
0
  6
CONTINUOUS
 62
     3
 10
446.88892
 20
-128.97067
 30
0.0
 11
446.88892
 21
-125.50657
 31
0.0
  0
LINE
  5
146
  8
0
  6
CONTINUOUS
 62
     3
 10
440.88892
 20
-128.97067
 30
0.0
 11
443.88892
 21
-130.70273
 31
0.0
  0
LINE
  5
147
  8
0
  6
CONTINUOUS
 62
     3
 10
443.88892
 20
-123.77452
 30
0.0
 11
440.88892
 21
-125.50657
 31
0.0
  0
LINE
  5
148
  8
0
  6
CONTINUOUS
 62
     3
 10
440.88892
 20
-125.50657
 30
0.0
 11
440.88892
 21
-128.97067
 31
0.0
  0
LINE
  5
149
  8
0
  6
CENTER
 62
     4
 10
437.88464
 20
-123.77206
 30
0.0
 11
449.85928
 21
-130.68562
 31
0.0
  0
LINE
  5
14A
  8
0
  6
CONTINUOUS
 62
     3
 10
435.13025
 20
-136.23862
 30
0.0
 11
443.88892
 21
-136.23862
 31
0.0
  0
LINE
  5
14B
  8
0
  6
CONTINUOUS
 62
     3
 10
435.13025
 20
-118.23862
 30
0.0
 11
443.88892
 21
-118.23862
 31
0.0
  0
LINE
  5
14C
  8
0
  6
CENTER
 62
     4
 10
473.91367
 20
-258.23419
 30
0.0
 11
480.82724
 21
-246.25957
 31
0.0
  0
LINE
  5
14D
  8
0
  6
CONTINUOUS
 62
     3
 10
475.64819
 20
-249.22995
 30
0.0
 11
473.91614
 21
-252.22995
 31
0.0
  0
LINE
  5
14E
  8
0
  6
CONTINUOUS
 62
     3
 10
473.91614
 20
-252.22995
 30
0.0
 11
475.64819
 21
-255.22995
 31
0.0
  0
LINE
  5
14F
  8
0
  6
CONTINUOUS
 62
     3
 10
480.84433
 20
-252.22995
 30
0.0
 11
479.11227
 21
-249.22995
 31
0.0
  0
LINE
  5
150
  8
0
  6
CONTINUOUS
 62
     3
 10
479.11227
 20
-249.22995
 30
0.0
 11
475.64819
 21
-249.22995
 31
0.0
  0
LINE
  5
151
  8
0
  6
CONTINUOUS
 62
     3
 10
479.11227
 20
-255.22995
 30
0.0
 11
480.84433
 21
-252.22995
 31
0.0
  0
LINE
  5
152
  8
0
  6
CONTINUOUS
 62
     3
 10
475.64819
 20
-255.22995
 30
0.0
 11
479.11227
 21
-255.22995
 31
0.0
  0
LINE
  5
153
  8
0
  6
CONTINUOUS
 62
     3
 10
486.38025
 20
-260.98862
 30
0.0
 11
486.38025
 21
-252.22995
 31
0.0
  0
LINE
  5
154
  8
0
  6
CONTINUOUS
 62
     3
 10
468.38025
 20
-260.98862
 30
0.0
 11
468.38025
 21
-252.22995
 31
0.0
  0
LINE
  5
155
  8
0
  6
CONTINUOUS
 62
     3
 10
611.13025
 20
-227.73862
 30
0.0
 11
602.37158
 21
-227.73862
 31
0.0
  0
LINE
  5
156
  8
0
  6
CONTINUOUS
 62
     3
 10
599.37158
 20
-220.47067
 30
0.0
 11
602.37158
 21
-222.20273
 31
0.0
  0
LINE
  5
157
  8
0
  6
CONTINUOUS
 62
     3
 10
602.37158
 20
-222.20273
 30
0.0
 11
605.37158
 21
-220.47067
 31
0.0
  0
LINE
  5
158
  8
0
  6
CONTINUOUS
 62
     3
 10
602.37158
 20
-215.27452
 30
0.0
 11
599.37158
 21
-217.00658
 31
0.0
  0
LINE
  5
159
  8
0
  6
CONTINUOUS
 62
     3
 10
599.37158
 20
-217.00658
 30
0.0
 11
599.37158
 21
-220.47067
 31
0.0
  0
LINE
  5
15A
  8
0
  6
CONTINUOUS
 62
     3
 10
605.37158
 20
-217.00658
 30
0.0
 11
602.37158
 21
-215.27452
 31
0.0
  0
LINE
  5
15B
  8
0
  6
CONTINUOUS
 62
     3
 10
605.37158
 20
-220.47067
 30
0.0
 11
605.37158
 21
-217.00658
 31
0.0
  0
LINE
  5
15C
  8
0
  6
CENTER
 62
     4
 10
608.37579
 20
-222.20518
 30
0.0
 11
596.40118
 21
-215.29163
 31
0.0
  0
LINE
  5
15D
  8
0
  6
CONTINUOUS
 62
     3
 10
611.13025
 20
-209.73862
 30
0.0
 11
602.37158
 21
-209.73862
 31
0.0
  0
LINE
  5
15E
  8
0
  6
CONTINUOUS
 62
     3
 10
567.14819
 20
-90.747299
 30
0.0
 11
565.41614
 21
-93.747299
 31
0.0
  0
LINE
  5
15F
  8
0
  6
CONTINUOUS
 62
     3
 10
565.41614
 20
-93.747299
 30
0.0
 11
567.14819
 21
-96.747299
 31
0.0
  0
LINE
  5
160
  8
0
  6
CONTINUOUS
 62
     3
 10
572.34436
 20
-93.747299
 30
0.0
 11
570.6123
 21
-90.747299
 31
0.0
  0
LINE
  5
161
  8
0
  6
CONTINUOUS
 62
     3
 10
570.6123
 20
-90.747299
 30
0.0
 11
567.14819
 21
-90.747299
 31
0.0
  0
LINE
  5
162
  8
0
  6
CONTINUOUS
 62
     3
 10
570.6123
 20
-96.747299
 30
0.0
 11
572.34436
 21
-93.747299
 31
0.0
  0
LINE
  5
163
  8
0
  6
CONTINUOUS
 62
     3
 10
567.14819
 20
-96.747299
 30
0.0
 11
570.6123
 21
-96.747299
 31
0.0
  0
LINE
  5
164
  8
0
  6
CENTER
 62
     4
 10
572.3468
 20
-87.743034
 30
0.0
 11
565.43323
 21
-99.717682
 31
0.0
  0
LINE
  5
165
  8
0
  6
CONTINUOUS
 62
     3
 10
559.88025
 20
-84.988625
 30
0.0
 11
559.88025
 21
-93.747299
 31
0.0
  0
LINE
  5
166
  8
0
  6
CONTINUOUS
 62
     3
 10
577.88025
 20
-84.988625
 30
0.0
 11
577.88025
 21
-93.747299
 31
0.0
  0
LINE
  5
167
  8
0
  6
CONTINUOUS
 62
     3
 10
89.661942
 20
-230.98853
 30
0.0
 11
284.16193
 21
-230.98853
 31
0.0
  0
LINE
  5
168
  8
0
  6
CONTINUOUS
 62
     3
 10
89.661942
 20
-114.98852
 30
0.0
 11
284.16193
 21
-114.98852
 31
0.0
  0
LINE
  5
169
  8
0
  6
CONTINUOUS
 62
     3
 10
545.33026
 20
-294.23862
 30
0.0
 11
545.33026
 21
-290.98862
 31
0.0
  0
LINE
  5
16A
  8
0
  6
CENTER
 62
     4
 10
424.69711
 20
-172.98862
 30
0.0
 11
622.12256
 21
-172.98862
 31
0.0
  0
LINE
  5
16B
  8
0
  6
CONTINUOUS
 62
     3
 10
148.16193
 20
-260.98862
 30
0.0
 11
282.16193
 21
-260.98862
 31
0.0
  0
LINE
  5
16C
  8
0
  6
CONTINUOUS
 62
     3
 10
212.16194
 20
-223.98862
 30
0.0
 11
284.16193
 21
-223.98862
 31
0.0
  0
LINE
  5
16D
  8
0
  6
CONTINUOUS
 62
     3
 10
212.16194
 20
-220.98862
 30
0.0
 11
284.16193
 21
-220.98862
 31
0.0
  0
LINE
  5
16E
  8
0
  6
CONTINUOUS
 62
     3
 10
212.16194
 20
-217.98862
 30
0.0
 11
284.16193
 21
-217.98862
 31
0.0
  0
LINE
  5
16F
  8
0
  6
CONTINUOUS
 62
     3
 10
212.16194
 20
-214.98862
 30
0.0
 11
284.16193
 21
-214.98862
 31
0.0
  0
LINE
  5
170
  8
0
  6
CONTINUOUS
 62
     3
 10
212.16194
 20
-130.98862
 30
0.0
 11
284.16193
 21
-130.98862
 31
0.0
  0
LINE
  5
171
  8
0
  6
CONTINUOUS
 62
     3
 10
212.16194
 20
-127.98862
 30
0.0
 11
284.16193
 21
-127.98862
 31
0.0
  0
LINE
  5
172
  8
0
  6
CONTINUOUS
 62
     3
 10
212.16194
 20
-124.98862
 30
0.0
 11
284.16193
 21
-124.98862
 31
0.0
  0
LINE
  5
173
  8
0
  6
CONTINUOUS
 62
     3
 10
212.16194
 20
-121.98862
 30
0.0
 11
284.16193
 21
-121.98862
 31
0.0
  0
LINE
  5
174
  8
0
  6
CONTINUOUS
 62
     3
 10
212.16194
 20
-84.988625
 30
0.0
 11
286.16193
 21
-84.988625
 31
0.0
  0
LINE
  5
175
  8
0
  6
CONTINUOUS
 62
     3
 10
308.16193
 20
-192.98862
 30
0.0
 11
308.16193
 21
-152.98862
 31
0.0
  0
LINE
  5
176
  8
0
  6
CONTINUOUS
 62
     3
 10
307.16193
 20
-192.98862
 30
0.0
 11
308.16193
 21
-192.98862
 31
0.0
  0
LINE
  5
177
  8
0
  6
CONTINUOUS
 62
     3
 10
307.16193
 20
-152.98862
 30
0.0
 11
308.16193
 21
-152.98862
 31
0.0
  0
LINE
  5
178
  8
0
  6
CENTER
 62
     4
 10
601.18689
 20
-251.04529
 30
0.0
 11
586.31702
 21
-236.17537
 31
0.0
  0
LINE
  5
179
  8
0
  6
CENTER
 62
     4
 10
460.69229
 20
-235.42657
 30
0.0
 11
445.43262
 21
-250.68625
 31
0.0
  0
LINE
  5
17A
  8
0
  6
CENTER
 62
     4
 10
459.13632
 20
-108.99472
 30
0.0
 11
445.78693
 21
-95.645309
 31
0.0
  0
LINE
  5
17B
  8
0
  6
CENTER
 62
     4
 10
600.33142
 20
-95.787407
 30
0.0
 11
587.17389
 21
-108.94495
 31
0.0
  0
LINE
  5
17C
  8
0
  6
CONTINUOUS
 62
     3
 10
523.13025
 20
-260.98862
 30
0.0
 11
597.164
 21
-260.98862
 31
0.0
  0
LINE
  5
17D
  8
0
  6
CONTINUOUS
 62
     3
 10
523.13025
 20
-84.988625
 30
0.0
 11
596.93622
 21
-84.988625
 31
0.0
  0
LINE
  5
17E
  8
0
  6
CONTINUOUS
 62
     3
 10
435.13025
 20
-172.98862
 30
0.0
 11
435.13025
 21
-98.954842
 31
0.0
  0
LINE
  5
17F
  8
0
  6
CONTINUOUS
 62
     3
 10
611.13025
 20
-172.98862
 30
0.0
 11
611.13025
 21
-98.954842
 31
0.0
  0
LINE
  5
180
  8
0
  6
CONTINUOUS
 62
     3
 10
297.16193
 20
-260.98862
 30
0.0
 11
304.16193
 21
-260.98862
 31
0.0
  0
LINE
  5
181
  8
0
  6
CONTINUOUS
 62
     3
 10
297.16193
 20
-246.79463
 30
0.0
 11
304.16193
 21
-246.79463
 31
0.0
  0
LINE
  5
182
  8
0
  6
CONTINUOUS
 62
     3
 10
297.16193
 20
-99.182617
 30
0.0
 11
304.16193
 21
-99.182617
 31
0.0
  0
LINE
  5
183
  8
0
  6
CONTINUOUS
 62
     3
 10
297.16193
 20
-84.988625
 30
0.0
 11
304.16193
 21
-84.988625
 31
0.0
  0
LINE
  5
184
  8
0
  6
CONTINUOUS
 62
     3
 10
308.16193
 20
-190.48862
 30
0.0
 11
383.16193
 21
-190.48862
 31
0.0
  0
LINE
  5
185
  8
0
  6
CONTINUOUS
 62
     3
 10
308.16193
 20
-155.48862
 30
0.0
 11
383.16193
 21
-155.48862
 31
0.0
  0
LINE
  5
186
  8
0
  6
CONTINUOUS
 62
     3
 10
383.16193
 20
-190.48862
 30
0.0
 11
383.16193
 21
-155.48862
 31
0.0
  0
LINE
  5
187
  8
0
  6
CONTINUOUS
 62
     3
 10
307.16193
 20
-230.13863
 30
0.0
 11
307.16193
 21
-115.83862
 31
0.0
  0
LINE
  5
188
  8
0
  6
CONTINUOUS
 62
     3
 10
304.16193
 20
-230.13863
 30
0.0
 11
307.16193
 21
-230.13863
 31
0.0
  0
LINE
  5
189
  8
0
  6
CONTINUOUS
 62
     3
 10
304.16193
 20
-115.83862
 30
0.0
 11
307.16193
 21
-115.83862
 31
0.0
  0
LINE
  5
18A
  8
0
  6
CONTINUOUS
 62
     3
 10
147.16194
 20
-260.98862
 30
0.0
 11
147.16194
 21
-84.988625
 31
0.0
  0
LINE
  5
18B
  8
0
  6
CONTINUOUS
 62
     3
 10
284.16193
 20
-260.98862
 30
0.0
 11
284.16193
 21
-84.988625
 31
0.0
  0
LINE
  5
18C
  8
0
  6
CONTINUOUS
 62
     3
 10
286.16193
 20
-260.98862
 30
0.0
 11
286.16193
 21
-84.988625
 31
0.0
  0
LINE
  5
18D
  8
0
  6
CONTINUOUS
 62
     3
 10
304.16193
 20
-260.98862
 30
0.0
 11
304.16193
 21
-84.988625
 31
0.0
  0
LINE
  5
18E
  8
0
  6
CONTINUOUS
 62
     3
 10
147.16194
 20
-149.98862
 30
0.0
 11
147.16194
 21
-84.988625
 31
0.0
  0
LINE
  5
18F
  8
0
  6
CONTINUOUS
 62
     3
 10
284.16193
 20
-149.98862
 30
0.0
 11
284.16193
 21
-84.988625
 31
0.0
  0
LINE
  5
190
  8
0
  6
CONTINUOUS
 62
     3
 10
286.16193
 20
-149.98862
 30
0.0
 11
286.16193
 21
-84.988625
 31
0.0
  0
LINE
  5
191
  8
0
  6
CONTINUOUS
 62
     3
 10
304.16193
 20
-149.98862
 30
0.0
 11
304.16193
 21
-84.988625
 31
0.0
  0
LINE
  5
192
  8
0
  6
CONTINUOUS
 62
     1
 10
-155.88269
 20
-184.98862
 30
0.0
 11
-155.88269
 21
-160.98862
 31
0.0
  0
LINE
  5
193
  8
0
  6
CONTINUOUS
 62
     3
 10
282.16193
 20
-260.98862
 30
0.0
 11
304.16193
 21
-260.98862
 31
0.0
  0
LINE
  5
194
  8
0
  6
CONTINUOUS
 62
     3
 10
286.16193
 20
-84.988625
 30
0.0
 11
304.16193
 21
-84.988625
 31
0.0
  0
LINE
  5
195
  8
0
  6
CONTINUOUS
 62
     3
 10
147.16194
 20
-121.98862
 30
0.0
 11
212.16194
 21
-121.98862
 31
0.0
  0
LINE
  5
196
  8
0
  6
CONTINUOUS
 62
     3
 10
147.16194
 20
-124.98862
 30
0.0
 11
212.16194
 21
-124.98862
 31
0.0
  0
LINE
  5
197
  8
0
  6
CONTINUOUS
 62
     3
 10
147.16194
 20
-127.98862
 30
0.0
 11
212.16194
 21
-127.98862
 31
0.0
  0
LINE
  5
198
  8
0
  6
CONTINUOUS
 62
     3
 10
147.16194
 20
-223.98862
 30
0.0
 11
212.16194
 21
-223.98862
 31
0.0
  0
LINE
  5
199
  8
0
  6
CONTINUOUS
 62
     3
 10
147.16194
 20
-220.98862
 30
0.0
 11
212.16194
 21
-220.98862
 31
0.0
  0
LINE
  5
19A
  8
0
  6
CONTINUOUS
 62
     3
 10
147.16194
 20
-217.98862
 30
0.0
 11
212.16194
 21
-217.98862
 31
0.0
  0
LINE
  5
19B
  8
0
  6
CONTINUOUS
 62
     3
 10
147.16194
 20
-214.98862
 30
0.0
 11
212.16194
 21
-214.98862
 31
0.0
  0
LINE
  5
19C
  8
0
  6
CONTINUOUS
 62
     3
 10
147.16194
 20
-130.98862
 30
0.0
 11
212.16194
 21
-130.98862
 31
0.0
  0
LINE
  5
19D
  8
0
  6
CONTINUOUS
 62
     3
 10
286.16193
 20
-246.79463
 30
0.0
 11
304.16193
 21
-246.79463
 31
0.0
  0
LINE
  5
19E
  8
0
  6
CONTINUOUS
 62
     3
 10
286.16193
 20
-99.182617
 30
0.0
 11
304.16193
 21
-99.182617
 31
0.0
  0
LINE
  5
1A0
  8
0
  6
CONTINUOUS
 62
     3
 10
542.03021
 20
-314.86862
 30
0.0
 11
543.03021
 21
-313.86862
 31
0.0
  0
LINE
  5
1A1
  8
0
  6
CONTINUOUS
 62
     3
 10
449.09647
 20
-84.988625
 30
0.0
 11
523.13025
 21
-84.988625
 31
0.0
  0
LINE
  5
1A2
  8
0
  6
CONTINUOUS
 62
     3
 10
435.13025
 20
-247.0224
 30
0.0
 11
435.13025
 21
-172.98862
 31
0.0
  0
LINE
  5
1A3
  8
0
  6
CONTINUOUS
 62
     3
 10
449.09647
 20
-260.98862
 30
0.0
 11
523.13025
 21
-260.98862
 31
0.0
  0
LINE
  5
1A4
  8
0
  6
CONTINUOUS
 62
     3
 10
611.13025
 20
-247.0224
 30
0.0
 11
611.13025
 21
-172.98862
 31
0.0
  0
LINE
  5
1A5
  8
0
  6
CENTER
 62
     4
 10
172.66193
 20
-320.32965
 30
0.0
 11
172.66193
 21
-276.85419
 31
0.0
  0
LINE
  5
1A6
  8
0
  6
CONTINUOUS
 62
     3
 10
154.66193
 20
-314.86862
 30
0.0
 11
190.66193
 21
-314.86862
 31
0.0
  0
LINE
  5
1A7
  8
0
  6
CONTINUOUS
 62
     3
 10
190.66193
 20
-314.86862
 30
0.0
 11
191.66193
 21
-313.86862
 31
0.0
  0
LINE
  5
1A8
  8
0
  6
CONTINUOUS
 62
     3
 10
154.66193
 20
-313.86862
 30
0.0
 11
191.66193
 21
-313.86862
 31
0.0
  0
LINE
  5
1A9
  8
0
  6
CONTINUOUS
 62
     3
 10
190.66193
 20
-314.86862
 30
0.0
 11
190.66193
 21
-297.28864
 31
0.0
  0
LINE
  5
1AA
  8
0
  6
CONTINUOUS
 62
     3
 10
153.66193
 20
-297.28864
 30
0.0
 11
191.66193
 21
-297.28864
 31
0.0
  0
LINE
  5
1AB
  8
0
  6
CONTINUOUS
 62
     3
 10
89.661942
 20
-260.98862
 30
0.0
 11
156.16194
 21
-260.98862
 31
0.0
  0
LINE
  5
1AC
  8
0
  6
CONTINUOUS
 62
     3
 10
89.661942
 20
-84.988625
 30
0.0
 11
284.16193
 21
-84.988625
 31
0.0
  0
LINE
  5
1AD
  8
0
  6
CONTINUOUS
 62
     3
 10
286.16193
 20
-260.98862
 30
0.0
 11
286.16193
 21
-195.98862
 31
0.0
  0
LINE
  5
1AE
  8
0
  6
CONTINUOUS
 62
     3
 10
304.16193
 20
-260.98862
 30
0.0
 11
304.16193
 21
-195.98862
 31
0.0
  0
LINE
  5
1AF
  8
0
  6
CENTER
 62
     4
 10
-100.63354
 20
-200.4792
 30
0.0
 11
-105.5394
 21
-204.59569
 31
0.0
  0
LINE
  5
1B0
  8
0
  6
CENTER
 62
     4
 10
-40.363468
 20
-205.77521
 30
0.0
 11
-36.190163
 21
-210.74876
 31
0.0
  0
LINE
  5
1B1
  8
0
  6
CENTER
 62
     4
 10
-36.108696
 20
-210.86475
 30
0.0
 11
-40.198235
 21
-205.99103
 31
0.0
  0
LINE
  5
1B2
  8
0
  6
CENTER
 62
     4
 10
-35.096004
 20
-145.46928
 30
0.0
 11
-30.122452
 21
-141.29599
 31
0.0
  0
LINE
  5
1B3
  8
0
  6
CENTER
 62
     4
 10
-36.352604
 20
-146.53163
 30
0.0
 11
-30.216734
 21
-141.38303
 31
0.0
  0
LINE
  5
1B4
  8
0
  6
CENTER
 62
     4
 10
-94.339584
 20
-141.45842
 30
0.0
 11
-99.488197
 21
-135.32256
 31
0.0
  0
LINE
  5
1B5
  8
0
  6
CENTER
 62
     4
 10
-95.401932
 20
-140.20183
 30
0.0
 11
-99.575233
 21
-135.22827
 31
0.0
  0
LINE
  5
1B6
  8
0
  6
CENTER
 62
     4
 10
-166.47961
 20
-172.98862
 30
0.0
 11
30.537582
 21
-172.98862
 31
0.0
  0
LINE
  5
1B8
  8
0
  6
CENTER
 62
     4
 10
-67.882698
 20
-323.97556
 30
0.0
 11
-67.882698
 21
-65.787231
 31
0.0
  0
LINE
  5
1B9
  8
0
  6
CENTER
 62
     4
 10
-131.47334
 20
-236.57916
 30
0.0
 11
-145.92508
 21
-251.0309
 31
0.0
  0
LINE
  5
1BA
  8
0
  6
CENTER
 62
     4
 10
10.581647
 20
-251.45287
 30
0.0
 11
-4.309109
 21
-236.5621
 31
0.0
  0
LINE
  5
1BB
  8
0
  6
CENTER
 62
     4
 10
10.757253
 20
-94.348572
 30
0.0
 11
-4.435277
 21
-109.5411
 31
0.0
  0
LINE
  5
1BC
  8
0
  6
CENTER
 62
     4
 10
-131.47835
 20
-109.39287
 30
0.0
 11
-146.39029
 21
-94.480919
 31
0.0
  0
LINE
  5
1BD
  8
0
  6
CONTINUOUS
 62
     3
 10
-152.78812
 20
-230.98853
 30
0.0
 11
-140.88269
 21
-230.98853
 31
0.0
  0
LINE
  5
1BE
  8
0
  6
CONTINUOUS
 62
     3
 10
-125.8827
 20
-258.98853
 30
0.0
 11
-125.8827
 21
-245.98853
 31
0.0
  0
LINE
  5
1BF
  8
0
  6
CONTINUOUS
 62
     3
 10
-9.882698
 20
-258.98853
 30
0.0
 11
-9.882698
 21
-245.98853
 31
0.0
  0
LINE
  5
1C0
  8
0
  6
CONTINUOUS
 62
     3
 10
-152.78812
 20
-114.98852
 30
0.0
 11
-140.88269
 21
-114.98852
 31
0.0
  0
LINE
  5
1C1
  8
0
  6
CONTINUOUS
 62
     3
 10
5.117302
 20
-114.98852
 30
0.0
 11
17.022726
 21
-114.98852
 31
0.0
  0
LINE
  5
1C2
  8
0
  6
CONTINUOUS
 62
     3
 10
-9.882698
 20
-99.988518
 30
0.0
 11
-9.882698
 21
-86.988518
 31
0.0
  0
LINE
  5
1C3
  8
0
  6
CONTINUOUS
 62
     3
 10
5.117302
 20
-230.98853
 30
0.0
 11
17.022726
 21
-230.98853
 31
0.0
  0
LINE
  5
1C4
  8
0
  6
CONTINUOUS
 62
     3
 10
-125.8827
 20
-99.988518
 30
0.0
 11
-125.8827
 21
-86.988518
 31
0.0
  0
LINE
  5
1C5
  8
0
  6
CONTINUOUS
 62
     3
 10
-67.882698
 20
-84.988518
 30
0.0
 11
6.150958
 21
-84.988518
 31
0.0
  0
LINE
  5
1C6
  8
0
  6
CONTINUOUS
 62
     3
 10
20.117302
 20
-172.98862
 30
0.0
 11
20.117302
 21
-98.954842
 31
0.0
  0
LINE
  5
1C7
  8
0
  6
CONTINUOUS
 62
     3
 10
-155.88269
 20
-149.98862
 30
0.0
 11
-155.88269
 21
-98.954842
 31
0.0
  0
LINE
  5
1C8
  8
0
  6
CENTER
 62
     4
 10
-82.582695
 20
-220.78197
 30
0.0
 11
-82.582695
 21
-215.58997
 31
0.0
  0
LINE
  5
1C9
  8
0
  6
CENTER
 62
     4
 10
-85.113541
 20
-218.49797
 30
0.0
 11
-80.401009
 21
-218.49797
 31
0.0
  0
LINE
  5
1CA
  8
0
  6
CENTER
 62
     4
 10
-53.182697
 20
-220.78197
 30
0.0
 11
-53.182697
 21
-215.78175
 31
0.0
  0
LINE
  5
1CB
  8
0
  6
CENTER
 62
     4
 10
-55.770172
 20
-218.49797
 30
0.0
 11
-50.865849
 21
-218.49797
 31
0.0
  0
LINE
  5
1CC
  8
0
  6
CONTINUOUS
 62
     3
 10
-67.882698
 20
-260.98853
 30
0.0
 11
6.151199
 21
-260.98853
 31
0.0
  0
LINE
  5
1CD
  8
0
  6
CONTINUOUS
 62
     3
 10
-141.91635
 20
-84.988518
 30
0.0
 11
-67.882698
 21
-84.988518
 31
0.0
  0
LINE
  5
1CE
  8
0
  6
CONTINUOUS
 62
     3
 10
-155.88269
 20
-247.0224
 30
0.0
 11
-155.88269
 21
-195.98862
 31
0.0
  0
LINE
  5
1CF
  8
0
  6
CONTINUOUS
 62
     3
 10
-141.9166
 20
-260.98853
 30
0.0
 11
-67.882698
 21
-260.98853
 31
0.0
  0
LINE
  5
1D0
  8
0
  6
CONTINUOUS
 62
     3
 10
20.117302
 20
-247.0224
 30
0.0
 11
20.117302
 21
-172.98862
 31
0.0
  0
LINE
  5
1D1
  8
0
  6
CONTINUOUS
 62
     3
 10
-86.932701
 20
-234.79797
 30
0.0
 11
-86.932701
 21
-230.99797
 31
0.0
  0
LINE
  5
1D2
  8
0
  6
CONTINUOUS
 62
     3
 10
-48.832699
 20
-234.79797
 30
0.0
 11
-48.832699
 21
-230.99797
 31
0.0
  0
LINE
  5
1D3
  8
0
  6
CONTINUOUS
 62
     3
 10
-82.682701
 20
-253.09798
 30
0.0
 11
-82.682701
 21
-234.79797
 31
0.0
  0
LINE
  5
1D4
  8
0
  6
CONTINUOUS
 62
     3
 10
-53.082699
 20
-253.09798
 30
0.0
 11
-53.082699
 21
-234.79797
 31
0.0
  0
LINE
  5
1D5
  8
0
  6
CONTINUOUS
 62
     3
 10
-54.082699
 20
-254.09798
 30
0.0
 11
-54.082699
 21
-237.79797
 31
0.0
  0
LINE
  5
1D6
  8
0
  6
CONTINUOUS
 62
     3
 10
-81.682701
 20
-254.09798
 30
0.0
 11
-81.682701
 21
-237.79797
 31
0.0
  0
LINE
  5
1D7
  8
0
  6
CONTINUOUS
 62
     3
 10
-82.682701
 20
-237.79797
 30
0.0
 11
-53.082699
 21
-237.79797
 31
0.0
  0
LINE
  5
1D8
  8
0
  6
CONTINUOUS
 62
     3
 10
-81.682701
 20
-254.09798
 30
0.0
 11
-54.082699
 21
-254.09798
 31
0.0
  0
LINE
  5
1D9
  8
0
  6
CONTINUOUS
 62
     3
 10
-82.682701
 20
-253.09798
 30
0.0
 11
-81.682701
 21
-254.09798
 31
0.0
  0
LINE
  5
1DA
  8
0
  6
CONTINUOUS
 62
     3
 10
-54.082699
 20
-254.09798
 30
0.0
 11
-53.082699
 21
-253.09798
 31
0.0
  0
LINE
  5
1DB
  8
0
  6
CONTINUOUS
 62
     3
 10
-82.682701
 20
-253.09798
 30
0.0
 11
-81.682701
 21
-253.09798
 31
0.0
  0
LINE
  5
1DC
  8
0
  6
CONTINUOUS
 62
     3
 10
-81.682701
 20
-253.09798
 30
0.0
 11
-53.082699
 21
-253.09798
 31
0.0
  0
LINE
  5
1DD
  8
0
  6
CONTINUOUS
 62
     3
 10
-86.882698
 20
-234.79797
 30
0.0
 11
-48.882698
 21
-234.79797
 31
0.0
  0
LINE
  5
1DE
  8
0
  6
CONTINUOUS
 62
     3
 10
-86.882698
 20
-231.99797
 30
0.0
 11
-48.882698
 21
-231.99797
 31
0.0
  0
LINE
  5
1DF
  8
0
  6
CONTINUOUS
 62
     3
 10
-41.073494
 20
-130.47906
 30
0.0
 11
-41.054596
 21
-130.49797
 31
0.0
  0
LINE
  5
1E0
  8
0
  6
CONTINUOUS
 62
     3
 10
-94.31707
 20
-134.51115
 30
0.0
 11
-96.862984
 21
-131.96524
 31
0.0
  0
LINE
  5
1E1
  8
0
  6
CONTINUOUS
 62
     3
 10
-100.68103
 20
-140.87511
 30
0.0
 11
-103.22694
 21
-138.32919
 31
0.0
  0
LINE
  5
1E2
  8
0
  6
CONTINUOUS
 62
     3
 10
-99.996109
 20
-205.78685
 30
0.0
 11
-102.54202
 21
-208.33276
 31
0.0
  0
LINE
  5
1E3
  8
0
  6
CONTINUOUS
 62
     3
 10
-106.36007
 20
-199.4229
 30
0.0
 11
-108.90598
 21
-201.96881
 31
0.0
  0
LINE
  5
1E4
  8
0
  6
CONTINUOUS
 62
     3
 10
-35.084366
 20
-205.10193
 30
0.0
 11
-32.538452
 21
-207.64784
 31
0.0
  0
LINE
  5
1E5
  8
0
  6
CONTINUOUS
 62
     3
 10
-41.448326
 20
-211.4659
 30
0.0
 11
-38.902412
 21
-214.01181
 31
0.0
  0
LINE
  5
1E6
  8
0
  6
CONTINUOUS
 62
     3
 10
-35.769287
 20
-140.19019
 30
0.0
 11
-33.223373
 21
-137.64427
 31
0.0
  0
LINE
  5
1E7
  8
0
  6
CONTINUOUS
 62
     3
 10
-29.405325
 20
-146.55415
 30
0.0
 11
-26.859411
 21
-144.00824
 31
0.0
  0
LINE
  5
1E8
  8
0
  6
CONTINUOUS
 62
     3
 10
-95.395721
 20
-130.49797
 30
0.0
 11
-40.369678
 21
-130.49797
 31
0.0
  0
LINE
  5
1E9
  8
0
  6
CONTINUOUS
 62
     3
 10
-110.3827
 20
-145.48495
 30
0.0
 11
-95.395721
 21
-130.49797
 31
0.0
  0
LINE
  5
1EA
  8
0
  6
CONTINUOUS
 62
     3
 10
-25.382698
 20
-200.4921
 30
0.0
 11
-25.382698
 21
-145.48495
 31
0.0
  0
LINE
  5
1EB
  8
0
  6
CONTINUOUS
 62
     3
 10
-40.388577
 20
-215.49797
 30
0.0
 11
-25.382698
 21
-200.4921
 31
0.0
  0
LINE
  5
1EC
  8
0
  6
CONTINUOUS
 62
     3
 10
-40.369678
 20
-130.49797
 30
0.0
 11
-25.382698
 21
-145.48495
 31
0.0
  0
LINE
  5
1ED
  8
0
  6
CONTINUOUS
 62
     3
 10
-110.3827
 20
-200.4921
 30
0.0
 11
-102.54202
 21
-208.33276
 31
0.0
  0
LINE
  5
1EE
  8
0
  6
CONTINUOUS
 62
     3
 10
-102.54202
 20
-208.33276
 30
0.0
 11
-95.376823
 21
-215.49797
 31
0.0
  0
LINE
  5
1EF
  8
0
  6
CONTINUOUS
 62
     3
 10
-110.3827
 20
-200.4921
 30
0.0
 11
-110.3827
 21
-145.48495
 31
0.0
  0
LINE
  5
1F0
  8
0
  6
CONTINUOUS
 62
     3
 10
-88.382698
 20
-230.99797
 30
0.0
 11
-47.382698
 21
-230.99797
 31
0.0
  0
LINE
  5
1F1
  8
0
  6
CONTINUOUS
 62
     3
 10
-47.382698
 20
-230.99797
 30
0.0
 11
-47.382698
 21
-215.49797
 31
0.0
  0
LINE
  5
1F2
  8
0
  6
CONTINUOUS
 62
     3
 10
-48.882698
 20
-230.99797
 30
0.0
 11
-48.882698
 21
-215.49797
 31
0.0
  0
LINE
  5
1F3
  8
0
  6
CONTINUOUS
 62
     3
 10
-86.882698
 20
-230.99797
 30
0.0
 11
-86.882698
 21
-215.49797
 31
0.0
  0
LINE
  5
1F4
  8
0
  6
CONTINUOUS
 62
     3
 10
-88.382698
 20
-230.99797
 30
0.0
 11
-88.382698
 21
-215.49797
 31
0.0
  0
LINE
  5
1F5
  8
0
  6
CONTINUOUS
 62
     3
 10
-88.382698
 20
-215.49797
 30
0.0
 11
-88.382698
 21
-207.33601
 31
0.0
  0
LINE
  5
1F6
  8
0
  6
CONTINUOUS
 62
     3
 10
-47.382698
 20
-215.49797
 30
0.0
 11
-47.382698
 21
-207.33601
 31
0.0
  0
LINE
  5
1F7
  8
0
  6
CONTINUOUS
 62
     3
 10
-48.882698
 20
-215.49797
 30
0.0
 11
-48.882698
 21
-206.47359
 31
0.0
  0
LINE
  5
1F8
  8
0
  6
CONTINUOUS
 62
     3
 10
-86.882698
 20
-215.49797
 30
0.0
 11
-86.882698
 21
-206.47359
 31
0.0
  0
LINE
  5
1F9
  8
0
  6
CONTINUOUS
 62
     3
 10
-48.882698
 20
-230.99797
 30
0.0
 11
-48.882698
 21
-215.49797
 31
0.0
  0
LINE
  5
1FA
  8
0
  6
CONTINUOUS
 62
     3
 10
-86.882698
 20
-230.99797
 30
0.0
 11
-86.882698
 21
-215.49797
 31
0.0
  0
LINE
  5
1FB
  8
0
  6
CONTINUOUS
 62
     3
 10
-47.382698
 20
-215.49797
 30
0.0
 11
-40.388577
 21
-215.49797
 31
0.0
  0
LINE
  5
1FC
  8
0
  6
CONTINUOUS
 62
     3
 10
-95.376823
 20
-215.49797
 30
0.0
 11
-88.382698
 21
-215.49797
 31
0.0
  0
LINE
  5
1FD
  8
0
  6
CENTER
 62
     4
 10
-88.382698
 20
-218.49797
 30
0.0
 11
-88.221619
 21
-218.49797
 31
0.0
  0
LINE
  5
1FE
  8
0
  6
CONTINUOUS
 62
     3
 10
-90.882767
 20
-290.98862
 30
0.0
 11
-44.882767
 21
-290.98862
 31
0.0
  0
LINE
  5
1FF
  8
0
  6
CONTINUOUS
 62
     3
 10
-90.082764
 20
-294.23862
 30
0.0
 11
-45.682766
 21
-294.23862
 31
0.0
  0
LINE
  5
200
  8
0
  6
CONTINUOUS
 62
     3
 10
-90.082764
 20
-291.48862
 30
0.0
 11
-45.682766
 21
-291.48862
 31
0.0
  0
LINE
  5
201
  8
0
  6
CONTINUOUS
 62
     3
 10
500.93024
 20
-294.23862
 30
0.0
 11
545.33026
 21
-294.23862
 31
0.0
  0
LINE
  5
202
  8
0
  6
CONTINUOUS
 62
     3
 10
500.93024
 20
-291.48862
 30
0.0
 11
545.33026
 21
-291.48862
 31
0.0
  0
LINE
  5
203
  8
0
  6
CONTINUOUS
 62
     3
 10
500.13025
 20
-290.98862
 30
0.0
 11
546.13025
 21
-290.98862
 31
0.0
  0
LINE
  5
204
  8
0
  6
CONTINUOUS
 62
     3
 10
150.46193
 20
-294.23862
 30
0.0
 11
194.86192
 21
-294.23862
 31
0.0
  0
LINE
  5
205
  8
0
  6
CONTINUOUS
 62
     3
 10
194.86192
 20
-294.23862
 30
0.0
 11
194.86192
 21
-290.98862
 31
0.0
  0
LINE
  5
206
  8
0
  6
CONTINUOUS
 62
     3
 10
150.46193
 20
-294.23862
 30
0.0
 11
150.46193
 21
-290.98862
 31
0.0
  0
LINE
  5
207
  8
0
  6
CONTINUOUS
 62
     3
 10
150.46193
 20
-291.48862
 30
0.0
 11
194.86192
 21
-291.48862
 31
0.0
  0
LINE
  5
208
  8
0
  6
CONTINUOUS
 62
     3
 10
148.16193
 20
-261.98862
 30
0.0
 11
210.16193
 21
-261.98862
 31
0.0
  0
LINE
  5
209
  8
0
  6
CONTINUOUS
 62
     3
 10
148.16193
 20
-290.98862
 30
0.0
 11
148.16193
 21
-260.98862
 31
0.0
  0
LINE
  5
20A
  8
0
  6
CONTINUOUS
 62
     3
 10
210.16193
 20
-261.98862
 30
0.0
 11
210.16193
 21
-260.98862
 31
0.0
  0
LINE
  5
20B
  8
0
  6
CONTINUOUS
 62
     3
 10
148.16193
 20
-290.98862
 30
0.0
 11
204.72063
 21
-290.98862
 31
0.0
  0
LINE
  5
20C
  8
0
  6
CONTINUOUS
 62
     4
 10
68.743706
 20
-172.98862
 30
0.0
 11
26.718987
 21
-172.98862
 31
0.0
  0
ARC
  5
20D
  8
0
  6
CENTER
 62
     4
 10
-67.882698
 20
-172.98862
 30
0.0
 40
70.0
 50
204.15204
 51
216.15803
  0
CIRCLE
  5
20E
  8
0
  6
CONTINUOUS
 62
     3
 10
-128.50447
 20
-207.98862
 30
0.0
 40
6.1
  0
CIRCLE
  5
20F
  8
0
  6
CONTINUOUS
 62
     3
 10
-128.50447
 20
-207.98862
 30
0.0
 40
5.0
  0
CIRCLE
  5
210
  8
0
  6
CONTINUOUS
 62
     3
 10
-7.26092
 20
-207.98862
 30
0.0
 40
5.0
  0
CIRCLE
  5
211
  8
0
  6
CONTINUOUS
 62
     3
 10
-7.26092
 20
-207.98862
 30
0.0
 40
6.1
  0
ARC
  5
212
  8
0
  6
CENTER
 62
     4
 10
-67.882698
 20
-172.98862
 30
0.0
 40
70.0
 50
324.15203
 51
336.15803
  0
ARC
  5
213
  8
0
  6
CENTER
 62
     4
 10
-67.882698
 20
-172.98862
 30
0.0
 40
70.0
 50
84.152036
 51
96.158033
  0
CIRCLE
  5
214
  8
0
  6
CONTINUOUS
 62
     3
 10
-67.882698
 20
-102.98862
 30
0.0
 40
6.1
  0
CIRCLE
  5
215
  8
0
  6
CONTINUOUS
 62
     3
 10
-67.882698
 20
-102.98862
 30
0.0
 40
5.0
  0
ARC
  5
216
  8
0
  6
CONTINUOUS
 62
     3
 10
11.317302
 20
-127.48856
 30
0.0
 40
8.0
 50
180.00001
 51
270.0
  0
ARC
  5
217
  8
0
  6
CONTINUOUS
 62
     3
 10
1.317302
 20
-116.55838
 30
0.0
 40
2.0
 50
0.0
 51
77.083234
  0
ARC
  5
218
  8
0
  6
CONTINUOUS
 62
     3
 10
18.117403
 20
-137.48856
 30
0.0
 40
2.0
 50
0.0
 51
90.000003
  0
ARC
  5
219
  8
0
  6
CONTINUOUS
 62
     3
 10
-22.382629
 20
-252.18863
 30
0.0
 40
8.0
 50
90.000003
 51
180.00001
  0
ARC
  5
21A
  8
0
  6
CONTINUOUS
 62
     3
 10
-11.452459
 20
-242.18863
 30
0.0
 40
2.0
 50
270.0
 51
347.08323
  0
ARC
  5
21B
  8
0
  6
CONTINUOUS
 62
     3
 10
-32.382629
 20
-258.98871
 30
0.0
 40
2.0
 50
270.0
 51
0.0
  0
ARC
  5
21C
  8
0
  6
CONTINUOUS
 62
     3
 10
-147.0827
 20
-218.48869
 30
0.0
 40
8.0
 50
0.0
 51
90.000003
  0
ARC
  5
21D
  8
0
  6
CONTINUOUS
 62
     3
 10
-137.0827
 20
-229.41885
 30
0.0
 40
2.0
 50
180.00001
 51
257.08324
  0
ARC
  5
21E
  8
0
  6
CONTINUOUS
 62
     3
 10
-153.8828
 20
-208.48869
 30
0.0
 40
2.0
 50
180.00001
 51
270.0
  0
ARC
  5
21F
  8
0
  6
CONTINUOUS
 62
     3
 10
-113.38277
 20
-93.78862
 30
0.0
 40
8.0
 50
270.0
 51
0.0
  0
ARC
  5
220
  8
0
  6
CONTINUOUS
 62
     3
 10
-103.38277
 20
-86.988518
 30
0.0
 40
2.0
 50
90.000003
 51
180.00001
  0
ARC
  5
221
  8
0
  6
CONTINUOUS
 62
     3
 10
-124.31293
 20
-103.78862
 30
0.0
 40
2.0
 50
90.000003
 51
167.08323
  0
ARC
  5
222
  8
0
  6
CONTINUOUS
 62
     3
 10
50.340946
 20
-134.80373
 30
0.0
 40
1.0
 50
91.999998
 51
163.6062
  0
ARC
  5
223
  8
0
  6
CONTINUOUS
 62
     3
 10
78.161942
 20
-142.98862
 30
0.0
 40
30.0
 50
163.6062
 51
180.00001
  0
CIRCLE
  5
224
  8
0
  6
CONTINUOUS
 62
     3
 10
-103.17343
 20
-202.61041
 30
0.0
 40
3.85
  0
CIRCLE
  5
225
  8
0
  6
CONTINUOUS
 62
     3
 10
-103.17343
 20
-202.61041
 30
0.0
 40
3.25
  0
CIRCLE
  5
226
  8
0
  6
CONTINUOUS
 62
     3
 10
-38.367302
 20
-208.17305
 30
0.0
 40
3.85
  0
CIRCLE
  5
227
  8
0
  6
CONTINUOUS
 62
     3
 10
-38.367302
 20
-208.17305
 30
0.0
 40
3.25
  0
CIRCLE
  5
228
  8
0
  6
CONTINUOUS
 62
     3
 10
-32.600449
 20
-143.37527
 30
0.0
 40
3.85
  0
CIRCLE
  5
229
  8
0
  6
CONTINUOUS
 62
     3
 10
-32.600449
 20
-143.37527
 30
0.0
 40
3.25
  0
CIRCLE
  5
22A
  8
0
  6
CONTINUOUS
 62
     3
 10
-97.503693
 20
-137.69704
 30
0.0
 40
3.85
  0
CIRCLE
  5
22B
  8
0
  6
CONTINUOUS
 62
     3
 10
-97.503693
 20
-137.69704
 30
0.0
 40
3.25
  0
ARC
  5
22C
  8
0
  6
CENTER
 62
     4
 10
-67.882698
 20
-172.98862
 30
0.0
 40
91.5
 50
113.98366
 51
126.11858
  0
CIRCLE
  5
22D
  8
0
  6
CONTINUOUS
 62
     3
 10
-113.6327
 20
-93.747299
 30
0.0
 40
7.7
  0
CIRCLE
  5
22E
  8
0
  6
CONTINUOUS
 62
     3
 10
-113.6327
 20
-93.747299
 30
0.0
 40
6.5
  0
CIRCLE
  5
22F
  8
0
  6
CONTINUOUS
 62
     3
 10
11.358627
 20
-127.23862
 30
0.0
 40
6.5
  0
CIRCLE
  5
230
  8
0
  6
CONTINUOUS
 62
     3
 10
11.358627
 20
-127.23862
 30
0.0
 40
7.7
  0
ARC
  5
231
  8
0
  6
CENTER
 62
     4
 10
-67.882698
 20
-172.98862
 30
0.0
 40
91.5
 50
23.983658
 51
36.11858
  0
ARC
  5
232
  8
0
  6
CENTER
 62
     4
 10
-67.882698
 20
-172.98862
 30
0.0
 40
91.5
 50
293.98366
 51
306.11858
  0
CIRCLE
  5
233
  8
0
  6
CONTINUOUS
 62
     3
 10
-22.132698
 20
-252.22995
 30
0.0
 40
7.7
  0
CIRCLE
  5
234
  8
0
  6
CONTINUOUS
 62
     3
 10
-22.132698
 20
-252.22995
 30
0.0
 40
6.5
  0
ARC
  5
235
  8
0
  6
CENTER
 62
     4
 10
-67.882698
 20
-172.98862
 30
0.0
 40
91.5
 50
203.98366
 51
216.11858
  0
CIRCLE
  5
236
  8
0
  6
CONTINUOUS
 62
     3
 10
-147.12402
 20
-218.73862
 30
0.0
 40
7.7
  0
CIRCLE
  5
237
  8
0
  6
CONTINUOUS
 62
     3
 10
-147.12402
 20
-218.73862
 30
0.0
 40
6.5
  0
CIRCLE
  5
238
  8
0
  6
CONTINUOUS
 62
     3
 10
523.13025
 20
-172.98862
 30
0.0
 40
54.25
  0
CIRCLE
  5
239
  8
0
  6
CONTINUOUS
 62
     3
 10
554.95001
 20
-141.16882
 30
0.0
 40
7.5
  0
CIRCLE
  5
23A
  8
0
  6
CONTINUOUS
 62
     3
 10
554.95001
 20
-141.16882
 30
0.0
 40
4.8125
  0
CIRCLE
  5
23B
  8
0
  6
CONTINUOUS
 62
     3
 10
554.95001
 20
-141.16882
 30
0.0
 40
4.0625
  0
ARC
  5
23C
  8
0
  6
CENTER
 62
     4
 10
523.13025
 20
-172.98862
 30
0.0
 40
45.0
 50
32.940565
 51
57.003338
  0
CIRCLE
  5
23D
  8
0
  6
CONTINUOUS
 62
     3
 10
554.95001
 20
-204.80843
 30
0.0
 40
7.5
  0
CIRCLE
  5
23E
  8
0
  6
CONTINUOUS
 62
     3
 10
554.95001
 20
-204.80843
 30
0.0
 40
4.8125
  0
CIRCLE
  5
23F
  8
0
  6
CONTINUOUS
 62
     3
 10
554.95001
 20
-204.80843
 30
0.0
 40
4.0625
  0
ARC
  5
240
  8
0
  6
CENTER
 62
     4
 10
523.13025
 20
-172.98862
 30
0.0
 40
45.0
 50
302.94057
 51
327.00334
  0
ARC
  5
241
  8
0
  6
CENTER
 62
     4
 10
523.13025
 20
-172.98862
 30
0.0
 40
45.0
 50
212.94056
 51
237.00333
  0
CIRCLE
  5
242
  8
0
  6
CONTINUOUS
 62
     3
 10
491.31042
 20
-204.80843
 30
0.0
 40
7.5
  0
CIRCLE
  5
243
  8
0
  6
CONTINUOUS
 62
     3
 10
491.31042
 20
-204.80843
 30
0.0
 40
4.8125
  0
CIRCLE
  5
244
  8
0
  6
CONTINUOUS
 62
     3
 10
491.31042
 20
-204.80843
 30
0.0
 40
4.0625
  0
CIRCLE
  5
245
  8
0
  6
CONTINUOUS
 62
     3
 10
491.31042
 20
-141.16882
 30
0.0
 40
7.5
  0
CIRCLE
  5
246
  8
0
  6
CONTINUOUS
 62
     3
 10
491.31042
 20
-141.16882
 30
0.0
 40
4.8125
  0
CIRCLE
  5
247
  8
0
  6
CONTINUOUS
 62
     3
 10
491.31042
 20
-141.16882
 30
0.0
 40
4.0625
  0
ARC
  5
248
  8
0
  6
CENTER
 62
     4
 10
523.13025
 20
-172.98862
 30
0.0
 40
45.0
 50
122.94056
 51
147.00333
  0
ARC
  5
249
  8
0
  6
CONTINUOUS
 62
     3
 10
443.88892
 20
-127.23862
 30
0.0
 40
9.0
 50
270.0
 51
90.000003
  0
CIRCLE
  5
24A
  8
0
  6
CONTINUOUS
 62
     3
 10
443.88892
 20
-127.23862
 30
0.0
 40
7.7
  0
CIRCLE
  5
24B
  8
0
  6
CONTINUOUS
 62
     3
 10
443.88892
 20
-127.23862
 30
0.0
 40
6.5
  0
ARC
  5
24C
  8
0
  6
CENTER
 62
     4
 10
523.13025
 20
-172.98862
 30
0.0
 40
91.5
 50
144.65796
 51
155.41123
  0
CIRCLE
  5
24D
  8
0
  6
CONTINUOUS
 62
     3
 10
477.38025
 20
-252.22995
 30
0.0
 40
7.7
  0
CIRCLE
  5
24E
  8
0
  6
CONTINUOUS
 62
     3
 10
477.38025
 20
-252.22995
 30
0.0
 40
6.5
  0
ARC
  5
24F
  8
0
  6
CONTINUOUS
 62
     3
 10
477.38025
 20
-252.22995
 30
0.0
 40
9.0
 50
0.0
 51
180.00001
  0
ARC
  5
250
  8
0
  6
CENTER
 62
     4
 10
523.13025
 20
-172.98862
 30
0.0
 40
91.5
 50
234.65796
 51
245.41123
  0
CIRCLE
  5
251
  8
0
  6
CONTINUOUS
 62
     3
 10
602.37158
 20
-218.73862
 30
0.0
 40
7.7
  0
CIRCLE
  5
252
  8
0
  6
CONTINUOUS
 62
     3
 10
602.37158
 20
-218.73862
 30
0.0
 40
6.5
  0
ARC
  5
253
  8
0
  6
CENTER
 62
     4
 10
523.13025
 20
-172.98862
 30
0.0
 40
91.5
 50
324.65795
 51
335.41123
  0
ARC
  5
254
  8
0
  6
CONTINUOUS
 62
     3
 10
602.37158
 20
-218.73862
 30
0.0
 40
9.0
 50
90.000003
 51
270.0
  0
CIRCLE
  5
255
  8
0
  6
CONTINUOUS
 62
     3
 10
568.88025
 20
-93.747299
 30
0.0
 40
7.7
  0
CIRCLE
  5
256
  8
0
  6
CONTINUOUS
 62
     3
 10
568.88025
 20
-93.747299
 30
0.0
 40
6.5
  0
ARC
  5
257
  8
0
  6
CENTER
 62
     4
 10
523.13025
 20
-172.98862
 30
0.0
 40
91.5
 50
54.65795
 51
65.411233
  0
ARC
  5
258
  8
0
  6
CONTINUOUS
 62
     3
 10
568.88025
 20
-93.747299
 30
0.0
 40
9.0
 50
180.00001
 51
0.00001
  0
ARC
  5
259
  8
0
  6
CENTER
 62
     4
 10
523.13025
 20
-172.98862
 30
0.0
 40
100.0
 50
309.41697
 51
321.15567
  0
ARC
  5
25A
  8
0
  6
CENTER
 62
     4
 10
523.13025
 20
-172.98862
 30
0.0
 40
100.0
 50
218.48191
 51
230.87337
  0
ARC
  5
25B
  8
0
  6
CENTER
 62
     4
 10
523.13025
 20
-172.98862
 30
0.0
 40
100.0
 50
129.67773
 51
140.1781
  0
CIRCLE
  5
25C
  8
0
  6
CONTINUOUS
 62
     3
 10
452.41956
 20
-243.6993
 30
0.0
 40
6.75
  0
CIRCLE
  5
25D
  8
0
  6
CONTINUOUS
 62
     3
 10
593.84094
 20
-243.6993
 30
0.0
 40
6.75
  0
CIRCLE
  5
25E
  8
0
  6
CONTINUOUS
 62
     3
 10
452.41956
 20
-102.27795
 30
0.0
 40
6.75
  0
CIRCLE
  5
25F
  8
0
  6
CONTINUOUS
 62
     3
 10
593.84094
 20
-102.27795
 30
0.0
 40
6.75
  0
ARC
  5
260
  8
0
  6
CENTER
 62
     4
 10
523.13025
 20
-172.98862
 30
0.0
 40
100.0
 50
39.564796
 51
50.357612
  0
ARC
  5
261
  8
0
  6
CONTINUOUS
 62
     3
 10
523.13025
 20
-172.98862
 30
0.0
 40
115.0
 50
130.07366
 51
139.92634
  0
ARC
  5
262
  8
0
  6
CONTINUOUS
 62
     3
 10
523.13025
 20
-172.98862
 30
0.0
 40
115.0
 50
220.07366
 51
229.92634
  0
ARC
  5
263
  8
0
  6
CONTINUOUS
 62
     3
 10
523.13025
 20
-172.98862
 30
0.0
 40
115.0
 50
310.07366
 51
319.92634
  0
ARC
  5
264
  8
0
  6
CONTINUOUS
 62
     3
 10
523.13025
 20
-172.98862
 30
0.0
 40
115.0
 50
40.073662
 51
49.926337
  0
CIRCLE
  5
265
  8
0
  6
CONTINUOUS
 62
     3
 10
523.13025
 20
-172.98862
 30
0.0
 40
57.150002
  0
CIRCLE
  5
266
  8
0
  6
CONTINUOUS
 62
     3
 10
523.13025
 20
-172.98862
 30
0.0
 40
30.0
  0
CIRCLE
  5
267
  8
0
  6
CONTINUOUS
 62
     3
 10
523.13025
 20
-172.98862
 30
0.0
 40
20.0
  0
CIRCLE
  5
268
  8
0
  6
CONTINUOUS
 62
     3
 10
523.13025
 20
-172.98862
 30
0.0
 40
17.5
  0
ARC
  5
269
  8
0
  6
CENTER
 62
     4
 10
-67.980476
 20
-172.98853
 30
0.0
 40
46.0
 50
215.46239
 51
224.05406
  0
ARC
  5
26A
  8
0
  6
CENTER
 62
     4
 10
-67.882698
 20
-172.89073
 30
0.0
 40
46.0
 50
305.69721
 51
314.10352
  0
ARC
  5
26B
  8
0
  6
CENTER
 62
     4
 10
-67.882698
 20
-172.89073
 30
0.0
 40
46.0
 50
35.516089
 51
44.041326
  0
ARC
  5
26C
  8
0
  6
CENTER
 62
     4
 10
-67.882698
 20
-172.89073
 30
0.0
 40
46.0
 50
125.46239
 51
134.05406
  0
ARC
  5
26D
  8
0
  6
CONTINUOUS
 62
     3
 10
-152.78812
 20
-116.98852
 30
0.0
 40
2.0
 50
90.000003
 51
176.20051
  0
ARC
  5
26E
  8
0
  6
CONTINUOUS
 62
     3
 10
17.022726
 20
-116.98852
 30
0.0
 40
2.0
 50
3.799492
 51
90.000003
  0
ARC
  5
26F
  8
0
  6
CONTINUOUS
 62
     3
 10
17.022726
 20
-228.98853
 30
0.0
 40
2.0
 50
270.0
 51
356.20051
  0
ARC
  5
270
  8
0
  6
CONTINUOUS
 62
     3
 10
-152.78812
 20
-228.98853
 30
0.0
 40
2.0
 50
183.79949
 51
270.0
  0
ARC
  5
271
  8
0
  6
CONTINUOUS
 62
     3
 10
-123.8827
 20
-258.98853
 30
0.0
 40
2.0
 50
180.00001
 51
270.0
  0
ARC
  5
272
  8
0
  6
CONTINUOUS
 62
     3
 10
-11.882698
 20
-258.98853
 30
0.0
 40
2.0
 50
270.0
 51
0.0
  0
ARC
  5
273
  8
0
  6
CONTINUOUS
 62
     3
 10
-11.882698
 20
-86.988518
 30
0.0
 40
2.0
 50
0.0
 51
90.000003
  0
ARC
  5
274
  8
0
  6
CONTINUOUS
 62
     3
 10
-123.8827
 20
-86.988518
 30
0.0
 40
2.0
 50
90.000003
 51
180.00001
  0
ARC
  5
275
  8
0
  6
CENTER
 62
     4
 10
-67.882698
 20
-172.98862
 30
0.0
 40
100.0
 50
218.7175
 51
232.01725
  0
ARC
  5
276
  8
0
  6
CENTER
 62
     4
 10
-67.882698
 20
-172.98862
 30
0.0
 40
100.0
 50
308.55524
 51
321.25803
  0
ARC
  5
277
  8
0
  6
CENTER
 62
     4
 10
-67.882698
 20
-172.98862
 30
0.0
 40
100.0
 50
38.6392
 51
51.857286
  0
ARC
  5
278
  8
0
  6
CONTINUOUS
 62
     3
 10
-140.88269
 20
-245.98853
 30
0.0
 40
15.0
 50
0.0
 51
90.000003
  0
ARC
  5
279
  8
0
  6
CONTINUOUS
 62
     3
 10
5.117302
 20
-245.98853
 30
0.0
 40
15.0
 50
90.000003
 51
180.00001
  0
ARC
  5
27A
  8
0
  6
CONTINUOUS
 62
     3
 10
5.117302
 20
-99.988518
 30
0.0
 40
15.0
 50
180.00001
 51
270.0
  0
ARC
  5
27B
  8
0
  6
CONTINUOUS
 62
     3
 10
-140.88269
 20
-99.988518
 30
0.0
 40
15.0
 50
270.0
 51
0.0
  0
CIRCLE
  5
27C
  8
0
  6
CONTINUOUS
 62
     3
 10
-138.59343
 20
-243.69925
 30
0.0
 40
6.75
  0
CIRCLE
  5
27D
  8
0
  6
CONTINUOUS
 62
     3
 10
2.828031
 20
-243.69925
 30
0.0
 40
6.75
  0
CIRCLE
  5
27E
  8
0
  6
CONTINUOUS
 62
     3
 10
2.82793
 20
-102.27789
 30
0.0
 40
6.75
  0
CIRCLE
  5
27F
  8
0
  6
CONTINUOUS
 62
     3
 10
-138.59332
 20
-102.27789
 30
0.0
 40
6.75
  0
ARC
  5
280
  8
0
  6
CENTER
 62
     4
 10
-67.882698
 20
-172.98862
 30
0.0
 40
100.0
 50
128.76975
 51
141.28388
  0
ARC
  5
281
  8
0
  6
CONTINUOUS
 62
     3
 10
-67.882698
 20
-172.98862
 30
0.0
 40
115.0
 50
130.07359
 51
139.92634
  0
ARC
  5
282
  8
0
  6
CONTINUOUS
 62
     3
 10
-67.882698
 20
-172.98862
 30
0.0
 40
115.0
 50
220.07366
 51
229.92626
  0
ARC
  5
283
  8
0
  6
CONTINUOUS
 62
     3
 10
-67.882698
 20
-172.98862
 30
0.0
 40
115.0
 50
310.07374
 51
319.92634
  0
ARC
  5
284
  8
0
  6
CONTINUOUS
 62
     3
 10
-67.882698
 20
-172.98862
 30
0.0
 40
115.0
 50
40.073662
 51
49.926415
  0
ARC
  5
285
  8
0
  6
CONTINUOUS
 62
     3
 10
-479.88269
 20
-149.98853
 30
0.0
 40
500.0
 50
359.99999
 51
3.799492
  0
ARC
  5
286
  8
0
  6
CONTINUOUS
 62
     3
 10
344.11731
 20
-195.98853
 30
0.0
 40
500.0
 50
177.36347
 51
183.79949
  0
ARC
  5
287
  8
0
  6
CONTINUOUS
 62
     3
 10
-479.88269
 20
-195.98853
 30
0.0
 40
500.0
 50
356.20051
 51
359.99999
  0
ARC
  5
288
  8
0
  6
CONTINUOUS
 62
     3
 10
344.11731
 20
-149.98853
 30
0.0
 40
500.0
 50
176.20051
 51
182.63655
  0
ARC
  5
289
  8
0
  6
CONTINUOUS
 62
     3
 10
-97.499046
 20
-137.69313
 30
0.0
 40
4.5
 50
225.0
 51
45.000001
  0
ARC
  5
28A
  8
0
  6
CONTINUOUS
 62
     3
 10
-103.17809
 20
-202.60487
 30
0.0
 40
4.5
 50
315.0
 51
135.0
  0
ARC
  5
28B
  8
0
  6
CONTINUOUS
 62
     3
 10
-38.266346
 20
-208.28391
 30
0.0
 40
4.5
 50
45.000001
 51
225.0
  0
ARC
  5
28C
  8
0
  6
CONTINUOUS
 62
     3
 10
-32.587307
 20
-143.37218
 30
0.0
 40
4.5
 50
135.0
 51
314.99999
  0
ARC
  5
28D
  8
0
  6
CONTINUOUS
 62
     3
 10
-67.882698
 20
-172.98853
 30
0.0
 40
40.0
 50
300.83049
 51
239.16951
  0
ARC
  5
28E
  8
0
  6
CONTINUOUS
 62
     3
 10
-67.882698
 20
-172.98853
 30
0.0
 40
38.5
 50
299.57132
 51
240.4287
  0
CIRCLE
  5
28F
  8
0
  6
CONTINUOUS
 62
     3
 10
-82.582695
 20
-218.49797
 30
0.0
 40
2.0
  0
CIRCLE
  5
290
  8
0
  6
CONTINUOUS
 62
     3
 10
-53.182697
 20
-218.49797
 30
0.0
 40
2.0
  0
ARC
  5
291
  8
0
  6
CONTINUOUS
 62
     3
 10
130.16193
 20
-261.98862
 30
0.0
 40
80.0
 50
338.74619
 51
0.0
  0
TEXT
  5
292
  8
0
  6
CONTINUOUS
 62
     7
 10
-188.50346
 20
134.46066
 30
0.0
 40
8.466667
  1
HC-SF301B
 41
1.061225
  0
ENDSEC
  0
EOF
