  0
SECTION
  2
HEADER
  9
$ACADVER
  1
AC1009
  9
$INSBASE
 10
0.0
 20
0.0
 30
0.0
  9
$EXTMIN
 10
3.059513
 20
73.221417
 30
-2.418945
  9
$EXTMAX
 10
269.871231
 20
173.316427
 30
14.117405
  9
$LIMMIN
 10
0.0
 20
0.0
  9
$LIMMAX
 10
12.0
 20
9.0
  9
$ORTHOMODE
 70
     0
  9
$REGENMODE
 70
     1
  9
$FILLMODE
 70
     1
  9
$QTEXTMODE
 70
     0
  9
$MIRRTEXT
 70
     1
  9
$DRAGMODE
 70
     2
  9
$LTSCALE
 40
0.5
  9
$OSMODE
 70
   256
  9
$ATTMODE
 70
     1
  9
$TEXTSIZE
 40
0.2
  9
$TRACEWID
 40
0.05
  9
$TEXTSTYLE
  7
STANDARD
  9
$CLAYER
  8
0
  9
$CELTYPE
  6
BYBLOCK
  9
$CECOLOR
 62
   256
  9
$DIMSCALE
 40
1.0
  9
$DIMASZ
 40
0.18
  9
$DIMEXO
 40
0.0625
  9
$DIMDLI
 40
0.38
  9
$DIMRND
 40
0.0
  9
$DIMDLE
 40
0.0
  9
$DIMEXE
 40
0.18
  9
$DIMTP
 40
0.0
  9
$DIMTM
 40
0.0
  9
$DIMTXT
 40
0.18
  9
$DIMCEN
 40
0.09
  9
$DIMTSZ
 40
0.0
  9
$DIMTOL
 70
     0
  9
$DIMLIM
 70
     0
  9
$DIMTIH
 70
     1
  9
$DIMTOH
 70
     1
  9
$DIMSE1
 70
     0
  9
$DIMSE2
 70
     0
  9
$DIMTAD
 70
     0
  9
$DIMZIN
 70
     0
  9
$DIMBLK
  1

  9
$DIMASO
 70
     1
  9
$DIMSHO
 70
     1
  9
$DIMPOST
  1

  9
$DIMAPOST
  1

  9
$DIMALT
 70
     0
  9
$DIMALTD
 70
     2
  9
$DIMALTF
 40
25.4
  9
$DIMLFAC
 40
1.0
  9
$DIMTOFL
 70
     0
  9
$DIMTVP
 40
0.0
  9
$DIMTIX
 70
     0
  9
$DIMSOXD
 70
     0
  9
$DIMSAH
 70
     0
  9
$DIMBLK1
  1

  9
$DIMBLK2
  1

  9
$DIMSTYLE
  2
STANDARD
  9
$DIMCLRD
 70
     0
  9
$DIMCLRE
 70
     0
  9
$DIMCLRT
 70
     0
  9
$DIMTFAC
 40
1.0
  9
$DIMGAP
 40
0.09
  9
$LUNITS
 70
     2
  9
$LUPREC
 70
     4
  9
$SKETCHINC
 40
0.1
  9
$FILLETRAD
 40
0.0
  9
$AUNITS
 70
     0
  9
$AUPREC
 70
     0
  9
$MENU
  1
.
  9
$ELEVATION
 40
0.0
  9
$PELEVATION
 40
0.0
  9
$THICKNESS
 40
0.0
  9
$LIMCHECK
 70
     0
  9
$BLIPMODE
 70
     0
  9
$CHAMFERA
 40
0.0
  9
$CHAMFERB
 40
0.0
  9
$SKPOLY
 70
     0
  9
$TDCREATE
 40
2451614.554633
  9
$TDUPDATE
 40
2452949.382071
  9
$TDINDWG
 40
0.560962
  9
$TDUSRTIMER
 40
0.560951
  9
$USRTIMER
 70
     1
  9
$ANGBASE
 50
0.0
  9
$ANGDIR
 70
     0
  9
$PDMODE
 70
     0
  9
$PDSIZE
 40
0.0
  9
$PLINEWID
 40
0.0
  9
$COORDS
 70
     1
  9
$SPLFRAME
 70
     0
  9
$SPLINETYPE
 70
     6
  9
$SPLINESEGS
 70
     8
  9
$ATTDIA
 70
     0
  9
$ATTREQ
 70
     1
  9
$HANDLING
 70
     1
  9
$HANDSEED
  5
CF9C
  9
$SURFTAB1
 70
     6
  9
$SURFTAB2
 70
     6
  9
$SURFTYPE
 70
     6
  9
$SURFU
 70
     6
  9
$SURFV
 70
     6
  9
$UCSNAME
  2

  9
$UCSORG
 10
0.0
 20
0.0
 30
0.0
  9
$UCSXDIR
 10
1.0
 20
0.0
 30
0.0
  9
$UCSYDIR
 10
0.0
 20
1.0
 30
0.0
  9
$PUCSNAME
  2

  9
$PUCSORG
 10
0.0
 20
0.0
 30
0.0
  9
$PUCSXDIR
 10
1.0
 20
0.0
 30
0.0
  9
$PUCSYDIR
 10
0.0
 20
1.0
 30
0.0
  9
$USERI1
 70
     0
  9
$USERI2
 70
     0
  9
$USERI3
 70
     0
  9
$USERI4
 70
     0
  9
$USERI5
 70
     0
  9
$USERR1
 40
0.0
  9
$USERR2
 40
0.0
  9
$USERR3
 40
0.0
  9
$USERR4
 40
0.0
  9
$USERR5
 40
0.0
  9
$WORLDVIEW
 70
     1
  9
$SHADEDGE
 70
     3
  9
$SHADEDIF
 70
    70
  9
$TILEMODE
 70
     1
  9
$MAXACTVP
 70
    48
  9
$PLIMCHECK
 70
     0
  9
$PEXTMIN
 10
1.000000E+020
 20
1.000000E+020
 30
1.000000E+020
  9
$PEXTMAX
 10
-1.000000E+020
 20
-1.000000E+020
 30
-1.000000E+020
  9
$PLIMMIN
 10
0.0
 20
0.0
  9
$PLIMMAX
 10
12.0
 20
9.0
  9
$UNITMODE
 70
     0
  9
$VISRETAIN
 70
     1
  9
$PLINEGEN
 70
     0
  9
$PSLTSCALE
 70
     1
  0
ENDSEC
  0
SECTION
  2
TABLES
  0
TABLE
  2
VPORT
 70
     4
  0
VPORT
  2
*ACTIVE
 70
     0
 10
0.0
 20
0.0
 11
1.0
 21
1.0
 12
136.465372
 22
123.268922
 13
0.0
 23
0.0
 14
1.0
 24
1.0
 15
0.0
 25
0.0
 16
0.0
 26
0.0
 36
1.0
 17
0.0
 27
0.0
 37
0.0
 40
165.793554
 41
1.616967
 42
50.0
 43
0.0
 44
0.0
 50
0.0
 51
0.0
 71
     0
 72
   100
 73
     1
 74
     1
 75
     0
 76
     0
 77
     0
 78
     0
  0
ENDTAB
  0
TABLE
  2
LTYPE
 70
     6
  0
LTYPE
  2
CONTINUOUS
 70
     0
  3
Solid line
 72
    65
 73
     0
 40
0.0
  0
LTYPE
  2
CENTER
 70
     0
  3
____ _ ____ _ ____ _ ____ _ ____ _ ____ _ ____
 72
    65
 73
     4
 40
17.5
 49
13.0
 49
-1.5
 49
1.5
 49
-1.5
  0
LTYPE
  2
HIDDEN
 70
     0
  3
Hidden __ __ __ __ __ __ __ __ __ __ __ __ __ _
 72
    65
 73
     2
 40
9.525
 49
6.35
 49
-3.175
  0
ENDTAB
  0
TABLE
  2
LAYER
 70
     5
  0
LAYER
  2
0
 70
     0
 62
     7
  6
CONTINUOUS
  0
LAYER
  2
HIDDEN
 70
     0
 62
     6
  6
HIDDEN
  0
LAYER
  2
CENTER
 70
     0
 62
     1
  6
CENTER
  0
ENDTAB
  0
TABLE
  2
STYLE
 70
     2
  0
STYLE
  2
STANDARD
 70
     0
 40
0.0
 41
1.0
 50
0.0
 71
     0
 42
0.2
  3
txt
  4

  0
ENDTAB
  0
TABLE
  2
VIEW
 70
     0
  0
ENDTAB
  0
TABLE
  2
UCS
 70
     0
  0
ENDTAB
  0
TABLE
  2
APPID
 70
     1
  0
APPID
  2
ACAD
 70
     0
  0
ENDTAB
  0
TABLE
  2
DIMSTYLE
 70
     4
  0
DIMSTYLE
  2
STANDARD
 70
     0
  3

  4

  5

  6

  7

 40
1.0
 41
0.18
 42
0.0625
 43
0.38
 44
0.18
 45
0.0
 46
0.0
 47
0.0
 48
0.0
140
0.18
141
0.09
142
0.0
143
25.4
144
1.0
145
0.0
146
1.0
147
0.09
 71
     0
 72
     0
 73
     1
 74
     1
 75
     0
 76
     0
 77
     0
 78
     0
170
     0
171
     2
172
     0
173
     0
174
     0
175
     0
176
     0
177
     0
178
     0
  0
ENDTAB
  0
ENDSEC
  0
SECTION
  2
BLOCKS
  0
BLOCK
  8
0
  2
$MODEL_SPACE
 70
     0
 10
0.0
 20
0.0
 30
0.0
  3
$MODEL_SPACE
  1

  0
ENDBLK
  5
CF74
  8
0
  0
BLOCK
 67
     1
  8
0
  2
$PAPER_SPACE
 70
     0
 10
0.0
 20
0.0
 30
0.0
  3
$PAPER_SPACE
  1

  0
ENDBLK
  5
CF71
 67
     1
  8
0
  0
ENDSEC
  0
SECTION
  2
ENTITIES
  0
TEXT
  5
C878
  8
0
  6
CONTINUOUS
 62
     7
 10
24.580512
 20
164.84447
 30
0.0
 40
8.466667
  1
HF-KP13
 41
1.052632
  0
LINE
  5
C879
  8
0
 62
     5
 10
154.687771
 20
96.40147
 30
0.0
 11
154.687771
 21
136.40147
 31
0.0
  0
LINE
  5
C87A
  8
0
 62
     5
 10
110.537771
 20
96.30035
 30
0.0
 11
110.487771
 21
137.037591
 31
0.0
  0
ARC
  5
C87B
  8
CENTER
 10
28.095228
 20
116.40147
 30
0.0
 40
23.0
 50
213.220953
 51
235.846632
  0
LINE
  5
C87C
  8
CENTER
 10
14.449454
 20
102.755696
 30
0.0
 11
8.28453
 21
96.590772
 31
0.0
  0
ARC
  5
C87D
  8
CENTER
 10
244.831759
 20
116.40147
 30
0.0
 40
23.0
 50
304.153368
 51
326.779047
  0
LINE
  5
C87E
  8
CENTER
 10
258.477533
 20
102.755696
 30
0.0
 11
264.642457
 21
96.590772
 31
0.0
  0
ARC
  5
C87F
  8
0
 62
     5
 10
262.331759
 20
98.90147
 30
0.0
 40
2.5
 50
270.0
 51
0.0
  0
CIRCLE
  5
C880
  8
0
 62
     5
 10
261.095215
 20
100.138014
 30
0.0
 40
2.25
  0
ARC
  5
C881
  8
0
 62
     5
 10
227.331759
 20
98.90147
 30
0.0
 40
2.5
 50
180.0
 51
270.0
  0
ARC
  5
C882
  8
0
 62
     5
 10
227.931907
 20
99.501618
 30
0.0
 40
1.5
 50
255.0
 51
195.0
  0
LINE
  5
C883
  8
0
 62
     5
 10
224.531759
 20
96.10147
 30
0.0
 11
224.531759
 21
129.59947
 31
0.0
  0
LINE
  5
C884
  8
CENTER
 10
249.731759
 20
98.731144
 30
0.0
 11
249.731759
 21
77.505018
 31
0.0
  0
LINE
  5
C885
  8
CENTER
 10
238.431759
 20
98.645078
 30
0.0
 11
238.431759
 21
77.505018
 31
0.0
  0
LINE
  5
C886
  8
0
 62
     5
 10
159.687771
 20
136.40147
 30
0.0
 11
159.687771
 21
96.40147
 31
0.0
  0
LINE
  5
C887
  8
0
 62
     5
 10
98.987771
 20
102.987256
 30
0.0
 11
98.987771
 21
95.90147
 31
0.0
  0
LINE
  5
C888
  8
0
 62
     5
 10
95.987771
 20
95.90147
 30
0.0
 11
95.987771
 21
102.987256
 31
0.0
  0
LINE
  5
C889
  8
0
 62
     5
 10
102.787771
 20
96.572454
 30
0.0
 11
102.787771
 21
102.449816
 31
0.0
  0
LINE
  5
C88A
  8
0
 62
     5
 10
77.287771
 20
94.60147
 30
0.0
 11
77.287771
 21
135.90147
 31
0.0
  0
LINE
  5
C88B
  8
0
 62
     5
 10
41.095228
 20
100.415148
 30
0.0
 11
41.095228
 21
96.40147
 31
0.0
  0
LINE
  5
C88C
  8
0
 62
     5
 10
48.395228
 20
96.10147
 30
0.0
 11
48.395228
 21
105.277116
 31
0.0
  0
LINE
  5
C88D
  8
CENTER
 10
88.987771
 20
98.168302
 30
0.0
 11
88.987771
 21
77.104
 31
0.0
  0
ARC
  5
C88E
  8
0
 62
     5
 10
12.487228
 20
98.90147
 30
0.0
 40
2.0
 50
270.0
 51
0.0
  0
ARC
  5
C88F
  8
0
 62
     5
 10
10.595228
 20
98.90147
 30
0.0
 40
2.5
 50
180.0
 51
245.306169
  0
ARC
  5
C890
  8
0
 62
     5
 10
11.831772
 20
100.138014
 30
0.0
 40
2.25
 50
113.33323
 51
358.610178
  0
LINE
  5
C891
  8
0
 62
     5
 10
103.487771
 20
95.619732
 30
0.0
 11
103.487771
 21
136.837591
 31
0.0
  0
LINE
  5
C892
  8
CENTER
 10
28.095228
 20
141.429435
 30
0.0
 11
28.095228
 21
73.762179
 31
0.0
  0
LINE
  5
C893
  8
CENTER
 10
244.831759
 20
141.429435
 30
0.0
 11
244.831759
 21
73.227488
 31
0.0
  0
LINE
  5
C894
  8
HIDDEN
 10
85.53192
 20
80.401532
 30
0.0
 11
105.209521
 21
80.40149
 31
0.0
  0
LINE
  5
C895
  8
HIDDEN
 10
105.209484
 20
94.00147
 30
0.0
 11
99.161346
 21
94.00147
 31
0.0
  0
LINE
  5
C896
  8
0
 62
     5
 10
102.048651
 20
96.751618
 30
0.0
 11
102.787771
 21
96.751618
 31
0.0
  0
LINE
  5
C897
  8
0
 62
     5
 10
78.287771
 20
95.40147
 30
0.0
 11
102.987771
 21
95.40147
 31
0.0
  0
LINE
  5
C898
  8
0
 62
     5
 10
37.395228
 20
95.40147
 30
0.0
 11
45.895228
 21
95.40147
 31
0.0
  0
LINE
  5
C899
  8
0
 62
     5
 10
47.889349
 20
93.00147
 30
0.0
 11
33.371095
 21
93.00147
 31
0.0
  0
POLYLINE
  5
C89A
  8
0
 62
     5
 66
     1
 10
0.0
 20
0.0
 30
0.0
 70
     8
  0
VERTEX
  5
C89B
  8
0
 62
     5
 10
27.0537
 20
79.8325
 30
-2.41844
 70
    32
  0
VERTEX
  5
C89C
  8
0
 62
     5
 10
27.0536
 20
79.8325
 30
-2.41842
 70
    32
  0
VERTEX
  5
C89D
  8
0
 62
     5
 10
27.0536
 20
79.8325
 30
-2.4184
 70
    32
  0
VERTEX
  5
C89E
  8
0
 62
     5
 10
27.0536
 20
79.8325
 30
-2.41839
 70
    32
  0
VERTEX
  5
C89F
  8
0
 62
     5
 10
27.0535
 20
79.8325
 30
-2.41837
 70
    32
  0
VERTEX
  5
C8A0
  8
0
 62
     5
 10
27.0535
 20
79.8325
 30
-2.41836
 70
    32
  0
VERTEX
  5
C8A1
  8
0
 62
     5
 10
27.0535
 20
79.8326
 30
-2.41834
 70
    32
  0
VERTEX
  5
C8A2
  8
0
 62
     5
 10
27.0534
 20
79.8326
 30
-2.41832
 70
    32
  0
VERTEX
  5
C8A3
  8
0
 62
     5
 10
27.0534
 20
79.8326
 30
-2.41831
 70
    32
  0
VERTEX
  5
C8A4
  8
0
 62
     5
 10
27.0534
 20
79.8326
 30
-2.41829
 70
    32
  0
VERTEX
  5
C8A5
  8
0
 62
     5
 10
27.0533
 20
79.8326
 30
-2.41827
 70
    32
  0
VERTEX
  5
C8A6
  8
0
 62
     5
 10
27.0533
 20
79.8327
 30
-2.41826
 70
    32
  0
VERTEX
  5
C8A7
  8
0
 62
     5
 10
27.0533
 20
79.8327
 30
-2.41824
 70
    32
  0
VERTEX
  5
C8A8
  8
0
 62
     5
 10
27.0532
 20
79.8327
 30
-2.41823
 70
    32
  0
VERTEX
  5
C8A9
  8
0
 62
     5
 10
27.0532
 20
79.8327
 30
-2.41821
 70
    32
  0
VERTEX
  5
C8AA
  8
0
 62
     5
 10
27.0532
 20
79.8327
 30
-2.41819
 70
    32
  0
VERTEX
  5
C8AB
  8
0
 62
     5
 10
27.0531
 20
79.8328
 30
-2.41818
 70
    32
  0
VERTEX
  5
C8AC
  8
0
 62
     5
 10
27.0531
 20
79.8328
 30
-2.41816
 70
    32
  0
VERTEX
  5
C8AD
  8
0
 62
     5
 10
27.0531
 20
79.8328
 30
-2.41815
 70
    32
  0
VERTEX
  5
C8AE
  8
0
 62
     5
 10
27.053
 20
79.8328
 30
-2.41813
 70
    32
  0
VERTEX
  5
C8AF
  8
0
 62
     5
 10
27.053
 20
79.8328
 30
-2.41811
 70
    32
  0
VERTEX
  5
C8B0
  8
0
 62
     5
 10
27.053
 20
79.8329
 30
-2.4181
 70
    32
  0
VERTEX
  5
C8B1
  8
0
 62
     5
 10
27.0529
 20
79.8329
 30
-2.41808
 70
    32
  0
VERTEX
  5
C8B2
  8
0
 62
     5
 10
27.0529
 20
79.8329
 30
-2.41807
 70
    32
  0
VERTEX
  5
C8B3
  8
0
 62
     5
 10
27.0529
 20
79.8329
 30
-2.41805
 70
    32
  0
VERTEX
  5
C8B4
  8
0
 62
     5
 10
27.0528
 20
79.8329
 30
-2.41803
 70
    32
  0
VERTEX
  5
C8B5
  8
0
 62
     5
 10
27.0528
 20
79.833
 30
-2.41802
 70
    32
  0
VERTEX
  5
C8B6
  8
0
 62
     5
 10
27.0528
 20
79.833
 30
-2.418
 70
    32
  0
VERTEX
  5
C8B7
  8
0
 62
     5
 10
27.0527
 20
79.833
 30
-2.41798
 70
    32
  0
VERTEX
  5
C8B8
  8
0
 62
     5
 10
27.0527
 20
79.833
 30
-2.41797
 70
    32
  0
VERTEX
  5
C8B9
  8
0
 62
     5
 10
27.0527
 20
79.833
 30
-2.41795
 70
    32
  0
VERTEX
  5
C8BA
  8
0
 62
     5
 10
27.0526
 20
79.833
 30
-2.41794
 70
    32
  0
VERTEX
  5
C8BB
  8
0
 62
     5
 10
27.0526
 20
79.8331
 30
-2.41792
 70
    32
  0
VERTEX
  5
C8BC
  8
0
 62
     5
 10
27.0526
 20
79.8331
 30
-2.4179
 70
    32
  0
VERTEX
  5
C8BD
  8
0
 62
     5
 10
27.0525
 20
79.8331
 30
-2.41789
 70
    32
  0
VERTEX
  5
C8BE
  8
0
 62
     5
 10
27.0525
 20
79.8331
 30
-2.41787
 70
    32
  0
VERTEX
  5
C8BF
  8
0
 62
     5
 10
27.0525
 20
79.8331
 30
-2.41786
 70
    32
  0
VERTEX
  5
C8C0
  8
0
 62
     5
 10
27.0524
 20
79.8332
 30
-2.41784
 70
    32
  0
VERTEX
  5
C8C1
  8
0
 62
     5
 10
27.0524
 20
79.8332
 30
-2.41782
 70
    32
  0
VERTEX
  5
C8C2
  8
0
 62
     5
 10
27.0524
 20
79.8332
 30
-2.41781
 70
    32
  0
VERTEX
  5
C8C3
  8
0
 62
     5
 10
27.0523
 20
79.8332
 30
-2.41779
 70
    32
  0
VERTEX
  5
C8C4
  8
0
 62
     5
 10
27.0523
 20
79.8332
 30
-2.41778
 70
    32
  0
VERTEX
  5
C8C5
  8
0
 62
     5
 10
27.0523
 20
79.8333
 30
-2.41776
 70
    32
  0
VERTEX
  5
C8C6
  8
0
 62
     5
 10
27.0522
 20
79.8333
 30
-2.41774
 70
    32
  0
VERTEX
  5
C8C7
  8
0
 62
     5
 10
27.0522
 20
79.8333
 30
-2.41773
 70
    32
  0
VERTEX
  5
C8C8
  8
0
 62
     5
 10
27.0522
 20
79.8333
 30
-2.41771
 70
    32
  0
VERTEX
  5
C8C9
  8
0
 62
     5
 10
27.0521
 20
79.8333
 30
-2.41769
 70
    32
  0
VERTEX
  5
C8CA
  8
0
 62
     5
 10
27.0521
 20
79.8334
 30
-2.41768
 70
    32
  0
VERTEX
  5
C8CB
  8
0
 62
     5
 10
27.0521
 20
79.8334
 30
-2.41766
 70
    32
  0
VERTEX
  5
C8CC
  8
0
 62
     5
 10
27.052
 20
79.8334
 30
-2.41765
 70
    32
  0
VERTEX
  5
C8CD
  8
0
 62
     5
 10
27.052
 20
79.8334
 30
-2.41763
 70
    32
  0
VERTEX
  5
C8CE
  8
0
 62
     5
 10
27.052
 20
79.8334
 30
-2.41761
 70
    32
  0
VERTEX
  5
C8CF
  8
0
 62
     5
 10
27.0519
 20
79.8335
 30
-2.4176
 70
    32
  0
VERTEX
  5
C8D0
  8
0
 62
     5
 10
27.0519
 20
79.8335
 30
-2.41758
 70
    32
  0
VERTEX
  5
C8D1
  8
0
 62
     5
 10
27.0519
 20
79.8335
 30
-2.41757
 70
    32
  0
VERTEX
  5
C8D2
  8
0
 62
     5
 10
27.0518
 20
79.8335
 30
-2.41755
 70
    32
  0
VERTEX
  5
C8D3
  8
0
 62
     5
 10
27.0518
 20
79.8335
 30
-2.41753
 70
    32
  0
VERTEX
  5
C8D4
  8
0
 62
     5
 10
27.0517
 20
79.8335
 30
-2.41752
 70
    32
  0
VERTEX
  5
C8D5
  8
0
 62
     5
 10
27.0517
 20
79.8336
 30
-2.4175
 70
    32
  0
VERTEX
  5
C8D6
  8
0
 62
     5
 10
27.0517
 20
79.8336
 30
-2.41748
 70
    32
  0
VERTEX
  5
C8D7
  8
0
 62
     5
 10
27.0516
 20
79.8336
 30
-2.41747
 70
    32
  0
VERTEX
  5
C8D8
  8
0
 62
     5
 10
27.0516
 20
79.8336
 30
-2.41745
 70
    32
  0
VERTEX
  5
C8D9
  8
0
 62
     5
 10
27.0516
 20
79.8336
 30
-2.41744
 70
    32
  0
VERTEX
  5
C8DA
  8
0
 62
     5
 10
27.0515
 20
79.8337
 30
-2.41742
 70
    32
  0
VERTEX
  5
C8DB
  8
0
 62
     5
 10
27.0515
 20
79.8337
 30
-2.4174
 70
    32
  0
VERTEX
  5
C8DC
  8
0
 62
     5
 10
27.0515
 20
79.8337
 30
-2.41739
 70
    32
  0
VERTEX
  5
C8DD
  8
0
 62
     5
 10
27.0514
 20
79.8337
 30
-2.41737
 70
    32
  0
VERTEX
  5
C8DE
  8
0
 62
     5
 10
27.0514
 20
79.8337
 30
-2.41736
 70
    32
  0
VERTEX
  5
C8DF
  8
0
 62
     5
 10
27.0514
 20
79.8338
 30
-2.41734
 70
    32
  0
VERTEX
  5
C8E0
  8
0
 62
     5
 10
27.0513
 20
79.8338
 30
-2.41732
 70
    32
  0
VERTEX
  5
C8E1
  8
0
 62
     5
 10
27.0513
 20
79.8338
 30
-2.41731
 70
    32
  0
VERTEX
  5
C8E2
  8
0
 62
     5
 10
27.0513
 20
79.8338
 30
-2.41729
 70
    32
  0
VERTEX
  5
C8E3
  8
0
 62
     5
 10
27.0512
 20
79.8338
 30
-2.41728
 70
    32
  0
VERTEX
  5
C8E4
  8
0
 62
     5
 10
27.0512
 20
79.8339
 30
-2.41726
 70
    32
  0
VERTEX
  5
C8E5
  8
0
 62
     5
 10
27.0512
 20
79.8339
 30
-2.41724
 70
    32
  0
VERTEX
  5
C8E6
  8
0
 62
     5
 10
27.0511
 20
79.8339
 30
-2.41723
 70
    32
  0
VERTEX
  5
C8E7
  8
0
 62
     5
 10
27.0511
 20
79.8339
 30
-2.41721
 70
    32
  0
VERTEX
  5
C8E8
  8
0
 62
     5
 10
27.0511
 20
79.8339
 30
-2.41719
 70
    32
  0
VERTEX
  5
C8E9
  8
0
 62
     5
 10
27.051
 20
79.834
 30
-2.41718
 70
    32
  0
VERTEX
  5
C8EA
  8
0
 62
     5
 10
27.051
 20
79.834
 30
-2.41716
 70
    32
  0
VERTEX
  5
C8EB
  8
0
 62
     5
 10
27.051
 20
79.834
 30
-2.41715
 70
    32
  0
VERTEX
  5
C8EC
  8
0
 62
     5
 10
27.0509
 20
79.834
 30
-2.41713
 70
    32
  0
VERTEX
  5
C8ED
  8
0
 62
     5
 10
27.0509
 20
79.834
 30
-2.41711
 70
    32
  0
VERTEX
  5
C8EE
  8
0
 62
     5
 10
27.0509
 20
79.834
 30
-2.4171
 70
    32
  0
VERTEX
  5
C8EF
  8
0
 62
     5
 10
27.0508
 20
79.8341
 30
-2.41708
 70
    32
  0
VERTEX
  5
C8F0
  8
0
 62
     5
 10
27.0508
 20
79.8341
 30
-2.41707
 70
    32
  0
VERTEX
  5
C8F1
  8
0
 62
     5
 10
27.0508
 20
79.8341
 30
-2.41705
 70
    32
  0
VERTEX
  5
C8F2
  8
0
 62
     5
 10
27.0507
 20
79.8341
 30
-2.41703
 70
    32
  0
VERTEX
  5
C8F3
  8
0
 62
     5
 10
27.0507
 20
79.8341
 30
-2.41702
 70
    32
  0
VERTEX
  5
C8F4
  8
0
 62
     5
 10
27.0507
 20
79.8342
 30
-2.417
 70
    32
  0
VERTEX
  5
C8F5
  8
0
 62
     5
 10
27.0506
 20
79.8342
 30
-2.41699
 70
    32
  0
VERTEX
  5
C8F6
  8
0
 62
     5
 10
27.0506
 20
79.8342
 30
-2.41697
 70
    32
  0
VERTEX
  5
C8F7
  8
0
 62
     5
 10
27.0506
 20
79.8342
 30
-2.41695
 70
    32
  0
VERTEX
  5
C8F8
  8
0
 62
     5
 10
27.0505
 20
79.8342
 30
-2.41694
 70
    32
  0
VERTEX
  5
C8F9
  8
0
 62
     5
 10
27.0505
 20
79.8343
 30
-2.41692
 70
    32
  0
VERTEX
  5
C8FA
  8
0
 62
     5
 10
27.0505
 20
79.8343
 30
-2.4169
 70
    32
  0
VERTEX
  5
C8FB
  8
0
 62
     5
 10
27.0504
 20
79.8343
 30
-2.41689
 70
    32
  0
VERTEX
  5
C8FC
  8
0
 62
     5
 10
27.0504
 20
79.8343
 30
-2.41687
 70
    32
  0
VERTEX
  5
C8FD
  8
0
 62
     5
 10
27.0504
 20
79.8343
 30
-2.41686
 70
    32
  0
VERTEX
  5
C8FE
  8
0
 62
     5
 10
27.0503
 20
79.8344
 30
-2.41684
 70
    32
  0
VERTEX
  5
C8FF
  8
0
 62
     5
 10
27.0503
 20
79.8344
 30
-2.41682
 70
    32
  0
VERTEX
  5
C900
  8
0
 62
     5
 10
27.0503
 20
79.8344
 30
-2.41681
 70
    32
  0
VERTEX
  5
C901
  8
0
 62
     5
 10
27.0502
 20
79.8344
 30
-2.41679
 70
    32
  0
VERTEX
  5
C902
  8
0
 62
     5
 10
27.0502
 20
79.8344
 30
-2.41678
 70
    32
  0
VERTEX
  5
C903
  8
0
 62
     5
 10
27.0502
 20
79.8345
 30
-2.41676
 70
    32
  0
VERTEX
  5
C904
  8
0
 62
     5
 10
27.0501
 20
79.8345
 30
-2.41674
 70
    32
  0
VERTEX
  5
C905
  8
0
 62
     5
 10
27.0501
 20
79.8345
 30
-2.41673
 70
    32
  0
VERTEX
  5
C906
  8
0
 62
     5
 10
27.0501
 20
79.8345
 30
-2.41671
 70
    32
  0
VERTEX
  5
C907
  8
0
 62
     5
 10
27.05
 20
79.8345
 30
-2.41669
 70
    32
  0
VERTEX
  5
C908
  8
0
 62
     5
 10
27.05
 20
79.8345
 30
-2.41668
 70
    32
  0
VERTEX
  5
C909
  8
0
 62
     5
 10
27.05
 20
79.8346
 30
-2.41666
 70
    32
  0
VERTEX
  5
C90A
  8
0
 62
     5
 10
27.0499
 20
79.8346
 30
-2.41665
 70
    32
  0
VERTEX
  5
C90B
  8
0
 62
     5
 10
27.0499
 20
79.8346
 30
-2.41663
 70
    32
  0
VERTEX
  5
C90C
  8
0
 62
     5
 10
27.0499
 20
79.8346
 30
-2.41661
 70
    32
  0
VERTEX
  5
C90D
  8
0
 62
     5
 10
27.0498
 20
79.8346
 30
-2.4166
 70
    32
  0
VERTEX
  5
C90E
  8
0
 62
     5
 10
27.0498
 20
79.8347
 30
-2.41658
 70
    32
  0
VERTEX
  5
C90F
  8
0
 62
     5
 10
27.0498
 20
79.8347
 30
-2.41657
 70
    32
  0
VERTEX
  5
C910
  8
0
 62
     5
 10
27.0497
 20
79.8347
 30
-2.41655
 70
    32
  0
VERTEX
  5
C911
  8
0
 62
     5
 10
27.0497
 20
79.8347
 30
-2.41653
 70
    32
  0
VERTEX
  5
C912
  8
0
 62
     5
 10
27.0497
 20
79.8347
 30
-2.41652
 70
    32
  0
VERTEX
  5
C913
  8
0
 62
     5
 10
27.0496
 20
79.8348
 30
-2.4165
 70
    32
  0
VERTEX
  5
C914
  8
0
 62
     5
 10
27.0496
 20
79.8348
 30
-2.41649
 70
    32
  0
VERTEX
  5
C915
  8
0
 62
     5
 10
27.0496
 20
79.8348
 30
-2.41647
 70
    32
  0
VERTEX
  5
C916
  8
0
 62
     5
 10
27.0495
 20
79.8348
 30
-2.41645
 70
    32
  0
VERTEX
  5
C917
  8
0
 62
     5
 10
27.0495
 20
79.8348
 30
-2.41644
 70
    32
  0
VERTEX
  5
C918
  8
0
 62
     5
 10
27.0495
 20
79.8349
 30
-2.41642
 70
    32
  0
VERTEX
  5
C919
  8
0
 62
     5
 10
27.0494
 20
79.8349
 30
-2.4164
 70
    32
  0
VERTEX
  5
C91A
  8
0
 62
     5
 10
27.0494
 20
79.8349
 30
-2.41639
 70
    32
  0
SEQEND
  5
C91B
  8
0
 62
     5
  0
LINE
  5
C91C
  8
HIDDEN
 10
10.996016
 20
93.40147
 30
0.0
 11
21.922892
 21
93.40147
 31
0.0
  0
LINE
  5
C91D
  8
HIDDEN
 10
12.505355
 20
87.40147
 30
0.0
 11
15.725422
 21
87.40147
 31
0.0
  0
LINE
  5
C91E
  8
0
 62
     5
 10
10.996016
 20
93.40147
 30
0.0
 11
35.39444
 21
93.40147
 31
0.0
  0
LINE
  5
C91F
  8
0
 62
     5
 10
13.47211
 20
89.201287
 30
0.0
 11
14.442003
 21
89.201287
 31
0.0
  0
LINE
  5
C920
  8
0
 62
     5
 10
32.611699
 20
88.90147
 30
0.0
 11
13.778757
 21
88.90147
 31
0.0
  0
LINE
  5
C921
  8
0
 62
     5
 10
36.695228
 20
94.40147
 30
0.0
 11
9.695228
 21
94.40147
 31
0.0
  0
LINE
  5
C922
  8
HIDDEN
 10
11.005393
 20
88.90147
 30
0.0
 11
11.005393
 21
93.40147
 31
0.0
  0
LINE
  5
C923
  8
0
 62
     5
 10
13.005393
 20
93.40147
 30
0.0
 11
13.141584
 21
89.50147
 31
0.0
  0
ARC
  5
C924
  8
HIDDEN
 10
12.505393
 20
88.90147
 30
0.0
 40
1.5
 50
180.0
 51
270.0
  0
LINE
  5
C925
  8
0
 62
     5
 10
13.461756
 20
89.50147
 30
0.0
 11
13.141597
 21
89.50147
 31
0.0
  0
LINE
  5
C926
  8
0
 62
     5
 10
13.778757
 20
88.90147
 30
0.0
 11
13.47211
 21
89.201287
 31
0.0
  0
LINE
  5
C927
  8
0
 62
     5
 10
13.461756
 20
89.50147
 30
0.0
 11
13.47211
 21
89.201287
 31
0.0
  0
ARC
  5
C928
  8
0
 62
     5
 10
9.995228
 20
96.40147
 30
0.0
 40
0.5
 50
90.0
 51
180.0
  0
ARC
  5
C929
  8
0
 62
     5
 10
9.695228
 20
94.60147
 30
0.0
 40
0.2
 50
180.0
 51
270.0
  0
LINE
  5
C92A
  8
0
 62
     5
 10
10.996012
 20
93.40147
 30
0.0
 11
10.908523
 21
94.40147
 31
0.0
  0
LINE
  5
C92B
  8
0
 62
     5
 10
9.495228
 20
94.60147
 30
0.0
 11
9.495228
 21
96.40147
 31
0.0
  0
LINE
  5
C92C
  8
0
 62
     5
 10
9.995228
 20
96.90147
 30
0.0
 11
12.487228
 21
96.90147
 31
0.0
  0
LINE
  5
C92D
  8
CENTER
 10
23.195228
 20
95.587963
 30
0.0
 11
23.195228
 21
77.237673
 31
0.0
  0
LINE
  5
C92E
  8
CENTER
 10
34.495228
 20
95.655988
 30
0.0
 11
34.495228
 21
77.237673
 31
0.0
  0
ARC
  5
C92F
  8
HIDDEN
 10
29.045228
 20
83.30147
 30
0.0
 40
4.0
 50
226.49263
 51
270.0
  0
LINE
  5
C930
  8
HIDDEN
 10
24.681355
 20
80.40147
 30
0.0
 11
19.659668
 21
80.401472
 31
0.0
  0
LINE
  5
C931
  8
HIDDEN
 10
26.730793
 20
80.401475
 30
0.0
 11
24.681355
 21
80.40147
 31
0.0
  0
LINE
  5
C932
  8
HIDDEN
 10
35.931965
 20
79.30147
 30
0.0
 11
39.945228
 21
79.30147
 31
0.0
  0
LINE
  5
C933
  8
HIDDEN
 10
29.045228
 20
79.30147
 30
0.0
 11
34.964483
 21
79.30147
 31
0.0
  0
POLYLINE
  5
C934
  8
HIDDEN
 66
     1
 10
0.0
 20
0.0
 30
0.0
  0
VERTEX
  5
CF41
  8
HIDDEN
 10
35.619664
 20
79.302236
 30
0.0
  0
VERTEX
  5
CF42
  8
HIDDEN
 10
35.671718
 20
79.301644
 30
0.0
  0
VERTEX
  5
CF43
  8
HIDDEN
 10
35.719098
 20
79.30147
 30
0.0
  0
SEQEND
  5
CF44
  8
HIDDEN
  0
LINE
  5
C939
  8
HIDDEN
 10
35.642355
 20
79.301926
 30
0.0
 11
35.671718
 21
79.301644
 31
0.0
  0
LINE
  5
C93A
  8
HIDDEN
 10
35.619664
 20
79.302236
 30
0.0
 11
34.964483
 21
79.302236
 31
0.0
  0
POLYLINE
  5
C93B
  8
HIDDEN
 66
     1
 10
0.0
 20
0.0
 30
0.0
  0
VERTEX
  5
CF45
  8
HIDDEN
 10
35.719098
 20
79.30147
 30
0.0
  0
VERTEX
  5
CF46
  8
HIDDEN
 10
35.775831
 20
79.301719
 30
0.0
  0
VERTEX
  5
CF47
  8
HIDDEN
 10
35.827884
 20
79.302387
 30
0.0
  0
VERTEX
  5
CF48
  8
HIDDEN
 10
35.87993
 20
79.303475
 30
0.0
  0
VERTEX
  5
CF49
  8
HIDDEN
 10
35.931965
 20
79.304982
 30
0.0
  0
SEQEND
  5
CF4A
  8
HIDDEN
  0
LINE
  5
C942
  8
HIDDEN
 10
35.748046
 20
79.301535
 30
0.0
 11
35.775831
 21
79.301719
 31
0.0
  0
LINE
  5
C943
  8
HIDDEN
 10
35.39444
 20
93.40147
 30
0.0
 11
28.211315
 21
93.40147
 31
0.0
  0
LINE
  5
C944
  8
0
 62
     5
 10
28.711922
 20
89.201287
 30
0.0
 11
29.798379
 21
89.201287
 31
0.0
  0
LINE
  5
C945
  8
0
 62
     5
 10
27.136928
 20
87.60147
 30
0.0
 11
41.853528
 21
87.60147
 31
0.0
  0
LINE
  5
C946
  8
0
 62
     5
 10
19.822727
 20
89.201287
 30
0.0
 11
19.839116
 21
92.20147
 31
0.0
  0
LINE
  5
C947
  8
0
 62
     5
 10
28.728311
 20
92.20147
 30
0.0
 11
28.711922
 21
89.201287
 31
0.0
  0
LINE
  5
C948
  8
0
 62
     5
 10
28.359424
 20
88.90147
 30
0.0
 11
28.359424
 21
92.20147
 31
0.0
  0
POLYLINE
  5
C949
  8
0
 62
     5
 66
     1
 10
0.0
 20
0.0
 30
0.0
 70
     8
  0
VERTEX
  5
C94A
  8
0
 62
     5
 10
15.7254
 20
84.7898
 30
0.0
 70
    32
  0
VERTEX
  5
C94B
  8
0
 62
     5
 10
15.7254
 20
84.7898
 30
0.0
 70
    32
  0
VERTEX
  5
C94C
  8
0
 62
     5
 10
15.7254
 20
84.7897
 30
0.0
 70
    32
  0
VERTEX
  5
C94D
  8
0
 62
     5
 10
15.7254
 20
84.7896
 30
0.0
 70
    32
  0
VERTEX
  5
C94E
  8
0
 62
     5
 10
15.7254
 20
84.7895
 30
0.0
 70
    32
  0
VERTEX
  5
C94F
  8
0
 62
     5
 10
15.7254
 20
84.7894
 30
0.0
 70
    32
  0
VERTEX
  5
C950
  8
0
 62
     5
 10
15.7254
 20
84.7893
 30
0.0
 70
    32
  0
VERTEX
  5
C951
  8
0
 62
     5
 10
15.7254
 20
84.7892
 30
0.0
 70
    32
  0
VERTEX
  5
C952
  8
0
 62
     5
 10
15.7254
 20
84.7891
 30
0.0
 70
    32
  0
VERTEX
  5
C953
  8
0
 62
     5
 10
15.7254
 20
84.7891
 30
0.0
 70
    32
  0
VERTEX
  5
C954
  8
0
 62
     5
 10
15.7254
 20
84.789
 30
0.0
 70
    32
  0
VERTEX
  5
C955
  8
0
 62
     5
 10
15.7254
 20
84.7889
 30
0.0
 70
    32
  0
VERTEX
  5
C956
  8
0
 62
     5
 10
15.7254
 20
84.7888
 30
0.0
 70
    32
  0
VERTEX
  5
C957
  8
0
 62
     5
 10
15.7254
 20
84.7887
 30
0.0
 70
    32
  0
VERTEX
  5
C958
  8
0
 62
     5
 10
15.7254
 20
84.7886
 30
0.0
 70
    32
  0
VERTEX
  5
C959
  8
0
 62
     5
 10
15.7254
 20
84.7885
 30
0.0
 70
    32
  0
VERTEX
  5
C95A
  8
0
 62
     5
 10
15.7254
 20
84.7885
 30
0.0
 70
    32
  0
VERTEX
  5
C95B
  8
0
 62
     5
 10
15.7254
 20
84.7884
 30
0.0
 70
    32
  0
VERTEX
  5
C95C
  8
0
 62
     5
 10
15.7254
 20
84.7883
 30
0.0
 70
    32
  0
VERTEX
  5
C95D
  8
0
 62
     5
 10
15.7254
 20
84.7882
 30
0.0
 70
    32
  0
VERTEX
  5
C95E
  8
0
 62
     5
 10
15.7254
 20
84.7881
 30
0.0
 70
    32
  0
VERTEX
  5
C95F
  8
0
 62
     5
 10
15.7254
 20
84.788
 30
0.0
 70
    32
  0
VERTEX
  5
C960
  8
0
 62
     5
 10
15.7254
 20
84.7879
 30
0.0
 70
    32
  0
VERTEX
  5
C961
  8
0
 62
     5
 10
15.7254
 20
84.7878
 30
0.0
 70
    32
  0
VERTEX
  5
C962
  8
0
 62
     5
 10
15.7254
 20
84.7878
 30
0.0
 70
    32
  0
VERTEX
  5
C963
  8
0
 62
     5
 10
15.7254
 20
84.7877
 30
0.0
 70
    32
  0
VERTEX
  5
C964
  8
0
 62
     5
 10
15.7254
 20
84.7876
 30
0.0
 70
    32
  0
VERTEX
  5
C965
  8
0
 62
     5
 10
15.7254
 20
84.7875
 30
0.0
 70
    32
  0
VERTEX
  5
C966
  8
0
 62
     5
 10
15.7254
 20
84.7874
 30
0.0
 70
    32
  0
VERTEX
  5
C967
  8
0
 62
     5
 10
15.7254
 20
84.7873
 30
0.0
 70
    32
  0
VERTEX
  5
C968
  8
0
 62
     5
 10
15.7254
 20
84.7872
 30
0.0
 70
    32
  0
VERTEX
  5
C969
  8
0
 62
     5
 10
15.7254
 20
84.7871
 30
0.0
 70
    32
  0
VERTEX
  5
C96A
  8
0
 62
     5
 10
15.7254
 20
84.7871
 30
0.0
 70
    32
  0
VERTEX
  5
C96B
  8
0
 62
     5
 10
15.7254
 20
84.787
 30
0.0
 70
    32
  0
VERTEX
  5
C96C
  8
0
 62
     5
 10
15.7254
 20
84.7869
 30
0.0
 70
    32
  0
VERTEX
  5
C96D
  8
0
 62
     5
 10
15.7254
 20
84.7868
 30
0.0
 70
    32
  0
VERTEX
  5
C96E
  8
0
 62
     5
 10
15.7254
 20
84.7867
 30
0.0
 70
    32
  0
VERTEX
  5
C96F
  8
0
 62
     5
 10
15.7254
 20
84.7866
 30
0.0
 70
    32
  0
VERTEX
  5
C970
  8
0
 62
     5
 10
15.7254
 20
84.7865
 30
0.0
 70
    32
  0
VERTEX
  5
C971
  8
0
 62
     5
 10
15.7254
 20
84.7864
 30
0.0
 70
    32
  0
VERTEX
  5
C972
  8
0
 62
     5
 10
15.7254
 20
84.7864
 30
0.0
 70
    32
  0
VERTEX
  5
C973
  8
0
 62
     5
 10
15.7254
 20
84.7863
 30
0.0
 70
    32
  0
VERTEX
  5
C974
  8
0
 62
     5
 10
15.7254
 20
84.7862
 30
0.0
 70
    32
  0
VERTEX
  5
C975
  8
0
 62
     5
 10
15.7254
 20
84.7861
 30
0.0
 70
    32
  0
VERTEX
  5
C976
  8
0
 62
     5
 10
15.7254
 20
84.786
 30
0.0
 70
    32
  0
VERTEX
  5
C977
  8
0
 62
     5
 10
15.7254
 20
84.7859
 30
0.0
 70
    32
  0
VERTEX
  5
C978
  8
0
 62
     5
 10
15.7254
 20
84.7858
 30
0.0
 70
    32
  0
VERTEX
  5
C979
  8
0
 62
     5
 10
15.7254
 20
84.7858
 30
0.0
 70
    32
  0
VERTEX
  5
C97A
  8
0
 62
     5
 10
15.7254
 20
84.7857
 30
0.0
 70
    32
  0
VERTEX
  5
C97B
  8
0
 62
     5
 10
15.7254
 20
84.7856
 30
0.0
 70
    32
  0
VERTEX
  5
C97C
  8
0
 62
     5
 10
15.7254
 20
84.7855
 30
0.0
 70
    32
  0
VERTEX
  5
C97D
  8
0
 62
     5
 10
15.7254
 20
84.7854
 30
0.0
 70
    32
  0
VERTEX
  5
C97E
  8
0
 62
     5
 10
15.7254
 20
84.7853
 30
0.0
 70
    32
  0
VERTEX
  5
C97F
  8
0
 62
     5
 10
15.7254
 20
84.7852
 30
0.0
 70
    32
  0
VERTEX
  5
C980
  8
0
 62
     5
 10
15.7254
 20
84.7851
 30
0.0
 70
    32
  0
VERTEX
  5
C981
  8
0
 62
     5
 10
15.7254
 20
84.7851
 30
0.0
 70
    32
  0
VERTEX
  5
C982
  8
0
 62
     5
 10
15.7254
 20
84.785
 30
0.0
 70
    32
  0
VERTEX
  5
C983
  8
0
 62
     5
 10
15.7254
 20
84.7849
 30
0.0
 70
    32
  0
VERTEX
  5
C984
  8
0
 62
     5
 10
15.7254
 20
84.7848
 30
0.0
 70
    32
  0
VERTEX
  5
C985
  8
0
 62
     5
 10
15.7254
 20
84.7847
 30
0.0
 70
    32
  0
VERTEX
  5
C986
  8
0
 62
     5
 10
15.7254
 20
84.7846
 30
0.0
 70
    32
  0
VERTEX
  5
C987
  8
0
 62
     5
 10
15.7254
 20
84.7845
 30
0.0
 70
    32
  0
VERTEX
  5
C988
  8
0
 62
     5
 10
15.7254
 20
84.7844
 30
0.0
 70
    32
  0
VERTEX
  5
C989
  8
0
 62
     5
 10
15.7254
 20
84.7844
 30
0.0
 70
    32
  0
VERTEX
  5
C98A
  8
0
 62
     5
 10
15.7254
 20
84.7843
 30
0.0
 70
    32
  0
VERTEX
  5
C98B
  8
0
 62
     5
 10
15.7254
 20
84.7842
 30
0.0
 70
    32
  0
VERTEX
  5
C98C
  8
0
 62
     5
 10
15.7254
 20
84.7841
 30
0.0
 70
    32
  0
VERTEX
  5
C98D
  8
0
 62
     5
 10
15.7254
 20
84.784
 30
0.0
 70
    32
  0
VERTEX
  5
C98E
  8
0
 62
     5
 10
15.7254
 20
84.7839
 30
0.0
 70
    32
  0
VERTEX
  5
C98F
  8
0
 62
     5
 10
15.7254
 20
84.7838
 30
0.0
 70
    32
  0
VERTEX
  5
C990
  8
0
 62
     5
 10
15.7254
 20
84.7837
 30
0.0
 70
    32
  0
VERTEX
  5
C991
  8
0
 62
     5
 10
15.7254
 20
84.7837
 30
0.0
 70
    32
  0
VERTEX
  5
C992
  8
0
 62
     5
 10
15.7254
 20
84.7836
 30
0.0
 70
    32
  0
VERTEX
  5
C993
  8
0
 62
     5
 10
15.7254
 20
84.7835
 30
0.0
 70
    32
  0
VERTEX
  5
C994
  8
0
 62
     5
 10
15.7254
 20
84.7834
 30
0.0
 70
    32
  0
VERTEX
  5
C995
  8
0
 62
     5
 10
15.7254
 20
84.7833
 30
0.0
 70
    32
  0
VERTEX
  5
C996
  8
0
 62
     5
 10
15.7254
 20
84.7832
 30
0.0
 70
    32
  0
VERTEX
  5
C997
  8
0
 62
     5
 10
15.7254
 20
84.7831
 30
0.0
 70
    32
  0
VERTEX
  5
C998
  8
0
 62
     5
 10
15.7254
 20
84.7831
 30
0.0
 70
    32
  0
VERTEX
  5
C999
  8
0
 62
     5
 10
15.7254
 20
84.783
 30
0.0
 70
    32
  0
VERTEX
  5
C99A
  8
0
 62
     5
 10
15.7254
 20
84.7829
 30
0.0
 70
    32
  0
VERTEX
  5
C99B
  8
0
 62
     5
 10
15.7254
 20
84.7828
 30
0.0
 70
    32
  0
VERTEX
  5
C99C
  8
0
 62
     5
 10
15.7254
 20
84.7827
 30
0.0
 70
    32
  0
VERTEX
  5
C99D
  8
0
 62
     5
 10
15.7254
 20
84.7826
 30
0.0
 70
    32
  0
VERTEX
  5
C99E
  8
0
 62
     5
 10
15.7254
 20
84.7825
 30
0.0
 70
    32
  0
VERTEX
  5
C99F
  8
0
 62
     5
 10
15.7254
 20
84.7824
 30
0.0
 70
    32
  0
VERTEX
  5
C9A0
  8
0
 62
     5
 10
15.7254
 20
84.7824
 30
0.0
 70
    32
  0
VERTEX
  5
C9A1
  8
0
 62
     5
 10
15.7254
 20
84.7823
 30
0.0
 70
    32
  0
VERTEX
  5
C9A2
  8
0
 62
     5
 10
15.7254
 20
84.7822
 30
0.0
 70
    32
  0
VERTEX
  5
C9A3
  8
0
 62
     5
 10
15.7254
 20
84.7821
 30
0.0
 70
    32
  0
VERTEX
  5
C9A4
  8
0
 62
     5
 10
15.7254
 20
84.782
 30
0.0
 70
    32
  0
VERTEX
  5
C9A5
  8
0
 62
     5
 10
15.7254
 20
84.7819
 30
0.0
 70
    32
  0
VERTEX
  5
C9A6
  8
0
 62
     5
 10
15.7254
 20
84.7818
 30
0.0
 70
    32
  0
VERTEX
  5
C9A7
  8
0
 62
     5
 10
15.7254
 20
84.7817
 30
0.0
 70
    32
  0
VERTEX
  5
C9A8
  8
0
 62
     5
 10
15.7254
 20
84.7817
 30
0.0
 70
    32
  0
VERTEX
  5
C9A9
  8
0
 62
     5
 10
15.7254
 20
84.7816
 30
0.0
 70
    32
  0
VERTEX
  5
C9AA
  8
0
 62
     5
 10
15.7254
 20
84.7815
 30
0.0
 70
    32
  0
VERTEX
  5
C9AB
  8
0
 62
     5
 10
15.7254
 20
84.7814
 30
0.0
 70
    32
  0
VERTEX
  5
C9AC
  8
0
 62
     5
 10
15.7254
 20
84.7813
 30
0.0
 70
    32
  0
VERTEX
  5
C9AD
  8
0
 62
     5
 10
15.7254
 20
84.7812
 30
0.0
 70
    32
  0
VERTEX
  5
C9AE
  8
0
 62
     5
 10
15.7254
 20
84.7811
 30
0.0
 70
    32
  0
VERTEX
  5
C9AF
  8
0
 62
     5
 10
15.7254
 20
84.781
 30
0.0
 70
    32
  0
VERTEX
  5
C9B0
  8
0
 62
     5
 10
15.7254
 20
84.781
 30
0.0
 70
    32
  0
VERTEX
  5
C9B1
  8
0
 62
     5
 10
15.7254
 20
84.7809
 30
0.0
 70
    32
  0
VERTEX
  5
C9B2
  8
0
 62
     5
 10
15.7254
 20
84.7808
 30
0.0
 70
    32
  0
VERTEX
  5
C9B3
  8
0
 62
     5
 10
15.7254
 20
84.7807
 30
0.0
 70
    32
  0
VERTEX
  5
C9B4
  8
0
 62
     5
 10
15.7254
 20
84.7806
 30
0.0
 70
    32
  0
VERTEX
  5
C9B5
  8
0
 62
     5
 10
15.7254
 20
84.7805
 30
0.0
 70
    32
  0
VERTEX
  5
C9B6
  8
0
 62
     5
 10
15.7254
 20
84.7804
 30
0.0
 70
    32
  0
VERTEX
  5
C9B7
  8
0
 62
     5
 10
15.7254
 20
84.7804
 30
0.0
 70
    32
  0
VERTEX
  5
C9B8
  8
0
 62
     5
 10
15.7254
 20
84.7803
 30
0.0
 70
    32
  0
VERTEX
  5
C9B9
  8
0
 62
     5
 10
15.7254
 20
84.7802
 30
0.0
 70
    32
  0
VERTEX
  5
C9BA
  8
0
 62
     5
 10
15.7254
 20
84.7801
 30
0.0
 70
    32
  0
VERTEX
  5
C9BB
  8
0
 62
     5
 10
15.7254
 20
84.78
 30
0.0
 70
    32
  0
VERTEX
  5
C9BC
  8
0
 62
     5
 10
15.7254
 20
84.7799
 30
0.0
 70
    32
  0
VERTEX
  5
C9BD
  8
0
 62
     5
 10
15.7254
 20
84.7798
 30
0.0
 70
    32
  0
VERTEX
  5
C9BE
  8
0
 62
     5
 10
15.7254
 20
84.7797
 30
0.0
 70
    32
  0
VERTEX
  5
C9BF
  8
0
 62
     5
 10
15.7254
 20
84.7797
 30
0.0
 70
    32
  0
VERTEX
  5
C9C0
  8
0
 62
     5
 10
15.7254
 20
84.7796
 30
0.0
 70
    32
  0
VERTEX
  5
C9C1
  8
0
 62
     5
 10
15.7254
 20
84.7795
 30
0.0
 70
    32
  0
VERTEX
  5
C9C2
  8
0
 62
     5
 10
15.7254
 20
84.7794
 30
0.0
 70
    32
  0
VERTEX
  5
C9C3
  8
0
 62
     5
 10
15.7254
 20
84.7793
 30
0.0
 70
    32
  0
VERTEX
  5
C9C4
  8
0
 62
     5
 10
15.7254
 20
84.7792
 30
0.0
 70
    32
  0
VERTEX
  5
C9C5
  8
0
 62
     5
 10
15.7254
 20
84.7791
 30
0.0
 70
    32
  0
VERTEX
  5
C9C6
  8
0
 62
     5
 10
15.7254
 20
84.779
 30
0.0
 70
    32
  0
VERTEX
  5
C9C7
  8
0
 62
     5
 10
15.7254
 20
84.779
 30
0.0
 70
    32
  0
VERTEX
  5
C9C8
  8
0
 62
     5
 10
15.7254
 20
84.7789
 30
0.0
 70
    32
  0
VERTEX
  5
C9C9
  8
0
 62
     5
 10
15.7254
 20
84.7788
 30
0.0
 70
    32
  0
SEQEND
  5
C9CA
  8
0
 62
     5
  0
LINE
  5
C9CB
  8
HIDDEN
 10
15.725422
 20
87.40147
 30
0.0
 11
15.725422
 21
84.789845
 31
0.0
  0
LINE
  5
C9CC
  8
0
 62
     5
 10
18.73627
 20
89.201287
 30
0.0
 11
19.822727
 21
89.201287
 31
0.0
  0
LINE
  5
C9CD
  8
0
 62
     5
 10
19.822727
 20
89.201287
 30
0.0
 11
19.774159
 21
88.90147
 31
0.0
  0
LINE
  5
C9CE
  8
0
 62
     5
 10
18.687702
 20
88.90147
 30
0.0
 11
18.73627
 21
89.201287
 31
0.0
  0
LINE
  5
C9CF
  8
0
 62
     5
 10
18.73791
 20
89.50147
 30
0.0
 11
18.73627
 21
89.201287
 31
0.0
  0
LINE
  5
C9D0
  8
0
 62
     5
 10
14.748651
 20
88.90147
 30
0.0
 11
14.442003
 21
89.201287
 31
0.0
  0
LINE
  5
C9D1
  8
0
 62
     5
 10
14.442003
 20
89.201287
 30
0.0
 11
14.43165
 21
89.50147
 31
0.0
  0
LINE
  5
C9D2
  8
0
 62
     5
 10
14.43165
 20
89.50147
 30
0.0
 11
18.73791
 21
89.50147
 31
0.0
  0
LINE
  5
C9D3
  8
0
 62
     5
 10
28.663354
 20
88.90147
 30
0.0
 11
28.711922
 21
89.201287
 31
0.0
  0
LINE
  5
C9D4
  8
0
 62
     5
 10
27.80771
 20
88.90147
 30
0.0
 11
27.824633
 21
87.60147
 31
0.0
  0
LINE
  5
C9D5
  8
0
 62
     5
 10
27.136928
 20
87.60147
 30
0.0
 11
27.096074
 21
88.90147
 31
0.0
  0
LINE
  5
C9D6
  8
0
 62
     5
 10
19.839116
 20
92.20147
 30
0.0
 11
28.728311
 21
92.20147
 31
0.0
  0
LINE
  5
C9D7
  8
HIDDEN
 10
35.385063
 20
88.90147
 30
0.0
 11
35.385063
 21
93.40147
 31
0.0
  0
LINE
  5
C9D8
  8
0
 62
     5
 10
42.02323
 20
93.00147
 30
0.0
 11
41.853528
 21
87.60147
 31
0.0
  0
LINE
  5
C9D9
  8
0
 62
     5
 10
41.165823
 20
87.60147
 30
0.0
 11
41.236116
 21
93.00147
 31
0.0
  0
LINE
  5
C9DA
  8
0
 62
     5
 10
33.385063
 20
93.40147
 30
0.0
 11
33.248872
 21
89.50147
 31
0.0
  0
LINE
  5
C9DB
  8
HIDDEN
 10
30.665034
 20
87.40147
 30
0.0
 11
30.665034
 21
84.789845
 31
0.0
  0
ARC
  5
C9DC
  8
HIDDEN
 10
33.885063
 20
88.90147
 30
0.0
 40
1.5
 50
270.0
 51
0.0
  0
LINE
  5
C9DD
  8
HIDDEN
 10
30.665034
 20
87.40147
 30
0.0
 11
33.885101
 21
87.40147
 31
0.0
  0
LINE
  5
C9DE
  8
0
 62
     5
 10
32.611699
 20
88.90147
 30
0.0
 11
32.918346
 21
89.201287
 31
0.0
  0
LINE
  5
C9DF
  8
0
 62
     5
 10
32.9287
 20
89.50147
 30
0.0
 11
32.918346
 21
89.201287
 31
0.0
  0
LINE
  5
C9E0
  8
0
 62
     5
 10
29.749811
 20
88.90147
 30
0.0
 11
29.798379
 21
89.201287
 31
0.0
  0
LINE
  5
C9E1
  8
0
 62
     5
 10
29.798379
 20
89.201287
 30
0.0
 11
29.800019
 21
89.50147
 31
0.0
  0
LINE
  5
C9E2
  8
0
 62
     5
 10
29.800019
 20
89.50147
 30
0.0
 11
33.248859
 21
89.50147
 31
0.0
  0
LINE
  5
C9E3
  8
0
 62
     5
 10
37.995228
 20
93.30147
 30
0.0
 11
33.381571
 21
93.30147
 31
0.0
  0
LINE
  5
C9E4
  8
0
 62
     5
 10
37.995228
 20
93.0245
 30
0.0
 11
33.371899
 21
93.0245
 31
0.0
  0
LINE
  5
C9E5
  8
HIDDEN
 10
35.394444
 20
93.40147
 30
0.0
 11
35.481933
 21
94.40147
 31
0.0
  0
LINE
  5
C9E6
  8
0
 62
     5
 10
35.394444
 20
93.40147
 30
0.0
 11
35.481933
 21
94.40147
 31
0.0
  0
ARC
  5
C9E7
  8
0
 62
     5
 10
37.395228
 20
94.90147
 30
0.0
 40
0.5
 50
90.0
 51
180.0
  0
ARC
  5
C9E8
  8
0
 62
     5
 10
36.695228
 20
94.60147
 30
0.0
 40
0.2
 50
270.0
 51
0.0
  0
LINE
  5
C9E9
  8
0
 62
     5
 10
37.995228
 20
93.0245
 30
0.0
 11
37.995228
 21
93.30147
 31
0.0
  0
LINE
  5
C9EA
  8
0
 62
     5
 10
36.895228
 20
94.90147
 30
0.0
 11
36.895228
 21
94.60147
 31
0.0
  0
ARC
  5
C9EB
  8
0
 62
     5
 10
40.095228
 20
96.40147
 30
0.0
 40
1.0
 50
270.0
 51
0.0
  0
LINE
  5
C9EC
  8
HIDDEN
 10
43.945228
 20
83.30147
 30
0.0
 11
43.945228
 21
90.50147
 31
0.0
  0
LINE
  5
C9ED
  8
HIDDEN
 10
46.745228
 20
93.00147
 30
0.0
 11
46.745228
 21
91.00147
 31
0.0
  0
ARC
  5
C9EE
  8
HIDDEN
 10
46.245228
 20
91.00147
 30
0.0
 40
0.5
 50
270.0
 51
0.0
  0
LINE
  5
C9EF
  8
HIDDEN
 10
46.245228
 20
90.50147
 30
0.0
 11
43.945228
 21
90.50147
 31
0.0
  0
LINE
  5
C9F0
  8
0
 62
     5
 10
47.629237
 20
96.10147
 30
0.0
 11
48.395228
 21
96.10147
 31
0.0
  0
LINE
  5
C9F1
  8
0
 62
     5
 10
48.01582
 20
93.017729
 30
0.0
 11
48.045004
 21
93.026316
 31
0.0
  0
LINE
  5
C9F2
  8
0
 62
     5
 10
48.045004
 20
93.026316
 30
0.0
 11
48.073436
 21
93.036592
 31
0.0
  0
LINE
  5
C9F3
  8
0
 62
     5
 10
48.073436
 20
93.036592
 30
0.0
 11
48.101941
 21
93.048917
 31
0.0
  0
LINE
  5
C9F4
  8
0
 62
     5
 10
48.101941
 20
93.048917
 30
0.0
 11
48.129282
 21
93.0628
 31
0.0
  0
LINE
  5
C9F5
  8
0
 62
     5
 10
47.92186
 20
93.002528
 30
0.0
 11
47.953706
 21
93.005629
 31
0.0
  0
LINE
  5
C9F6
  8
0
 62
     5
 10
47.953706
 20
93.005629
 30
0.0
 11
47.985171
 21
93.010738
 31
0.0
  0
LINE
  5
C9F7
  8
0
 62
     5
 10
47.985171
 20
93.010738
 30
0.0
 11
48.01582
 21
93.017729
 31
0.0
  0
LINE
  5
C9F8
  8
0
 62
     5
 10
48.129282
 20
93.0628
 30
0.0
 11
48.153938
 21
93.077215
 31
0.0
  0
LINE
  5
C9F9
  8
0
 62
     5
 10
48.153938
 20
93.077215
 30
0.0
 11
48.177654
 21
93.092961
 31
0.0
  0
LINE
  5
C9FA
  8
0
 62
     5
 10
48.177654
 20
93.092961
 30
0.0
 11
48.202098
 21
93.111357
 31
0.0
  0
LINE
  5
C9FB
  8
0
 62
     5
 10
47.889349
 20
93.00147
 30
0.0
 11
47.92186
 21
93.002528
 31
0.0
  0
LINE
  5
C9FC
  8
0
 62
     5
 10
48.202098
 20
93.111357
 30
0.0
 11
48.225431
 21
93.13127
 31
0.0
  0
LINE
  5
C9FD
  8
0
 62
     5
 10
48.225431
 20
93.13127
 30
0.0
 11
48.246242
 21
93.151289
 31
0.0
  0
LINE
  5
C9FE
  8
0
 62
     5
 10
48.246242
 20
93.151289
 30
0.0
 11
48.265524
 21
93.172088
 31
0.0
  0
LINE
  5
C9FF
  8
0
 62
     5
 10
48.265524
 20
93.172088
 30
0.0
 11
48.28361
 21
93.193967
 31
0.0
  0
LINE
  5
CA00
  8
0
 62
     5
 10
48.28361
 20
93.193967
 30
0.0
 11
48.300713
 21
93.217253
 31
0.0
  0
LINE
  5
CA01
  8
0
 62
     5
 10
48.300713
 20
93.217253
 30
0.0
 11
48.317269
 21
93.24285
 31
0.0
  0
LINE
  5
CA02
  8
0
 62
     5
 10
48.317269
 20
93.24285
 30
0.0
 11
48.332423
 21
93.26977
 31
0.0
  0
LINE
  5
CA03
  8
0
 62
     5
 10
48.332423
 20
93.26977
 30
0.0
 11
48.345652
 21
93.297051
 31
0.0
  0
LINE
  5
CA04
  8
0
 62
     5
 10
48.345652
 20
93.297051
 30
0.0
 11
48.357112
 21
93.324842
 31
0.0
  0
LINE
  5
CA05
  8
0
 62
     5
 10
48.357112
 20
93.324842
 30
0.0
 11
48.36673
 21
93.352787
 31
0.0
  0
LINE
  5
CA06
  8
0
 62
     5
 10
48.36673
 20
93.352787
 30
0.0
 11
48.374732
 21
93.381456
 31
0.0
  0
LINE
  5
CA07
  8
0
 62
     5
 10
48.374732
 20
93.381456
 30
0.0
 11
48.381189
 21
93.411506
 31
0.0
  0
LINE
  5
CA08
  8
0
 62
     5
 10
48.381189
 20
93.411506
 30
0.0
 11
48.385862
 21
93.442529
 31
0.0
  0
LINE
  5
CA09
  8
0
 62
     5
 10
48.385862
 20
93.442529
 30
0.0
 11
48.388612
 21
93.474334
 31
0.0
  0
LINE
  5
CA0A
  8
0
 62
     5
 10
48.388612
 20
93.474334
 30
0.0
 11
48.389349
 21
93.50147
 31
0.0
  0
ARC
  5
CA0B
  8
0
 62
     5
 10
45.895228
 20
97.90147
 30
0.0
 40
2.5
 50
270.0
 51
0.0
  0
LINE
  5
CA0C
  8
0
 62
     5
 10
48.389349
 20
96.10147
 30
0.0
 11
48.389349
 21
93.50147
 31
0.0
  0
ARC
  5
CA0D
  8
HIDDEN
 10
85.513923
 20
86.641001
 30
0.0
 40
6.239561
 50
177.799927
 51
270.16526
  0
LINE
  5
CA0E
  8
0
 62
     5
 10
87.38912
 20
89.201287
 30
0.0
 11
93.512788
 21
89.201287
 31
0.0
  0
LINE
  5
CA0F
  8
0
 62
     5
 10
100.487771
 20
94.40147
 30
0.0
 11
77.487771
 21
94.40147
 31
0.0
  0
LINE
  5
CA10
  8
0
 62
     5
 10
78.866694
 20
93.40147
 30
0.0
 11
99.108849
 21
93.40147
 31
0.0
  0
LINE
  5
CA11
  8
0
 62
     5
 10
96.326107
 20
88.90147
 30
0.0
 11
81.649435
 21
88.90147
 31
0.0
  0
LINE
  5
CA12
  8
HIDDEN
 10
78.876071
 20
93.40147
 30
0.0
 11
78.876071
 21
88.90147
 31
0.0
  0
LINE
  5
CA13
  8
0
 62
     5
 10
80.876071
 20
93.40147
 30
0.0
 11
81.012262
 21
89.50147
 31
0.0
  0
LINE
  5
CA14
  8
0
 62
     5
 10
82.819297
 20
92.20147
 30
0.0
 11
82.922776
 21
89.201287
 31
0.0
  0
LINE
  5
CA15
  8
0
 62
     5
 10
81.514866
 20
89.201287
 30
0.0
 11
81.411387
 21
92.20147
 31
0.0
  0
ARC
  5
CA16
  8
HIDDEN
 10
80.376071
 20
88.90147
 30
0.0
 40
1.5
 50
180.0
 51
222.995554
  0
LINE
  5
CA17
  8
HIDDEN
 10
79.278961
 20
86.880532
 30
0.0
 11
79.278961
 21
87.881597
 31
0.0
  0
LINE
  5
CA18
  8
0
 62
     5
 10
87.340552
 20
88.90147
 30
0.0
 11
87.38912
 21
89.201287
 31
0.0
  0
LINE
  5
CA19
  8
0
 62
     5
 10
87.39076
 20
89.50147
 30
0.0
 11
87.38912
 21
89.201287
 31
0.0
  0
LINE
  5
CA1A
  8
0
 62
     5
 10
82.922776
 20
89.201287
 30
0.0
 11
83.094854
 21
89.201287
 31
0.0
  0
LINE
  5
CA1B
  8
0
 62
     5
 10
83.401501
 20
88.90147
 30
0.0
 11
83.094854
 21
89.201287
 31
0.0
  0
LINE
  5
CA1C
  8
0
 62
     5
 10
83.094854
 20
89.201287
 30
0.0
 11
83.0845
 21
89.50147
 31
0.0
  0
LINE
  5
CA1D
  8
0
 62
     5
 10
83.229423
 20
88.90147
 30
0.0
 11
82.922776
 21
89.201287
 31
0.0
  0
LINE
  5
CA1E
  8
0
 62
     5
 10
81.012275
 20
89.50147
 30
0.0
 11
81.332434
 21
89.50147
 31
0.0
  0
LINE
  5
CA1F
  8
0
 62
     5
 10
81.342788
 20
89.201287
 30
0.0
 11
81.514866
 21
89.201287
 31
0.0
  0
LINE
  5
CA20
  8
0
 62
     5
 10
81.332434
 20
89.50147
 30
0.0
 11
81.342788
 21
89.201287
 31
0.0
  0
LINE
  5
CA21
  8
0
 62
     5
 10
81.514866
 20
89.201287
 30
0.0
 11
81.821513
 21
88.90147
 31
0.0
  0
LINE
  5
CA22
  8
0
 62
     5
 10
81.649435
 20
88.90147
 30
0.0
 11
81.342788
 21
89.201287
 31
0.0
  0
LINE
  5
CA23
  8
0
 62
     5
 10
83.0845
 20
89.50147
 30
0.0
 11
87.39076
 21
89.50147
 31
0.0
  0
LINE
  5
CA24
  8
HIDDEN
 10
78.86669
 20
93.40147
 30
0.0
 11
78.779201
 21
94.40147
 31
0.0
  0
LINE
  5
CA25
  8
0
 62
     5
 10
78.86669
 20
93.40147
 30
0.0
 11
78.779201
 21
94.40147
 31
0.0
  0
ARC
  5
CA26
  8
0
 62
     5
 10
77.487771
 20
94.60147
 30
0.0
 40
0.2
 50
180.0
 51
270.0
  0
ARC
  5
CA27
  8
0
 62
     5
 10
78.287771
 20
96.40147
 30
0.0
 40
1.0
 50
180.0
 51
270.0
  0
LINE
  5
CA28
  8
0
 62
     5
 10
81.411387
 20
92.20147
 30
0.0
 11
82.819297
 21
92.20147
 31
0.0
  0
LINE
  5
CA29
  8
0
 62
     5
 10
97.099472
 20
93.40147
 30
0.0
 11
96.963281
 21
89.50147
 31
0.0
  0
LINE
  5
CA2A
  8
0
 62
     5
 10
96.963268
 20
89.50147
 30
0.0
 11
93.514428
 21
89.50147
 31
0.0
  0
LINE
  5
CA2B
  8
0
 62
     5
 10
93.46422
 20
88.90147
 30
0.0
 11
93.512788
 21
89.201287
 31
0.0
  0
LINE
  5
CA2C
  8
0
 62
     5
 10
93.512788
 20
89.201287
 30
0.0
 11
93.514428
 21
89.50147
 31
0.0
  0
LINE
  5
CA2D
  8
0
 62
     5
 10
96.326107
 20
88.90147
 30
0.0
 11
96.632755
 21
89.201287
 31
0.0
  0
LINE
  5
CA2E
  8
0
 62
     5
 10
96.643108
 20
89.50147
 30
0.0
 11
96.632755
 21
89.201287
 31
0.0
  0
ARC
  5
CA2F
  8
0
 62
     5
 10
102.048651
 20
97.751618
 30
0.0
 40
1.0
 50
196.957755
 51
269.999998
  0
LINE
  5
CA30
  8
0
 62
     5
 10
101.03666
 20
97.67293
 30
0.0
 11
101.03666
 21
97.651618
 31
0.0
  0
LINE
  5
CA31
  8
0
 62
     5
 10
101.03666
 20
97.651618
 30
0.0
 11
101.092131
 21
97.459951
 31
0.0
  0
ARC
  5
CA32
  8
0
 62
     5
 10
100.487771
 20
94.60147
 30
0.0
 40
0.2
 50
270.0
 51
0.0
  0
LINE
  5
CA33
  8
0
 62
     5
 10
99.108853
 20
93.40147
 30
0.0
 11
99.196342
 21
94.40147
 31
0.0
  0
ARC
  5
CA34
  8
0
 62
     5
 10
101.187771
 20
94.90147
 30
0.0
 40
0.5
 50
90.0
 51
180.0
  0
LINE
  5
CA35
  8
0
 62
     5
 10
100.687771
 20
94.90147
 30
0.0
 11
100.687771
 21
94.60147
 31
0.0
  0
ARC
  5
CA36
  8
0
 62
     5
 10
96.487771
 20
95.90147
 30
0.0
 40
0.5
 50
180.0
 51
270.0
  0
ARC
  5
CA37
  8
0
 62
     5
 10
98.487771
 20
95.90147
 30
0.0
 40
0.5
 50
270.0
 51
0.0
  0
LINE
  5
CA38
  8
0
 62
     5
 10
154.687771
 20
96.40147
 30
0.0
 11
110.537771
 21
96.30035
 31
0.0
  0
LINE
  5
CA39
  8
HIDDEN
 10
134.135739
 20
79.304984
 30
0.0
 11
118.837771
 21
79.30147
 31
0.0
  0
LINE
  5
CA3A
  8
HIDDEN
 10
134.163415
 20
92.400704
 30
0.0
 11
127.187771
 21
92.400704
 31
0.0
  0
LINE
  5
CA3B
  8
0
 62
     5
 10
129.182453
 20
96.30035
 30
0.0
 11
133.377863
 21
96.344982
 31
0.0
  0
LINE
  5
CA3C
  8
CENTER
 10
119.187771
 20
97.379637
 30
0.0
 11
119.187771
 21
77.104
 31
0.0
  0
LINE
  5
CA3D
  8
HIDDEN
 10
107.407899
 20
81.60147
 30
0.0
 11
106.177986
 21
80.716929
 31
0.0
  0
LINE
  5
CA3E
  8
HIDDEN
 10
108.741538
 20
81.60147
 30
0.0
 11
107.358774
 21
81.60147
 31
0.0
  0
LINE
  5
CA3F
  8
HIDDEN
 10
110.197603
 20
83.55147
 30
0.0
 11
113.098269
 21
83.55147
 31
0.0
  0
LINE
  5
CA40
  8
0
 62
     5
 10
128.187771
 20
93.00147
 30
0.0
 11
111.037771
 21
93.00147
 31
0.0
  0
LINE
  5
CA41
  8
0
 62
     5
 10
115.654472
 20
87.60147
 30
0.0
 11
122.721071
 21
87.60147
 31
0.0
  0
LINE
  5
CA42
  8
HIDDEN
 10
111.187771
 20
91.00147
 30
0.0
 11
111.187771
 21
93.00147
 31
0.0
  0
LINE
  5
CA43
  8
0
 62
     5
 10
116.271883
 20
93.00147
 30
0.0
 11
116.342176
 21
87.60147
 31
0.0
  0
LINE
  5
CA44
  8
0
 62
     5
 10
115.654472
 20
87.60147
 30
0.0
 11
115.48477
 21
93.00147
 31
0.0
  0
ARC
  5
CA45
  8
HIDDEN
 10
111.687771
 20
91.00147
 30
0.0
 40
0.5
 50
180.0
 51
270.0
  0
LINE
  5
CA46
  8
HIDDEN
 10
112.837771
 20
85.30147
 30
0.0
 11
112.837771
 21
90.50147
 31
0.0
  0
LINE
  5
CA47
  8
HIDDEN
 10
112.837771
 20
90.50147
 30
0.0
 11
111.687771
 21
90.50147
 31
0.0
  0
LINE
  5
CA48
  8
HIDDEN
 10
110.204889
 20
90.85147
 30
0.0
 11
111.187771
 21
90.85147
 31
0.0
  0
LINE
  5
CA49
  8
0
 62
     5
 10
110.487771
 20
96.013891
 30
0.0
 11
103.705203
 21
95.420493
 31
0.0
  0
LINE
  5
CA4A
  8
HIDDEN
 10
107.407899
 20
92.80147
 30
0.0
 11
106.177986
 21
93.686011
 31
0.0
  0
LINE
  5
CA4B
  8
HIDDEN
 10
108.741538
 20
92.80147
 30
0.0
 11
107.358774
 21
92.80147
 31
0.0
  0
ARC
  5
CA4C
  8
0
 62
     5
 10
103.687771
 20
95.619732
 30
0.0
 40
0.2
 50
180.0
 51
275.0
  0
LINE
  5
CA4D
  8
0
 62
     5
 10
102.987771
 20
96.572454
 30
0.0
 11
102.987771
 21
95.40147
 31
0.0
  0
LINE
  5
CA4E
  8
0
 62
     5
 10
103.487771
 20
96.572454
 30
0.0
 11
102.787771
 21
96.572454
 31
0.0
  0
LINE
  5
CA4F
  8
0
 62
     5
 10
102.987771
 20
95.65147
 30
0.0
 11
103.487771
 21
95.65147
 31
0.0
  0
LINE
  5
CA50
  8
0
 62
     5
 10
110.487771
 20
96.10147
 30
0.0
 11
110.537771
 21
96.102002
 31
0.0
  0
ARC
  5
CA51
  8
0
 62
     5
 10
111.037771
 20
93.50147
 30
0.0
 40
0.5
 50
180.0
 51
270.0
  0
LINE
  5
CA52
  8
0
 62
     5
 10
110.537317
 20
96.300349
 30
0.0
 11
110.537771
 21
93.50147
 31
0.0
  0
LINE
  5
CA53
  8
0
 62
     5
 10
122.890773
 20
93.00147
 30
0.0
 11
122.721071
 21
87.60147
 31
0.0
  0
LINE
  5
CA54
  8
0
 62
     5
 10
122.033367
 20
87.60147
 30
0.0
 11
122.103659
 21
93.00147
 31
0.0
  0
LINE
  5
CA55
  8
HIDDEN
 10
127.187771
 20
93.00147
 30
0.0
 11
127.187771
 21
92.400704
 31
0.0
  0
ARC
  5
CA56
  8
0
 62
     5
 10
129.187771
 20
95.800378
 30
0.0
 40
0.5
 50
90.609507
 51
180.0
  0
ARC
  5
CA57
  8
0
 62
     5
 10
128.187771
 20
93.50147
 30
0.0
 40
0.5
 50
270.0
 51
0.0
  0
LINE
  5
CA58
  8
0
 62
     5
 10
128.687771
 20
95.800378
 30
0.0
 11
128.687771
 21
93.50147
 31
0.0
  0
POLYLINE
  5
CA59
  8
HIDDEN
 66
     1
 10
0.0
 20
0.0
 30
0.0
 70
     8
  0
VERTEX
  5
CA5A
  8
0
 10
137.852
 20
81.4516
 30
0.0
 70
    32
  0
VERTEX
  5
CA5B
  8
0
 10
137.865
 20
81.4529
 30
0.0
 70
    32
  0
VERTEX
  5
CA5C
  8
0
 10
137.878
 20
81.4569
 30
0.0
 70
    32
  0
VERTEX
  5
CA5D
  8
0
 10
137.891
 20
81.4634
 30
0.0
 70
    32
  0
VERTEX
  5
CA5E
  8
0
 10
137.904
 20
81.4727
 30
0.0
 70
    32
  0
VERTEX
  5
CA5F
  8
0
 10
137.917
 20
81.4845
 30
0.0
 70
    32
  0
VERTEX
  5
CA60
  8
0
 10
137.93
 20
81.499
 30
0.0
 70
    32
  0
VERTEX
  5
CA61
  8
0
 10
137.943
 20
81.516
 30
0.0
 70
    32
  0
VERTEX
  5
CA62
  8
0
 10
137.956
 20
81.5357
 30
0.0
 70
    32
  0
VERTEX
  5
CA63
  8
0
 10
137.969
 20
81.5579
 30
0.0
 70
    32
  0
VERTEX
  5
CA64
  8
0
 10
137.982
 20
81.5827
 30
0.0
 70
    32
  0
VERTEX
  5
CA65
  8
0
 10
137.995
 20
81.6101
 30
0.0
 70
    32
  0
VERTEX
  5
CA66
  8
0
 10
138.007
 20
81.64
 30
0.0
 70
    32
  0
VERTEX
  5
CA67
  8
0
 10
138.02
 20
81.6725
 30
0.0
 70
    32
  0
VERTEX
  5
CA68
  8
0
 10
138.032
 20
81.7074
 30
0.0
 70
    32
  0
VERTEX
  5
CA69
  8
0
 10
138.044
 20
81.7448
 30
0.0
 70
    32
  0
VERTEX
  5
CA6A
  8
0
 10
138.057
 20
81.7847
 30
0.0
 70
    32
  0
VERTEX
  5
CA6B
  8
0
 10
138.069
 20
81.827
 30
0.0
 70
    32
  0
VERTEX
  5
CA6C
  8
0
 10
138.081
 20
81.8717
 30
0.0
 70
    32
  0
VERTEX
  5
CA6D
  8
0
 10
138.093
 20
81.9189
 30
0.0
 70
    32
  0
VERTEX
  5
CA6E
  8
0
 10
138.104
 20
81.9683
 30
0.0
 70
    32
  0
VERTEX
  5
CA6F
  8
0
 10
138.116
 20
82.0201
 30
0.0
 70
    32
  0
VERTEX
  5
CA70
  8
0
 10
138.127
 20
82.0742
 30
0.0
 70
    32
  0
VERTEX
  5
CA71
  8
0
 10
138.138
 20
82.1306
 30
0.0
 70
    32
  0
VERTEX
  5
CA72
  8
0
 10
138.149
 20
82.1892
 30
0.0
 70
    32
  0
VERTEX
  5
CA73
  8
0
 10
138.16
 20
82.2499
 30
0.0
 70
    32
  0
VERTEX
  5
CA74
  8
0
 10
138.171
 20
82.3129
 30
0.0
 70
    32
  0
VERTEX
  5
CA75
  8
0
 10
138.181
 20
82.3779
 30
0.0
 70
    32
  0
VERTEX
  5
CA76
  8
0
 10
138.192
 20
82.4451
 30
0.0
 70
    32
  0
VERTEX
  5
CA77
  8
0
 10
138.202
 20
82.5142
 30
0.0
 70
    32
  0
VERTEX
  5
CA78
  8
0
 10
138.212
 20
82.5854
 30
0.0
 70
    32
  0
VERTEX
  5
CA79
  8
0
 10
138.221
 20
82.6585
 30
0.0
 70
    32
  0
VERTEX
  5
CA7A
  8
0
 10
138.231
 20
82.7336
 30
0.0
 70
    32
  0
VERTEX
  5
CA7B
  8
0
 10
138.24
 20
82.8105
 30
0.0
 70
    32
  0
VERTEX
  5
CA7C
  8
0
 10
138.249
 20
82.8892
 30
0.0
 70
    32
  0
VERTEX
  5
CA7D
  8
0
 10
138.258
 20
82.9697
 30
0.0
 70
    32
  0
VERTEX
  5
CA7E
  8
0
 10
138.266
 20
83.052
 30
0.0
 70
    32
  0
VERTEX
  5
CA7F
  8
0
 10
138.274
 20
83.1359
 30
0.0
 70
    32
  0
VERTEX
  5
CA80
  8
0
 10
138.282
 20
83.2214
 30
0.0
 70
    32
  0
VERTEX
  5
CA81
  8
0
 10
138.29
 20
83.3085
 30
0.0
 70
    32
  0
VERTEX
  5
CA82
  8
0
 10
138.298
 20
83.3972
 30
0.0
 70
    32
  0
VERTEX
  5
CA83
  8
0
 10
138.305
 20
83.4873
 30
0.0
 70
    32
  0
VERTEX
  5
CA84
  8
0
 10
138.312
 20
83.5788
 30
0.0
 70
    32
  0
VERTEX
  5
CA85
  8
0
 10
138.318
 20
83.6717
 30
0.0
 70
    32
  0
VERTEX
  5
CA86
  8
0
 10
138.325
 20
83.7659
 30
0.0
 70
    32
  0
VERTEX
  5
CA87
  8
0
 10
138.331
 20
83.8613
 30
0.0
 70
    32
  0
VERTEX
  5
CA88
  8
0
 10
138.337
 20
83.9579
 30
0.0
 70
    32
  0
VERTEX
  5
CA89
  8
0
 10
138.342
 20
84.0557
 30
0.0
 70
    32
  0
VERTEX
  5
CA8A
  8
0
 10
138.347
 20
84.1546
 30
0.0
 70
    32
  0
VERTEX
  5
CA8B
  8
0
 10
138.352
 20
84.2544
 30
0.0
 70
    32
  0
VERTEX
  5
CA8C
  8
0
 10
138.357
 20
84.3552
 30
0.0
 70
    32
  0
VERTEX
  5
CA8D
  8
0
 10
138.361
 20
84.4569
 30
0.0
 70
    32
  0
VERTEX
  5
CA8E
  8
0
 10
138.365
 20
84.5595
 30
0.0
 70
    32
  0
VERTEX
  5
CA8F
  8
0
 10
138.369
 20
84.6628
 30
0.0
 70
    32
  0
VERTEX
  5
CA90
  8
0
 10
138.372
 20
84.7668
 30
0.0
 70
    32
  0
VERTEX
  5
CA91
  8
0
 10
138.376
 20
84.8715
 30
0.0
 70
    32
  0
VERTEX
  5
CA92
  8
0
 10
138.378
 20
84.9768
 30
0.0
 70
    32
  0
VERTEX
  5
CA93
  8
0
 10
138.381
 20
85.0826
 30
0.0
 70
    32
  0
VERTEX
  5
CA94
  8
0
 10
138.383
 20
85.1889
 30
0.0
 70
    32
  0
VERTEX
  5
CA95
  8
0
 10
138.385
 20
85.2955
 30
0.0
 70
    32
  0
VERTEX
  5
CA96
  8
0
 10
138.386
 20
85.4025
 30
0.0
 70
    32
  0
VERTEX
  5
CA97
  8
0
 10
138.387
 20
85.5097
 30
0.0
 70
    32
  0
VERTEX
  5
CA98
  8
0
 10
138.388
 20
85.6172
 30
0.0
 70
    32
  0
VERTEX
  5
CA99
  8
0
 10
138.389
 20
85.7248
 30
0.0
 70
    32
  0
VERTEX
  5
CA9A
  8
0
 10
138.389
 20
85.8325
 30
0.0
 70
    32
  0
VERTEX
  5
CA9B
  8
0
 10
138.389
 20
85.9402
 30
0.0
 70
    32
  0
VERTEX
  5
CA9C
  8
0
 10
138.388
 20
86.0478
 30
0.0
 70
    32
  0
VERTEX
  5
CA9D
  8
0
 10
138.388
 20
86.1553
 30
0.0
 70
    32
  0
VERTEX
  5
CA9E
  8
0
 10
138.387
 20
86.2626
 30
0.0
 70
    32
  0
VERTEX
  5
CA9F
  8
0
 10
138.385
 20
86.3697
 30
0.0
 70
    32
  0
VERTEX
  5
CAA0
  8
0
 10
138.384
 20
86.4765
 30
0.0
 70
    32
  0
VERTEX
  5
CAA1
  8
0
 10
138.382
 20
86.5829
 30
0.0
 70
    32
  0
VERTEX
  5
CAA2
  8
0
 10
138.379
 20
86.6889
 30
0.0
 70
    32
  0
VERTEX
  5
CAA3
  8
0
 10
138.377
 20
86.7943
 30
0.0
 70
    32
  0
VERTEX
  5
CAA4
  8
0
 10
138.374
 20
86.8992
 30
0.0
 70
    32
  0
VERTEX
  5
CAA5
  8
0
 10
138.37
 20
87.0035
 30
0.0
 70
    32
  0
VERTEX
  5
CAA6
  8
0
 10
138.367
 20
87.1071
 30
0.0
 70
    32
  0
VERTEX
  5
CAA7
  8
0
 10
138.363
 20
87.2099
 30
0.0
 70
    32
  0
VERTEX
  5
CAA8
  8
0
 10
138.359
 20
87.3119
 30
0.0
 70
    32
  0
VERTEX
  5
CAA9
  8
0
 10
138.354
 20
87.4131
 30
0.0
 70
    32
  0
VERTEX
  5
CAAA
  8
0
 10
138.349
 20
87.5133
 30
0.0
 70
    32
  0
VERTEX
  5
CAAB
  8
0
 10
138.344
 20
87.6125
 30
0.0
 70
    32
  0
VERTEX
  5
CAAC
  8
0
 10
138.339
 20
87.7106
 30
0.0
 70
    32
  0
VERTEX
  5
CAAD
  8
0
 10
138.333
 20
87.8077
 30
0.0
 70
    32
  0
VERTEX
  5
CAAE
  8
0
 10
138.327
 20
87.9035
 30
0.0
 70
    32
  0
VERTEX
  5
CAAF
  8
0
 10
138.321
 20
87.9982
 30
0.0
 70
    32
  0
VERTEX
  5
CAB0
  8
0
 10
138.314
 20
88.0915
 30
0.0
 70
    32
  0
VERTEX
  5
CAB1
  8
0
 10
138.307
 20
88.1835
 30
0.0
 70
    32
  0
VERTEX
  5
CAB2
  8
0
 10
138.3
 20
88.2742
 30
0.0
 70
    32
  0
VERTEX
  5
CAB3
  8
0
 10
138.293
 20
88.3633
 30
0.0
 70
    32
  0
VERTEX
  5
CAB4
  8
0
 10
138.285
 20
88.451
 30
0.0
 70
    32
  0
VERTEX
  5
CAB5
  8
0
 10
138.277
 20
88.5371
 30
0.0
 70
    32
  0
VERTEX
  5
CAB6
  8
0
 10
138.269
 20
88.6216
 30
0.0
 70
    32
  0
VERTEX
  5
CAB7
  8
0
 10
138.261
 20
88.7044
 30
0.0
 70
    32
  0
VERTEX
  5
CAB8
  8
0
 10
138.252
 20
88.7855
 30
0.0
 70
    32
  0
VERTEX
  5
CAB9
  8
0
 10
138.243
 20
88.8649
 30
0.0
 70
    32
  0
VERTEX
  5
CABA
  8
0
 10
138.234
 20
88.9424
 30
0.0
 70
    32
  0
VERTEX
  5
CABB
  8
0
 10
138.225
 20
89.0182
 30
0.0
 70
    32
  0
VERTEX
  5
CABC
  8
0
 10
138.215
 20
89.092
 30
0.0
 70
    32
  0
VERTEX
  5
CABD
  8
0
 10
138.205
 20
89.1638
 30
0.0
 70
    32
  0
VERTEX
  5
CABE
  8
0
 10
138.195
 20
89.2337
 30
0.0
 70
    32
  0
VERTEX
  5
CABF
  8
0
 10
138.185
 20
89.3016
 30
0.0
 70
    32
  0
VERTEX
  5
CAC0
  8
0
 10
138.175
 20
89.3674
 30
0.0
 70
    32
  0
VERTEX
  5
CAC1
  8
0
 10
138.164
 20
89.4311
 30
0.0
 70
    32
  0
VERTEX
  5
CAC2
  8
0
 10
138.153
 20
89.4926
 30
0.0
 70
    32
  0
VERTEX
  5
CAC3
  8
0
 10
138.142
 20
89.552
 30
0.0
 70
    32
  0
VERTEX
  5
CAC4
  8
0
 10
138.131
 20
89.6091
 30
0.0
 70
    32
  0
VERTEX
  5
CAC5
  8
0
 10
138.12
 20
89.664
 30
0.0
 70
    32
  0
VERTEX
  5
CAC6
  8
0
 10
138.108
 20
89.7166
 30
0.0
 70
    32
  0
VERTEX
  5
CAC7
  8
0
 10
138.097
 20
89.7669
 30
0.0
 70
    32
  0
VERTEX
  5
CAC8
  8
0
 10
138.085
 20
89.8148
 30
0.0
 70
    32
  0
VERTEX
  5
CAC9
  8
0
 10
138.073
 20
89.8604
 30
0.0
 70
    32
  0
VERTEX
  5
CACA
  8
0
 10
138.061
 20
89.9036
 30
0.0
 70
    32
  0
VERTEX
  5
CACB
  8
0
 10
138.049
 20
89.9443
 30
0.0
 70
    32
  0
VERTEX
  5
CACC
  8
0
 10
138.037
 20
89.9826
 30
0.0
 70
    32
  0
VERTEX
  5
CACD
  8
0
 10
138.024
 20
90.0184
 30
0.0
 70
    32
  0
VERTEX
  5
CACE
  8
0
 10
138.012
 20
90.0518
 30
0.0
 70
    32
  0
VERTEX
  5
CACF
  8
0
 10
137.999
 20
90.0826
 30
0.0
 70
    32
  0
VERTEX
  5
CAD0
  8
0
 10
137.986
 20
90.1108
 30
0.0
 70
    32
  0
VERTEX
  5
CAD1
  8
0
 10
137.974
 20
90.1366
 30
0.0
 70
    32
  0
VERTEX
  5
CAD2
  8
0
 10
137.961
 20
90.1597
 30
0.0
 70
    32
  0
VERTEX
  5
CAD3
  8
0
 10
137.948
 20
90.1803
 30
0.0
 70
    32
  0
VERTEX
  5
CAD4
  8
0
 10
137.935
 20
90.1983
 30
0.0
 70
    32
  0
VERTEX
  5
CAD5
  8
0
 10
137.922
 20
90.2136
 30
0.0
 70
    32
  0
VERTEX
  5
CAD6
  8
0
 10
137.909
 20
90.2264
 30
0.0
 70
    32
  0
VERTEX
  5
CAD7
  8
0
 10
137.896
 20
90.2365
 30
0.0
 70
    32
  0
VERTEX
  5
CAD8
  8
0
 10
137.882
 20
90.2441
 30
0.0
 70
    32
  0
VERTEX
  5
CAD9
  8
0
 10
137.869
 20
90.2489
 30
0.0
 70
    32
  0
VERTEX
  5
CADA
  8
0
 10
137.856
 20
90.2512
 30
0.0
 70
    32
  0
SEQEND
  5
CADB
  8
0
  0
LINE
  5
CADC
  8
HIDDEN
 10
138.213851
 20
82.60147
 30
0.0
 11
152.739739
 21
82.60147
 31
0.0
  0
LINE
  5
CADD
  8
HIDDEN
 10
134.725132
 20
79.617194
 30
0.0
 11
134.722794
 21
79.61586
 31
0.0
  0
LINE
  5
CADE
  8
HIDDEN
 10
134.722794
 20
79.61586
 30
0.0
 11
134.722532
 21
79.615714
 31
0.0
  0
LINE
  5
CADF
  8
HIDDEN
 10
134.722794
 20
79.61586
 30
0.0
 11
134.718741
 21
79.613688
 31
0.0
  0
POLYLINE
  5
CAE0
  8
HIDDEN
 66
     1
 10
0.0
 20
0.0
 30
0.0
  0
VERTEX
  5
CF4B
  8
HIDDEN
 10
137.889559
 20
81.46254
 30
0.0
  0
VERTEX
  5
CF4C
  8
HIDDEN
 10
137.891426
 20
81.463655
 30
0.0
  0
VERTEX
  5
CF4D
  8
HIDDEN
 10
137.893292
 20
81.464824
 30
0.0
  0
VERTEX
  5
CF4E
  8
HIDDEN
 10
137.895158
 20
81.466047
 30
0.0
  0
VERTEX
  5
CF4F
  8
HIDDEN
 10
137.897024
 20
81.467322
 30
0.0
  0
VERTEX
  5
CF50
  8
HIDDEN
 10
137.898888
 20
81.468652
 30
0.0
  0
VERTEX
  5
CF51
  8
HIDDEN
 10
137.902786
 20
81.471604
 30
0.0
  0
SEQEND
  5
CF52
  8
HIDDEN
  0
LINE
  5
CAE9
  8
HIDDEN
 10
137.889559
 20
81.46254
 30
0.0
 11
134.236444
 21
79.332214
 31
0.0
  0
LINE
  5
CAEA
  8
HIDDEN
 10
138.213851
 20
89.10147
 30
0.0
 11
152.739739
 21
89.10147
 31
0.0
  0
LINE
  5
CAEB
  8
HIDDEN
 10
137.889559
 20
90.2404
 30
0.0
 11
134.203716
 21
92.389812
 31
0.0
  0
POLYLINE
  5
CAEC
  8
HIDDEN
 66
     1
 10
0.0
 20
0.0
 30
0.0
  0
VERTEX
  5
CF53
  8
HIDDEN
 10
137.902785
 20
90.231336
 30
0.0
  0
VERTEX
  5
CF54
  8
HIDDEN
 10
137.900921
 20
90.232777
 30
0.0
  0
VERTEX
  5
CF55
  8
HIDDEN
 10
137.899057
 20
90.234164
 30
0.0
  0
VERTEX
  5
CF56
  8
HIDDEN
 10
137.897193
 20
90.235499
 30
0.0
  0
VERTEX
  5
CF57
  8
HIDDEN
 10
137.895327
 20
90.236779
 30
0.0
  0
VERTEX
  5
CF58
  8
HIDDEN
 10
137.893461
 20
90.238007
 30
0.0
  0
VERTEX
  5
CF59
  8
HIDDEN
 10
137.889558
 20
90.2404
 30
0.0
  0
SEQEND
  5
CF5A
  8
HIDDEN
  0
LINE
  5
CAF5
  8
HIDDEN
 10
134.168112
 20
92.400639
 30
0.0
 11
134.169817
 21
92.400401
 31
0.0
  0
LINE
  5
CAF6
  8
0
 62
     5
 10
159.687771
 20
96.40147
 30
0.0
 11
154.687771
 21
96.40147
 31
0.0
  0
LINE
  5
CAF7
  8
HIDDEN
 10
253.267319
 20
80.401472
 30
0.0
 11
246.631867
 21
80.40147
 31
0.0
  0
LINE
  5
CAF8
  8
HIDDEN
 10
226.681759
 20
90.50147
 30
0.0
 11
250.181759
 21
90.50147
 31
0.0
  0
LINE
  5
CAF9
  8
0
 62
     5
 10
255.264842
 20
92.20147
 30
0.0
 11
246.375647
 21
92.20147
 31
0.0
  0
LINE
  5
CAFA
  8
0
 62
     5
 10
225.037638
 20
93.00147
 30
0.0
 11
251.532291
 21
93.00147
 31
0.0
  0
LINE
  5
CAFB
  8
0
 62
     5
 10
227.331759
 20
96.40147
 30
0.0
 11
262.331759
 21
96.40147
 31
0.0
  0
LINE
  5
CAFC
  8
0
 62
     5
 10
259.14823
 20
88.90147
 30
0.0
 11
245.830913
 21
88.90147
 31
0.0
  0
LINE
  5
CAFD
  8
HIDDEN
 10
247.881759
 20
88.251336
 30
0.0
 11
247.881759
 21
83.30147
 31
0.0
  0
LINE
  5
CAFE
  8
HIDDEN
 10
228.981759
 20
90.50147
 30
0.0
 11
228.981759
 21
83.30147
 31
0.0
  0
LINE
  5
CAFF
  8
HIDDEN
 10
232.981759
 20
79.30147
 30
0.0
 11
243.881759
 21
79.30147
 31
0.0
  0
LINE
  5
CB00
  8
0
 62
     5
 10
231.073459
 20
87.60147
 30
0.0
 11
245.790059
 21
87.60147
 31
0.0
  0
LINE
  5
CB01
  8
HIDDEN
 10
226.181759
 20
93.00147
 30
0.0
 11
226.181759
 21
91.00147
 31
0.0
  0
LINE
  5
CB02
  8
0
 62
     5
 10
231.690871
 20
93.00147
 30
0.0
 11
231.761164
 21
87.60147
 31
0.0
  0
LINE
  5
CB03
  8
0
 62
     5
 10
231.073459
 20
87.60147
 30
0.0
 11
230.903757
 21
93.00147
 31
0.0
  0
ARC
  5
CB04
  8
HIDDEN
 10
226.681759
 20
91.00147
 30
0.0
 40
0.5
 50
180.0
 51
270.0
  0
LINE
  5
CB05
  8
0
 62
     5
 10
224.537641
 20
96.107321
 30
0.0
 11
224.537666
 21
96.107378
 31
0.0
  0
LINE
  5
CB06
  8
0
 62
     5
 10
224.531759
 20
96.10147
 30
0.0
 11
224.537666
 21
96.107378
 31
0.0
  0
LINE
  5
CB07
  8
0
 62
     5
 10
224.537638
 20
96.10147
 30
0.0
 11
224.531759
 21
96.10147
 31
0.0
  0
LINE
  5
CB08
  8
0
 62
     5
 10
224.537638
 20
96.107321
 30
0.0
 11
224.537638
 21
93.50147
 31
0.0
  0
LINE
  5
CB09
  8
0
 62
     5
 10
245.95976
 20
93.00147
 30
0.0
 11
245.790059
 21
87.60147
 31
0.0
  0
LINE
  5
CB0A
  8
0
 62
     5
 10
245.102354
 20
87.60147
 30
0.0
 11
245.172647
 21
93.00147
 31
0.0
  0
LINE
  5
CB0B
  8
0
 62
     5
 10
246.359258
 20
89.201287
 30
0.0
 11
246.375647
 21
92.20147
 31
0.0
  0
LINE
  5
CB0C
  8
HIDDEN
 10
246.281759
 20
89.70147
 30
0.0
 11
246.281759
 21
90.50147
 31
0.0
  0
LINE
  5
CB0D
  8
0
 62
     5
 10
245.840335
 20
89.201287
 30
0.0
 11
246.359258
 21
89.201287
 31
0.0
  0
LINE
  5
CB0E
  8
0
 62
     5
 10
246.359258
 20
89.201287
 30
0.0
 11
246.31069
 21
88.90147
 31
0.0
  0
LINE
  5
CB0F
  8
0
 62
     5
 10
241.941146
 20
93.30147
 30
0.0
 11
234.922371
 21
93.30147
 31
0.0
  0
ARC
  5
CB10
  8
0
 62
     5
 10
234.731759
 20
93.20147
 30
0.0
 40
0.2
 50
270.0
 51
0.0
  0
LINE
  5
CB11
  8
0
 62
     5
 10
234.931759
 20
93.20147
 30
0.0
 11
234.931759
 21
93.30147
 31
0.0
  0
ARC
  5
CB12
  8
0
 62
     5
 10
242.131759
 20
93.20147
 30
0.0
 40
0.2
 50
180.0
 51
270.0
  0
LINE
  5
CB13
  8
0
 62
     5
 10
241.931759
 20
93.20147
 30
0.0
 11
241.931759
 21
93.30147
 31
0.0
  0
LINE
  5
CB14
  8
HIDDEN
 10
254.781074
 20
80.634637
 30
0.0
 11
254.781174
 21
80.634668
 31
0.0
  0
LINE
  5
CB15
  8
HIDDEN
 10
256.728604
 20
82.76663
 30
0.0
 11
256.728633
 21
82.766688
 31
0.0
  0
LINE
  5
CB16
  8
HIDDEN
 10
257.173044
 20
84.359709
 30
0.0
 11
257.173036
 21
84.359624
 31
0.0
  0
LINE
  5
CB17
  8
HIDDEN
 10
257.194431
 20
84.613811
 30
0.0
 11
257.194436
 21
84.613863
 31
0.0
  0
LINE
  5
CB18
  8
0
 62
     5
 10
263.231759
 20
94.40147
 30
0.0
 11
252.032291
 21
94.40147
 31
0.0
  0
LINE
  5
CB19
  8
HIDDEN
 10
250.681759
 20
93.00147
 30
0.0
 11
250.681759
 21
91.00147
 31
0.0
  0
LINE
  5
CB1A
  8
HIDDEN
 10
261.921594
 20
88.90147
 30
0.0
 11
261.921594
 21
93.40147
 31
0.0
  0
LINE
  5
CB1B
  8
0
 62
     5
 10
259.921594
 20
93.40147
 30
0.0
 11
259.785403
 21
89.50147
 31
0.0
  0
LINE
  5
CB1C
  8
0
 62
     5
 10
255.264842
 20
92.20147
 30
0.0
 11
255.248453
 21
89.201287
 31
0.0
  0
LINE
  5
CB1D
  8
0
 62
     5
 10
254.895955
 20
88.90147
 30
0.0
 11
254.895955
 21
92.20147
 31
0.0
  0
LINE
  5
CB1E
  8
0
 62
     5
 10
255.248453
 20
89.201287
 30
0.0
 11
256.33491
 21
89.201287
 31
0.0
  0
ARC
  5
CB1F
  8
HIDDEN
 10
250.181759
 20
91.00147
 30
0.0
 40
0.5
 50
270.0
 51
0.0
  0
LINE
  5
CB20
  8
0
 62
     5
 10
255.248453
 20
89.201287
 30
0.0
 11
255.199885
 21
88.90147
 31
0.0
  0
LINE
  5
CB21
  8
HIDDEN
 10
257.201565
 20
87.40147
 30
0.0
 11
257.201565
 21
84.789845
 31
0.0
  0
LINE
  5
CB22
  8
HIDDEN
 10
257.201565
 20
87.40147
 30
0.0
 11
260.421632
 21
87.40147
 31
0.0
  0
ARC
  5
CB23
  8
HIDDEN
 10
260.421594
 20
88.90147
 30
0.0
 40
1.5
 50
270.0
 51
0.0
  0
LINE
  5
CB24
  8
0
 62
     5
 10
259.465231
 20
89.50147
 30
0.0
 11
259.454877
 21
89.201287
 31
0.0
  0
LINE
  5
CB25
  8
0
 62
     5
 10
259.14823
 20
88.90147
 30
0.0
 11
259.454877
 21
89.201287
 31
0.0
  0
LINE
  5
CB26
  8
0
 62
     5
 10
256.33491
 20
89.201287
 30
0.0
 11
256.286342
 21
88.90147
 31
0.0
  0
LINE
  5
CB27
  8
0
 62
     5
 10
256.33491
 20
89.201287
 30
0.0
 11
256.33655
 21
89.50147
 31
0.0
  0
LINE
  5
CB28
  8
0
 62
     5
 10
256.33655
 20
89.50147
 30
0.0
 11
259.78539
 21
89.50147
 31
0.0
  0
LINE
  5
CB29
  8
0
 62
     5
 10
256.439795
 20
96.10147
 30
0.0
 11
252.457648
 21
96.10147
 31
0.0
  0
LINE
  5
CB2A
  8
0
 62
     5
 10
252.241705
 20
96.013891
 30
0.0
 11
256.458394
 21
96.013891
 31
0.0
  0
LINE
  5
CB2B
  8
0
 62
     5
 10
257.411622
 20
95.419732
 30
0.0
 11
252.032291
 21
95.419732
 31
0.0
  0
LINE
  5
CB2C
  8
0
 62
     5
 10
252.032291
 20
95.40147
 30
0.0
 11
257.439758
 21
95.40147
 31
0.0
  0
LINE
  5
CB2D
  8
0
 62
     5
 10
252.022111
 20
93.40147
 30
0.0
 11
261.930971
 21
93.40147
 31
0.0
  0
LINE
  5
CB2E
  8
0
 62
     5
 10
252.032319
 20
95.795059
 30
0.0
 11
252.032291
 21
95.78974
 31
0.0
  0
ARC
  5
CB2F
  8
0
 62
     5
 10
251.532291
 20
93.50147
 30
0.0
 40
0.5
 50
270.0
 51
0.0
  0
LINE
  5
CB30
  8
0
 62
     5
 10
252.032291
 20
95.78974
 30
0.0
 11
252.032291
 21
93.50147
 31
0.0
  0
LINE
  5
CB31
  8
HIDDEN
 10
261.930975
 20
93.40147
 30
0.0
 11
262.018464
 21
94.40147
 31
0.0
  0
LINE
  5
CB32
  8
0
 62
     5
 10
261.930975
 20
93.40147
 30
0.0
 11
262.018464
 21
94.40147
 31
0.0
  0
ARC
  5
CB33
  8
0
 62
     5
 10
257.439758
 20
96.40147
 30
0.0
 40
1.0
 50
270.0
 51
0.0
  0
ARC
  5
CB34
  8
0
 62
     5
 10
262.931759
 20
96.40147
 30
0.0
 40
0.5
 50
0.0
 51
27.289401
  0
ARC
  5
CB35
  8
0
 62
     5
 10
263.231759
 20
94.60147
 30
0.0
 40
0.2
 50
270.0
 51
0.0
  0
LINE
  5
CB36
  8
0
 62
     5
 10
263.431759
 20
96.40147
 30
0.0
 11
263.431759
 21
94.60147
 31
0.0
  0
LINE
  5
CB37
  8
0
 62
     5
 10
102.987771
 20
137.037595
 30
0.0
 11
81.187771
 21
137.037595
 31
0.0
  0
LINE
  5
CB38
  8
0
 62
     5
 10
102.987771
 20
136.90147
 30
0.0
 11
78.287771
 21
136.90147
 31
0.0
  0
LINE
  5
CB39
  8
0
 62
     5
 10
78.287771
 20
136.70147
 30
0.0
 11
102.987771
 21
136.70147
 31
0.0
  0
LINE
  5
CB3A
  8
0
 62
     5
 10
99.487771
 20
103.40147
 30
0.0
 11
102.987771
 21
103.40147
 31
0.0
  0
LINE
  5
CB3B
  8
0
 62
     5
 10
102.048651
 20
102.251618
 30
0.0
 11
102.787771
 21
102.251618
 31
0.0
  0
LINE
  5
CB3C
  8
CENTER
 10
75.287771
 20
116.40147
 30
0.0
 11
186.162498
 21
116.40147
 31
0.0
  0
LINE
  5
CB3D
  8
0
 62
     5
 10
81.187771
 20
130.59947
 30
0.0
 11
102.987771
 21
130.59947
 31
0.0
  0
ARC
  5
CB3E
  8
CENTER
 10
28.095228
 20
116.40147
 30
0.0
 40
23.0
 50
34.153368
 51
56.779047
  0
LINE
  5
CB3F
  8
CENTER
 10
41.741002
 20
130.047244
 30
0.0
 11
47.905926
 21
136.212168
 31
0.0
  0
LINE
  5
CB40
  8
0
 62
     5
 10
43.641085
 20
127.041483
 30
0.0
 11
44.14324
 21
127.181483
 31
0.0
  0
LINE
  5
CB41
  8
0
 62
     5
 10
44.201085
 20
127.041483
 30
0.0
 11
43.641085
 21
127.041483
 31
0.0
  0
LINE
  5
CB42
  8
0
 62
     5
 10
43.641085
 20
127.601483
 30
0.0
 11
44.201085
 21
127.601483
 31
0.0
  0
LINE
  5
CB43
  8
0
 62
     5
 10
43.641085
 20
127.601483
 30
0.0
 11
44.14324
 21
127.461483
 31
0.0
  0
ARC
  5
CB44
  8
0
 62
     5
 10
46.303228
 20
134.60947
 30
0.0
 40
4.6
 50
180.0
 51
240.661371
  0
CIRCLE
  5
CB45
  8
0
 62
     5
 10
44.910573
 20
127.321483
 30
0.0
 40
2.25
  0
ARC
  5
CB46
  8
0
 62
     5
 10
44.358684
 20
132.664926
 30
0.0
 40
2.25
 50
293.33323
 51
178.625298
  0
LINE
  5
CB47
  8
0
 62
     5
 10
41.417024
 20
136.40147
 30
0.0
 11
45.595228
 21
136.40147
 31
0.0
  0
ARC
  5
CB48
  8
0
 62
     5
 10
44.803228
 20
127.20147
 30
0.0
 40
3.1
 50
180.0
 51
270.0
  0
CIRCLE
  5
CB49
  8
0
 62
     5
 10
44.910573
 20
127.321483
 30
0.0
 40
3.0
  0
ARC
  5
CB4A
  8
0
 62
     5
 10
44.08155
 20
102.40147
 30
0.0
 40
1.0
 50
90.0
 51
138.78979
  0
CIRCLE
  5
CB4B
  8
0
 62
     5
 10
45.631353
 20
106.681037
 30
0.0
 40
3.0
  0
ARC
  5
CB4C
  8
0
 62
     5
 10
45.631353
 20
106.681037
 30
0.0
 40
3.1
 50
90.0
 51
217.879967
  0
CIRCLE
  5
CB4D
  8
0
 62
     5
 10
45.631353
 20
106.681037
 30
0.0
 40
2.25
  0
LINE
  5
CB4E
  8
CENTER
 10
3.063992
 20
116.40147
 30
0.0
 11
52.460153
 21
116.40147
 31
0.0
  0
LINE
  5
CB4F
  8
0
 62
     5
 10
7.795228
 20
134.20147
 30
0.0
 11
7.795228
 21
119.258041
 31
0.0
  0
ARC
  5
CB50
  8
0
 62
     5
 10
11.387228
 20
105.60147
 30
0.0
 40
3.1
 50
0.0
 51
90.0
  0
ARC
  5
CB51
  8
0
 62
     5
 10
9.887228
 20
98.19347
 30
0.0
 40
4.6
 50
5.325005
 51
60.661371
  0
LINE
  5
CB52
  8
0
 62
     5
 10
7.795228
 20
103.20347
 30
0.0
 11
7.795228
 21
113.544899
 31
0.0
  0
LINE
  5
CB53
  8
0
 62
     5
 10
11.139883
 20
104.714124
 30
0.0
 11
11.419883
 21
106.24879
 31
0.0
  0
LINE
  5
CB54
  8
0
 62
     5
 10
11.419883
 20
104.714124
 30
0.0
 11
11.139883
 21
106.24879
 31
0.0
  0
LINE
  5
CB55
  8
0
 62
     5
 10
11.559883
 20
104.771969
 30
0.0
 11
11.559883
 21
104.211969
 31
0.0
  0
LINE
  5
CB56
  8
0
 62
     5
 10
11.419883
 20
104.714124
 30
0.0
 11
11.419883
 21
104.770124
 31
0.0
  0
LINE
  5
CB57
  8
0
 62
     5
 10
11.139883
 20
104.770124
 30
0.0
 11
11.139883
 21
104.714124
 31
0.0
  0
LINE
  5
CB58
  8
0
 62
     5
 10
10.999883
 20
104.211969
 30
0.0
 11
10.999883
 21
104.771969
 31
0.0
  0
CIRCLE
  5
CB59
  8
0
 62
     5
 10
11.279883
 20
105.481457
 30
0.0
 40
3.0
  0
CIRCLE
  5
CB5A
  8
0
 62
     5
 10
11.279883
 20
105.481457
 30
0.0
 40
2.25
  0
ARC
  5
CB5B
  8
0
 62
     5
 10
11.279883
 20
105.481457
 30
0.0
 40
1.3
 50
257.561907
 51
282.438093
  0
ARC
  5
CB5C
  8
0
 62
     5
 10
11.279883
 20
105.481457
 30
0.0
 40
0.78
 50
259.660109
 51
280.339891
  0
LINE
  5
CB5D
  8
0
 62
     5
 10
10.999883
 20
104.211969
 30
0.0
 11
11.139883
 21
104.714124
 31
0.0
  0
LINE
  5
CB5E
  8
0
 62
     5
 10
11.559883
 20
104.211969
 30
0.0
 11
11.419883
 21
104.714124
 31
0.0
  0
ARC
  5
CB5F
  8
0
 62
     5
 10
8.795228
 20
103.20347
 30
0.0
 40
1.0
 50
180.0
 51
270.0
  0
LINE
  5
CB60
  8
0
 62
     5
 10
12.141092
 20
102.20347
 30
0.0
 11
8.795228
 21
102.20347
 31
0.0
  0
LINE
  5
CB61
  8
0
 62
     5
 10
8.095228
 20
98.90147
 30
0.0
 11
8.095228
 21
102.489645
 31
0.0
  0
ARC
  5
CB62
  8
0
 62
     5
 10
11.279883
 20
105.481457
 30
0.0
 40
1.3
 50
347.561907
 51
12.438093
  0
ARC
  5
CB63
  8
0
 62
     5
 10
11.279883
 20
105.481457
 30
0.0
 40
0.78
 50
349.660109
 51
10.339891
  0
LINE
  5
CB64
  8
0
 62
     5
 10
12.549371
 20
105.761457
 30
0.0
 11
12.047216
 21
105.621457
 31
0.0
  0
LINE
  5
CB65
  8
0
 62
     5
 10
11.989371
 20
105.761457
 30
0.0
 11
12.549371
 21
105.761457
 31
0.0
  0
LINE
  5
CB66
  8
0
 62
     5
 10
12.047216
 20
105.621457
 30
0.0
 11
11.991216
 21
105.621457
 31
0.0
  0
LINE
  5
CB67
  8
0
 62
     5
 10
11.991216
 20
105.341457
 30
0.0
 11
12.047216
 21
105.341457
 31
0.0
  0
LINE
  5
CB68
  8
0
 62
     5
 10
12.549371
 20
105.201457
 30
0.0
 11
11.989371
 21
105.201457
 31
0.0
  0
LINE
  5
CB69
  8
0
 62
     5
 10
12.549371
 20
105.201457
 30
0.0
 11
12.047216
 21
105.341457
 31
0.0
  0
LINE
  5
CB6A
  8
0
 62
     5
 10
11.989371
 20
105.201457
 30
0.0
 11
11.991216
 21
105.341457
 31
0.0
  0
LINE
  5
CB6B
  8
0
 62
     5
 10
11.989371
 20
105.761457
 30
0.0
 11
11.991216
 21
105.621457
 31
0.0
  0
LINE
  5
CB6C
  8
0
 62
     5
 10
11.387228
 20
108.70147
 30
0.0
 11
8.795228
 21
108.70147
 31
0.0
  0
ARC
  5
CB6D
  8
0
 62
     5
 10
8.795228
 20
109.70147
 30
0.0
 40
1.0
 50
180.0
 51
270.0
  0
ARC
  5
CB6E
  8
0
 62
     5
 10
11.279883
 20
105.481457
 30
0.0
 40
1.3
 50
167.561907
 51
192.438093
  0
ARC
  5
CB6F
  8
0
 62
     5
 10
11.279883
 20
105.481457
 30
0.0
 40
1.3
 50
77.561907
 51
102.438093
  0
ARC
  5
CB70
  8
0
 62
     5
 10
11.279883
 20
105.481457
 30
0.0
 40
0.78
 50
79.660109
 51
100.339891
  0
ARC
  5
CB71
  8
0
 62
     5
 10
11.279883
 20
105.481457
 30
0.0
 40
0.78
 50
169.660109
 51
190.339891
  0
LINE
  5
CB72
  8
0
 62
     5
 10
10.010395
 20
105.201457
 30
0.0
 11
10.51255
 21
105.341457
 31
0.0
  0
LINE
  5
CB73
  8
0
 62
     5
 10
11.559883
 20
106.190945
 30
0.0
 11
11.419883
 21
106.19279
 31
0.0
  0
LINE
  5
CB74
  8
0
 62
     5
 10
10.999883
 20
104.771969
 30
0.0
 11
11.139883
 21
104.770124
 31
0.0
  0
LINE
  5
CB75
  8
0
 62
     5
 10
10.010395
 20
105.761457
 30
0.0
 11
10.570395
 21
105.761457
 31
0.0
  0
LINE
  5
CB76
  8
0
 62
     5
 10
10.56855
 20
105.621457
 30
0.0
 11
10.51255
 21
105.621457
 31
0.0
  0
LINE
  5
CB77
  8
0
 62
     5
 10
10.51255
 20
105.341457
 30
0.0
 11
10.56855
 21
105.341457
 31
0.0
  0
LINE
  5
CB78
  8
0
 62
     5
 10
10.570395
 20
105.201457
 30
0.0
 11
10.010395
 21
105.201457
 31
0.0
  0
LINE
  5
CB79
  8
0
 62
     5
 10
10.999883
 20
106.190945
 30
0.0
 11
11.139883
 21
106.19279
 31
0.0
  0
LINE
  5
CB7A
  8
0
 62
     5
 10
11.559883
 20
104.771969
 30
0.0
 11
11.419883
 21
104.770124
 31
0.0
  0
LINE
  5
CB7B
  8
0
 62
     5
 10
10.010395
 20
105.761457
 30
0.0
 11
10.51255
 21
105.621457
 31
0.0
  0
LINE
  5
CB7C
  8
0
 62
     5
 10
10.930761
 20
105.83058
 30
0.0
 11
10.56855
 21
105.621457
 31
0.0
  0
LINE
  5
CB7D
  8
0
 62
     5
 10
10.570395
 20
105.761457
 30
0.0
 11
10.84268
 21
105.918661
 31
0.0
  0
LINE
  5
CB7E
  8
0
 62
     5
 10
10.84268
 20
105.044254
 30
0.0
 11
11.717087
 21
105.918661
 31
0.0
  0
LINE
  5
CB7F
  8
0
 62
     5
 10
10.56855
 20
105.341457
 30
0.0
 11
10.930761
 21
105.132335
 31
0.0
  0
LINE
  5
CB80
  8
0
 62
     5
 10
10.84268
 20
105.044254
 30
0.0
 11
10.570395
 21
105.201457
 31
0.0
  0
LINE
  5
CB81
  8
0
 62
     5
 10
11.717087
 20
105.044254
 30
0.0
 11
11.559883
 21
104.771969
 31
0.0
  0
LINE
  5
CB82
  8
0
 62
     5
 10
11.419883
 20
104.770124
 30
0.0
 11
11.629006
 21
105.132335
 31
0.0
  0
LINE
  5
CB83
  8
0
 62
     5
 10
11.139883
 20
106.19279
 30
0.0
 11
10.930761
 21
105.83058
 31
0.0
  0
LINE
  5
CB84
  8
0
 62
     5
 10
10.84268
 20
105.918661
 30
0.0
 11
10.999883
 21
106.190945
 31
0.0
  0
LINE
  5
CB85
  8
0
 62
     5
 10
11.559883
 20
106.190945
 30
0.0
 11
11.717087
 21
105.918661
 31
0.0
  0
LINE
  5
CB86
  8
0
 62
     5
 10
11.717087
 20
105.044254
 30
0.0
 11
10.84268
 21
105.918661
 31
0.0
  0
LINE
  5
CB87
  8
0
 62
     5
 10
11.559883
 20
106.750945
 30
0.0
 11
11.419883
 21
106.24879
 31
0.0
  0
LINE
  5
CB88
  8
0
 62
     5
 10
11.139883
 20
104.770124
 30
0.0
 11
11.419883
 21
106.19279
 31
0.0
  0
LINE
  5
CB89
  8
0
 62
     5
 10
11.419883
 20
104.770124
 30
0.0
 11
11.139883
 21
106.19279
 31
0.0
  0
LINE
  5
CB8A
  8
0
 62
     5
 10
10.999883
 20
106.750945
 30
0.0
 11
11.139883
 21
106.24879
 31
0.0
  0
LINE
  5
CB8B
  8
0
 62
     5
 10
11.629006
 20
105.83058
 30
0.0
 11
11.419883
 21
106.19279
 31
0.0
  0
LINE
  5
CB8C
  8
0
 62
     5
 10
10.930761
 20
105.132335
 30
0.0
 11
11.139883
 21
104.770124
 31
0.0
  0
LINE
  5
CB8D
  8
0
 62
     5
 10
10.999883
 20
104.771969
 30
0.0
 11
10.84268
 21
105.044254
 31
0.0
  0
LINE
  5
CB8E
  8
0
 62
     5
 10
10.570395
 20
105.761457
 30
0.0
 11
10.56855
 21
105.621457
 31
0.0
  0
LINE
  5
CB8F
  8
0
 62
     5
 10
11.559883
 20
106.750945
 30
0.0
 11
11.559883
 21
106.190945
 31
0.0
  0
LINE
  5
CB90
  8
0
 62
     5
 10
11.419883
 20
106.19279
 30
0.0
 11
11.419883
 21
106.24879
 31
0.0
  0
LINE
  5
CB91
  8
0
 62
     5
 10
11.139883
 20
106.24879
 30
0.0
 11
11.139883
 21
106.19279
 31
0.0
  0
LINE
  5
CB92
  8
0
 62
     5
 10
10.999883
 20
106.190945
 30
0.0
 11
10.999883
 21
106.750945
 31
0.0
  0
LINE
  5
CB93
  8
0
 62
     5
 10
10.570395
 20
105.201457
 30
0.0
 11
10.56855
 21
105.341457
 31
0.0
  0
LINE
  5
CB94
  8
0
 62
     5
 10
10.56855
 20
105.341457
 30
0.0
 11
11.991216
 21
105.621457
 31
0.0
  0
LINE
  5
CB95
  8
0
 62
     5
 10
10.51255
 20
105.341457
 30
0.0
 11
12.047216
 21
105.621457
 31
0.0
  0
LINE
  5
CB96
  8
0
 62
     5
 10
11.989371
 20
105.201457
 30
0.0
 11
11.717087
 21
105.044254
 31
0.0
  0
LINE
  5
CB97
  8
0
 62
     5
 10
11.629006
 20
105.132335
 30
0.0
 11
11.991216
 21
105.341457
 31
0.0
  0
LINE
  5
CB98
  8
0
 62
     5
 10
10.56855
 20
105.621457
 30
0.0
 11
11.991216
 21
105.341457
 31
0.0
  0
LINE
  5
CB99
  8
0
 62
     5
 10
10.51255
 20
105.621457
 30
0.0
 11
12.047216
 21
105.341457
 31
0.0
  0
LINE
  5
CB9A
  8
0
 62
     5
 10
11.717087
 20
105.918661
 30
0.0
 11
11.989371
 21
105.761457
 31
0.0
  0
LINE
  5
CB9B
  8
0
 62
     5
 10
11.991216
 20
105.621457
 30
0.0
 11
11.629006
 21
105.83058
 31
0.0
  0
ARC
  5
CB9C
  8
0
 62
     5
 10
28.095228
 20
116.40147
 30
0.0
 40
20.5
 50
171.990057
 51
188.009943
  0
LINE
  5
CB9D
  8
0
 62
     5
 10
7.795228
 20
113.544899
 30
0.0
 11
7.800059
 21
113.545237
 31
0.0
  0
LINE
  5
CB9E
  8
0
 62
     5
 10
14.487228
 20
98.90147
 30
0.0
 11
14.487228
 21
105.60147
 31
0.0
  0
ARC
  5
CB9F
  8
0
 62
     5
 10
42.395228
 20
104.163599
 30
0.0
 40
1.0
 50
0.0
 51
37.879967
  0
LINE
  5
CBA0
  8
0
 62
     5
 10
43.395228
 20
104.163599
 30
0.0
 11
43.395228
 21
103.514558
 31
0.0
  0
ARC
  5
CBA1
  8
0
 62
     5
 10
42.395228
 20
103.514558
 30
0.0
 40
1.0
 50
317.975372
 51
0.0
  0
LINE
  5
CBA2
  8
0
 62
     5
 10
43.138085
 20
102.845108
 30
0.0
 11
43.329253
 21
103.060294
 31
0.0
  0
ARC
  5
CBA3
  8
0
 62
     5
 10
42.095228
 20
100.415148
 30
0.0
 40
1.0
 50
131.21021
 51
180.0
  0
ARC
  5
CBA4
  8
0
 62
     5
 10
28.095228
 20
116.40147
 30
0.0
 40
20.25
 50
311.21021
 51
318.78979
  0
LINE
  5
CBA5
  8
0
 62
     5
 10
10.295228
 20
136.70147
 30
0.0
 11
16.970874
 21
136.70147
 31
0.0
  0
ARC
  5
CBA6
  8
0
 62
     5
 10
28.095228
 20
116.40147
 30
0.0
 40
20.25
 50
131.21021
 51
138.78979
  0
ARC
  5
CBA7
  8
0
 62
     5
 10
12.108906
 20
130.40147
 30
0.0
 40
1.0
 50
270.0
 51
318.78979
  0
ARC
  5
CBA8
  8
0
 62
     5
 10
8.795228
 20
128.40147
 30
0.0
 40
1.0
 50
90.0
 51
180.0
  0
LINE
  5
CBA9
  8
0
 62
     5
 10
12.108906
 20
129.40147
 30
0.0
 11
8.795228
 21
129.40147
 31
0.0
  0
ARC
  5
CBAA
  8
0
 62
     5
 10
10.295228
 20
134.20147
 30
0.0
 40
2.5
 50
90.0
 51
180.0
  0
ARC
  5
CBAB
  8
0
 62
     5
 10
28.095228
 20
116.40147
 30
0.0
 40
20.5
 50
81.990057
 51
98.009943
  0
ARC
  5
CBAC
  8
0
 62
     5
 10
15.208316
 20
130.70147
 30
0.0
 40
1.0
 50
90.0
 51
132.024628
  0
LINE
  5
CBAD
  8
0
 62
     5
 10
14.754052
 20
131.635495
 30
0.0
 11
14.538866
 21
131.444327
 31
0.0
  0
ARC
  5
CBAE
  8
0
 62
     5
 10
15.857357
 20
130.70147
 30
0.0
 40
1.0
 50
52.120033
 51
90.0
  0
ARC
  5
CBAF
  8
0
 62
     5
 10
18.374795
 20
133.937595
 30
0.0
 40
3.1
 50
232.120033
 51
0.0
  0
CIRCLE
  5
CBB0
  8
0
 62
     5
 10
18.374795
 20
133.937595
 30
0.0
 40
3.0
  0
LINE
  5
CBB1
  8
0
 62
     5
 10
25.238657
 20
136.70147
 30
0.0
 11
19.778717
 21
136.70147
 31
0.0
  0
ARC
  5
CBB2
  8
0
 62
     5
 10
22.474795
 20
135.70147
 30
0.0
 40
1.0
 50
90.0
 51
180.0
  0
ARC
  5
CBB3
  8
0
 62
     5
 10
18.374795
 20
133.937595
 30
0.0
 40
3.1
 50
63.071521
 51
116.928479
  0
LINE
  5
CBB4
  8
0
 62
     5
 10
16.995419
 20
136.59985
 30
0.0
 11
16.970874
 21
136.70147
 31
0.0
  0
LINE
  5
CBB5
  8
0
 62
     5
 10
19.754172
 20
136.59985
 30
0.0
 11
19.761789
 21
136.631193
 31
0.0
  0
LINE
  5
CBB6
  8
0
 62
     5
 10
19.761789
 20
136.631193
 30
0.0
 11
19.778717
 21
136.70147
 31
0.0
  0
LINE
  5
CBB7
  8
0
 62
     5
 10
21.474795
 20
135.70147
 30
0.0
 11
21.474795
 21
133.937595
 31
0.0
  0
LINE
  5
CBB8
  8
0
 62
     5
 10
17.105307
 20
133.657595
 30
0.0
 11
17.607462
 21
133.797595
 31
0.0
  0
LINE
  5
CBB9
  8
0
 62
     5
 10
17.105307
 20
134.217595
 30
0.0
 11
17.665307
 21
134.217595
 31
0.0
  0
LINE
  5
CBBA
  8
0
 62
     5
 10
17.665307
 20
133.657595
 30
0.0
 11
17.105307
 21
133.657595
 31
0.0
  0
LINE
  5
CBBB
  8
0
 62
     5
 10
17.105307
 20
134.217595
 30
0.0
 11
17.607462
 21
134.077595
 31
0.0
  0
ARC
  5
CBBC
  8
0
 62
     5
 10
18.374795
 20
133.937595
 30
0.0
 40
1.3
 50
167.561907
 51
192.438093
  0
LINE
  5
CBBD
  8
0
 62
     5
 10
18.654795
 20
132.668107
 30
0.0
 11
18.514795
 21
133.170262
 31
0.0
  0
LINE
  5
CBBE
  8
0
 62
     5
 10
18.094795
 20
132.668107
 30
0.0
 11
18.234795
 21
133.170262
 31
0.0
  0
LINE
  5
CBBF
  8
0
 62
     5
 10
18.654795
 20
133.228107
 30
0.0
 11
18.654795
 21
132.668107
 31
0.0
  0
LINE
  5
CBC0
  8
0
 62
     5
 10
18.094795
 20
132.668107
 30
0.0
 11
18.094795
 21
133.228107
 31
0.0
  0
ARC
  5
CBC1
  8
0
 62
     5
 10
18.374795
 20
133.937595
 30
0.0
 40
1.3
 50
257.561907
 51
282.438093
  0
ARC
  5
CBC2
  8
0
 62
     5
 10
18.374795
 20
133.937595
 30
0.0
 40
1.3
 50
347.561907
 51
12.438093
  0
ARC
  5
CBC3
  8
0
 62
     5
 10
18.374795
 20
133.937595
 30
0.0
 40
1.3
 50
77.561907
 51
102.438093
  0
ARC
  5
CBC4
  8
0
 62
     5
 10
18.374795
 20
133.937595
 30
0.0
 40
0.78
 50
79.660109
 51
100.339891
  0
ARC
  5
CBC5
  8
0
 62
     5
 10
18.374795
 20
133.937595
 30
0.0
 40
0.78
 50
349.660109
 51
10.339891
  0
ARC
  5
CBC6
  8
0
 62
     5
 10
18.374795
 20
133.937595
 30
0.0
 40
0.78
 50
259.660109
 51
280.339891
  0
ARC
  5
CBC7
  8
0
 62
     5
 10
18.374795
 20
133.937595
 30
0.0
 40
0.78
 50
169.660109
 51
190.339891
  0
LINE
  5
CBC8
  8
0
 62
     5
 10
19.644283
 20
134.217595
 30
0.0
 11
19.142128
 21
134.077595
 31
0.0
  0
LINE
  5
CBC9
  8
0
 62
     5
 10
17.607462
 20
133.797595
 30
0.0
 11
19.142128
 21
134.077595
 31
0.0
  0
LINE
  5
CBCA
  8
0
 62
     5
 10
17.663462
 20
133.797595
 30
0.0
 11
19.086128
 21
134.077595
 31
0.0
  0
LINE
  5
CBCB
  8
0
 62
     5
 10
18.654795
 20
134.647083
 30
0.0
 11
18.514795
 21
134.648928
 31
0.0
  0
LINE
  5
CBCC
  8
0
 62
     5
 10
18.094795
 20
133.228107
 30
0.0
 11
18.234795
 21
133.226262
 31
0.0
  0
LINE
  5
CBCD
  8
0
 62
     5
 10
19.084283
 20
134.217595
 30
0.0
 11
19.644283
 21
134.217595
 31
0.0
  0
LINE
  5
CBCE
  8
0
 62
     5
 10
17.663462
 20
134.077595
 30
0.0
 11
17.607462
 21
134.077595
 31
0.0
  0
LINE
  5
CBCF
  8
0
 62
     5
 10
19.142128
 20
134.077595
 30
0.0
 11
19.086128
 21
134.077595
 31
0.0
  0
LINE
  5
CBD0
  8
0
 62
     5
 10
19.086128
 20
133.797595
 30
0.0
 11
19.142128
 21
133.797595
 31
0.0
  0
LINE
  5
CBD1
  8
0
 62
     5
 10
17.607462
 20
133.797595
 30
0.0
 11
17.663462
 21
133.797595
 31
0.0
  0
LINE
  5
CBD2
  8
0
 62
     5
 10
19.644283
 20
133.657595
 30
0.0
 11
19.084283
 21
133.657595
 31
0.0
  0
LINE
  5
CBD3
  8
0
 62
     5
 10
18.094795
 20
134.647083
 30
0.0
 11
18.234795
 21
134.648928
 31
0.0
  0
LINE
  5
CBD4
  8
0
 62
     5
 10
18.654795
 20
133.228107
 30
0.0
 11
18.514795
 21
133.226262
 31
0.0
  0
LINE
  5
CBD5
  8
0
 62
     5
 10
19.644283
 20
133.657595
 30
0.0
 11
19.142128
 21
133.797595
 31
0.0
  0
LINE
  5
CBD6
  8
0
 62
     5
 10
17.663462
 20
134.077595
 30
0.0
 11
19.086128
 21
133.797595
 31
0.0
  0
LINE
  5
CBD7
  8
0
 62
     5
 10
17.607462
 20
134.077595
 30
0.0
 11
19.142128
 21
133.797595
 31
0.0
  0
LINE
  5
CBD8
  8
0
 62
     5
 10
18.811999
 20
134.374799
 30
0.0
 11
19.084283
 21
134.217595
 31
0.0
  0
LINE
  5
CBD9
  8
0
 62
     5
 10
19.086128
 20
134.077595
 30
0.0
 11
18.723918
 21
134.286718
 31
0.0
  0
LINE
  5
CBDA
  8
0
 62
     5
 10
17.663462
 20
133.797595
 30
0.0
 11
18.025673
 21
133.588473
 31
0.0
  0
LINE
  5
CBDB
  8
0
 62
     5
 10
17.937592
 20
133.500392
 30
0.0
 11
17.665307
 21
133.657595
 31
0.0
  0
LINE
  5
CBDC
  8
0
 62
     5
 10
19.084283
 20
133.657595
 30
0.0
 11
18.811999
 21
133.500392
 31
0.0
  0
LINE
  5
CBDD
  8
0
 62
     5
 10
18.723918
 20
133.588473
 30
0.0
 11
19.086128
 21
133.797595
 31
0.0
  0
LINE
  5
CBDE
  8
0
 62
     5
 10
18.025673
 20
134.286718
 30
0.0
 11
17.663462
 21
134.077595
 31
0.0
  0
LINE
  5
CBDF
  8
0
 62
     5
 10
17.665307
 20
134.217595
 30
0.0
 11
17.937592
 21
134.374799
 31
0.0
  0
LINE
  5
CBE0
  8
0
 62
     5
 10
18.811999
 20
133.500392
 30
0.0
 11
17.937592
 21
134.374799
 31
0.0
  0
LINE
  5
CBE1
  8
0
 62
     5
 10
17.937592
 20
133.500392
 30
0.0
 11
18.811999
 21
134.374799
 31
0.0
  0
LINE
  5
CBE2
  8
0
 62
     5
 10
18.654795
 20
134.647083
 30
0.0
 11
18.811999
 21
134.374799
 31
0.0
  0
LINE
  5
CBE3
  8
0
 62
     5
 10
18.723918
 20
134.286718
 30
0.0
 11
18.514795
 21
134.648928
 31
0.0
  0
LINE
  5
CBE4
  8
0
 62
     5
 10
18.025673
 20
133.588473
 30
0.0
 11
18.234795
 21
133.226262
 31
0.0
  0
LINE
  5
CBE5
  8
0
 62
     5
 10
18.094795
 20
133.228107
 30
0.0
 11
17.937592
 21
133.500392
 31
0.0
  0
LINE
  5
CBE6
  8
0
 62
     5
 10
18.514795
 20
133.170262
 30
0.0
 11
18.234795
 21
134.704928
 31
0.0
  0
LINE
  5
CBE7
  8
0
 62
     5
 10
18.514795
 20
133.226262
 30
0.0
 11
18.234795
 21
134.648928
 31
0.0
  0
LINE
  5
CBE8
  8
0
 62
     5
 10
18.094795
 20
135.207083
 30
0.0
 11
18.234795
 21
134.704928
 31
0.0
  0
LINE
  5
CBE9
  8
0
 62
     5
 10
18.811999
 20
133.500392
 30
0.0
 11
18.654795
 21
133.228107
 31
0.0
  0
LINE
  5
CBEA
  8
0
 62
     5
 10
18.514795
 20
133.226262
 30
0.0
 11
18.723918
 21
133.588473
 31
0.0
  0
LINE
  5
CBEB
  8
0
 62
     5
 10
18.234795
 20
134.648928
 30
0.0
 11
18.025673
 21
134.286718
 31
0.0
  0
LINE
  5
CBEC
  8
0
 62
     5
 10
17.937592
 20
134.374799
 30
0.0
 11
18.094795
 21
134.647083
 31
0.0
  0
LINE
  5
CBED
  8
0
 62
     5
 10
18.654795
 20
135.207083
 30
0.0
 11
18.514795
 21
134.704928
 31
0.0
  0
LINE
  5
CBEE
  8
0
 62
     5
 10
18.234795
 20
133.226262
 30
0.0
 11
18.514795
 21
134.648928
 31
0.0
  0
LINE
  5
CBEF
  8
0
 62
     5
 10
18.234795
 20
133.170262
 30
0.0
 11
18.514795
 21
134.704928
 31
0.0
  0
LINE
  5
CBF0
  8
0
 62
     5
 10
19.084283
 20
133.657595
 30
0.0
 11
19.086128
 21
133.797595
 31
0.0
  0
LINE
  5
CBF1
  8
0
 62
     5
 10
17.665307
 20
134.217595
 30
0.0
 11
17.663462
 21
134.077595
 31
0.0
  0
LINE
  5
CBF2
  8
0
 62
     5
 10
18.654795
 20
135.207083
 30
0.0
 11
18.654795
 21
134.647083
 31
0.0
  0
LINE
  5
CBF3
  8
0
 62
     5
 10
18.514795
 20
134.648928
 30
0.0
 11
18.514795
 21
134.704928
 31
0.0
  0
LINE
  5
CBF4
  8
0
 62
     5
 10
18.514795
 20
133.170262
 30
0.0
 11
18.514795
 21
133.226262
 31
0.0
  0
LINE
  5
CBF5
  8
0
 62
     5
 10
18.234795
 20
133.226262
 30
0.0
 11
18.234795
 21
133.170262
 31
0.0
  0
LINE
  5
CBF6
  8
0
 62
     5
 10
18.234795
 20
134.704928
 30
0.0
 11
18.234795
 21
134.648928
 31
0.0
  0
LINE
  5
CBF7
  8
0
 62
     5
 10
18.094795
 20
134.647083
 30
0.0
 11
18.094795
 21
135.207083
 31
0.0
  0
LINE
  5
CBF8
  8
0
 62
     5
 10
19.084283
 20
134.217595
 30
0.0
 11
19.086128
 21
134.077595
 31
0.0
  0
LINE
  5
CBF9
  8
0
 62
     5
 10
17.665307
 20
133.657595
 30
0.0
 11
17.663462
 21
133.797595
 31
0.0
  0
LINE
  5
CBFA
  8
0
 62
     5
 10
15.095228
 20
132.387792
 30
0.0
 11
15.095228
 21
135.70147
 31
0.0
  0
ARC
  5
CBFB
  8
0
 62
     5
 10
14.095228
 20
132.387792
 30
0.0
 40
1.0
 50
311.21021
 51
0.0
  0
LINE
  5
CBFC
  8
0
 62
     5
 10
15.857357
 20
131.70147
 30
0.0
 11
15.208316
 21
131.70147
 31
0.0
  0
CIRCLE
  5
CBFD
  8
0
 62
     5
 10
18.374795
 20
133.937595
 30
0.0
 40
2.25
  0
ARC
  5
CBFE
  8
0
 62
     5
 10
16.095228
 20
135.70147
 30
0.0
 40
1.0
 50
90.0
 51
180.0
  0
LINE
  5
CBFF
  8
0
 62
     5
 10
25.238995
 20
136.696639
 30
0.0
 11
25.238657
 21
136.70147
 31
0.0
  0
LINE
  5
CC00
  8
0
 62
     5
 10
41.703228
 20
127.20147
 30
0.0
 11
41.703228
 21
135.70147
 31
0.0
  0
ARC
  5
CC01
  8
0
 62
     5
 10
44.910573
 20
127.321483
 30
0.0
 40
1.3
 50
167.561907
 51
192.438093
  0
LINE
  5
CC02
  8
0
 62
     5
 10
40.703228
 20
136.70147
 30
0.0
 11
30.951799
 21
136.70147
 31
0.0
  0
ARC
  5
CC03
  8
0
 62
     5
 10
40.703228
 20
135.70147
 30
0.0
 40
1.0
 50
0.0
 51
90.0
  0
LINE
  5
CC04
  8
0
 62
     5
 10
80.987771
 20
124.10147
 30
0.0
 11
80.987771
 21
136.70147
 31
0.0
  0
ARC
  5
CC05
  8
0
 62
     5
 10
80.187771
 20
125.321483
 30
0.0
 40
1.0
 50
180.0
 51
270.0
  0
LINE
  5
CC06
  8
0
 62
     5
 10
48.395228
 20
119.258041
 30
0.0
 11
48.395228
 21
129.59947
 31
0.0
  0
LINE
  5
CC07
  8
0
 62
     5
 10
48.395228
 20
108.084959
 30
0.0
 11
48.395228
 21
113.544899
 31
0.0
  0
ARC
  5
CC08
  8
0
 62
     5
 10
47.395228
 20
104.40147
 30
0.0
 40
1.0
 50
270.0
 51
0.0
  0
LINE
  5
CC09
  8
0
 62
     5
 10
47.395228
 20
103.40147
 30
0.0
 11
44.08155
 21
103.40147
 31
0.0
  0
ARC
  5
CC0A
  8
0
 62
     5
 10
47.395228
 20
110.781037
 30
0.0
 40
1.0
 50
270.0
 51
0.0
  0
LINE
  5
CC0B
  8
0
 62
     5
 10
47.395228
 20
109.781037
 30
0.0
 11
45.631353
 21
109.781037
 31
0.0
  0
ARC
  5
CC0C
  8
0
 62
     5
 10
45.631353
 20
106.681037
 30
0.0
 40
1.3
 50
77.561907
 51
102.438093
  0
ARC
  5
CC0D
  8
0
 62
     5
 10
45.631353
 20
106.681037
 30
0.0
 40
0.78
 50
79.660109
 51
100.339891
  0
LINE
  5
CC0E
  8
0
 62
     5
 10
45.911353
 20
107.390525
 30
0.0
 11
45.771353
 21
107.39237
 31
0.0
  0
LINE
  5
CC0F
  8
0
 62
     5
 10
45.351353
 20
107.390525
 30
0.0
 11
45.491353
 21
107.39237
 31
0.0
  0
LINE
  5
CC10
  8
0
 62
     5
 10
45.911353
 20
107.950525
 30
0.0
 11
45.771353
 21
107.44837
 31
0.0
  0
LINE
  5
CC11
  8
0
 62
     5
 10
45.351353
 20
107.950525
 30
0.0
 11
45.491353
 21
107.44837
 31
0.0
  0
LINE
  5
CC12
  8
0
 62
     5
 10
45.911353
 20
107.950525
 30
0.0
 11
45.911353
 21
107.390525
 31
0.0
  0
LINE
  5
CC13
  8
0
 62
     5
 10
45.771353
 20
107.39237
 30
0.0
 11
45.771353
 21
107.44837
 31
0.0
  0
LINE
  5
CC14
  8
0
 62
     5
 10
45.491353
 20
107.44837
 30
0.0
 11
45.491353
 21
107.39237
 31
0.0
  0
LINE
  5
CC15
  8
0
 62
     5
 10
45.351353
 20
107.390525
 30
0.0
 11
45.351353
 21
107.950525
 31
0.0
  0
LINE
  5
CC16
  8
0
 62
     5
 10
48.293608
 20
108.060414
 30
0.0
 11
48.395228
 21
108.084959
 31
0.0
  0
LINE
  5
CC17
  8
0
 62
     5
 10
44.86402
 20
106.541037
 30
0.0
 11
46.398686
 21
106.821037
 31
0.0
  0
LINE
  5
CC18
  8
0
 62
     5
 10
44.92002
 20
106.541037
 30
0.0
 11
46.342686
 21
106.821037
 31
0.0
  0
LINE
  5
CC19
  8
0
 62
     5
 10
46.340841
 20
106.401037
 30
0.0
 11
46.068557
 21
106.243834
 31
0.0
  0
LINE
  5
CC1A
  8
0
 62
     5
 10
45.980476
 20
106.331915
 30
0.0
 11
46.342686
 21
106.541037
 31
0.0
  0
LINE
  5
CC1B
  8
0
 62
     5
 10
44.92002
 20
106.821037
 30
0.0
 11
46.342686
 21
106.541037
 31
0.0
  0
LINE
  5
CC1C
  8
0
 62
     5
 10
44.86402
 20
106.821037
 30
0.0
 11
46.398686
 21
106.541037
 31
0.0
  0
LINE
  5
CC1D
  8
0
 62
     5
 10
46.068557
 20
107.118241
 30
0.0
 11
46.340841
 21
106.961037
 31
0.0
  0
LINE
  5
CC1E
  8
0
 62
     5
 10
46.342686
 20
106.821037
 30
0.0
 11
45.980476
 21
107.03016
 31
0.0
  0
ARC
  5
CC1F
  8
0
 62
     5
 10
45.631353
 20
106.681037
 30
0.0
 40
1.3
 50
257.561907
 51
282.438093
  0
ARC
  5
CC20
  8
0
 62
     5
 10
45.631353
 20
106.681037
 30
0.0
 40
0.78
 50
259.660109
 51
280.339891
  0
ARC
  5
CC21
  8
0
 62
     5
 10
45.631353
 20
106.681037
 30
0.0
 40
0.78
 50
169.660109
 51
190.339891
  0
LINE
  5
CC22
  8
0
 62
     5
 10
45.351353
 20
105.971549
 30
0.0
 11
45.491353
 21
105.969704
 31
0.0
  0
LINE
  5
CC23
  8
0
 62
     5
 10
44.92002
 20
106.821037
 30
0.0
 11
44.86402
 21
106.821037
 31
0.0
  0
LINE
  5
CC24
  8
0
 62
     5
 10
44.86402
 20
106.541037
 30
0.0
 11
44.92002
 21
106.541037
 31
0.0
  0
LINE
  5
CC25
  8
0
 62
     5
 10
45.911353
 20
105.971549
 30
0.0
 11
45.771353
 21
105.969704
 31
0.0
  0
LINE
  5
CC26
  8
0
 62
     5
 10
45.282231
 20
107.03016
 30
0.0
 11
44.92002
 21
106.821037
 31
0.0
  0
LINE
  5
CC27
  8
0
 62
     5
 10
44.921865
 20
106.961037
 30
0.0
 11
45.19415
 21
107.118241
 31
0.0
  0
LINE
  5
CC28
  8
0
 62
     5
 10
45.19415
 20
106.243834
 30
0.0
 11
46.068557
 21
107.118241
 31
0.0
  0
LINE
  5
CC29
  8
0
 62
     5
 10
44.92002
 20
106.541037
 30
0.0
 11
45.282231
 21
106.331915
 31
0.0
  0
LINE
  5
CC2A
  8
0
 62
     5
 10
45.19415
 20
106.243834
 30
0.0
 11
44.921865
 21
106.401037
 31
0.0
  0
LINE
  5
CC2B
  8
0
 62
     5
 10
46.068557
 20
106.243834
 30
0.0
 11
45.911353
 21
105.971549
 31
0.0
  0
LINE
  5
CC2C
  8
0
 62
     5
 10
45.771353
 20
105.969704
 30
0.0
 11
45.980476
 21
106.331915
 31
0.0
  0
LINE
  5
CC2D
  8
0
 62
     5
 10
45.282231
 20
106.331915
 30
0.0
 11
45.491353
 21
105.969704
 31
0.0
  0
LINE
  5
CC2E
  8
0
 62
     5
 10
46.068557
 20
106.243834
 30
0.0
 11
45.19415
 21
107.118241
 31
0.0
  0
LINE
  5
CC2F
  8
0
 62
     5
 10
45.351353
 20
105.411549
 30
0.0
 11
45.491353
 21
105.913704
 31
0.0
  0
LINE
  5
CC30
  8
0
 62
     5
 10
45.911353
 20
105.411549
 30
0.0
 11
45.771353
 21
105.913704
 31
0.0
  0
LINE
  5
CC31
  8
0
 62
     5
 10
45.351353
 20
105.971549
 30
0.0
 11
45.19415
 21
106.243834
 31
0.0
  0
LINE
  5
CC32
  8
0
 62
     5
 10
44.921865
 20
106.961037
 30
0.0
 11
44.92002
 21
106.821037
 31
0.0
  0
LINE
  5
CC33
  8
0
 62
     5
 10
45.911353
 20
105.971549
 30
0.0
 11
45.911353
 21
105.411549
 31
0.0
  0
LINE
  5
CC34
  8
0
 62
     5
 10
45.771353
 20
105.913704
 30
0.0
 11
45.771353
 21
105.969704
 31
0.0
  0
LINE
  5
CC35
  8
0
 62
     5
 10
45.491353
 20
105.969704
 30
0.0
 11
45.491353
 21
105.913704
 31
0.0
  0
LINE
  5
CC36
  8
0
 62
     5
 10
45.351353
 20
105.411549
 30
0.0
 11
45.351353
 21
105.971549
 31
0.0
  0
LINE
  5
CC37
  8
0
 62
     5
 10
44.921865
 20
106.401037
 30
0.0
 11
44.92002
 21
106.541037
 31
0.0
  0
ARC
  5
CC38
  8
0
 62
     5
 10
45.631353
 20
106.681037
 30
0.0
 40
1.3
 50
347.561907
 51
12.438093
  0
ARC
  5
CC39
  8
0
 62
     5
 10
45.631353
 20
106.681037
 30
0.0
 40
0.78
 50
349.660109
 51
10.339891
  0
LINE
  5
CC3A
  8
0
 62
     5
 10
46.900841
 20
106.961037
 30
0.0
 11
46.398686
 21
106.821037
 31
0.0
  0
LINE
  5
CC3B
  8
0
 62
     5
 10
46.340841
 20
106.961037
 30
0.0
 11
46.900841
 21
106.961037
 31
0.0
  0
LINE
  5
CC3C
  8
0
 62
     5
 10
46.398686
 20
106.821037
 30
0.0
 11
46.342686
 21
106.821037
 31
0.0
  0
LINE
  5
CC3D
  8
0
 62
     5
 10
46.342686
 20
106.541037
 30
0.0
 11
46.398686
 21
106.541037
 31
0.0
  0
LINE
  5
CC3E
  8
0
 62
     5
 10
46.900841
 20
106.401037
 30
0.0
 11
46.340841
 21
106.401037
 31
0.0
  0
LINE
  5
CC3F
  8
0
 62
     5
 10
48.313794
 20
105.29675
 30
0.0
 11
48.293608
 21
105.301661
 31
0.0
  0
LINE
  5
CC40
  8
0
 62
     5
 10
48.395228
 20
105.277116
 30
0.0
 11
48.313794
 21
105.29675
 31
0.0
  0
LINE
  5
CC41
  8
0
 62
     5
 10
46.900841
 20
106.401037
 30
0.0
 11
46.398686
 21
106.541037
 31
0.0
  0
LINE
  5
CC42
  8
0
 62
     5
 10
46.340841
 20
106.401037
 30
0.0
 11
46.342686
 21
106.541037
 31
0.0
  0
LINE
  5
CC43
  8
0
 62
     5
 10
46.340841
 20
106.961037
 30
0.0
 11
46.342686
 21
106.821037
 31
0.0
  0
LINE
  5
CC44
  8
0
 62
     5
 10
45.491353
 20
107.39237
 30
0.0
 11
45.282231
 21
107.03016
 31
0.0
  0
LINE
  5
CC45
  8
0
 62
     5
 10
45.19415
 20
107.118241
 30
0.0
 11
45.351353
 21
107.390525
 31
0.0
  0
LINE
  5
CC46
  8
0
 62
     5
 10
45.911353
 20
107.390525
 30
0.0
 11
46.068557
 21
107.118241
 31
0.0
  0
LINE
  5
CC47
  8
0
 62
     5
 10
45.980476
 20
107.03016
 30
0.0
 11
45.771353
 21
107.39237
 31
0.0
  0
LINE
  5
CC48
  8
0
 62
     5
 10
45.491353
 20
105.969704
 30
0.0
 11
45.771353
 21
107.39237
 31
0.0
  0
LINE
  5
CC49
  8
0
 62
     5
 10
45.491353
 20
105.913704
 30
0.0
 11
45.771353
 21
107.44837
 31
0.0
  0
LINE
  5
CC4A
  8
0
 62
     5
 10
45.771353
 20
105.913704
 30
0.0
 11
45.491353
 21
107.44837
 31
0.0
  0
LINE
  5
CC4B
  8
0
 62
     5
 10
45.771353
 20
105.969704
 30
0.0
 11
45.491353
 21
107.39237
 31
0.0
  0
ARC
  5
CC4C
  8
0
 62
     5
 10
45.631353
 20
106.681037
 30
0.0
 40
3.1
 50
333.071521
 51
26.928479
  0
ARC
  5
CC4D
  8
0
 62
     5
 10
45.631353
 20
106.681037
 30
0.0
 40
1.3
 50
167.561907
 51
192.438093
  0
LINE
  5
CC4E
  8
0
 62
     5
 10
44.361865
 20
106.401037
 30
0.0
 11
44.86402
 21
106.541037
 31
0.0
  0
LINE
  5
CC4F
  8
0
 62
     5
 10
44.361865
 20
106.961037
 30
0.0
 11
44.921865
 21
106.961037
 31
0.0
  0
LINE
  5
CC50
  8
0
 62
     5
 10
44.921865
 20
106.401037
 30
0.0
 11
44.361865
 21
106.401037
 31
0.0
  0
LINE
  5
CC51
  8
0
 62
     5
 10
44.361865
 20
106.961037
 30
0.0
 11
44.86402
 21
106.821037
 31
0.0
  0
ARC
  5
CC52
  8
0
 62
     5
 10
28.095228
 20
116.40147
 30
0.0
 40
20.5
 50
351.990057
 51
8.009943
  0
LINE
  5
CC53
  8
0
 62
     5
 10
48.395228
 20
119.258041
 30
0.0
 11
48.390397
 21
119.257703
 31
0.0
  0
LINE
  5
CC54
  8
0
 62
     5
 10
47.395228
 20
124.10147
 30
0.0
 11
44.803228
 21
124.10147
 31
0.0
  0
ARC
  5
CC55
  8
0
 62
     5
 10
47.395228
 20
123.10147
 30
0.0
 40
1.0
 50
0.0
 51
90.0
  0
LINE
  5
CC56
  8
0
 62
     5
 10
81.187771
 20
103.40147
 30
0.0
 11
95.487771
 21
103.40147
 31
0.0
  0
LINE
  5
CC57
  8
0
 62
     5
 10
80.987771
 20
103.60147
 30
0.0
 11
80.987771
 21
109.781037
 31
0.0
  0
LINE
  5
CC58
  8
0
 62
     5
 10
79.187771
 20
104.431138
 30
0.0
 11
79.187771
 21
108.930936
 31
0.0
  0
ARC
  5
CC59
  8
0
 62
     5
 10
78.619424
 20
105.431037
 30
0.0
 40
1.0
 50
192.024691
 51
269.999998
  0
ARC
  5
CC5A
  8
0
 62
     5
 10
80.187771
 20
104.681037
 30
0.0
 40
1.0
 50
180.0
 51
270.0
  0
LINE
  5
CC5B
  8
0
 62
     5
 10
78.619424
 20
104.431037
 30
0.0
 11
79.187771
 21
104.431037
 31
0.0
  0
ARC
  5
CC5C
  8
0
 62
     5
 10
81.187771
 20
103.60147
 30
0.0
 40
0.2
 50
180.0
 51
270.0
  0
LINE
  5
CC5D
  8
0
 62
     5
 10
80.187771
 20
103.681037
 30
0.0
 11
80.987771
 21
103.681037
 31
0.0
  0
ARC
  5
CC5E
  8
0
 62
     5
 10
80.187771
 20
108.681037
 30
0.0
 40
1.0
 50
90.0
 51
180.0
  0
LINE
  5
CC5F
  8
0
 62
     5
 10
78.287771
 20
109.781037
 30
0.0
 11
80.987771
 21
109.781037
 31
0.0
  0
LINE
  5
CC60
  8
0
 62
     5
 10
78.619424
 20
108.931037
 30
0.0
 11
79.187771
 21
108.931037
 31
0.0
  0
ARC
  5
CC61
  8
0
 62
     5
 10
78.287771
 20
110.781037
 30
0.0
 40
1.0
 50
180.0
 51
270.0
  0
LINE
  5
CC62
  8
0
 62
     5
 10
77.609545
 20
107.981037
 30
0.0
 11
77.641366
 21
108.13937
 31
0.0
  0
LINE
  5
CC63
  8
0
 62
     5
 10
77.609545
 20
107.981037
 30
0.0
 11
77.609545
 21
107.950525
 31
0.0
  0
LINE
  5
CC64
  8
0
 62
     5
 10
77.529451
 20
106.961037
 30
0.0
 11
77.609545
 21
106.961037
 31
0.0
  0
LINE
  5
CC65
  8
0
 62
     5
 10
77.609545
 20
106.401037
 30
0.0
 11
77.529451
 21
106.401037
 31
0.0
  0
LINE
  5
CC66
  8
0
 62
     5
 10
77.609545
 20
105.381037
 30
0.0
 11
77.641366
 21
105.222704
 31
0.0
  0
LINE
  5
CC67
  8
0
 62
     5
 10
77.609545
 20
105.411549
 30
0.0
 11
77.609545
 21
105.381037
 31
0.0
  0
LINE
  5
CC68
  8
0
 62
     5
 10
77.609545
 20
106.961037
 30
0.0
 11
77.609545
 21
106.401037
 31
0.0
  0
ARC
  5
CC69
  8
0
 62
     5
 10
78.619424
 20
107.931037
 30
0.0
 40
1.0
 50
90.000002
 51
167.975309
  0
LINE
  5
CC6A
  8
0
 62
     5
 10
80.187771
 20
109.681037
 30
0.0
 11
80.987771
 21
109.681037
 31
0.0
  0
ARC
  5
CC6B
  8
0
 62
     5
 10
102.048651
 20
101.251618
 30
0.0
 40
1.0
 50
90.000002
 51
163.042245
  0
ARC
  5
CC6C
  8
0
 62
     5
 10
95.487771
 20
102.90147
 30
0.0
 40
0.5
 50
0.0
 51
90.0
  0
ARC
  5
CC6D
  8
0
 62
     5
 10
99.487771
 20
102.90147
 30
0.0
 40
0.5
 50
90.0
 51
180.0
  0
LINE
  5
CC6E
  8
0
 62
     5
 10
101.03666
 20
99.781618
 30
0.0
 11
101.03666
 21
99.221618
 31
0.0
  0
LINE
  5
CC6F
  8
0
 62
     5
 10
101.03666
 20
101.351618
 30
0.0
 11
101.03666
 21
101.330306
 31
0.0
  0
LINE
  5
CC70
  8
0
 62
     5
 10
100.909397
 20
99.781618
 30
0.0
 11
101.03666
 21
99.781618
 31
0.0
  0
LINE
  5
CC71
  8
0
 62
     5
 10
101.03666
 20
99.221618
 30
0.0
 11
100.909397
 21
99.221618
 31
0.0
  0
LINE
  5
CC72
  8
0
 62
     5
 10
101.03666
 20
101.351618
 30
0.0
 11
101.092131
 21
101.543284
 31
0.0
  0
LINE
  5
CC73
  8
0
 62
     5
 10
80.987771
 20
124.10147
 30
0.0
 11
78.287771
 21
124.10147
 31
0.0
  0
ARC
  5
CC74
  8
0
 62
     5
 10
78.287771
 20
123.10147
 30
0.0
 40
1.0
 50
90.0
 51
180.0
  0
LINE
  5
CC75
  8
0
 62
     5
 10
80.187771
 20
124.321483
 30
0.0
 11
80.987771
 21
124.321483
 31
0.0
  0
LINE
  5
CC76
  8
0
 62
     5
 10
48.095228
 20
133.90147
 30
0.0
 11
48.095228
 21
130.313295
 31
0.0
  0
ARC
  5
CC77
  8
0
 62
     5
 10
44.910573
 20
127.321483
 30
0.0
 40
0.78
 50
259.660109
 51
280.339891
  0
LINE
  5
CC78
  8
0
 62
     5
 10
45.621906
 20
127.181483
 30
0.0
 11
45.677906
 21
127.181483
 31
0.0
  0
LINE
  5
CC79
  8
0
 62
     5
 10
46.180061
 20
127.041483
 30
0.0
 11
45.620061
 21
127.041483
 31
0.0
  0
LINE
  5
CC7A
  8
0
 62
     5
 10
45.190573
 20
126.611995
 30
0.0
 11
45.050573
 21
126.61015
 31
0.0
  0
LINE
  5
CC7B
  8
0
 62
     5
 10
46.180061
 20
127.041483
 30
0.0
 11
45.677906
 21
127.181483
 31
0.0
  0
LINE
  5
CC7C
  8
0
 62
     5
 10
45.620061
 20
127.041483
 30
0.0
 11
45.347776
 21
126.884279
 31
0.0
  0
LINE
  5
CC7D
  8
0
 62
     5
 10
45.259695
 20
126.97236
 30
0.0
 11
45.621906
 21
127.181483
 31
0.0
  0
LINE
  5
CC7E
  8
0
 62
     5
 10
45.190573
 20
126.051995
 30
0.0
 11
45.050573
 21
126.55415
 31
0.0
  0
LINE
  5
CC7F
  8
0
 62
     5
 10
45.347776
 20
126.884279
 30
0.0
 11
45.190573
 21
126.611995
 31
0.0
  0
LINE
  5
CC80
  8
0
 62
     5
 10
45.050573
 20
126.61015
 30
0.0
 11
45.259695
 21
126.97236
 31
0.0
  0
LINE
  5
CC81
  8
0
 62
     5
 10
45.620061
 20
127.041483
 30
0.0
 11
45.621906
 21
127.181483
 31
0.0
  0
LINE
  5
CC82
  8
0
 62
     5
 10
45.190573
 20
126.611995
 30
0.0
 11
45.190573
 21
126.051995
 31
0.0
  0
LINE
  5
CC83
  8
0
 62
     5
 10
45.050573
 20
126.55415
 30
0.0
 11
45.050573
 21
126.61015
 31
0.0
  0
LINE
  5
CC84
  8
0
 62
     5
 10
44.770573
 20
126.61015
 30
0.0
 11
44.770573
 21
126.55415
 31
0.0
  0
ARC
  5
CC85
  8
0
 62
     5
 10
44.910573
 20
127.321483
 30
0.0
 40
1.3
 50
347.561907
 51
12.438093
  0
ARC
  5
CC86
  8
0
 62
     5
 10
44.910573
 20
127.321483
 30
0.0
 40
0.78
 50
349.660109
 51
10.339891
  0
LINE
  5
CC87
  8
0
 62
     5
 10
45.050573
 20
126.61015
 30
0.0
 11
44.770573
 21
128.032816
 31
0.0
  0
LINE
  5
CC88
  8
0
 62
     5
 10
44.770573
 20
126.61015
 30
0.0
 11
45.050573
 21
128.032816
 31
0.0
  0
LINE
  5
CC89
  8
0
 62
     5
 10
45.050573
 20
126.55415
 30
0.0
 11
44.770573
 21
128.088816
 31
0.0
  0
LINE
  5
CC8A
  8
0
 62
     5
 10
44.770573
 20
126.55415
 30
0.0
 11
45.050573
 21
128.088816
 31
0.0
  0
ARC
  5
CC8B
  8
0
 62
     5
 10
44.910573
 20
127.321483
 30
0.0
 40
0.78
 50
79.660109
 51
100.339891
  0
LINE
  5
CC8C
  8
0
 62
     5
 10
46.180061
 20
127.601483
 30
0.0
 11
45.677906
 21
127.461483
 31
0.0
  0
LINE
  5
CC8D
  8
0
 62
     5
 10
45.190573
 20
128.030971
 30
0.0
 11
45.050573
 21
128.032816
 31
0.0
  0
LINE
  5
CC8E
  8
0
 62
     5
 10
45.620061
 20
127.601483
 30
0.0
 11
46.180061
 21
127.601483
 31
0.0
  0
LINE
  5
CC8F
  8
0
 62
     5
 10
45.677906
 20
127.461483
 30
0.0
 11
45.621906
 21
127.461483
 31
0.0
  0
LINE
  5
CC90
  8
0
 62
     5
 10
45.347776
 20
127.758686
 30
0.0
 11
45.620061
 21
127.601483
 31
0.0
  0
LINE
  5
CC91
  8
0
 62
     5
 10
45.621906
 20
127.461483
 30
0.0
 11
45.259695
 21
127.670605
 31
0.0
  0
LINE
  5
CC92
  8
0
 62
     5
 10
45.190573
 20
128.030971
 30
0.0
 11
45.347776
 21
127.758686
 31
0.0
  0
LINE
  5
CC93
  8
0
 62
     5
 10
45.259695
 20
127.670605
 30
0.0
 11
45.050573
 21
128.032816
 31
0.0
  0
LINE
  5
CC94
  8
0
 62
     5
 10
45.190573
 20
128.590971
 30
0.0
 11
45.050573
 21
128.088816
 31
0.0
  0
LINE
  5
CC95
  8
0
 62
     5
 10
45.190573
 20
128.590971
 30
0.0
 11
45.190573
 21
128.030971
 31
0.0
  0
LINE
  5
CC96
  8
0
 62
     5
 10
45.050573
 20
128.032816
 30
0.0
 11
45.050573
 21
128.088816
 31
0.0
  0
LINE
  5
CC97
  8
0
 62
     5
 10
44.770573
 20
128.088816
 30
0.0
 11
44.770573
 21
128.032816
 31
0.0
  0
LINE
  5
CC98
  8
0
 62
     5
 10
45.620061
 20
127.601483
 30
0.0
 11
45.621906
 21
127.461483
 31
0.0
  0
ARC
  5
CC99
  8
0
 62
     5
 10
47.395228
 20
129.59947
 30
0.0
 40
1.0
 50
0.0
 51
90.0
  0
LINE
  5
CC9A
  8
0
 62
     5
 10
44.14324
 20
127.181483
 30
0.0
 11
44.19924
 21
127.181483
 31
0.0
  0
LINE
  5
CC9B
  8
0
 62
     5
 10
44.19924
 20
127.181483
 30
0.0
 11
44.56145
 21
126.97236
 31
0.0
  0
LINE
  5
CC9C
  8
0
 62
     5
 10
44.473369
 20
126.884279
 30
0.0
 11
44.201085
 21
127.041483
 31
0.0
  0
LINE
  5
CC9D
  8
0
 62
     5
 10
44.630573
 20
126.611995
 30
0.0
 11
44.473369
 21
126.884279
 31
0.0
  0
LINE
  5
CC9E
  8
0
 62
     5
 10
44.630573
 20
126.051995
 30
0.0
 11
44.630573
 21
126.611995
 31
0.0
  0
LINE
  5
CC9F
  8
0
 62
     5
 10
44.201085
 20
127.041483
 30
0.0
 11
44.19924
 21
127.181483
 31
0.0
  0
ARC
  5
CCA0
  8
0
 62
     5
 10
44.910573
 20
127.321483
 30
0.0
 40
0.78
 50
169.660109
 51
190.339891
  0
LINE
  5
CCA1
  8
0
 62
     5
 10
44.19924
 20
127.461483
 30
0.0
 11
44.14324
 21
127.461483
 31
0.0
  0
LINE
  5
CCA2
  8
0
 62
     5
 10
44.56145
 20
127.670605
 30
0.0
 11
44.19924
 21
127.461483
 31
0.0
  0
LINE
  5
CCA3
  8
0
 62
     5
 10
44.201085
 20
127.601483
 30
0.0
 11
44.473369
 21
127.758686
 31
0.0
  0
LINE
  5
CCA4
  8
0
 62
     5
 10
44.473369
 20
127.758686
 30
0.0
 11
44.630573
 21
128.030971
 31
0.0
  0
LINE
  5
CCA5
  8
0
 62
     5
 10
44.049364
 20
130.59947
 30
0.0
 11
44.038679
 21
130.558557
 31
0.0
  0
LINE
  5
CCA6
  8
0
 62
     5
 10
44.038679
 20
130.558557
 30
0.0
 11
43.997604
 21
130.39947
 31
0.0
  0
LINE
  5
CCA7
  8
0
 62
     5
 10
44.201085
 20
127.601483
 30
0.0
 11
44.19924
 21
127.461483
 31
0.0
  0
LINE
  5
CCA8
  8
0
 62
     5
 10
44.630573
 20
128.030971
 30
0.0
 11
44.630573
 21
128.590971
 31
0.0
  0
ARC
  5
CCA9
  8
0
 62
     5
 10
44.910573
 20
127.321483
 30
0.0
 40
1.3
 50
257.561907
 51
282.438093
  0
LINE
  5
CCAA
  8
0
 62
     5
 10
44.630573
 20
126.611995
 30
0.0
 11
44.770573
 21
126.61015
 31
0.0
  0
LINE
  5
CCAB
  8
0
 62
     5
 10
44.56145
 20
126.97236
 30
0.0
 11
44.770573
 21
126.61015
 31
0.0
  0
LINE
  5
CCAC
  8
0
 62
     5
 10
44.630573
 20
126.051995
 30
0.0
 11
44.770573
 21
126.55415
 31
0.0
  0
LINE
  5
CCAD
  8
0
 62
     5
 10
44.19924
 20
127.181483
 30
0.0
 11
45.621906
 21
127.461483
 31
0.0
  0
LINE
  5
CCAE
  8
0
 62
     5
 10
44.14324
 20
127.181483
 30
0.0
 11
45.677906
 21
127.461483
 31
0.0
  0
LINE
  5
CCAF
  8
0
 62
     5
 10
44.19924
 20
127.461483
 30
0.0
 11
45.621906
 21
127.181483
 31
0.0
  0
LINE
  5
CCB0
  8
0
 62
     5
 10
44.14324
 20
127.461483
 30
0.0
 11
45.677906
 21
127.181483
 31
0.0
  0
LINE
  5
CCB1
  8
0
 62
     5
 10
45.347776
 20
126.884279
 30
0.0
 11
44.473369
 21
127.758686
 31
0.0
  0
LINE
  5
CCB2
  8
0
 62
     5
 10
44.473369
 20
126.884279
 30
0.0
 11
45.347776
 21
127.758686
 31
0.0
  0
LINE
  5
CCB3
  8
0
 62
     5
 10
44.049364
 20
130.59947
 30
0.0
 11
47.395228
 21
130.59947
 31
0.0
  0
ARC
  5
CCB4
  8
0
 62
     5
 10
44.910573
 20
127.321483
 30
0.0
 40
1.3
 50
77.561907
 51
102.438093
  0
LINE
  5
CCB5
  8
0
 62
     5
 10
44.630573
 20
128.030971
 30
0.0
 11
44.770573
 21
128.032816
 31
0.0
  0
LINE
  5
CCB6
  8
0
 62
     5
 10
44.630573
 20
128.590971
 30
0.0
 11
44.770573
 21
128.088816
 31
0.0
  0
LINE
  5
CCB7
  8
0
 62
     5
 10
44.770573
 20
128.032816
 30
0.0
 11
44.56145
 21
127.670605
 31
0.0
  0
ARC
  5
CCB8
  8
0
 62
     5
 10
45.595228
 20
133.90147
 30
0.0
 40
2.5
 50
0.0
 51
90.0
  0
ARC
  5
CCB9
  8
0
 62
     5
 10
80.187771
 20
129.321483
 30
0.0
 40
1.0
 50
90.0
 51
180.0
  0
LINE
  5
CCBA
  8
0
 62
     5
 10
79.187771
 20
125.071584
 30
0.0
 11
79.187771
 21
129.571382
 31
0.0
  0
LINE
  5
CCBB
  8
0
 62
     5
 10
78.619424
 20
125.071483
 30
0.0
 11
79.187771
 21
125.071483
 31
0.0
  0
LINE
  5
CCBC
  8
0
 62
     5
 10
78.619424
 20
129.571483
 30
0.0
 11
79.187771
 21
129.571483
 31
0.0
  0
LINE
  5
CCBD
  8
0
 62
     5
 10
77.609545
 20
127.601483
 30
0.0
 11
77.609545
 21
127.041483
 31
0.0
  0
LINE
  5
CCBE
  8
0
 62
     5
 10
77.609545
 20
127.041483
 30
0.0
 11
77.529451
 21
127.041483
 31
0.0
  0
LINE
  5
CCBF
  8
0
 62
     5
 10
77.609545
 20
126.021483
 30
0.0
 11
77.641366
 21
125.863149
 31
0.0
  0
LINE
  5
CCC0
  8
0
 62
     5
 10
77.609545
 20
126.051995
 30
0.0
 11
77.609545
 21
126.021483
 31
0.0
  0
LINE
  5
CCC1
  8
0
 62
     5
 10
77.529451
 20
127.601483
 30
0.0
 11
77.609545
 21
127.601483
 31
0.0
  0
LINE
  5
CCC2
  8
0
 62
     5
 10
77.609545
 20
128.621483
 30
0.0
 11
77.641366
 21
128.779816
 31
0.0
  0
LINE
  5
CCC3
  8
0
 62
     5
 10
77.609545
 20
128.621483
 30
0.0
 11
77.609545
 21
128.590971
 31
0.0
  0
ARC
  5
CCC4
  8
0
 62
     5
 10
78.619424
 20
126.071483
 30
0.0
 40
1.0
 50
192.024691
 51
269.999998
  0
ARC
  5
CCC5
  8
0
 62
     5
 10
78.619424
 20
128.571483
 30
0.0
 40
1.0
 50
90.000002
 51
167.975309
  0
ARC
  5
CCC6
  8
0
 62
     5
 10
81.187771
 20
130.39947
 30
0.0
 40
0.2
 50
90.0
 51
180.0
  0
LINE
  5
CCC7
  8
0
 62
     5
 10
80.187771
 20
130.321483
 30
0.0
 11
80.987771
 21
130.321483
 31
0.0
  0
ARC
  5
CCC8
  8
0
 62
     5
 10
80.187771
 20
135.937595
 30
0.0
 40
1.0
 50
90.0
 51
105.390908
  0
ARC
  5
CCC9
  8
0
 62
     5
 10
78.287771
 20
135.70147
 30
0.0
 40
1.0
 50
90.0
 51
180.0
  0
ARC
  5
CCCA
  8
0
 62
     5
 10
78.287771
 20
135.90147
 30
0.0
 40
1.0
 50
90.0
 51
180.0
  0
ARC
  5
CCCB
  8
0
 62
     5
 10
81.187771
 20
136.837595
 30
0.0
 40
0.2
 50
90.0
 51
161.360907
  0
LINE
  5
CCCC
  8
0
 62
     5
 10
80.187771
 20
136.937595
 30
0.0
 11
80.987771
 21
136.937595
 31
0.0
  0
LINE
  5
CCCD
  8
0
 62
     5
 10
80.987771
 20
136.90147
 30
0.0
 11
80.987771
 21
136.937595
 31
0.0
  0
LINE
  5
CCCE
  8
0
 62
     5
 10
159.887771
 20
131.40147
 30
0.0
 11
161.987771
 21
131.40147
 31
0.0
  0
LINE
  5
CCCF
  8
0
 62
     5
 10
159.887771
 20
101.40147
 30
0.0
 11
161.987771
 21
101.40147
 31
0.0
  0
LINE
  5
CCD0
  8
0
 62
     5
 10
102.987771
 20
102.451618
 30
0.0
 11
102.987771
 21
137.037595
 31
0.0
  0
LINE
  5
CCD1
  8
0
 62
     5
 10
102.987771
 20
103.65147
 30
0.0
 11
103.487771
 21
103.65147
 31
0.0
  0
LINE
  5
CCD2
  8
0
 62
     5
 10
103.487771
 20
102.451618
 30
0.0
 11
102.787771
 21
102.451618
 31
0.0
  0
ARC
  5
CCD3
  8
0
 62
     5
 10
159.887771
 20
101.20147
 30
0.0
 40
0.2
 50
90.0
 51
180.0
  0
LINE
  5
CCD4
  8
0
 62
     5
 10
154.687771
 20
128.886423
 30
0.0
 11
110.507816
 21
129.01016
 31
0.0
  0
LINE
  5
CCD5
  8
0
 62
     5
 10
152.687771
 20
129.032013
 30
0.0
 11
110.487771
 21
129.00947
 31
0.0
  0
LINE
  5
CCD6
  8
0
 62
     5
 10
152.687771
 20
133.366315
 30
0.0
 11
110.633008
 21
134.421041
 31
0.0
  0
LINE
  5
CCD7
  8
0
 62
     5
 10
154.687771
 20
136.40147
 30
0.0
 11
110.487771
 21
136.70147
 31
0.0
  0
LINE
  5
CCD8
  8
0
 62
     5
 10
110.487771
 20
129.113574
 30
0.0
 11
103.729354
 21
130.55012
 31
0.0
  0
ARC
  5
CCD9
  8
0
 62
     5
 10
103.687771
 20
130.35449
 30
0.0
 40
0.2
 50
78.000014
 51
179.999933
  0
LINE
  5
CCDA
  8
0
 62
     5
 10
102.987771
 20
130.34947
 30
0.0
 11
103.487771
 21
130.34947
 31
0.0
  0
LINE
  5
CCDB
  8
0
 62
     5
 10
110.495626
 20
129.009463
 30
0.0
 11
110.494197
 21
129.009442
 31
0.0
  0
LINE
  5
CCDC
  8
0
 62
     5
 10
110.558412
 20
129.011607
 30
0.0
 11
110.541596
 21
129.011348
 31
0.0
  0
LINE
  5
CCDD
  8
0
 62
     5
 10
110.541596
 20
129.011348
 30
0.0
 11
110.534079
 21
129.011183
 31
0.0
  0
LINE
  5
CCDE
  8
0
 62
     5
 10
110.534079
 20
129.011183
 30
0.0
 11
110.527259
 21
129.010997
 31
0.0
  0
LINE
  5
CCDF
  8
0
 62
     5
 10
110.527259
 20
129.010997
 30
0.0
 11
110.521261
 21
129.010793
 31
0.0
  0
LINE
  5
CCE0
  8
0
 62
     5
 10
110.497425
 20
129.009533
 30
0.0
 11
110.495626
 21
129.009463
 31
0.0
  0
LINE
  5
CCE1
  8
0
 62
     5
 10
110.521261
 20
129.010793
 30
0.0
 11
110.516028
 21
129.010581
 31
0.0
  0
LINE
  5
CCE2
  8
0
 62
     5
 10
110.516028
 20
129.010581
 30
0.0
 11
110.511593
 21
129.010367
 31
0.0
  0
LINE
  5
CCE3
  8
0
 62
     5
 10
110.49947
 20
129.009645
 30
0.0
 11
110.497425
 21
129.009533
 31
0.0
  0
LINE
  5
CCE4
  8
0
 62
     5
 10
110.511593
 20
129.010367
 30
0.0
 11
110.507816
 21
129.01016
 31
0.0
  0
LINE
  5
CCE5
  8
0
 62
     5
 10
110.507816
 20
129.01016
 30
0.0
 11
110.49947
 21
129.009645
 31
0.0
  0
LINE
  5
CCE6
  8
0
 62
     5
 10
110.941701
 20
129.011583
 30
0.0
 11
110.651574
 21
129.012028
 31
0.0
  0
LINE
  5
CCE7
  8
0
 62
     5
 10
110.651574
 20
129.012028
 30
0.0
 11
110.587981
 21
129.011858
 31
0.0
  0
LINE
  5
CCE8
  8
0
 62
     5
 10
110.587981
 20
129.011858
 30
0.0
 11
110.558412
 21
129.011607
 31
0.0
  0
LINE
  5
CCE9
  8
0
 62
     5
 10
111.824633
 20
129.00925
 30
0.0
 11
110.941701
 21
129.011583
 31
0.0
  0
LINE
  5
CCEA
  8
0
 62
     5
 10
110.487771
 20
137.037595
 30
0.0
 11
103.687771
 21
137.037595
 31
0.0
  0
LINE
  5
CCEB
  8
0
 62
     5
 10
110.487771
 20
136.90147
 30
0.0
 11
103.687771
 21
136.90147
 31
0.0
  0
LINE
  5
CCEC
  8
0
 62
     5
 10
103.687771
 20
136.70147
 30
0.0
 11
110.487771
 21
136.70147
 31
0.0
  0
ARC
  5
CCED
  8
0
 62
     5
 10
103.687771
 20
136.70147
 30
0.0
 40
0.2
 50
90.0
 51
180.0
  0
ARC
  5
CCEE
  8
0
 62
     5
 10
103.687771
 20
136.837595
 30
0.0
 40
0.2
 50
90.0
 51
180.0
  0
LINE
  5
CCEF
  8
0
 62
     5
 10
102.987771
 20
136.787595
 30
0.0
 11
103.487771
 21
136.787595
 31
0.0
  0
LINE
  5
CCF0
  8
0
 62
     5
 10
102.987771
 20
136.65147
 30
0.0
 11
103.487771
 21
136.65147
 31
0.0
  0
LINE
  5
CCF1
  8
0
 62
     5
 10
102.987771
 20
136.45147
 30
0.0
 11
103.487771
 21
136.45147
 31
0.0
  0
ARC
  5
CCF2
  8
0
 62
     5
 10
103.687771
 20
136.50147
 30
0.0
 40
0.2
 50
90.0
 51
179.999932
  0
LINE
  5
CCF3
  8
0
 62
     5
 10
110.585872
 20
134.432287
 30
0.0
 11
110.596676
 21
134.429041
 31
0.0
  0
LINE
  5
CCF4
  8
0
 62
     5
 10
110.596676
 20
134.429041
 30
0.0
 11
110.608151
 21
134.426113
 31
0.0
  0
LINE
  5
CCF5
  8
0
 62
     5
 10
110.608151
 20
134.426113
 30
0.0
 11
110.620259
 21
134.423458
 31
0.0
  0
LINE
  5
CCF6
  8
0
 62
     5
 10
110.620259
 20
134.423458
 30
0.0
 11
110.633008
 21
134.421041
 31
0.0
  0
LINE
  5
CCF7
  8
0
 62
     5
 10
110.504436
 20
134.530394
 30
0.0
 11
110.506955
 21
134.519474
 31
0.0
  0
LINE
  5
CCF8
  8
0
 62
     5
 10
110.506955
 20
134.519474
 30
0.0
 11
110.50981
 21
134.509149
 31
0.0
  0
LINE
  5
CCF9
  8
0
 62
     5
 10
110.50981
 20
134.509149
 30
0.0
 11
110.513046
 21
134.49943
 31
0.0
  0
LINE
  5
CCFA
  8
0
 62
     5
 10
110.513046
 20
134.49943
 30
0.0
 11
110.516702
 21
134.490344
 31
0.0
  0
LINE
  5
CCFB
  8
0
 62
     5
 10
110.516702
 20
134.490344
 30
0.0
 11
110.520818
 21
134.481932
 31
0.0
  0
LINE
  5
CCFC
  8
0
 62
     5
 10
110.520818
 20
134.481932
 30
0.0
 11
110.525439
 21
134.474169
 31
0.0
  0
LINE
  5
CCFD
  8
0
 62
     5
 10
110.525439
 20
134.474169
 30
0.0
 11
110.530602
 21
134.467063
 31
0.0
  0
LINE
  5
CCFE
  8
0
 62
     5
 10
110.530602
 20
134.467063
 30
0.0
 11
110.536365
 21
134.460563
 31
0.0
  0
LINE
  5
CCFF
  8
0
 62
     5
 10
110.536365
 20
134.460563
 30
0.0
 11
110.542783
 21
134.454634
 31
0.0
  0
LINE
  5
CD00
  8
0
 62
     5
 10
110.542783
 20
134.454634
 30
0.0
 11
110.549896
 21
134.449238
 31
0.0
  0
LINE
  5
CD01
  8
0
 62
     5
 10
110.549896
 20
134.449238
 30
0.0
 11
110.557768
 21
134.444335
 31
0.0
  0
LINE
  5
CD02
  8
0
 62
     5
 10
110.557768
 20
134.444335
 30
0.0
 11
110.566384
 21
134.439896
 31
0.0
  0
LINE
  5
CD03
  8
0
 62
     5
 10
110.566384
 20
134.439896
 30
0.0
 11
110.575766
 21
134.435894
 31
0.0
  0
LINE
  5
CD04
  8
0
 62
     5
 10
110.575766
 20
134.435894
 30
0.0
 11
110.585872
 21
134.432287
 31
0.0
  0
LINE
  5
CD05
  8
0
 62
     5
 10
110.496891
 20
134.579874
 30
0.0
 11
110.498466
 21
134.566611
 31
0.0
  0
LINE
  5
CD06
  8
0
 62
     5
 10
110.498466
 20
134.566611
 30
0.0
 11
110.50023
 21
134.553951
 31
0.0
  0
LINE
  5
CD07
  8
0
 62
     5
 10
110.50023
 20
134.553951
 30
0.0
 11
110.502206
 21
134.54188
 31
0.0
  0
LINE
  5
CD08
  8
0
 62
     5
 10
110.502206
 20
134.54188
 30
0.0
 11
110.504436
 21
134.530394
 31
0.0
  0
LINE
  5
CD09
  8
0
 62
     5
 10
110.494201
 20
134.608251
 30
0.0
 11
110.495465
 21
134.593756
 31
0.0
  0
LINE
  5
CD0A
  8
0
 62
     5
 10
110.495465
 20
134.593756
 30
0.0
 11
110.496891
 21
134.579874
 31
0.0
  0
ARC
  5
CD0B
  8
0
 62
     5
 10
159.887771
 20
131.60147
 30
0.0
 40
0.2
 50
180.0
 51
270.0
  0
LINE
  5
CD0C
  8
0
 62
     5
 10
152.687771
 20
128.920501
 30
0.0
 11
152.687771
 21
134.071797
 31
0.0
  0
LINE
  5
CD0D
  8
0
 62
     5
 10
149.576608
 20
129.017319
 30
0.0
 11
148.634602
 21
129.013675
 31
0.0
  0
LINE
  5
CD0E
  8
0
 62
     5
 10
154.687771
 20
134.053103
 30
0.0
 11
152.687771
 21
134.071797
 31
0.0
  0
LINE
  5
CD0F
  8
0
 62
     5
 10
159.687771
 20
136.40147
 30
0.0
 11
154.687771
 21
136.40147
 31
0.0
  0
LINE
  5
CD10
  8
0
 62
     5
 10
162.187771
 20
131.201464
 30
0.0
 11
162.187771
 21
101.601476
 31
0.0
  0
LINE
  5
CD11
  8
0
 62
     5
 10
161.987771
 20
131.40147
 30
0.0
 11
161.987771
 21
101.40147
 31
0.0
  0
LINE
  5
CD12
  8
0
 62
     5
 10
163.187771
 20
121.401467
 30
0.0
 11
163.187771
 21
111.401473
 31
0.0
  0
LINE
  5
CD13
  8
0
 62
     5
 10
161.987771
 20
101.40147
 30
0.0
 11
162.187771
 21
101.60147
 31
0.0
  0
LINE
  5
CD14
  8
0
 62
     5
 10
162.187771
 20
111.40147
 30
0.0
 11
163.187771
 21
111.40147
 31
0.0
  0
LINE
  5
CD15
  8
0
 62
     5
 10
163.587771
 20
120.40147
 30
0.0
 11
184.287771
 21
120.40147
 31
0.0
  0
LINE
  5
CD16
  8
0
 62
     5
 10
163.587771
 20
112.40147
 30
0.0
 11
184.287771
 21
112.40147
 31
0.0
  0
ARC
  5
CD17
  8
0
 62
     5
 10
163.587771
 20
112.00147
 30
0.0
 40
0.4
 50
90.0
 51
180.0
  0
ARC
  5
CD18
  8
0
 62
     5
 10
163.587771
 20
120.80147
 30
0.0
 40
0.4
 50
180.0
 51
270.0
  0
LINE
  5
CD19
  8
0
 62
     5
 10
162.187771
 20
121.40147
 30
0.0
 11
163.187771
 21
121.40147
 31
0.0
  0
LINE
  5
CD1A
  8
0
 62
     5
 10
184.687771
 20
112.80147
 30
0.0
 11
184.687771
 21
120.00147
 31
0.0
  0
LINE
  5
CD1B
  8
0
 62
     5
 10
184.287771
 20
112.40147
 30
0.0
 11
184.287771
 21
120.40147
 31
0.0
  0
LINE
  5
CD1C
  8
0
 62
     5
 10
184.287771
 20
112.40147
 30
0.0
 11
184.687771
 21
112.80147
 31
0.0
  0
LINE
  5
CD1D
  8
0
 62
     5
 10
184.287771
 20
120.40147
 30
0.0
 11
184.687771
 21
120.00147
 31
0.0
  0
LINE
  5
CD1E
  8
0
 62
     5
 10
161.987771
 20
131.40147
 30
0.0
 11
162.187771
 21
131.20147
 31
0.0
  0
LINE
  5
CD1F
  8
0
 62
     5
 10
265.131759
 20
103.20347
 30
0.0
 11
265.131759
 21
134.201611
 31
0.0
  0
LINE
  5
CD20
  8
0
 62
     5
 10
264.831759
 20
98.90147
 30
0.0
 11
264.831759
 21
133.90147
 31
0.0
  0
LINE
  5
CD21
  8
0
 62
     5
 10
224.831759
 20
133.90147
 30
0.0
 11
224.831759
 21
98.90147
 31
0.0
  0
CIRCLE
  5
CD22
  8
0
 62
     5
 10
244.831759
 20
116.40147
 30
0.0
 40
14.8
  0
CIRCLE
  5
CD23
  8
0
 62
     5
 10
244.831759
 20
116.40147
 30
0.0
 40
15.0
  0
CIRCLE
  5
CD24
  8
0
 62
     5
 10
244.831759
 20
116.40147
 30
0.0
 40
3.6
  0
CIRCLE
  5
CD25
  8
0
 62
     5
 10
244.831759
 20
116.40147
 30
0.0
 40
4.0
  0
CIRCLE
  5
CD26
  8
0
 62
     5
 10
244.831759
 20
116.40147
 30
0.0
 40
5.0
  0
LINE
  5
CD27
  8
CENTER
 10
269.862995
 20
116.40147
 30
0.0
 11
220.466833
 21
116.40147
 31
0.0
  0
CIRCLE
  5
CD28
  8
0
 62
     5
 10
227.931907
 20
99.501618
 30
0.0
 40
1.25
  0
ARC
  5
CD29
  8
0
 62
     5
 10
227.295634
 20
106.681037
 30
0.0
 40
3.1
 50
153.071521
 51
206.928479
  0
ARC
  5
CD2A
  8
0
 62
     5
 10
244.831759
 20
116.40147
 30
0.0
 40
20.5
 50
171.990057
 51
188.009943
  0
LINE
  5
CD2B
  8
0
 62
     5
 10
260.862513
 20
102.375679
 30
0.0
 11
260.847089
 21
102.344355
 31
0.0
  0
LINE
  5
CD2C
  8
0
 62
     5
 10
260.847089
 20
102.344355
 30
0.0
 11
260.804765
 21
102.25282
 31
0.0
  0
LINE
  5
CD2D
  8
0
 62
     5
 10
260.804574
 20
102.252348
 30
0.0
 11
260.804765
 21
102.25282
 31
0.0
  0
LINE
  5
CD2E
  8
0
 62
     5
 10
260.804434
 20
102.251904
 30
0.0
 11
260.804574
 21
102.252348
 31
0.0
  0
LINE
  5
CD2F
  8
0
 62
     5
 10
260.804343
 20
102.251487
 30
0.0
 11
260.804434
 21
102.251904
 31
0.0
  0
LINE
  5
CD30
  8
0
 62
     5
 10
260.804302
 20
102.251097
 30
0.0
 11
260.804343
 21
102.251487
 31
0.0
  0
LINE
  5
CD31
  8
0
 62
     5
 10
260.804369
 20
102.250396
 30
0.0
 11
260.804311
 21
102.250733
 31
0.0
  0
LINE
  5
CD32
  8
0
 62
     5
 10
260.804369
 20
102.250396
 30
0.0
 11
260.804869
 21
102.248449
 31
0.0
  0
LINE
  5
CD33
  8
0
 62
     5
 10
260.804311
 20
102.250733
 30
0.0
 11
260.804302
 21
102.251097
 31
0.0
  0
LINE
  5
CD34
  8
0
 62
     5
 10
260.804745
 20
102.248449
 30
0.0
 11
261.874046
 21
102.248449
 31
0.0
  0
LINE
  5
CD35
  8
0
 62
     5
 10
261.986191
 20
102.20347
 30
0.0
 11
260.785895
 21
102.20347
 31
0.0
  0
ARC
  5
CD36
  8
0
 62
     5
 10
263.039758
 20
98.19347
 30
0.0
 40
4.630074
 50
118.859671
 51
154.959486
  0
ARC
  5
CD37
  8
0
 62
     5
 10
263.039758
 20
98.19347
 30
0.0
 40
4.6
 50
119.338629
 51
155.736956
  0
ARC
  5
CD38
  8
0
 62
     5
 10
264.131759
 20
103.20347
 30
0.0
 40
1.0
 50
314.440424
 51
0.0
  0
ARC
  5
CD39
  8
0
 62
     5
 10
244.831759
 20
116.40147
 30
0.0
 40
20.5
 50
351.990057
 51
8.009943
  0
LINE
  5
CD3A
  8
0
 62
     5
 10
232.223759
 20
136.70147
 30
0.0
 11
262.6319
 21
136.70147
 31
0.0
  0
LINE
  5
CD3B
  8
0
 62
     5
 10
262.331759
 20
136.40147
 30
0.0
 11
227.331759
 21
136.40147
 31
0.0
  0
LINE
  5
CD3C
  8
CENTER
 10
231.185984
 20
130.047244
 30
0.0
 11
225.021061
 21
136.212168
 31
0.0
  0
ARC
  5
CD3D
  8
CENTER
 10
244.831759
 20
116.40147
 30
0.0
 40
23.0
 50
123.220953
 51
145.846632
  0
CIRCLE
  5
CD3E
  8
0
 62
     5
 10
228.568303
 20
132.664926
 30
0.0
 40
2.25
  0
ARC
  5
CD3F
  8
0
 62
     5
 10
226.623759
 20
134.60947
 30
0.0
 40
4.630074
 50
298.859671
 51
334.959486
  0
ARC
  5
CD40
  8
0
 62
     5
 10
226.623759
 20
134.60947
 30
0.0
 40
4.6
 50
299.338629
 51
335.736956
  0
ARC
  5
CD41
  8
0
 62
     5
 10
225.531759
 20
129.59947
 30
0.0
 40
1.0
 50
134.440424
 51
180.0
  0
LINE
  5
CD42
  8
0
 62
     5
 10
228.859149
 20
130.552544
 30
0.0
 11
228.859207
 21
130.552207
 31
0.0
  0
LINE
  5
CD43
  8
0
 62
     5
 10
228.859149
 20
130.552544
 30
0.0
 11
228.858649
 21
130.554491
 31
0.0
  0
LINE
  5
CD44
  8
0
 62
     5
 10
228.801005
 20
130.427261
 30
0.0
 11
228.816429
 21
130.458585
 31
0.0
  0
LINE
  5
CD45
  8
0
 62
     5
 10
228.816429
 20
130.458585
 30
0.0
 11
228.858752
 21
130.55012
 31
0.0
  0
LINE
  5
CD46
  8
0
 62
     5
 10
228.858943
 20
130.550592
 30
0.0
 11
228.858752
 21
130.55012
 31
0.0
  0
LINE
  5
CD47
  8
0
 62
     5
 10
228.859084
 20
130.551036
 30
0.0
 11
228.858943
 21
130.550592
 31
0.0
  0
LINE
  5
CD48
  8
0
 62
     5
 10
228.859175
 20
130.551453
 30
0.0
 11
228.859084
 21
130.551036
 31
0.0
  0
LINE
  5
CD49
  8
0
 62
     5
 10
228.859216
 20
130.551843
 30
0.0
 11
228.859175
 21
130.551453
 31
0.0
  0
LINE
  5
CD4A
  8
0
 62
     5
 10
228.859207
 20
130.552207
 30
0.0
 11
228.859216
 21
130.551843
 31
0.0
  0
LINE
  5
CD4B
  8
0
 62
     5
 10
227.677326
 20
130.59947
 30
0.0
 11
228.877623
 21
130.59947
 31
0.0
  0
LINE
  5
CD4C
  8
0
 62
     5
 10
228.858773
 20
130.554491
 30
0.0
 11
227.789472
 21
130.554491
 31
0.0
  0
ARC
  5
CD4D
  8
0
 62
     5
 10
227.331759
 20
133.90147
 30
0.0
 40
2.5
 50
90.0
 51
180.0
  0
ARC
  5
CD4E
  8
0
 62
     5
 10
232.223759
 20
135.70147
 30
0.0
 40
1.0
 50
90.0
 51
135.559576
  0
ARC
  5
CD4F
  8
0
 62
     5
 10
244.831759
 20
116.40147
 30
0.0
 40
20.5
 50
81.990057
 51
98.009943
  0
CIRCLE
  5
CD50
  8
0
 62
     5
 10
261.731611
 20
133.301322
 30
0.0
 40
1.25
  0
ARC
  5
CD51
  8
0
 62
     5
 10
261.731611
 20
133.301322
 30
0.0
 40
1.5
 50
255.0
 51
195.0
  0
ARC
  5
CD52
  8
0
 62
     5
 10
262.331759
 20
133.90147
 30
0.0
 40
2.5
 50
0.0
 51
90.0
  0
ARC
  5
CD53
  8
0
 62
     5
 10
254.552192
 20
133.937595
 30
0.0
 40
3.1
 50
63.071521
 51
116.928479
  0
POLYLINE
  5
CD54
  8
HIDDEN
 66
     1
 10
0.0
 20
0.0
 30
0.0
 70
     2
  0
VERTEX
  5
CD55
  8
HIDDEN
 10
15.725422
 20
84.789845
 30
0.0
 42
0.034271
  0
VERTEX
  5
CD56
  8
HIDDEN
 10
15.777742
 20
84.036116
 30
0.0
 42
0.05187
 70
     1
  0
VERTEX
  5
CD57
  8
HIDDEN
 10
15.897293
 20
83.550672
 30
0.0
 42
0.00489
  0
VERTEX
  5
CD58
  8
HIDDEN
 10
16.127856
 20
82.928508
 30
0.0
 42
0.02052
 70
     1
  0
VERTEX
  5
CD59
  8
HIDDEN
 10
16.190284
 20
82.78317
 30
0.0
 42
0.01579
  0
VERTEX
  5
CD5A
  8
HIDDEN
 10
16.374605
 20
82.427662
 30
0.0
 42
0.015882
 70
     1
  0
VERTEX
  5
CD5B
  8
HIDDEN
 10
16.579871
 20
82.086507
 30
0.0
 42
0.028923
  0
VERTEX
  5
CD5C
  8
HIDDEN
 10
16.802764
 20
81.781603
 30
0.0
 42
0.018446
 70
     1
  0
VERTEX
  5
CD5D
  8
HIDDEN
 10
17.195708
 20
81.338936
 30
0.0
 42
0.036208
  0
VERTEX
  5
CD5E
  8
HIDDEN
 10
17.583067
 20
80.988381
 30
0.0
 42
0.043714
 70
     1
  0
VERTEX
  5
CD5F
  8
HIDDEN
 10
17.946233
 20
80.752618
 30
0.0
 42
0.047007
  0
VERTEX
  5
CD60
  8
HIDDEN
 10
18.197236
 20
80.648123
 30
0.0
 42
0.017678
 70
     1
  0
VERTEX
  5
CD61
  8
HIDDEN
 10
18.893594
 20
80.459003
 30
0.0
 42
0.038738
  0
VERTEX
  5
CD62
  8
HIDDEN
 10
19.189276
 20
80.413591
 30
0.0
 42
0.024606
 70
     1
  0
VERTEX
  5
CD63
  8
HIDDEN
 10
19.659668
 20
80.401472
 30
0.0
  0
SEQEND
  5
CD64
  8
HIDDEN
  0
POLYLINE
  5
CD65
  8
HIDDEN
 66
     1
 10
0.0
 20
0.0
 30
0.0
 70
     2
  0
VERTEX
  5
CD66
  8
HIDDEN
 10
30.665034
 20
84.789845
 30
0.0
 42
-0.034536
  0
VERTEX
  5
CD67
  8
HIDDEN
 10
30.611897
 20
84.028988
 30
0.0
 42
-0.052555
 70
     1
  0
VERTEX
  5
CD68
  8
HIDDEN
 10
30.490726
 20
83.541834
 30
0.0
 42
-0.004734
  0
VERTEX
  5
CD69
  8
HIDDEN
 10
30.252764
 20
82.906296
 30
0.0
 42
-0.021106
 70
     1
  0
VERTEX
  5
CD6A
  8
HIDDEN
 10
30.192071
 20
82.766631
 30
0.0
 42
-0.013449
  0
VERTEX
  5
CD6B
  8
HIDDEN
 10
30.028659
 20
82.452009
 30
0.0
 42
-0.013226
 70
     1
  0
VERTEX
  5
CD6C
  8
HIDDEN
 10
29.84568
 20
82.141418
 30
0.0
 42
-0.02904
  0
VERTEX
  5
CD6D
  8
HIDDEN
 10
29.555244
 20
81.731918
 30
0.0
 42
-0.030545
 70
     1
  0
VERTEX
  5
CD6E
  8
HIDDEN
 10
29.234771
 20
81.378138
 30
0.0
 42
-0.025101
  0
VERTEX
  5
CD6F
  8
HIDDEN
 10
28.865204
 20
81.051711
 30
0.0
 42
-0.025457
 70
     1
  0
VERTEX
  5
CD70
  8
HIDDEN
 10
28.470162
 20
80.768255
 30
0.0
 42
-0.009239
  0
VERTEX
  5
CD71
  8
HIDDEN
 10
28.323692
 20
80.677844
 30
0.0
 42
-0.017621
 70
     1
  0
VERTEX
  5
CD72
  8
HIDDEN
 10
28.244437
 20
80.634619
 30
0.0
 42
-0.0584
  0
VERTEX
  5
CD73
  8
HIDDEN
 10
28.148108
 20
80.59974
 30
0.0
 42
-0.00895
 70
     1
  0
VERTEX
  5
CD74
  8
HIDDEN
 10
27.496862
 20
80.459003
 30
0.0
 42
-0.030003
  0
VERTEX
  5
CD75
  8
HIDDEN
 10
27.196755
 20
80.418258
 30
0.0
 42
-0.019478
 70
     1
  0
VERTEX
  5
CD76
  8
HIDDEN
 10
26.730793
 20
80.401475
 30
0.0
  0
SEQEND
  5
CD77
  8
HIDDEN
  0
POLYLINE
  5
CD78
  8
HIDDEN
 66
     1
 10
0.0
 20
0.0
 30
0.0
 70
     2
  0
VERTEX
  5
CD79
  8
HIDDEN
 10
105.209
 20
94.0015
 30
0.0
 42
-0.023048
  0
VERTEX
  5
CD7A
  8
HIDDEN
 10
105.39679
 20
93.993118
 30
0.0
 42
-0.038794
 70
     1
  0
VERTEX
  5
CD7B
  8
HIDDEN
 10
105.507
 20
93.9744
 30
0.0
 42
-0.005753
  0
VERTEX
  5
CD7C
  8
HIDDEN
 10
105.72441
 20
93.917194
 30
0.0
 42
-0.023836
 70
     1
  0
VERTEX
  5
CD7D
  8
HIDDEN
 10
105.776
 20
93.9003
 30
0.0
 42
-0.016275
  0
VERTEX
  5
CD7E
  8
HIDDEN
 10
105.834371
 20
93.87585
 30
0.0
 42
-0.005492
 70
     1
  0
VERTEX
  5
CD7F
  8
HIDDEN
 10
106.004
 20
93.79595
 30
0.0
 42
-0.028302
  0
VERTEX
  5
CD80
  8
HIDDEN
 10
106.067046
 20
93.760869
 30
0.0
 42
-0.015234
 70
     1
  0
VERTEX
  5
CD81
  8
HIDDEN
 10
106.178
 20
93.6858
 30
0.0
  0
SEQEND
  5
CD82
  8
HIDDEN
  0
POLYLINE
  5
CD83
  8
HIDDEN
 66
     1
 10
0.0
 20
0.0
 30
0.0
 70
     2
  0
VERTEX
  5
CD84
  8
HIDDEN
 10
108.741
 20
92.8015
 30
0.0
 42
-0.039643
  0
VERTEX
  5
CD85
  8
HIDDEN
 10
108.958743
 20
92.783571
 30
0.0
 42
-0.060726
 70
     1
  0
VERTEX
  5
CD86
  8
HIDDEN
 10
109.096
 20
92.7437
 30
0.0
 42
-0.023825
  0
VERTEX
  5
CD87
  8
HIDDEN
 10
109.334744
 20
92.627888
 30
0.0
 42
-0.044536
 70
     1
  0
VERTEX
  5
CD88
  8
HIDDEN
 10
109.453
 20
92.549
 30
0.0
 42
-0.044993
  0
VERTEX
  5
CD89
  8
HIDDEN
 10
109.639519
 20
92.369136
 30
0.0
 42
-0.05012
 70
     1
  0
VERTEX
  5
CD8A
  8
HIDDEN
 10
109.7735
 20
92.17885
 30
0.0
 42
-0.02038
  0
VERTEX
  5
CD8B
  8
HIDDEN
 10
109.875684
 20
91.978959
 30
0.0
 42
-0.017142
 70
     1
  0
VERTEX
  5
CD8C
  8
HIDDEN
 10
109.979
 20
91.7329
 30
0.0
 42
-0.018716
  0
VERTEX
  5
CD8D
  8
HIDDEN
 10
110.146706
 20
91.236524
 30
0.0
 42
-0.02475
 70
     1
  0
VERTEX
  5
CD8E
  8
HIDDEN
 10
110.240487
 20
90.85147
 30
0.0
 42
-0.015971
  0
VERTEX
  5
CD8F
  8
HIDDEN
 10
110.306714
 20
90.434385
 30
0.0
 42
-0.00911
 70
     1
  0
VERTEX
  5
CD90
  8
HIDDEN
 10
110.386
 20
89.6984
 30
0.0
 42
-0.009166
  0
VERTEX
  5
CD91
  8
HIDDEN
 10
110.463669
 20
88.602644
 30
0.0
 42
-0.013376
 70
     1
  0
VERTEX
  5
CD92
  8
HIDDEN
 10
110.483
 20
87.85005
 30
0.0
 42
-0.012281
  0
VERTEX
  5
CD93
  8
HIDDEN
 10
110.458175
 20
86.881669
 30
0.0
 42
-0.0066
 70
     1
  0
VERTEX
  5
CD94
  8
HIDDEN
 10
110.344
 20
85.0829
 30
0.0
 42
-0.004604
  0
VERTEX
  5
CD95
  8
HIDDEN
 10
110.269402
 20
84.215558
 30
0.0
 42
-0.007184
 70
     1
  0
VERTEX
  5
CD96
  8
HIDDEN
 10
110.2085
 20
83.66095
 30
0.0
 42
-0.027594
  0
VERTEX
  5
CD97
  8
HIDDEN
 10
110.113727
 20
83.136904
 30
0.0
 42
-0.027085
 70
     1
  0
VERTEX
  5
CD98
  8
HIDDEN
 10
109.9595
 20
82.61675
 30
0.0
 42
-0.03056
  0
VERTEX
  5
CD99
  8
HIDDEN
 10
109.854558
 20
82.370942
 30
0.0
 42
-0.031579
 70
     1
  0
VERTEX
  5
CD9A
  8
HIDDEN
 10
109.724299
 20
82.14747
 30
0.0
 42
-0.049825
  0
VERTEX
  5
CD9B
  8
HIDDEN
 10
109.551032
 20
81.937726
 30
0.0
 42
-0.056322
 70
     1
  0
VERTEX
  5
CD9C
  8
HIDDEN
 10
109.362
 20
81.7885
 30
0.0
 42
-0.03834
  0
VERTEX
  5
CD9D
  8
HIDDEN
 10
109.218492
 20
81.713954
 30
0.0
 42
-0.025918
 70
     1
  0
VERTEX
  5
CD9E
  8
HIDDEN
 10
108.994
 20
81.63185
 30
0.0
 42
-0.044789
  0
VERTEX
  5
CD9F
  8
HIDDEN
 10
108.899232
 20
81.611722
 30
0.0
 42
-0.027425
 70
     1
  0
VERTEX
  5
CDA0
  8
HIDDEN
 10
108.741538
 20
81.60147
 30
0.0
  0
SEQEND
  5
CDA1
  8
HIDDEN
  0
POLYLINE
  5
CDA2
  8
HIDDEN
 66
     1
 10
0.0
 20
0.0
 30
0.0
 70
     2
  0
VERTEX
  5
CDA3
  8
HIDDEN
 10
105.209521
 20
80.40149
 30
0.0
 42
0.015114
  0
VERTEX
  5
CDA4
  8
HIDDEN
 10
105.344704
 20
80.406154
 30
0.0
 42
0.027705
 70
     1
  0
VERTEX
  5
CDA5
  8
HIDDEN
 10
105.418
 20
80.415
 30
0.0
 42
0.007975
  0
VERTEX
  5
CDA6
  8
HIDDEN
 10
105.628939
 20
80.455886
 30
0.0
 42
0.024728
 70
     1
  0
VERTEX
  5
CDA7
  8
HIDDEN
 10
105.696
 20
80.4735
 30
0.0
 42
0.028725
  0
VERTEX
  5
CDA8
  8
HIDDEN
 10
105.777397
 20
80.504486
 30
0.0
 42
0.00944
 70
     1
  0
VERTEX
  5
CDA9
  8
HIDDEN
 10
106.017
 20
80.6173
 30
0.0
 42
0.023999
  0
VERTEX
  5
CDAA
  8
HIDDEN
 10
106.071311
 20
80.64746
 30
0.0
 42
0.011697
 70
     1
  0
VERTEX
  5
CDAB
  8
HIDDEN
 10
106.178
 20
80.7171
 30
0.0
  0
SEQEND
  5
CDAC
  8
HIDDEN
  0
POLYLINE
  5
CDAD
  8
HIDDEN
 66
     1
 10
0.0
 20
0.0
 30
14.1169
 70
     2
  0
VERTEX
  5
CDAE
  8
HIDDEN
 10
112.838
 20
85.3015
 30
14.1169
 42
0.014819
  0
VERTEX
  5
CDAF
  8
HIDDEN
 10
112.868958
 20
84.750685
 30
14.1169
 42
0.024339
 70
     1
  0
VERTEX
  5
CDB0
  8
HIDDEN
 10
112.914
 20
84.4177
 30
14.1169
 42
0.002979
  0
VERTEX
  5
CDB1
  8
HIDDEN
 10
113.028869
 20
83.817433
 30
14.1169
 42
0.013285
 70
     1
  0
VERTEX
  5
CDB2
  8
HIDDEN
 10
113.059
 20
83.6837
 30
14.1169
 42
0.023195
  0
VERTEX
  5
CDB3
  8
HIDDEN
 10
113.143467
 20
83.40528
 30
14.1169
 42
0.013517
 70
     1
  0
VERTEX
  5
CDB4
  8
HIDDEN
 10
113.323
 20
82.9396
 30
14.1169
 42
0.031795
  0
VERTEX
  5
CDB5
  8
HIDDEN
 10
113.657125
 20
82.26278
 30
14.1169
 42
0.036042
 70
     1
  0
VERTEX
  5
CDB6
  8
HIDDEN
 10
114.03
 20
81.7109
 30
14.1169
 42
0.011762
  0
VERTEX
  5
CDB7
  8
HIDDEN
 10
114.302951
 20
81.380029
 30
14.1169
 42
0.015108
 70
     1
  0
VERTEX
  5
CDB8
  8
HIDDEN
 10
114.529
 20
81.1342
 30
14.1169
 42
0.012374
  0
VERTEX
  5
CDB9
  8
HIDDEN
 10
114.840423
 20
80.830811
 30
14.1169
 42
0.020297
 70
     1
  0
VERTEX
  5
CDBA
  8
HIDDEN
 10
115.042
 20
80.6586
 30
14.1169
 42
0.022335
  0
VERTEX
  5
CDBB
  8
HIDDEN
 10
115.299757
 20
80.473905
 30
14.1169
 42
0.011181
 70
     1
  0
VERTEX
  5
CDBC
  8
HIDDEN
 10
115.838
 20
80.1404
 30
14.1169
 42
0.01107
  0
VERTEX
  5
CDBD
  8
HIDDEN
 10
116.237672
 20
79.916725
 30
14.1169
 42
0.013583
 70
     1
  0
VERTEX
  5
CDBE
  8
HIDDEN
 10
116.572
 20
79.7507
 30
14.1169
 42
0.034732
  0
VERTEX
  5
CDBF
  8
HIDDEN
 10
117.096058
 20
79.550856
 30
14.1169
 42
0.036553
 70
     1
  0
VERTEX
  5
CDC0
  8
HIDDEN
 10
117.616
 20
79.4336
 30
14.1169
 42
0.006824
  0
VERTEX
  5
CDC1
  8
HIDDEN
 10
117.891784
 20
79.396117
 30
14.1169
 42
0.003269
 70
     1
  0
VERTEX
  5
CDC2
  8
HIDDEN
 10
118.469
 20
79.3295
 30
14.1169
 42
0.008158
  0
VERTEX
  5
CDC3
  8
HIDDEN
 10
118.578288
 20
79.319411
 30
14.1169
 42
0.003439
 70
     1
  0
VERTEX
  5
CDC4
  8
HIDDEN
 10
118.838
 20
79.3015
 30
14.1169
  0
SEQEND
  5
CDC5
  8
HIDDEN
  0
ARC
  5
CDC6
  8
HIDDEN
 10
134.163415
 20
92.320704
 30
0.0
 40
0.08
 50
59.751264
 51
90.0
  0
ARC
  5
CDC7
  8
HIDDEN
 10
134.135693
 20
79.504984
 30
0.0
 40
0.2
 50
270.013159
 51
300.248736
  0
POLYLINE
  5
CDC8
  8
HIDDEN
 66
     1
 10
0.0
 20
0.0
 30
0.0
 70
     2
  0
VERTEX
  5
CDC9
  8
HIDDEN
 10
43.945228
 20
83.30147
 30
0.0
 42
-0.03361
  0
VERTEX
  5
CDCA
  8
HIDDEN
 10
43.900631
 20
82.636317
 30
0.0
 42
-0.054905
 70
     1
  0
VERTEX
  5
CDCB
  8
HIDDEN
 10
43.801921
 20
82.23956
 30
0.0
 42
-0.010873
  0
VERTEX
  5
CDCC
  8
HIDDEN
 10
43.521171
 20
81.526915
 30
0.0
 42
-0.032107
 70
     1
  0
VERTEX
  5
CDCD
  8
HIDDEN
 10
43.405627
 20
81.294419
 30
0.0
 42
-0.020508
  0
VERTEX
  5
CDCE
  8
HIDDEN
 10
43.239832
 20
81.033709
 30
0.0
 42
-0.016544
 70
     1
  0
VERTEX
  5
CDCF
  8
HIDDEN
 10
43.010986
 20
80.726679
 30
0.0
 42
-0.045754
  0
VERTEX
  5
CDD0
  8
HIDDEN
 10
42.622369
 20
80.321915
 30
0.0
 42
-0.037543
 70
     1
  0
VERTEX
  5
CDD1
  8
HIDDEN
 10
42.073925
 20
79.914213
 30
0.0
 42
-0.044004
  0
VERTEX
  5
CDD2
  8
HIDDEN
 10
41.677709
 20
79.709823
 30
0.0
 42
-0.021843
 70
     1
  0
VERTEX
  5
CDD3
  8
HIDDEN
 10
40.83361
 20
79.406839
 30
0.0
 42
-0.045753
  0
VERTEX
  5
CDD4
  8
HIDDEN
 10
40.507679
 20
79.33754
 30
0.0
 42
-0.027013
 70
     1
  0
VERTEX
  5
CDD5
  8
HIDDEN
 10
39.945228
 20
79.30147
 30
0.0
  0
SEQEND
  5
CDD6
  8
HIDDEN
  0
POLYLINE
  5
CDD7
  8
HIDDEN
 66
     1
 10
0.0
 20
0.0
 30
0.0
 70
     2
  0
VERTEX
  5
CDD8
  8
HIDDEN
 10
228.981759
 20
83.30147
 30
0.0
 42
0.035697
  0
VERTEX
  5
CDD9
  8
HIDDEN
 10
229.029028
 20
82.614808
 30
0.0
 42
0.054768
 70
     1
  0
VERTEX
  5
CDDA
  8
HIDDEN
 10
229.14
 20
82.17934
 30
0.0
 42
0.014802
  0
VERTEX
  5
CDDB
  8
HIDDEN
 10
229.440476
 20
81.44533
 30
0.0
 42
0.041536
 70
     1
  0
VERTEX
  5
CDDC
  8
HIDDEN
 10
229.57648
 20
81.197071
 30
0.0
 42
0.031356
  0
VERTEX
  5
CDDD
  8
HIDDEN
 10
229.866688
 20
80.81285
 30
0.0
 42
0.027941
 70
     1
  0
VERTEX
  5
CDDE
  8
HIDDEN
 10
230.241
 20
80.4233
 30
0.0
 42
0.027234
  0
VERTEX
  5
CDDF
  8
HIDDEN
 10
230.72063
 20
80.023379
 30
0.0
 42
0.036379
 70
     1
  0
VERTEX
  5
CDE0
  8
HIDDEN
 10
231.115
 20
79.7718
 30
0.0
 42
0.029936
  0
VERTEX
  5
CDE1
  8
HIDDEN
 10
231.619697
 20
79.537114
 30
0.0
 42
0.046816
 70
     1
  0
VERTEX
  5
CDE2
  8
HIDDEN
 10
231.962
 20
79.438
 30
0.0
 42
0.007627
  0
VERTEX
  5
CDE3
  8
HIDDEN
 10
232.170196
 20
79.401613
 30
0.0
 42
0.003909
 70
     1
  0
VERTEX
  5
CDE4
  8
HIDDEN
 10
232.578
 20
79.34
 30
0.0
 42
0.011782
  0
VERTEX
  5
CDE5
  8
HIDDEN
 10
232.71674
 20
79.323472
 30
0.0
 42
0.006184
 70
     1
  0
VERTEX
  5
CDE6
  8
HIDDEN
 10
232.982
 20
79.3015
 30
0.0
  0
SEQEND
  5
CDE7
  8
HIDDEN
  0
POLYLINE
  5
CDE8
  8
HIDDEN
 66
     1
 10
0.0
 20
0.0
 30
8.76388
 70
     2
  0
VERTEX
  5
CDE9
  8
HIDDEN
 10
243.882
 20
79.3015
 30
8.76388
 42
0.017946
  0
VERTEX
  5
CDEA
  8
HIDDEN
 10
244.341921
 20
79.336533
 30
8.76388
 42
0.028836
 70
     1
  0
VERTEX
  5
CDEB
  8
HIDDEN
 10
244.625
 20
79.385
 30
8.76388
 42
0.006922
  0
VERTEX
  5
CDEC
  8
HIDDEN
 10
245.211684
 20
79.529238
 30
8.76388
 42
0.030303
 70
     1
  0
VERTEX
  5
CDED
  8
HIDDEN
 10
245.343
 20
79.5721
 30
8.76388
 42
0.030945
  0
VERTEX
  5
CDEE
  8
HIDDEN
 10
245.678468
 20
79.729197
 30
8.76388
 42
0.032026
 70
     1
  0
VERTEX
  5
CDEF
  8
HIDDEN
 10
245.981
 20
79.9205
 30
8.76388
 42
0.005255
  0
VERTEX
  5
CDF0
  8
HIDDEN
 10
246.240405
 20
80.112994
 30
8.76388
 42
0.00757
 70
     1
  0
VERTEX
  5
CDF1
  8
HIDDEN
 10
246.417
 20
80.2512
 30
8.76388
 42
0.005689
  0
VERTEX
  5
CDF2
  8
HIDDEN
 10
246.581406
 20
80.387046
 30
8.76388
 42
0.00517
 70
     1
  0
VERTEX
  5
CDF3
  8
HIDDEN
 10
246.759
 20
80.5404
 30
8.76388
 42
0.029041
  0
VERTEX
  5
CDF4
  8
HIDDEN
 10
246.93601
 20
80.715751
 30
8.76388
 42
0.020164
 70
     1
  0
VERTEX
  5
CDF5
  8
HIDDEN
 10
247.164804
 20
80.991996
 30
8.76388
 42
0.035076
  0
VERTEX
  5
CDF6
  8
HIDDEN
 10
247.330145
 20
81.243662
 30
8.76388
 42
0.022754
 70
     1
  0
VERTEX
  5
CDF7
  8
HIDDEN
 10
247.538418
 20
81.658132
 30
8.76388
 42
0.024569
  0
VERTEX
  5
CDF8
  8
HIDDEN
 10
247.736423
 20
82.167096
 30
8.76388
 42
0.042316
 70
     1
  0
VERTEX
  5
CDF9
  8
HIDDEN
 10
247.811054
 20
82.475662
 30
8.76388
 42
0.010505
  0
VERTEX
  5
CDFA
  8
HIDDEN
 10
247.835382
 20
82.659293
 30
8.76388
 42
0.005357
 70
     1
  0
VERTEX
  5
CDFB
  8
HIDDEN
 10
247.87164
 20
83.020682
 30
8.76388
 42
0.013102
  0
VERTEX
  5
CDFC
  8
HIDDEN
 10
247.877364
 20
83.111308
 30
8.76388
 42
0.006253
 70
     1
  0
VERTEX
  5
CDFD
  8
HIDDEN
 10
247.882
 20
83.3015
 30
8.76388
  0
SEQEND
  5
CDFE
  8
HIDDEN
  0
POLYLINE
  5
CDFF
  8
HIDDEN
 66
     1
 10
0.0
 20
0.0
 30
0.0
 70
     2
  0
VERTEX
  5
CE00
  8
HIDDEN
 10
253.291
 20
80.4023
 30
0.0
 42
0.019933
  0
VERTEX
  5
CE01
  8
HIDDEN
 10
253.758334
 20
80.421948
 30
0.0
 42
0.028985
 70
     1
  0
VERTEX
  5
CE02
  8
HIDDEN
 10
254.077
 20
80.4668
 30
0.0
 42
0.010816
  0
VERTEX
  5
CE03
  8
HIDDEN
 10
254.700015
 20
80.605737
 30
0.0
 42
0.046604
 70
     1
  0
VERTEX
  5
CE04
  8
HIDDEN
 10
254.840251
 20
80.654429
 30
0.0
 42
0.049634
  0
VERTEX
  5
CE05
  8
HIDDEN
 10
255.087468
 20
80.798124
 30
0.0
 42
0.027394
 70
     1
  0
VERTEX
  5
CE06
  8
HIDDEN
 10
255.489479
 20
81.123533
 30
0.0
 42
0.01418
  0
VERTEX
  5
CE07
  8
HIDDEN
 10
255.848425
 20
81.467168
 30
0.0
 42
0.022271
 70
     1
  0
VERTEX
  5
CE08
  8
HIDDEN
 10
256.060487
 20
81.702094
 30
0.0
 42
0.025963
  0
VERTEX
  5
CE09
  8
HIDDEN
 10
256.326097
 20
82.060445
 30
0.0
 42
0.021892
 70
     1
  0
VERTEX
  5
CE0A
  8
HIDDEN
 10
256.599
 20
82.5135
 30
0.0
 42
0.01853
  0
VERTEX
  5
CE0B
  8
HIDDEN
 10
256.80681
 20
82.931549
 30
0.0
 42
0.024211
 70
     1
  0
VERTEX
  5
CE0C
  8
HIDDEN
 10
256.938
 20
83.264
 30
0.0
 42
0.024089
  0
VERTEX
  5
CE0D
  8
HIDDEN
 10
256.999453
 20
83.478294
 30
0.0
 42
0.00778
 70
     1
  0
VERTEX
  5
CE0E
  8
HIDDEN
 10
257.147
 20
84.1522
 30
0.0
 42
0.028491
  0
VERTEX
  5
CE0F
  8
HIDDEN
 10
257.178422
 20
84.370414
 30
0.0
 42
0.014945
 70
     1
  0
VERTEX
  5
CE10
  8
HIDDEN
 10
257.202
 20
84.7898
 30
0.0
  0
SEQEND
  5
CE11
  8
HIDDEN
  0
POLYLINE
  5
CE12
  8
HIDDEN
 66
     1
 10
0.0
 20
0.0
 30
0.0
 70
     8
  0
VERTEX
  5
CE13
  8
HIDDEN
 10
152.74
 20
85.8515
 30
0.0
 70
    32
  0
VERTEX
  5
CE14
  8
HIDDEN
 10
152.71
 20
85.8495
 30
0.0
 70
    32
  0
VERTEX
  5
CE15
  8
HIDDEN
 10
152.679
 20
85.8437
 30
0.0
 70
    32
  0
VERTEX
  5
CE16
  8
HIDDEN
 10
152.649
 20
85.8339
 30
0.0
 70
    32
  0
VERTEX
  5
CE17
  8
HIDDEN
 10
152.619
 20
85.8203
 30
0.0
 70
    32
  0
VERTEX
  5
CE18
  8
HIDDEN
 10
152.59
 20
85.8028
 30
0.0
 70
    32
  0
VERTEX
  5
CE19
  8
HIDDEN
 10
152.56
 20
85.7815
 30
0.0
 70
    32
  0
VERTEX
  5
CE1A
  8
HIDDEN
 10
152.531
 20
85.7565
 30
0.0
 70
    32
  0
VERTEX
  5
CE1B
  8
HIDDEN
 10
152.503
 20
85.7278
 30
0.0
 70
    32
  0
VERTEX
  5
CE1C
  8
HIDDEN
 10
152.475
 20
85.6955
 30
0.0
 70
    32
  0
VERTEX
  5
CE1D
  8
HIDDEN
 10
152.448
 20
85.6596
 30
0.0
 70
    32
  0
VERTEX
  5
CE1E
  8
HIDDEN
 10
152.422
 20
85.6203
 30
0.0
 70
    32
  0
VERTEX
  5
CE1F
  8
HIDDEN
 10
152.396
 20
85.5777
 30
0.0
 70
    32
  0
VERTEX
  5
CE20
  8
HIDDEN
 10
152.371
 20
85.5317
 30
0.0
 70
    32
  0
VERTEX
  5
CE21
  8
HIDDEN
 10
152.347
 20
85.4827
 30
0.0
 70
    32
  0
VERTEX
  5
CE22
  8
HIDDEN
 10
152.324
 20
85.4306
 30
0.0
 70
    32
  0
VERTEX
  5
CE23
  8
HIDDEN
 10
152.302
 20
85.3756
 30
0.0
 70
    32
  0
VERTEX
  5
CE24
  8
HIDDEN
 10
152.281
 20
85.3178
 30
0.0
 70
    32
  0
VERTEX
  5
CE25
  8
HIDDEN
 10
152.261
 20
85.2574
 30
0.0
 70
    32
  0
VERTEX
  5
CE26
  8
HIDDEN
 10
152.243
 20
85.1945
 30
0.0
 70
    32
  0
VERTEX
  5
CE27
  8
HIDDEN
 10
152.225
 20
85.1293
 30
0.0
 70
    32
  0
VERTEX
  5
CE28
  8
HIDDEN
 10
152.209
 20
85.062
 30
0.0
 70
    32
  0
VERTEX
  5
CE29
  8
HIDDEN
 10
152.194
 20
84.9926
 30
0.0
 70
    32
  0
VERTEX
  5
CE2A
  8
HIDDEN
 10
152.18
 20
84.9213
 30
0.0
 70
    32
  0
VERTEX
  5
CE2B
  8
HIDDEN
 10
152.168
 20
84.8484
 30
0.0
 70
    32
  0
VERTEX
  5
CE2C
  8
HIDDEN
 10
152.157
 20
84.774
 30
0.0
 70
    32
  0
VERTEX
  5
CE2D
  8
HIDDEN
 10
152.147
 20
84.6982
 30
0.0
 70
    32
  0
VERTEX
  5
CE2E
  8
HIDDEN
 10
152.139
 20
84.6214
 30
0.0
 70
    32
  0
VERTEX
  5
CE2F
  8
HIDDEN
 10
152.133
 20
84.5436
 30
0.0
 70
    32
  0
VERTEX
  5
CE30
  8
HIDDEN
 10
152.127
 20
84.465
 30
0.0
 70
    32
  0
VERTEX
  5
CE31
  8
HIDDEN
 10
152.124
 20
84.3858
 30
0.0
 70
    32
  0
VERTEX
  5
CE32
  8
HIDDEN
 10
152.121
 20
84.3063
 30
0.0
 70
    32
  0
VERTEX
  5
CE33
  8
HIDDEN
 10
152.121
 20
84.2265
 30
0.0
 70
    32
  0
VERTEX
  5
CE34
  8
HIDDEN
 10
152.121
 20
84.1468
 30
0.0
 70
    32
  0
VERTEX
  5
CE35
  8
HIDDEN
 10
152.124
 20
84.0673
 30
0.0
 70
    32
  0
VERTEX
  5
CE36
  8
HIDDEN
 10
152.127
 20
83.9881
 30
0.0
 70
    32
  0
VERTEX
  5
CE37
  8
HIDDEN
 10
152.133
 20
83.9095
 30
0.0
 70
    32
  0
VERTEX
  5
CE38
  8
HIDDEN
 10
152.139
 20
83.8317
 30
0.0
 70
    32
  0
VERTEX
  5
CE39
  8
HIDDEN
 10
152.147
 20
83.7548
 30
0.0
 70
    32
  0
VERTEX
  5
CE3A
  8
HIDDEN
 10
152.157
 20
83.6791
 30
0.0
 70
    32
  0
VERTEX
  5
CE3B
  8
HIDDEN
 10
152.168
 20
83.6047
 30
0.0
 70
    32
  0
VERTEX
  5
CE3C
  8
HIDDEN
 10
152.18
 20
83.5317
 30
0.0
 70
    32
  0
VERTEX
  5
CE3D
  8
HIDDEN
 10
152.194
 20
83.4605
 30
0.0
 70
    32
  0
VERTEX
  5
CE3E
  8
HIDDEN
 10
152.209
 20
83.3911
 30
0.0
 70
    32
  0
VERTEX
  5
CE3F
  8
HIDDEN
 10
152.225
 20
83.3237
 30
0.0
 70
    32
  0
VERTEX
  5
CE40
  8
HIDDEN
 10
152.243
 20
83.2585
 30
0.0
 70
    32
  0
VERTEX
  5
CE41
  8
HIDDEN
 10
152.261
 20
83.1956
 30
0.0
 70
    32
  0
VERTEX
  5
CE42
  8
HIDDEN
 10
152.281
 20
83.1352
 30
0.0
 70
    32
  0
VERTEX
  5
CE43
  8
HIDDEN
 10
152.302
 20
83.0775
 30
0.0
 70
    32
  0
VERTEX
  5
CE44
  8
HIDDEN
 10
152.324
 20
83.0225
 30
0.0
 70
    32
  0
VERTEX
  5
CE45
  8
HIDDEN
 10
152.347
 20
82.9704
 30
0.0
 70
    32
  0
VERTEX
  5
CE46
  8
HIDDEN
 10
152.371
 20
82.9213
 30
0.0
 70
    32
  0
VERTEX
  5
CE47
  8
HIDDEN
 10
152.396
 20
82.8754
 30
0.0
 70
    32
  0
VERTEX
  5
CE48
  8
HIDDEN
 10
152.421
 20
82.8327
 30
0.0
 70
    32
  0
VERTEX
  5
CE49
  8
HIDDEN
 10
152.448
 20
82.7934
 30
0.0
 70
    32
  0
VERTEX
  5
CE4A
  8
HIDDEN
 10
152.475
 20
82.7575
 30
0.0
 70
    32
  0
VERTEX
  5
CE4B
  8
HIDDEN
 10
152.503
 20
82.7252
 30
0.0
 70
    32
  0
VERTEX
  5
CE4C
  8
HIDDEN
 10
152.531
 20
82.6965
 30
0.0
 70
    32
  0
VERTEX
  5
CE4D
  8
HIDDEN
 10
152.56
 20
82.6715
 30
0.0
 70
    32
  0
VERTEX
  5
CE4E
  8
HIDDEN
 10
152.589
 20
82.6502
 30
0.0
 70
    32
  0
VERTEX
  5
CE4F
  8
HIDDEN
 10
152.619
 20
82.6327
 30
0.0
 70
    32
  0
VERTEX
  5
CE50
  8
HIDDEN
 10
152.649
 20
82.6191
 30
0.0
 70
    32
  0
VERTEX
  5
CE51
  8
HIDDEN
 10
152.679
 20
82.6093
 30
0.0
 70
    32
  0
VERTEX
  5
CE52
  8
HIDDEN
 10
152.709
 20
82.6034
 30
0.0
 70
    32
  0
VERTEX
  5
CE53
  8
HIDDEN
 10
152.74
 20
82.6015
 30
0.0
 70
    32
  0
VERTEX
  5
CE54
  8
HIDDEN
 10
152.77
 20
82.6034
 30
0.0
 70
    32
  0
VERTEX
  5
CE55
  8
HIDDEN
 10
152.8
 20
82.6093
 30
0.0
 70
    32
  0
VERTEX
  5
CE56
  8
HIDDEN
 10
152.831
 20
82.6191
 30
0.0
 70
    32
  0
VERTEX
  5
CE57
  8
HIDDEN
 10
152.861
 20
82.6327
 30
0.0
 70
    32
  0
VERTEX
  5
CE58
  8
HIDDEN
 10
152.89
 20
82.6502
 30
0.0
 70
    32
  0
VERTEX
  5
CE59
  8
HIDDEN
 10
152.919
 20
82.6714
 30
0.0
 70
    32
  0
VERTEX
  5
CE5A
  8
HIDDEN
 10
152.948
 20
82.6964
 30
0.0
 70
    32
  0
VERTEX
  5
CE5B
  8
HIDDEN
 10
152.977
 20
82.7251
 30
0.0
 70
    32
  0
VERTEX
  5
CE5C
  8
HIDDEN
 10
153.004
 20
82.7575
 30
0.0
 70
    32
  0
VERTEX
  5
CE5D
  8
HIDDEN
 10
153.032
 20
82.7933
 30
0.0
 70
    32
  0
VERTEX
  5
CE5E
  8
HIDDEN
 10
153.058
 20
82.8326
 30
0.0
 70
    32
  0
VERTEX
  5
CE5F
  8
HIDDEN
 10
153.084
 20
82.8753
 30
0.0
 70
    32
  0
VERTEX
  5
CE60
  8
HIDDEN
 10
153.109
 20
82.9212
 30
0.0
 70
    32
  0
VERTEX
  5
CE61
  8
HIDDEN
 10
153.133
 20
82.9703
 30
0.0
 70
    32
  0
VERTEX
  5
CE62
  8
HIDDEN
 10
153.156
 20
83.0224
 30
0.0
 70
    32
  0
VERTEX
  5
CE63
  8
HIDDEN
 10
153.178
 20
83.0774
 30
0.0
 70
    32
  0
VERTEX
  5
CE64
  8
HIDDEN
 10
153.199
 20
83.1352
 30
0.0
 70
    32
  0
VERTEX
  5
CE65
  8
HIDDEN
 10
153.218
 20
83.1955
 30
0.0
 70
    32
  0
VERTEX
  5
CE66
  8
HIDDEN
 10
153.237
 20
83.2584
 30
0.0
 70
    32
  0
VERTEX
  5
CE67
  8
HIDDEN
 10
153.255
 20
83.3236
 30
0.0
 70
    32
  0
VERTEX
  5
CE68
  8
HIDDEN
 10
153.271
 20
83.391
 30
0.0
 70
    32
  0
VERTEX
  5
CE69
  8
HIDDEN
 10
153.286
 20
83.4604
 30
0.0
 70
    32
  0
VERTEX
  5
CE6A
  8
HIDDEN
 10
153.3
 20
83.5317
 30
0.0
 70
    32
  0
VERTEX
  5
CE6B
  8
HIDDEN
 10
153.312
 20
83.6046
 30
0.0
 70
    32
  0
VERTEX
  5
CE6C
  8
HIDDEN
 10
153.323
 20
83.679
 30
0.0
 70
    32
  0
VERTEX
  5
CE6D
  8
HIDDEN
 10
153.332
 20
83.7547
 30
0.0
 70
    32
  0
VERTEX
  5
CE6E
  8
HIDDEN
 10
153.34
 20
83.8316
 30
0.0
 70
    32
  0
VERTEX
  5
CE6F
  8
HIDDEN
 10
153.347
 20
83.9094
 30
0.0
 70
    32
  0
VERTEX
  5
CE70
  8
HIDDEN
 10
153.352
 20
83.988
 30
0.0
 70
    32
  0
VERTEX
  5
CE71
  8
HIDDEN
 10
153.356
 20
84.0672
 30
0.0
 70
    32
  0
VERTEX
  5
CE72
  8
HIDDEN
 10
153.358
 20
84.1467
 30
0.0
 70
    32
  0
VERTEX
  5
CE73
  8
HIDDEN
 10
153.359
 20
84.2264
 30
0.0
 70
    32
  0
VERTEX
  5
CE74
  8
HIDDEN
 10
153.358
 20
84.3062
 30
0.0
 70
    32
  0
VERTEX
  5
CE75
  8
HIDDEN
 10
153.356
 20
84.3857
 30
0.0
 70
    32
  0
VERTEX
  5
CE76
  8
HIDDEN
 10
153.352
 20
84.4649
 30
0.0
 70
    32
  0
VERTEX
  5
CE77
  8
HIDDEN
 10
153.347
 20
84.5435
 30
0.0
 70
    32
  0
VERTEX
  5
CE78
  8
HIDDEN
 10
153.34
 20
84.6213
 30
0.0
 70
    32
  0
VERTEX
  5
CE79
  8
HIDDEN
 10
153.332
 20
84.6982
 30
0.0
 70
    32
  0
VERTEX
  5
CE7A
  8
HIDDEN
 10
153.323
 20
84.7739
 30
0.0
 70
    32
  0
VERTEX
  5
CE7B
  8
HIDDEN
 10
153.312
 20
84.8483
 30
0.0
 70
    32
  0
VERTEX
  5
CE7C
  8
HIDDEN
 10
153.3
 20
84.9212
 30
0.0
 70
    32
  0
VERTEX
  5
CE7D
  8
HIDDEN
 10
153.286
 20
84.9925
 30
0.0
 70
    32
  0
VERTEX
  5
CE7E
  8
HIDDEN
 10
153.271
 20
85.0619
 30
0.0
 70
    32
  0
VERTEX
  5
CE7F
  8
HIDDEN
 10
153.255
 20
85.1293
 30
0.0
 70
    32
  0
VERTEX
  5
CE80
  8
HIDDEN
 10
153.237
 20
85.1945
 30
0.0
 70
    32
  0
VERTEX
  5
CE81
  8
HIDDEN
 10
153.219
 20
85.2573
 30
0.0
 70
    32
  0
VERTEX
  5
CE82
  8
HIDDEN
 10
153.199
 20
85.3177
 30
0.0
 70
    32
  0
VERTEX
  5
CE83
  8
HIDDEN
 10
153.178
 20
85.3755
 30
0.0
 70
    32
  0
VERTEX
  5
CE84
  8
HIDDEN
 10
153.156
 20
85.4305
 30
0.0
 70
    32
  0
VERTEX
  5
CE85
  8
HIDDEN
 10
153.133
 20
85.4826
 30
0.0
 70
    32
  0
VERTEX
  5
CE86
  8
HIDDEN
 10
153.109
 20
85.5317
 30
0.0
 70
    32
  0
VERTEX
  5
CE87
  8
HIDDEN
 10
153.084
 20
85.5776
 30
0.0
 70
    32
  0
VERTEX
  5
CE88
  8
HIDDEN
 10
153.058
 20
85.6203
 30
0.0
 70
    32
  0
VERTEX
  5
CE89
  8
HIDDEN
 10
153.032
 20
85.6596
 30
0.0
 70
    32
  0
VERTEX
  5
CE8A
  8
HIDDEN
 10
153.005
 20
85.6955
 30
0.0
 70
    32
  0
VERTEX
  5
CE8B
  8
HIDDEN
 10
152.977
 20
85.7278
 30
0.0
 70
    32
  0
VERTEX
  5
CE8C
  8
HIDDEN
 10
152.949
 20
85.7565
 30
0.0
 70
    32
  0
VERTEX
  5
CE8D
  8
HIDDEN
 10
152.92
 20
85.7815
 30
0.0
 70
    32
  0
VERTEX
  5
CE8E
  8
HIDDEN
 10
152.89
 20
85.8028
 30
0.0
 70
    32
  0
VERTEX
  5
CE8F
  8
HIDDEN
 10
152.861
 20
85.8203
 30
0.0
 70
    32
  0
VERTEX
  5
CE90
  8
HIDDEN
 10
152.831
 20
85.8339
 30
0.0
 70
    32
  0
VERTEX
  5
CE91
  8
HIDDEN
 10
152.801
 20
85.8437
 30
0.0
 70
    32
  0
VERTEX
  5
CE92
  8
HIDDEN
 10
152.77
 20
85.8495
 30
0.0
 70
    32
  0
VERTEX
  5
CE93
  8
HIDDEN
 10
152.74
 20
85.8515
 30
0.0
 70
    32
  0
SEQEND
  5
CE94
  8
HIDDEN
  0
POLYLINE
  5
CE95
  8
HIDDEN
 66
     1
 10
0.0
 20
0.0
 30
0.0
 70
     8
  0
VERTEX
  5
CE96
  8
HIDDEN
 10
152.74
 20
85.8515
 30
0.0
 70
    32
  0
VERTEX
  5
CE97
  8
HIDDEN
 10
152.755
 20
85.852
 30
0.0
 70
    32
  0
VERTEX
  5
CE98
  8
HIDDEN
 10
152.77
 20
85.8535
 30
0.0
 70
    32
  0
VERTEX
  5
CE99
  8
HIDDEN
 10
152.785
 20
85.8559
 30
0.0
 70
    32
  0
VERTEX
  5
CE9A
  8
HIDDEN
 10
152.801
 20
85.8593
 30
0.0
 70
    32
  0
VERTEX
  5
CE9B
  8
HIDDEN
 10
152.816
 20
85.8637
 30
0.0
 70
    32
  0
VERTEX
  5
CE9C
  8
HIDDEN
 10
152.831
 20
85.8691
 30
0.0
 70
    32
  0
VERTEX
  5
CE9D
  8
HIDDEN
 10
152.846
 20
85.8754
 30
0.0
 70
    32
  0
VERTEX
  5
CE9E
  8
HIDDEN
 10
152.861
 20
85.8827
 30
0.0
 70
    32
  0
VERTEX
  5
CE9F
  8
HIDDEN
 10
152.876
 20
85.891
 30
0.0
 70
    32
  0
VERTEX
  5
CEA0
  8
HIDDEN
 10
152.891
 20
85.9002
 30
0.0
 70
    32
  0
VERTEX
  5
CEA1
  8
HIDDEN
 10
152.906
 20
85.9104
 30
0.0
 70
    32
  0
VERTEX
  5
CEA2
  8
HIDDEN
 10
152.92
 20
85.9215
 30
0.0
 70
    32
  0
VERTEX
  5
CEA3
  8
HIDDEN
 10
152.935
 20
85.9335
 30
0.0
 70
    32
  0
VERTEX
  5
CEA4
  8
HIDDEN
 10
152.949
 20
85.9465
 30
0.0
 70
    32
  0
VERTEX
  5
CEA5
  8
HIDDEN
 10
152.963
 20
85.9604
 30
0.0
 70
    32
  0
VERTEX
  5
CEA6
  8
HIDDEN
 10
152.978
 20
85.9752
 30
0.0
 70
    32
  0
VERTEX
  5
CEA7
  8
HIDDEN
 10
152.992
 20
85.9909
 30
0.0
 70
    32
  0
VERTEX
  5
CEA8
  8
HIDDEN
 10
153.006
 20
86.0075
 30
0.0
 70
    32
  0
VERTEX
  5
CEA9
  8
HIDDEN
 10
153.019
 20
86.025
 30
0.0
 70
    32
  0
VERTEX
  5
CEAA
  8
HIDDEN
 10
153.033
 20
86.0434
 30
0.0
 70
    32
  0
VERTEX
  5
CEAB
  8
HIDDEN
 10
153.046
 20
86.0626
 30
0.0
 70
    32
  0
VERTEX
  5
CEAC
  8
HIDDEN
 10
153.059
 20
86.0827
 30
0.0
 70
    32
  0
VERTEX
  5
CEAD
  8
HIDDEN
 10
153.072
 20
86.1036
 30
0.0
 70
    32
  0
VERTEX
  5
CEAE
  8
HIDDEN
 10
153.085
 20
86.1254
 30
0.0
 70
    32
  0
VERTEX
  5
CEAF
  8
HIDDEN
 10
153.098
 20
86.1479
 30
0.0
 70
    32
  0
VERTEX
  5
CEB0
  8
HIDDEN
 10
153.11
 20
86.1713
 30
0.0
 70
    32
  0
VERTEX
  5
CEB1
  8
HIDDEN
 10
153.122
 20
86.1954
 30
0.0
 70
    32
  0
VERTEX
  5
CEB2
  8
HIDDEN
 10
153.134
 20
86.2204
 30
0.0
 70
    32
  0
VERTEX
  5
CEB3
  8
HIDDEN
 10
153.146
 20
86.246
 30
0.0
 70
    32
  0
VERTEX
  5
CEB4
  8
HIDDEN
 10
153.157
 20
86.2725
 30
0.0
 70
    32
  0
VERTEX
  5
CEB5
  8
HIDDEN
 10
153.168
 20
86.2996
 30
0.0
 70
    32
  0
VERTEX
  5
CEB6
  8
HIDDEN
 10
153.179
 20
86.3274
 30
0.0
 70
    32
  0
VERTEX
  5
CEB7
  8
HIDDEN
 10
153.19
 20
86.356
 30
0.0
 70
    32
  0
VERTEX
  5
CEB8
  8
HIDDEN
 10
153.2
 20
86.3852
 30
0.0
 70
    32
  0
VERTEX
  5
CEB9
  8
HIDDEN
 10
153.21
 20
86.4151
 30
0.0
 70
    32
  0
VERTEX
  5
CEBA
  8
HIDDEN
 10
153.22
 20
86.4456
 30
0.0
 70
    32
  0
VERTEX
  5
CEBB
  8
HIDDEN
 10
153.23
 20
86.4767
 30
0.0
 70
    32
  0
VERTEX
  5
CEBC
  8
HIDDEN
 10
153.239
 20
86.5085
 30
0.0
 70
    32
  0
VERTEX
  5
CEBD
  8
HIDDEN
 10
153.248
 20
86.5408
 30
0.0
 70
    32
  0
VERTEX
  5
CEBE
  8
HIDDEN
 10
153.257
 20
86.5737
 30
0.0
 70
    32
  0
VERTEX
  5
CEBF
  8
HIDDEN
 10
153.265
 20
86.6071
 30
0.0
 70
    32
  0
VERTEX
  5
CEC0
  8
HIDDEN
 10
153.273
 20
86.6411
 30
0.0
 70
    32
  0
VERTEX
  5
CEC1
  8
HIDDEN
 10
153.281
 20
86.6755
 30
0.0
 70
    32
  0
VERTEX
  5
CEC2
  8
HIDDEN
 10
153.288
 20
86.7105
 30
0.0
 70
    32
  0
VERTEX
  5
CEC3
  8
HIDDEN
 10
153.295
 20
86.7459
 30
0.0
 70
    32
  0
VERTEX
  5
CEC4
  8
HIDDEN
 10
153.302
 20
86.7817
 30
0.0
 70
    32
  0
VERTEX
  5
CEC5
  8
HIDDEN
 10
153.308
 20
86.818
 30
0.0
 70
    32
  0
VERTEX
  5
CEC6
  8
HIDDEN
 10
153.314
 20
86.8546
 30
0.0
 70
    32
  0
VERTEX
  5
CEC7
  8
HIDDEN
 10
153.32
 20
86.8917
 30
0.0
 70
    32
  0
VERTEX
  5
CEC8
  8
HIDDEN
 10
153.325
 20
86.929
 30
0.0
 70
    32
  0
VERTEX
  5
CEC9
  8
HIDDEN
 10
153.33
 20
86.9668
 30
0.0
 70
    32
  0
VERTEX
  5
CECA
  8
HIDDEN
 10
153.335
 20
87.0048
 30
0.0
 70
    32
  0
VERTEX
  5
CECB
  8
HIDDEN
 10
153.339
 20
87.0431
 30
0.0
 70
    32
  0
VERTEX
  5
CECC
  8
HIDDEN
 10
153.343
 20
87.0816
 30
0.0
 70
    32
  0
VERTEX
  5
CECD
  8
HIDDEN
 10
153.346
 20
87.1204
 30
0.0
 70
    32
  0
VERTEX
  5
CECE
  8
HIDDEN
 10
153.349
 20
87.1595
 30
0.0
 70
    32
  0
VERTEX
  5
CECF
  8
HIDDEN
 10
153.352
 20
87.1987
 30
0.0
 70
    32
  0
VERTEX
  5
CED0
  8
HIDDEN
 10
153.355
 20
87.2381
 30
0.0
 70
    32
  0
VERTEX
  5
CED1
  8
HIDDEN
 10
153.357
 20
87.2776
 30
0.0
 70
    32
  0
VERTEX
  5
CED2
  8
HIDDEN
 10
153.358
 20
87.3172
 30
0.0
 70
    32
  0
VERTEX
  5
CED3
  8
HIDDEN
 10
153.36
 20
87.3569
 30
0.0
 70
    32
  0
VERTEX
  5
CED4
  8
HIDDEN
 10
153.361
 20
87.3968
 30
0.0
 70
    32
  0
VERTEX
  5
CED5
  8
HIDDEN
 10
153.361
 20
87.4366
 30
0.0
 70
    32
  0
VERTEX
  5
CED6
  8
HIDDEN
 10
153.361
 20
87.4765
 30
0.0
 70
    32
  0
VERTEX
  5
CED7
  8
HIDDEN
 10
153.361
 20
87.5164
 30
0.0
 70
    32
  0
VERTEX
  5
CED8
  8
HIDDEN
 10
153.361
 20
87.5562
 30
0.0
 70
    32
  0
VERTEX
  5
CED9
  8
HIDDEN
 10
153.36
 20
87.596
 30
0.0
 70
    32
  0
VERTEX
  5
CEDA
  8
HIDDEN
 10
153.358
 20
87.6358
 30
0.0
 70
    32
  0
VERTEX
  5
CEDB
  8
HIDDEN
 10
153.357
 20
87.6754
 30
0.0
 70
    32
  0
VERTEX
  5
CEDC
  8
HIDDEN
 10
153.355
 20
87.7149
 30
0.0
 70
    32
  0
VERTEX
  5
CEDD
  8
HIDDEN
 10
153.352
 20
87.7543
 30
0.0
 70
    32
  0
VERTEX
  5
CEDE
  8
HIDDEN
 10
153.349
 20
87.7935
 30
0.0
 70
    32
  0
VERTEX
  5
CEDF
  8
HIDDEN
 10
153.346
 20
87.8325
 30
0.0
 70
    32
  0
VERTEX
  5
CEE0
  8
HIDDEN
 10
153.343
 20
87.8713
 30
0.0
 70
    32
  0
VERTEX
  5
CEE1
  8
HIDDEN
 10
153.339
 20
87.9099
 30
0.0
 70
    32
  0
VERTEX
  5
CEE2
  8
HIDDEN
 10
153.335
 20
87.9482
 30
0.0
 70
    32
  0
VERTEX
  5
CEE3
  8
HIDDEN
 10
153.33
 20
87.9862
 30
0.0
 70
    32
  0
VERTEX
  5
CEE4
  8
HIDDEN
 10
153.325
 20
88.0239
 30
0.0
 70
    32
  0
VERTEX
  5
CEE5
  8
HIDDEN
 10
153.32
 20
88.0613
 30
0.0
 70
    32
  0
VERTEX
  5
CEE6
  8
HIDDEN
 10
153.314
 20
88.0983
 30
0.0
 70
    32
  0
VERTEX
  5
CEE7
  8
HIDDEN
 10
153.308
 20
88.135
 30
0.0
 70
    32
  0
VERTEX
  5
CEE8
  8
HIDDEN
 10
153.302
 20
88.1713
 30
0.0
 70
    32
  0
VERTEX
  5
CEE9
  8
HIDDEN
 10
153.295
 20
88.2071
 30
0.0
 70
    32
  0
VERTEX
  5
CEEA
  8
HIDDEN
 10
153.288
 20
88.2425
 30
0.0
 70
    32
  0
VERTEX
  5
CEEB
  8
HIDDEN
 10
153.281
 20
88.2774
 30
0.0
 70
    32
  0
VERTEX
  5
CEEC
  8
HIDDEN
 10
153.273
 20
88.3119
 30
0.0
 70
    32
  0
VERTEX
  5
CEED
  8
HIDDEN
 10
153.265
 20
88.3458
 30
0.0
 70
    32
  0
VERTEX
  5
CEEE
  8
HIDDEN
 10
153.257
 20
88.3793
 30
0.0
 70
    32
  0
VERTEX
  5
CEEF
  8
HIDDEN
 10
153.248
 20
88.4122
 30
0.0
 70
    32
  0
VERTEX
  5
CEF0
  8
HIDDEN
 10
153.239
 20
88.4445
 30
0.0
 70
    32
  0
VERTEX
  5
CEF1
  8
HIDDEN
 10
153.23
 20
88.4762
 30
0.0
 70
    32
  0
VERTEX
  5
CEF2
  8
HIDDEN
 10
153.22
 20
88.5074
 30
0.0
 70
    32
  0
VERTEX
  5
CEF3
  8
HIDDEN
 10
153.21
 20
88.5379
 30
0.0
 70
    32
  0
VERTEX
  5
CEF4
  8
HIDDEN
 10
153.2
 20
88.5678
 30
0.0
 70
    32
  0
VERTEX
  5
CEF5
  8
HIDDEN
 10
153.19
 20
88.597
 30
0.0
 70
    32
  0
VERTEX
  5
CEF6
  8
HIDDEN
 10
153.179
 20
88.6255
 30
0.0
 70
    32
  0
VERTEX
  5
CEF7
  8
HIDDEN
 10
153.168
 20
88.6534
 30
0.0
 70
    32
  0
VERTEX
  5
CEF8
  8
HIDDEN
 10
153.157
 20
88.6805
 30
0.0
 70
    32
  0
VERTEX
  5
CEF9
  8
HIDDEN
 10
153.146
 20
88.7069
 30
0.0
 70
    32
  0
VERTEX
  5
CEFA
  8
HIDDEN
 10
153.134
 20
88.7326
 30
0.0
 70
    32
  0
VERTEX
  5
CEFB
  8
HIDDEN
 10
153.122
 20
88.7575
 30
0.0
 70
    32
  0
VERTEX
  5
CEFC
  8
HIDDEN
 10
153.11
 20
88.7817
 30
0.0
 70
    32
  0
VERTEX
  5
CEFD
  8
HIDDEN
 10
153.098
 20
88.805
 30
0.0
 70
    32
  0
VERTEX
  5
CEFE
  8
HIDDEN
 10
153.085
 20
88.8276
 30
0.0
 70
    32
  0
VERTEX
  5
CEFF
  8
HIDDEN
 10
153.072
 20
88.8494
 30
0.0
 70
    32
  0
VERTEX
  5
CF00
  8
HIDDEN
 10
153.059
 20
88.8703
 30
0.0
 70
    32
  0
VERTEX
  5
CF01
  8
HIDDEN
 10
153.046
 20
88.8904
 30
0.0
 70
    32
  0
VERTEX
  5
CF02
  8
HIDDEN
 10
153.033
 20
88.9096
 30
0.0
 70
    32
  0
VERTEX
  5
CF03
  8
HIDDEN
 10
153.019
 20
88.928
 30
0.0
 70
    32
  0
VERTEX
  5
CF04
  8
HIDDEN
 10
153.006
 20
88.9455
 30
0.0
 70
    32
  0
VERTEX
  5
CF05
  8
HIDDEN
 10
152.992
 20
88.9621
 30
0.0
 70
    32
  0
VERTEX
  5
CF06
  8
HIDDEN
 10
152.978
 20
88.9778
 30
0.0
 70
    32
  0
VERTEX
  5
CF07
  8
HIDDEN
 10
152.963
 20
88.9926
 30
0.0
 70
    32
  0
VERTEX
  5
CF08
  8
HIDDEN
 10
152.949
 20
89.0065
 30
0.0
 70
    32
  0
VERTEX
  5
CF09
  8
HIDDEN
 10
152.935
 20
89.0195
 30
0.0
 70
    32
  0
VERTEX
  5
CF0A
  8
HIDDEN
 10
152.92
 20
89.0315
 30
0.0
 70
    32
  0
VERTEX
  5
CF0B
  8
HIDDEN
 10
152.906
 20
89.0426
 30
0.0
 70
    32
  0
VERTEX
  5
CF0C
  8
HIDDEN
 10
152.891
 20
89.0528
 30
0.0
 70
    32
  0
VERTEX
  5
CF0D
  8
HIDDEN
 10
152.876
 20
89.062
 30
0.0
 70
    32
  0
VERTEX
  5
CF0E
  8
HIDDEN
 10
152.861
 20
89.0702
 30
0.0
 70
    32
  0
VERTEX
  5
CF0F
  8
HIDDEN
 10
152.846
 20
89.0775
 30
0.0
 70
    32
  0
VERTEX
  5
CF10
  8
HIDDEN
 10
152.831
 20
89.0839
 30
0.0
 70
    32
  0
VERTEX
  5
CF11
  8
HIDDEN
 10
152.816
 20
89.0892
 30
0.0
 70
    32
  0
VERTEX
  5
CF12
  8
HIDDEN
 10
152.801
 20
89.0936
 30
0.0
 70
    32
  0
VERTEX
  5
CF13
  8
HIDDEN
 10
152.785
 20
89.0971
 30
0.0
 70
    32
  0
VERTEX
  5
CF14
  8
HIDDEN
 10
152.77
 20
89.0995
 30
0.0
 70
    32
  0
VERTEX
  5
CF15
  8
HIDDEN
 10
152.755
 20
89.101
 30
0.0
 70
    32
  0
VERTEX
  5
CF16
  8
HIDDEN
 10
152.74
 20
89.1015
 30
0.0
 70
    32
  0
SEQEND
  5
CF17
  8
HIDDEN
  0
ARC
  5
CF18
  8
0
 62
     5
 10
262.631961
 20
134.201672
 30
0.0
 40
2.499798
 50
359.99861
 51
90.00139
  0
ARC
  5
CF19
  8
0
 62
     5
 10
233.218321
 20
135.683073
 30
0.0
 40
1.018411
 50
89.696151
 51
135.137372
  0
ARC
  5
CF1A
  8
0
 62
     5
 10
256.440176
 20
97.099751
 30
0.0
 40
0.998281
 50
269.978172
 51
315.614439
  0
ARC
  5
CF1B
  8
0
 62
     5
 10
256.459683
 20
97.014362
 30
0.0
 40
1.000473
 50
269.926202
 51
322.222052
  0
ARC
  5
CF1C
  8
0
 62
     5
 10
252.532368
 20
95.607301
 30
0.0
 40
0.500077
 50
90.008827
 51
180.002534
  0
ARC
  5
CF1D
  8
0
 62
     5
 10
257.41613
 20
96.413065
 30
0.0
 40
0.993343
 50
269.73999
 51
359.331204
  0
ARC
  5
CF1E
  8
0
 62
     5
 10
225.568671
 20
128.09171
 30
0.0
 40
1.036912
 50
135.290211
 51
180.026328
  0
ARC
  5
CF1F
  8
0
 62
     5
 10
225.534835
 20
128.007871
 30
0.0
 40
1.003077
 50
134.500788
 51
179.906601
  0
ARC
  5
CF20
  8
0
  6
BYBLOCK
 62
     5
 10
225.038126
 20
93.501957
 30
0.0
 40
0.500488
 50
180.055794
 51
269.944206
  0
ARC
  5
CF21
  8
0
  6
BYBLOCK
 62
     5
 10
264.093736
 20
104.711687
 30
0.0
 40
1.038023
 50
315.315441
 51
0.001099
  0
ARC
  5
CF22
  8
0
  6
BYBLOCK
 62
     5
 10
264.133478
 20
104.793053
 30
0.0
 40
0.998281
 50
314.385561
 51
0.021828
  0
ARC
  5
CF23
  8
0
  6
BYBLOCK
 62
     5
 10
234.934419
 20
93.362096
 30
0.0
 40
0.061811
 50
228.493451
 51
258.760393
  0
ARC
  5
CF24
  8
0
  6
BYBLOCK
 62
     5
 10
235.882835
 20
94.340718
 30
0.0
 40
1.42454
 50
216.095725
 51
226.010596
  0
ARC
  5
CF25
  8
0
  6
BYBLOCK
 62
     5
 10
241.92948
 20
93.360371
 30
0.0
 40
0.060046
 50
281.203785
 51
307.600102
  0
ARC
  5
CF26
  8
0
  6
BYBLOCK
 62
     5
 10
241.171001
 20
94.177908
 30
0.0
 40
1.175
 50
312.585846
 51
324.85188
  0
ARC
  5
CF27
  8
0
  6
BYBLOCK
 62
     5
 10
82.633654
 20
106.956788
 30
0.0
 40
5.121443
 50
168.811671
 51
177.463988
  0
ARC
  5
CF28
  8
0
  6
BYBLOCK
 62
     5
 10
78.422889
 20
107.121671
 30
0.0
 40
0.907764
 50
176.100932
 51
190.192502
  0
ARC
  5
CF29
  8
0
  6
BYBLOCK
 62
     5
 10
82.647295
 20
106.406942
 30
0.0
 40
5.135147
 50
182.544399
 51
191.176925
  0
ARC
  5
CF2A
  8
0
  6
BYBLOCK
 62
     5
 10
78.42234
 20
106.240453
 30
0.0
 40
0.907215
 50
169.80447
 51
183.885674
  0
ARC
  5
CF2B
  8
0
  6
BYBLOCK
 62
     5
 10
105.766442
 20
99.965398
 30
0.0
 40
4.922784
 50
163.903059
 51
177.926607
  0
ARC
  5
CF2C
  8
0
  6
BYBLOCK
 62
     5
 10
102.669288
 20
100.271987
 30
0.0
 40
1.826931
 50
184.03283
 51
195.569771
  0
ARC
  5
CF2D
  8
0
  6
BYBLOCK
 62
     5
 10
105.802276
 20
99.043568
 30
0.0
 40
4.958804
 50
182.124579
 51
196.045755
  0
ARC
  5
CF2E
  8
0
  6
BYBLOCK
 62
     5
 10
102.669298
 20
98.731247
 30
0.0
 40
1.826941
 50
164.430262
 51
175.967137
  0
ARC
  5
CF2F
  8
0
  6
BYBLOCK
 62
     5
 10
82.19844
 20
127.648915
 30
0.0
 40
4.684595
 50
168.398911
 51
178.6573
  0
ARC
  5
CF30
  8
0
  6
BYBLOCK
 62
     5
 10
79.425204
 20
127.853414
 30
0.0
 40
1.91242
 50
182.839203
 51
187.569836
  0
ARC
  5
CF31
  8
0
  6
BYBLOCK
 62
     5
 10
82.269244
 20
127.002082
 30
0.0
 40
4.755572
 50
181.419454
 51
191.524335
  0
ARC
  5
CF32
  8
0
  6
BYBLOCK
 62
     5
 10
79.385097
 20
126.793204
 30
0.0
 40
1.872182
 50
172.379298
 51
177.211664
  0
ENDSEC
  0
EOF
