  0
SECTION
  2
HEADER
  9
$ACADVER
  1
AC1009
  9
$INSBASE
 10
0.0
 20
0.0
 30
0.0
  9
$EXTMIN
 10
23.480084
 20
110.122839
 30
-0.001526
  9
$EXTMAX
 10
376.428001
 20
242.286512
 30
0.0
  9
$LIMMIN
 10
0.0
 20
0.0
  9
$LIMMAX
 10
12.0
 20
9.0
  9
$ORTHOMODE
 70
     0
  9
$REGENMODE
 70
     1
  9
$FILLMODE
 70
     1
  9
$QTEXTMODE
 70
     0
  9
$MIRRTEXT
 70
     1
  9
$DRAGMODE
 70
     2
  9
$LTSCALE
 40
0.5
  9
$OSMODE
 70
    39
  9
$ATTMODE
 70
     1
  9
$TEXTSIZE
 40
0.2
  9
$TRACEWID
 40
0.05
  9
$TEXTSTYLE
  7
STANDARD
  9
$CLAYER
  8
0
  9
$CELTYPE
  6
BYLAYER
  9
$CECOLOR
 62
   256
  9
$DIMSCALE
 40
1.0
  9
$DIMASZ
 40
0.18
  9
$DIMEXO
 40
0.0625
  9
$DIMDLI
 40
0.38
  9
$DIMRND
 40
0.0
  9
$DIMDLE
 40
0.0
  9
$DIMEXE
 40
0.18
  9
$DIMTP
 40
0.0
  9
$DIMTM
 40
0.0
  9
$DIMTXT
 40
0.18
  9
$DIMCEN
 40
0.09
  9
$DIMTSZ
 40
0.0
  9
$DIMTOL
 70
     0
  9
$DIMLIM
 70
     0
  9
$DIMTIH
 70
     1
  9
$DIMTOH
 70
     1
  9
$DIMSE1
 70
     0
  9
$DIMSE2
 70
     0
  9
$DIMTAD
 70
     0
  9
$DIMZIN
 70
     0
  9
$DIMBLK
  1

  9
$DIMASO
 70
     1
  9
$DIMSHO
 70
     1
  9
$DIMPOST
  1

  9
$DIMAPOST
  1

  9
$DIMALT
 70
     0
  9
$DIMALTD
 70
     2
  9
$DIMALTF
 40
25.4
  9
$DIMLFAC
 40
1.0
  9
$DIMTOFL
 70
     0
  9
$DIMTVP
 40
0.0
  9
$DIMTIX
 70
     0
  9
$DIMSOXD
 70
     0
  9
$DIMSAH
 70
     0
  9
$DIMBLK1
  1

  9
$DIMBLK2
  1

  9
$DIMSTYLE
  2
STANDARD
  9
$DIMCLRD
 70
     0
  9
$DIMCLRE
 70
     0
  9
$DIMCLRT
 70
     0
  9
$DIMTFAC
 40
1.0
  9
$DIMGAP
 40
0.09
  9
$LUNITS
 70
     2
  9
$LUPREC
 70
     4
  9
$SKETCHINC
 40
0.1
  9
$FILLETRAD
 40
0.0
  9
$AUNITS
 70
     0
  9
$AUPREC
 70
     0
  9
$MENU
  1
.
  9
$ELEVATION
 40
0.0
  9
$PELEVATION
 40
0.0
  9
$THICKNESS
 40
0.0
  9
$LIMCHECK
 70
     0
  9
$BLIPMODE
 70
     0
  9
$CHAMFERA
 40
0.0
  9
$CHAMFERB
 40
0.0
  9
$SKPOLY
 70
     0
  9
$TDCREATE
 40
2451614.55982
  9
$TDUPDATE
 40
2452948.804879
  9
$TDINDWG
 40
0.106096
  9
$TDUSRTIMER
 40
0.106096
  9
$USRTIMER
 70
     1
  9
$ANGBASE
 50
0.0
  9
$ANGDIR
 70
     0
  9
$PDMODE
 70
     0
  9
$PDSIZE
 40
0.0
  9
$PLINEWID
 40
0.0
  9
$COORDS
 70
     2
  9
$SPLFRAME
 70
     0
  9
$SPLINETYPE
 70
     6
  9
$SPLINESEGS
 70
     8
  9
$ATTDIA
 70
     0
  9
$ATTREQ
 70
     1
  9
$HANDLING
 70
     1
  9
$HANDSEED
  5
10D8A
  9
$SURFTAB1
 70
     6
  9
$SURFTAB2
 70
     6
  9
$SURFTYPE
 70
     6
  9
$SURFU
 70
     6
  9
$SURFV
 70
     6
  9
$UCSNAME
  2

  9
$UCSORG
 10
0.0
 20
0.0
 30
0.0
  9
$UCSXDIR
 10
1.0
 20
0.0
 30
0.0
  9
$UCSYDIR
 10
0.0
 20
1.0
 30
0.0
  9
$PUCSNAME
  2

  9
$PUCSORG
 10
0.0
 20
0.0
 30
0.0
  9
$PUCSXDIR
 10
1.0
 20
0.0
 30
0.0
  9
$PUCSYDIR
 10
0.0
 20
1.0
 30
0.0
  9
$USERI1
 70
     0
  9
$USERI2
 70
     0
  9
$USERI3
 70
     0
  9
$USERI4
 70
     0
  9
$USERI5
 70
     0
  9
$USERR1
 40
0.0
  9
$USERR2
 40
0.0
  9
$USERR3
 40
0.0
  9
$USERR4
 40
0.0
  9
$USERR5
 40
0.0
  9
$WORLDVIEW
 70
     1
  9
$SHADEDGE
 70
     3
  9
$SHADEDIF
 70
    70
  9
$TILEMODE
 70
     1
  9
$MAXACTVP
 70
    48
  9
$PLIMCHECK
 70
     0
  9
$PEXTMIN
 10
1.000000E+020
 20
1.000000E+020
 30
1.000000E+020
  9
$PEXTMAX
 10
-1.000000E+020
 20
-1.000000E+020
 30
-1.000000E+020
  9
$PLIMMIN
 10
0.0
 20
0.0
  9
$PLIMMAX
 10
12.0
 20
9.0
  9
$UNITMODE
 70
     0
  9
$VISRETAIN
 70
     1
  9
$PLINEGEN
 70
     0
  9
$PSLTSCALE
 70
     1
  0
ENDSEC
  0
SECTION
  2
TABLES
  0
TABLE
  2
VPORT
 70
     4
  0
VPORT
  2
*ACTIVE
 70
     0
 10
0.0
 20
0.0
 11
1.0
 21
1.0
 12
199.954042
 22
176.204675
 13
0.0
 23
0.0
 14
1.0
 24
1.0
 15
0.0
 25
0.0
 16
0.0
 26
0.0
 36
1.0
 17
0.0
 27
0.0
 37
0.0
 40
219.31754
 41
1.616967
 42
50.0
 43
0.0
 44
0.0
 50
0.0
 51
0.0
 71
     0
 72
   100
 73
     1
 74
     1
 75
     0
 76
     0
 77
     0
 78
     0
  0
ENDTAB
  0
TABLE
  2
LTYPE
 70
     6
  0
LTYPE
  2
CONTINUOUS
 70
     0
  3
Solid line
 72
    65
 73
     0
 40
0.0
  0
LTYPE
  2
CENTER
 70
     0
  3
____ _ ____ _ ____ _ ____ _ ____ _ ____ _ ____
 72
    65
 73
     4
 40
17.5
 49
13.0
 49
-1.5
 49
1.5
 49
-1.5
  0
LTYPE
  2
HIDDEN
 70
     0
  3
Hidden __ __ __ __ __ __ __ __ __ __ __ __ __ _
 72
    65
 73
     2
 40
9.525
 49
6.35
 49
-3.175
  0
ENDTAB
  0
TABLE
  2
LAYER
 70
     5
  0
LAYER
  2
0
 70
     0
 62
     7
  6
CONTINUOUS
  0
LAYER
  2
CENTER
 70
     0
 62
     1
  6
CENTER
  0
LAYER
  2
1
 70
     0
 62
     7
  6
CONTINUOUS
  0
LAYER
  2
HIDDEN
 70
     0
 62
     6
  6
HIDDEN
  0
ENDTAB
  0
TABLE
  2
STYLE
 70
     2
  0
STYLE
  2
STANDARD
 70
     0
 40
0.0
 41
1.0
 50
0.0
 71
     0
 42
0.2
  3
txt
  4

  0
ENDTAB
  0
TABLE
  2
VIEW
 70
     0
  0
ENDTAB
  0
TABLE
  2
UCS
 70
     0
  0
ENDTAB
  0
TABLE
  2
APPID
 70
     1
  0
APPID
  2
ACAD
 70
     0
  0
ENDTAB
  0
TABLE
  2
DIMSTYLE
 70
     3
  0
DIMSTYLE
  2
STANDARD
 70
     0
  3

  4

  5

  6

  7

 40
1.0
 41
0.18
 42
0.0625
 43
0.38
 44
0.18
 45
0.0
 46
0.0
 47
0.0
 48
0.0
140
0.18
141
0.09
142
0.0
143
25.4
144
1.0
145
0.0
146
1.0
147
0.09
 71
     0
 72
     0
 73
     1
 74
     1
 75
     0
 76
     0
 77
     0
 78
     0
170
     0
171
     2
172
     0
173
     0
174
     0
175
     0
176
     0
177
     0
178
     0
  0
ENDTAB
  0
ENDSEC
  0
SECTION
  2
BLOCKS
  0
BLOCK
  8
0
  2
$MODEL_SPACE
 70
     0
 10
0.0
 20
0.0
 30
0.0
  3
$MODEL_SPACE
  1

  0
ENDBLK
  5
10D63
  8
0
  0
BLOCK
 67
     1
  8
0
  2
$PAPER_SPACE
 70
     0
 10
0.0
 20
0.0
 30
0.0
  3
$PAPER_SPACE
  1

  0
ENDBLK
  5
10D60
 67
     1
  8
0
  0
BLOCK
  8
0
  2
A$C3C4259C2
 70
     0
 10
0.0
 20
0.0
 30
0.0
  3
A$C3C4259C2
  1

  0
POLYLINE
  5
1016E
  8
HIDDEN
 66
     1
 10
0.0
 20
0.0
 30
0.0
 70
     8
  0
VERTEX
  5
1016F
  8
0
 10
0.0
 20
4.16
 30
0.0
 70
    32
  0
VERTEX
  5
10170
  8
0
 10
-0.01641
 20
4.15969
 30
0.0
 70
    32
  0
VERTEX
  5
10171
  8
0
 10
-0.032811
 20
4.15875
 30
0.0
 70
    32
  0
VERTEX
  5
10172
  8
0
 10
-0.049191
 20
4.15718
 30
0.0
 70
    32
  0
VERTEX
  5
10173
  8
0
 10
-0.065542
 20
4.15499
 30
0.0
 70
    32
  0
VERTEX
  5
10174
  8
0
 10
-0.081853
 20
4.15218
 30
0.0
 70
    32
  0
VERTEX
  5
10175
  8
0
 10
-0.098115
 20
4.14874
 30
0.0
 70
    32
  0
VERTEX
  5
10176
  8
0
 10
-0.114318
 20
4.14469
 30
0.0
 70
    32
  0
VERTEX
  5
10177
  8
0
 10
-0.130453
 20
4.14002
 30
0.0
 70
    32
  0
VERTEX
  5
10178
  8
0
 10
-0.146508
 20
4.13473
 30
0.0
 70
    32
  0
VERTEX
  5
10179
  8
0
 10
-0.162475
 20
4.12883
 30
0.0
 70
    32
  0
VERTEX
  5
1017A
  8
0
 10
-0.178345
 20
4.12233
 30
0.0
 70
    32
  0
VERTEX
  5
1017B
  8
0
 10
-0.194107
 20
4.11522
 30
0.0
 70
    32
  0
VERTEX
  5
1017C
  8
0
 10
-0.209752
 20
4.10751
 30
0.0
 70
    32
  0
VERTEX
  5
1017D
  8
0
 10
-0.225271
 20
4.09921
 30
0.0
 70
    32
  0
VERTEX
  5
1017E
  8
0
 10
-0.240654
 20
4.09031
 30
0.0
 70
    32
  0
VERTEX
  5
1017F
  8
0
 10
-0.255892
 20
4.08083
 30
0.0
 70
    32
  0
VERTEX
  5
10180
  8
0
 10
-0.270976
 20
4.07078
 30
0.0
 70
    32
  0
VERTEX
  5
10181
  8
0
 10
-0.285897
 20
4.06015
 30
0.0
 70
    32
  0
VERTEX
  5
10182
  8
0
 10
-0.300645
 20
4.04895
 30
0.0
 70
    32
  0
VERTEX
  5
10183
  8
0
 10
-0.315212
 20
4.0372
 30
0.0
 70
    32
  0
VERTEX
  5
10184
  8
0
 10
-0.32959
 20
4.02489
 30
0.0
 70
    32
  0
VERTEX
  5
10185
  8
0
 10
-0.343769
 20
4.01204
 30
0.0
 70
    32
  0
VERTEX
  5
10186
  8
0
 10
-0.357741
 20
3.99865
 30
0.0
 70
    32
  0
VERTEX
  5
10187
  8
0
 10
-0.371497
 20
3.98473
 30
0.0
 70
    32
  0
VERTEX
  5
10188
  8
0
 10
-0.38503
 20
3.97029
 30
0.0
 70
    32
  0
VERTEX
  5
10189
  8
0
 10
-0.398331
 20
3.95534
 30
0.0
 70
    32
  0
VERTEX
  5
1018A
  8
0
 10
-0.411392
 20
3.93988
 30
0.0
 70
    32
  0
VERTEX
  5
1018B
  8
0
 10
-0.424205
 20
3.92393
 30
0.0
 70
    32
  0
VERTEX
  5
1018C
  8
0
 10
-0.436762
 20
3.9075
 30
0.0
 70
    32
  0
VERTEX
  5
1018D
  8
0
 10
-0.449056
 20
3.89059
 30
0.0
 70
    32
  0
VERTEX
  5
1018E
  8
0
 10
-0.46108
 20
3.87322
 30
0.0
 70
    32
  0
VERTEX
  5
1018F
  8
0
 10
-0.472826
 20
3.85539
 30
0.0
 70
    32
  0
VERTEX
  5
10190
  8
0
 10
-0.484288
 20
3.83712
 30
0.0
 70
    32
  0
VERTEX
  5
10191
  8
0
 10
-0.495457
 20
3.81842
 30
0.0
 70
    32
  0
VERTEX
  5
10192
  8
0
 10
-0.506329
 20
3.7993
 30
0.0
 70
    32
  0
VERTEX
  5
10193
  8
0
 10
-0.516895
 20
3.77977
 30
0.0
 70
    32
  0
VERTEX
  5
10194
  8
0
 10
-0.52715
 20
3.75984
 30
0.0
 70
    32
  0
VERTEX
  5
10195
  8
0
 10
-0.537087
 20
3.73953
 30
0.0
 70
    32
  0
VERTEX
  5
10196
  8
0
 10
-0.546701
 20
3.71884
 30
0.0
 70
    32
  0
VERTEX
  5
10197
  8
0
 10
-0.555985
 20
3.69779
 30
0.0
 70
    32
  0
VERTEX
  5
10198
  8
0
 10
-0.564935
 20
3.6764
 30
0.0
 70
    32
  0
VERTEX
  5
10199
  8
0
 10
-0.573544
 20
3.65467
 30
0.0
 70
    32
  0
VERTEX
  5
1019A
  8
0
 10
-0.581808
 20
3.63261
 30
0.0
 70
    32
  0
VERTEX
  5
1019B
  8
0
 10
-0.589721
 20
3.61025
 30
0.0
 70
    32
  0
VERTEX
  5
1019C
  8
0
 10
-0.597279
 20
3.5876
 30
0.0
 70
    32
  0
VERTEX
  5
1019D
  8
0
 10
-0.604477
 20
3.56466
 30
0.0
 70
    32
  0
VERTEX
  5
1019E
  8
0
 10
-0.611312
 20
3.54145
 30
0.0
 70
    32
  0
VERTEX
  5
1019F
  8
0
 10
-0.617778
 20
3.51799
 30
0.0
 70
    32
  0
VERTEX
  5
101A0
  8
0
 10
-0.623871
 20
3.49429
 30
0.0
 70
    32
  0
VERTEX
  5
101A1
  8
0
 10
-0.629589
 20
3.47037
 30
0.0
 70
    32
  0
VERTEX
  5
101A2
  8
0
 10
-0.634928
 20
3.44623
 30
0.0
 70
    32
  0
VERTEX
  5
101A3
  8
0
 10
-0.639885
 20
3.4219
 30
0.0
 70
    32
  0
VERTEX
  5
101A4
  8
0
 10
-0.644456
 20
3.39738
 30
0.0
 70
    32
  0
VERTEX
  5
101A5
  8
0
 10
-0.648638
 20
3.3727
 30
0.0
 70
    32
  0
VERTEX
  5
101A6
  8
0
 10
-0.65243
 20
3.34787
 30
0.0
 70
    32
  0
VERTEX
  5
101A7
  8
0
 10
-0.655829
 20
3.32289
 30
0.0
 70
    32
  0
VERTEX
  5
101A8
  8
0
 10
-0.658833
 20
3.2978
 30
0.0
 70
    32
  0
VERTEX
  5
101A9
  8
0
 10
-0.66144
 20
3.2726
 30
0.0
 70
    32
  0
VERTEX
  5
101AA
  8
0
 10
-0.663649
 20
3.24731
 30
0.0
 70
    32
  0
VERTEX
  5
101AB
  8
0
 10
-0.665458
 20
3.22194
 30
0.0
 70
    32
  0
VERTEX
  5
101AC
  8
0
 10
-0.666866
 20
3.19651
 30
0.0
 70
    32
  0
VERTEX
  5
101AD
  8
0
 10
-0.667872
 20
3.17103
 30
0.0
 70
    32
  0
VERTEX
  5
101AE
  8
0
 10
-0.668476
 20
3.14552
 30
0.0
 70
    32
  0
VERTEX
  5
101AF
  8
0
 10
-0.668678
 20
3.12
 30
0.0
 70
    32
  0
VERTEX
  5
101B0
  8
0
 10
-0.668476
 20
3.09448
 30
0.0
 70
    32
  0
VERTEX
  5
101B1
  8
0
 10
-0.667872
 20
3.06897
 30
0.0
 70
    32
  0
VERTEX
  5
101B2
  8
0
 10
-0.666866
 20
3.04349
 30
0.0
 70
    32
  0
VERTEX
  5
101B3
  8
0
 10
-0.665458
 20
3.01806
 30
0.0
 70
    32
  0
VERTEX
  5
101B4
  8
0
 10
-0.663649
 20
2.99269
 30
0.0
 70
    32
  0
VERTEX
  5
101B5
  8
0
 10
-0.66144
 20
2.9674
 30
0.0
 70
    32
  0
VERTEX
  5
101B6
  8
0
 10
-0.658833
 20
2.9422
 30
0.0
 70
    32
  0
VERTEX
  5
101B7
  8
0
 10
-0.655829
 20
2.91711
 30
0.0
 70
    32
  0
VERTEX
  5
101B8
  8
0
 10
-0.65243
 20
2.89213
 30
0.0
 70
    32
  0
VERTEX
  5
101B9
  8
0
 10
-0.648638
 20
2.8673
 30
0.0
 70
    32
  0
VERTEX
  5
101BA
  8
0
 10
-0.644456
 20
2.84262
 30
0.0
 70
    32
  0
VERTEX
  5
101BB
  8
0
 10
-0.639885
 20
2.8181
 30
0.0
 70
    32
  0
VERTEX
  5
101BC
  8
0
 10
-0.634928
 20
2.79377
 30
0.0
 70
    32
  0
VERTEX
  5
101BD
  8
0
 10
-0.629589
 20
2.76963
 30
0.0
 70
    32
  0
VERTEX
  5
101BE
  8
0
 10
-0.623871
 20
2.74571
 30
0.0
 70
    32
  0
VERTEX
  5
101BF
  8
0
 10
-0.617778
 20
2.72201
 30
0.0
 70
    32
  0
VERTEX
  5
101C0
  8
0
 10
-0.611312
 20
2.69855
 30
0.0
 70
    32
  0
VERTEX
  5
101C1
  8
0
 10
-0.604477
 20
2.67534
 30
0.0
 70
    32
  0
VERTEX
  5
101C2
  8
0
 10
-0.597279
 20
2.6524
 30
0.0
 70
    32
  0
VERTEX
  5
101C3
  8
0
 10
-0.589721
 20
2.62975
 30
0.0
 70
    32
  0
VERTEX
  5
101C4
  8
0
 10
-0.581808
 20
2.60739
 30
0.0
 70
    32
  0
VERTEX
  5
101C5
  8
0
 10
-0.573544
 20
2.58533
 30
0.0
 70
    32
  0
VERTEX
  5
101C6
  8
0
 10
-0.564935
 20
2.5636
 30
0.0
 70
    32
  0
VERTEX
  5
101C7
  8
0
 10
-0.555985
 20
2.54221
 30
0.0
 70
    32
  0
VERTEX
  5
101C8
  8
0
 10
-0.546701
 20
2.52116
 30
0.0
 70
    32
  0
VERTEX
  5
101C9
  8
0
 10
-0.537087
 20
2.50047
 30
0.0
 70
    32
  0
VERTEX
  5
101CA
  8
0
 10
-0.52715
 20
2.48016
 30
0.0
 70
    32
  0
VERTEX
  5
101CB
  8
0
 10
-0.516895
 20
2.46023
 30
0.0
 70
    32
  0
VERTEX
  5
101CC
  8
0
 10
-0.506329
 20
2.4407
 30
0.0
 70
    32
  0
VERTEX
  5
101CD
  8
0
 10
-0.495457
 20
2.42158
 30
0.0
 70
    32
  0
VERTEX
  5
101CE
  8
0
 10
-0.484288
 20
2.40288
 30
0.0
 70
    32
  0
VERTEX
  5
101CF
  8
0
 10
-0.472826
 20
2.38461
 30
0.0
 70
    32
  0
VERTEX
  5
101D0
  8
0
 10
-0.46108
 20
2.36678
 30
0.0
 70
    32
  0
VERTEX
  5
101D1
  8
0
 10
-0.449056
 20
2.34941
 30
0.0
 70
    32
  0
VERTEX
  5
101D2
  8
0
 10
-0.436762
 20
2.3325
 30
0.0
 70
    32
  0
VERTEX
  5
101D3
  8
0
 10
-0.424205
 20
2.31607
 30
0.0
 70
    32
  0
VERTEX
  5
101D4
  8
0
 10
-0.411392
 20
2.30012
 30
0.0
 70
    32
  0
VERTEX
  5
101D5
  8
0
 10
-0.398331
 20
2.28466
 30
0.0
 70
    32
  0
VERTEX
  5
101D6
  8
0
 10
-0.38503
 20
2.26971
 30
0.0
 70
    32
  0
VERTEX
  5
101D7
  8
0
 10
-0.371497
 20
2.25527
 30
0.0
 70
    32
  0
VERTEX
  5
101D8
  8
0
 10
-0.357741
 20
2.24135
 30
0.0
 70
    32
  0
VERTEX
  5
101D9
  8
0
 10
-0.343769
 20
2.22796
 30
0.0
 70
    32
  0
VERTEX
  5
101DA
  8
0
 10
-0.32959
 20
2.21511
 30
0.0
 70
    32
  0
VERTEX
  5
101DB
  8
0
 10
-0.315212
 20
2.2028
 30
0.0
 70
    32
  0
VERTEX
  5
101DC
  8
0
 10
-0.300645
 20
2.19105
 30
0.0
 70
    32
  0
VERTEX
  5
101DD
  8
0
 10
-0.285897
 20
2.17985
 30
0.0
 70
    32
  0
VERTEX
  5
101DE
  8
0
 10
-0.270976
 20
2.16922
 30
0.0
 70
    32
  0
VERTEX
  5
101DF
  8
0
 10
-0.255892
 20
2.15917
 30
0.0
 70
    32
  0
VERTEX
  5
101E0
  8
0
 10
-0.240654
 20
2.14969
 30
0.0
 70
    32
  0
VERTEX
  5
101E1
  8
0
 10
-0.225271
 20
2.14079
 30
0.0
 70
    32
  0
VERTEX
  5
101E2
  8
0
 10
-0.209752
 20
2.13249
 30
0.0
 70
    32
  0
VERTEX
  5
101E3
  8
0
 10
-0.194107
 20
2.12478
 30
0.0
 70
    32
  0
VERTEX
  5
101E4
  8
0
 10
-0.178345
 20
2.11767
 30
0.0
 70
    32
  0
VERTEX
  5
101E5
  8
0
 10
-0.162475
 20
2.11117
 30
0.0
 70
    32
  0
VERTEX
  5
101E6
  8
0
 10
-0.146508
 20
2.10527
 30
0.0
 70
    32
  0
VERTEX
  5
101E7
  8
0
 10
-0.130453
 20
2.09998
 30
0.0
 70
    32
  0
VERTEX
  5
101E8
  8
0
 10
-0.114318
 20
2.09531
 30
0.0
 70
    32
  0
VERTEX
  5
101E9
  8
0
 10
-0.098115
 20
2.09126
 30
0.0
 70
    32
  0
VERTEX
  5
101EA
  8
0
 10
-0.081853
 20
2.08782
 30
0.0
 70
    32
  0
VERTEX
  5
101EB
  8
0
 10
-0.065542
 20
2.08501
 30
0.0
 70
    32
  0
VERTEX
  5
101EC
  8
0
 10
-0.049191
 20
2.08282
 30
0.0
 70
    32
  0
VERTEX
  5
101ED
  8
0
 10
-0.032811
 20
2.08125
 30
0.0
 70
    32
  0
VERTEX
  5
101EE
  8
0
 10
-0.01641
 20
2.08031
 30
0.0
 70
    32
  0
VERTEX
  5
101EF
  8
0
 10
0.0
 20
2.08
 30
0.0
 70
    32
  0
SEQEND
  5
101F0
  8
0
  0
POLYLINE
  5
101F1
  8
HIDDEN
 66
     1
 10
0.0
 20
0.0
 30
0.0
 70
     8
  0
VERTEX
  5
101F2
  8
0
 10
0.0
 20
0.0
 30
0.0
 70
    32
  0
VERTEX
  5
101F3
  8
0
 10
0.032811
 20
0.001253
 30
0.0
 70
    32
  0
VERTEX
  5
101F4
  8
0
 10
0.065542
 20
0.005008
 30
0.0
 70
    32
  0
VERTEX
  5
101F5
  8
0
 10
0.098115
 20
0.011256
 30
0.0
 70
    32
  0
VERTEX
  5
101F6
  8
0
 10
0.130453
 20
0.019983
 30
0.0
 70
    32
  0
VERTEX
  5
101F7
  8
0
 10
0.162475
 20
0.031168
 30
0.0
 70
    32
  0
VERTEX
  5
101F8
  8
0
 10
0.194107
 20
0.044782
 30
0.0
 70
    32
  0
VERTEX
  5
101F9
  8
0
 10
0.225271
 20
0.060794
 30
0.0
 70
    32
  0
VERTEX
  5
101FA
  8
0
 10
0.255892
 20
0.079165
 30
0.0
 70
    32
  0
VERTEX
  5
101FB
  8
0
 10
0.285897
 20
0.099851
 30
0.0
 70
    32
  0
VERTEX
  5
101FC
  8
0
 10
0.315212
 20
0.122802
 30
0.0
 70
    32
  0
VERTEX
  5
101FD
  8
0
 10
0.343769
 20
0.147962
 30
0.0
 70
    32
  0
VERTEX
  5
101FE
  8
0
 10
0.371497
 20
0.175272
 30
0.0
 70
    32
  0
VERTEX
  5
101FF
  8
0
 10
0.398331
 20
0.204664
 30
0.0
 70
    32
  0
VERTEX
  5
10200
  8
0
 10
0.424205
 20
0.236069
 30
0.0
 70
    32
  0
VERTEX
  5
10201
  8
0
 10
0.449056
 20
0.269411
 30
0.0
 70
    32
  0
VERTEX
  5
10202
  8
0
 10
0.472826
 20
0.304609
 30
0.0
 70
    32
  0
VERTEX
  5
10203
  8
0
 10
0.495457
 20
0.341579
 30
0.0
 70
    32
  0
VERTEX
  5
10204
  8
0
 10
0.516895
 20
0.380231
 30
0.0
 70
    32
  0
VERTEX
  5
10205
  8
0
 10
0.537087
 20
0.420473
 30
0.0
 70
    32
  0
VERTEX
  5
10206
  8
0
 10
0.555985
 20
0.462207
 30
0.0
 70
    32
  0
VERTEX
  5
10207
  8
0
 10
0.573544
 20
0.505333
 30
0.0
 70
    32
  0
VERTEX
  5
10208
  8
0
 10
0.589721
 20
0.549747
 30
0.0
 70
    32
  0
VERTEX
  5
10209
  8
0
 10
0.604477
 20
0.595343
 30
0.0
 70
    32
  0
VERTEX
  5
1020A
  8
0
 10
0.617778
 20
0.642009
 30
0.0
 70
    32
  0
VERTEX
  5
1020B
  8
0
 10
0.629589
 20
0.689635
 30
0.0
 70
    32
  0
VERTEX
  5
1020C
  8
0
 10
0.639885
 20
0.738104
 30
0.0
 70
    32
  0
VERTEX
  5
1020D
  8
0
 10
0.648638
 20
0.787301
 30
0.0
 70
    32
  0
VERTEX
  5
1020E
  8
0
 10
0.655829
 20
0.837106
 30
0.0
 70
    32
  0
VERTEX
  5
1020F
  8
0
 10
0.66144
 20
0.8874
 30
0.0
 70
    32
  0
VERTEX
  5
10210
  8
0
 10
0.665458
 20
0.938062
 30
0.0
 70
    32
  0
VERTEX
  5
10211
  8
0
 10
0.667872
 20
0.98897
 30
0.0
 70
    32
  0
VERTEX
  5
10212
  8
0
 10
0.668678
 20
1.04
 30
0.0
 70
    32
  0
VERTEX
  5
10213
  8
0
 10
0.667872
 20
1.09103
 30
0.0
 70
    32
  0
VERTEX
  5
10214
  8
0
 10
0.665458
 20
1.14194
 30
0.0
 70
    32
  0
VERTEX
  5
10215
  8
0
 10
0.66144
 20
1.1926
 30
0.0
 70
    32
  0
VERTEX
  5
10216
  8
0
 10
0.655829
 20
1.24289
 30
0.0
 70
    32
  0
VERTEX
  5
10217
  8
0
 10
0.648638
 20
1.2927
 30
0.0
 70
    32
  0
VERTEX
  5
10218
  8
0
 10
0.639885
 20
1.3419
 30
0.0
 70
    32
  0
VERTEX
  5
10219
  8
0
 10
0.629589
 20
1.39037
 30
0.0
 70
    32
  0
VERTEX
  5
1021A
  8
0
 10
0.617778
 20
1.43799
 30
0.0
 70
    32
  0
VERTEX
  5
1021B
  8
0
 10
0.604477
 20
1.48466
 30
0.0
 70
    32
  0
VERTEX
  5
1021C
  8
0
 10
0.589721
 20
1.53025
 30
0.0
 70
    32
  0
VERTEX
  5
1021D
  8
0
 10
0.573544
 20
1.57467
 30
0.0
 70
    32
  0
VERTEX
  5
1021E
  8
0
 10
0.555985
 20
1.61779
 30
0.0
 70
    32
  0
VERTEX
  5
1021F
  8
0
 10
0.537087
 20
1.65953
 30
0.0
 70
    32
  0
VERTEX
  5
10220
  8
0
 10
0.516895
 20
1.69977
 30
0.0
 70
    32
  0
VERTEX
  5
10221
  8
0
 10
0.495457
 20
1.73842
 30
0.0
 70
    32
  0
VERTEX
  5
10222
  8
0
 10
0.472826
 20
1.77539
 30
0.0
 70
    32
  0
VERTEX
  5
10223
  8
0
 10
0.449056
 20
1.81059
 30
0.0
 70
    32
  0
VERTEX
  5
10224
  8
0
 10
0.424205
 20
1.84393
 30
0.0
 70
    32
  0
VERTEX
  5
10225
  8
0
 10
0.398331
 20
1.87534
 30
0.0
 70
    32
  0
VERTEX
  5
10226
  8
0
 10
0.371497
 20
1.90473
 30
0.0
 70
    32
  0
VERTEX
  5
10227
  8
0
 10
0.343769
 20
1.93204
 30
0.0
 70
    32
  0
VERTEX
  5
10228
  8
0
 10
0.315212
 20
1.9572
 30
0.0
 70
    32
  0
VERTEX
  5
10229
  8
0
 10
0.285897
 20
1.98015
 30
0.0
 70
    32
  0
VERTEX
  5
1022A
  8
0
 10
0.255892
 20
2.00083
 30
0.0
 70
    32
  0
VERTEX
  5
1022B
  8
0
 10
0.225271
 20
2.01921
 30
0.0
 70
    32
  0
VERTEX
  5
1022C
  8
0
 10
0.194107
 20
2.03522
 30
0.0
 70
    32
  0
VERTEX
  5
1022D
  8
0
 10
0.162475
 20
2.04883
 30
0.0
 70
    32
  0
VERTEX
  5
1022E
  8
0
 10
0.130453
 20
2.06002
 30
0.0
 70
    32
  0
VERTEX
  5
1022F
  8
0
 10
0.098115
 20
2.06874
 30
0.0
 70
    32
  0
VERTEX
  5
10230
  8
0
 10
0.065542
 20
2.07499
 30
0.0
 70
    32
  0
VERTEX
  5
10231
  8
0
 10
0.032811
 20
2.07875
 30
0.0
 70
    32
  0
VERTEX
  5
10232
  8
0
 10
0.0
 20
2.08
 30
0.0
 70
    32
  0
VERTEX
  5
10233
  8
0
 10
-0.032811
 20
2.07875
 30
0.0
 70
    32
  0
VERTEX
  5
10234
  8
0
 10
-0.065542
 20
2.07499
 30
0.0
 70
    32
  0
VERTEX
  5
10235
  8
0
 10
-0.098115
 20
2.06874
 30
0.0
 70
    32
  0
VERTEX
  5
10236
  8
0
 10
-0.130453
 20
2.06002
 30
0.0
 70
    32
  0
VERTEX
  5
10237
  8
0
 10
-0.162475
 20
2.04883
 30
0.0
 70
    32
  0
VERTEX
  5
10238
  8
0
 10
-0.194107
 20
2.03522
 30
0.0
 70
    32
  0
VERTEX
  5
10239
  8
0
 10
-0.225271
 20
2.01921
 30
0.0
 70
    32
  0
VERTEX
  5
1023A
  8
0
 10
-0.255892
 20
2.00083
 30
0.0
 70
    32
  0
VERTEX
  5
1023B
  8
0
 10
-0.285897
 20
1.98015
 30
0.0
 70
    32
  0
VERTEX
  5
1023C
  8
0
 10
-0.315212
 20
1.9572
 30
0.0
 70
    32
  0
VERTEX
  5
1023D
  8
0
 10
-0.343769
 20
1.93204
 30
0.0
 70
    32
  0
VERTEX
  5
1023E
  8
0
 10
-0.371497
 20
1.90473
 30
0.0
 70
    32
  0
VERTEX
  5
1023F
  8
0
 10
-0.398331
 20
1.87534
 30
0.0
 70
    32
  0
VERTEX
  5
10240
  8
0
 10
-0.424205
 20
1.84393
 30
0.0
 70
    32
  0
VERTEX
  5
10241
  8
0
 10
-0.449056
 20
1.81059
 30
0.0
 70
    32
  0
VERTEX
  5
10242
  8
0
 10
-0.472826
 20
1.77539
 30
0.0
 70
    32
  0
VERTEX
  5
10243
  8
0
 10
-0.495457
 20
1.73842
 30
0.0
 70
    32
  0
VERTEX
  5
10244
  8
0
 10
-0.516895
 20
1.69977
 30
0.0
 70
    32
  0
VERTEX
  5
10245
  8
0
 10
-0.537087
 20
1.65953
 30
0.0
 70
    32
  0
VERTEX
  5
10246
  8
0
 10
-0.555985
 20
1.61779
 30
0.0
 70
    32
  0
VERTEX
  5
10247
  8
0
 10
-0.573544
 20
1.57467
 30
0.0
 70
    32
  0
VERTEX
  5
10248
  8
0
 10
-0.589721
 20
1.53025
 30
0.0
 70
    32
  0
VERTEX
  5
10249
  8
0
 10
-0.604477
 20
1.48466
 30
0.0
 70
    32
  0
VERTEX
  5
1024A
  8
0
 10
-0.617778
 20
1.43799
 30
0.0
 70
    32
  0
VERTEX
  5
1024B
  8
0
 10
-0.629589
 20
1.39037
 30
0.0
 70
    32
  0
VERTEX
  5
1024C
  8
0
 10
-0.639885
 20
1.3419
 30
0.0
 70
    32
  0
VERTEX
  5
1024D
  8
0
 10
-0.648638
 20
1.2927
 30
0.0
 70
    32
  0
VERTEX
  5
1024E
  8
0
 10
-0.655829
 20
1.24289
 30
0.0
 70
    32
  0
VERTEX
  5
1024F
  8
0
 10
-0.66144
 20
1.1926
 30
0.0
 70
    32
  0
VERTEX
  5
10250
  8
0
 10
-0.665458
 20
1.14194
 30
0.0
 70
    32
  0
VERTEX
  5
10251
  8
0
 10
-0.667872
 20
1.09103
 30
0.0
 70
    32
  0
VERTEX
  5
10252
  8
0
 10
-0.668678
 20
1.04
 30
0.0
 70
    32
  0
VERTEX
  5
10253
  8
0
 10
-0.667872
 20
0.98897
 30
0.0
 70
    32
  0
VERTEX
  5
10254
  8
0
 10
-0.665458
 20
0.938062
 30
0.0
 70
    32
  0
VERTEX
  5
10255
  8
0
 10
-0.66144
 20
0.8874
 30
0.0
 70
    32
  0
VERTEX
  5
10256
  8
0
 10
-0.655829
 20
0.837106
 30
0.0
 70
    32
  0
VERTEX
  5
10257
  8
0
 10
-0.648638
 20
0.787301
 30
0.0
 70
    32
  0
VERTEX
  5
10258
  8
0
 10
-0.639885
 20
0.738104
 30
0.0
 70
    32
  0
VERTEX
  5
10259
  8
0
 10
-0.629589
 20
0.689635
 30
0.0
 70
    32
  0
VERTEX
  5
1025A
  8
0
 10
-0.617778
 20
0.642009
 30
0.0
 70
    32
  0
VERTEX
  5
1025B
  8
0
 10
-0.604477
 20
0.595343
 30
0.0
 70
    32
  0
VERTEX
  5
1025C
  8
0
 10
-0.589721
 20
0.549747
 30
0.0
 70
    32
  0
VERTEX
  5
1025D
  8
0
 10
-0.573544
 20
0.505333
 30
0.0
 70
    32
  0
VERTEX
  5
1025E
  8
0
 10
-0.555985
 20
0.462207
 30
0.0
 70
    32
  0
VERTEX
  5
1025F
  8
0
 10
-0.537087
 20
0.420473
 30
0.0
 70
    32
  0
VERTEX
  5
10260
  8
0
 10
-0.516895
 20
0.380231
 30
0.0
 70
    32
  0
VERTEX
  5
10261
  8
0
 10
-0.495457
 20
0.341579
 30
0.0
 70
    32
  0
VERTEX
  5
10262
  8
0
 10
-0.472826
 20
0.304609
 30
0.0
 70
    32
  0
VERTEX
  5
10263
  8
0
 10
-0.449056
 20
0.269411
 30
0.0
 70
    32
  0
VERTEX
  5
10264
  8
0
 10
-0.424205
 20
0.236069
 30
0.0
 70
    32
  0
VERTEX
  5
10265
  8
0
 10
-0.398331
 20
0.204664
 30
0.0
 70
    32
  0
VERTEX
  5
10266
  8
0
 10
-0.371497
 20
0.175272
 30
0.0
 70
    32
  0
VERTEX
  5
10267
  8
0
 10
-0.343769
 20
0.147962
 30
0.0
 70
    32
  0
VERTEX
  5
10268
  8
0
 10
-0.315212
 20
0.122802
 30
0.0
 70
    32
  0
VERTEX
  5
10269
  8
0
 10
-0.285897
 20
0.099851
 30
0.0
 70
    32
  0
VERTEX
  5
1026A
  8
0
 10
-0.255892
 20
0.079165
 30
0.0
 70
    32
  0
VERTEX
  5
1026B
  8
0
 10
-0.225271
 20
0.060794
 30
0.0
 70
    32
  0
VERTEX
  5
1026C
  8
0
 10
-0.194107
 20
0.044782
 30
0.0
 70
    32
  0
VERTEX
  5
1026D
  8
0
 10
-0.162475
 20
0.031168
 30
0.0
 70
    32
  0
VERTEX
  5
1026E
  8
0
 10
-0.130453
 20
0.019983
 30
0.0
 70
    32
  0
VERTEX
  5
1026F
  8
0
 10
-0.098115
 20
0.011256
 30
0.0
 70
    32
  0
VERTEX
  5
10270
  8
0
 10
-0.065542
 20
0.005008
 30
0.0
 70
    32
  0
VERTEX
  5
10271
  8
0
 10
-0.032811
 20
0.001253
 30
0.0
 70
    32
  0
VERTEX
  5
10272
  8
0
 10
0.0
 20
0.0
 30
0.0
 70
    32
  0
SEQEND
  5
10273
  8
0
  0
ENDBLK
  5
10274
  8
0
  0
ENDSEC
  0
SECTION
  2
ENTITIES
  0
TEXT
  5
10275
  8
0
  6
CONTINUOUS
 62
     7
 10
23.507176
 20
233.81245
 30
0.0
 40
8.466667
  1
HF-KP43
  0
LINE
  5
10276
  8
CENTER
 10
274.107088
 20
162.043758
 30
0.0
 11
135.931861
 21
162.043758
 31
0.0
  0
LINE
  5
10277
  8
0
 62
     5
 10
243.645253
 20
169.02222
 30
0.0
 11
269.845253
 21
169.02222
 31
0.0
  0
LINE
  5
10278
  8
0
 62
     5
 10
243.645253
 20
155.02222
 30
0.0
 11
269.845253
 21
155.02222
 31
0.0
  0
POLYLINE
  5
10279
  8
HIDDEN
 66
     1
 10
0.0
 20
0.0
 30
0.0
  0
VERTEX
  5
10CBC
  8
HIDDEN
 10
198.245253
 20
121.488655
 30
0.0
  0
VERTEX
  5
10CBD
  8
HIDDEN
 10
197.994853
 20
125.029299
 30
0.0
  0
VERTEX
  5
10CBE
  8
HIDDEN
 10
197.946366
 20
125.290419
 30
0.0
  0
VERTEX
  5
10CBF
  8
HIDDEN
 10
197.894727
 20
125.507042
 30
0.0
  0
VERTEX
  5
10CC0
  8
HIDDEN
 10
197.842319
 20
125.671921
 30
0.0
  0
VERTEX
  5
10CC1
  8
HIDDEN
 10
197.786266
 20
125.794108
 30
0.0
  0
VERTEX
  5
10CC2
  8
HIDDEN
 10
197.747041
 20
125.86115
 30
0.0
  0
SEQEND
  5
10CC3
  8
HIDDEN
  0
LINE
  5
10282
  8
HIDDEN
 10
143.433553
 20
120.396778
 30
0.0
 11
143.433553
 21
129.02222
 31
0.0
  0
INSERT
  5
10283
  8
1
  2
A$C3C4259C2
 10
213.810892
 20
118.224615
 30
0.0
 41
-1.561578
 42
1.561577
 43
1.561578
  0
LINE
  5
10284
  8
HIDDEN
 10
172.695253
 20
120.92222
 30
0.0
 11
172.695253
 21
126.12222
 31
0.0
  0
LINE
  5
10285
  8
HIDDEN
 10
83.438905
 20
118.92222
 30
0.0
 11
83.438905
 21
126.12222
 31
0.0
  0
LINE
  5
10286
  8
HIDDEN
 10
52.183444
 20
123.025445
 30
0.0
 11
52.183444
 21
120.41382
 31
0.0
  0
LINE
  5
10287
  8
CENTER
 10
73.988905
 20
134.034748
 30
0.0
 11
73.988905
 21
112.966669
 31
0.0
  0
LINE
  5
10288
  8
CENTER
 10
58.088905
 20
134.034748
 30
0.0
 11
58.088905
 21
113.676304
 31
0.0
  0
LINE
  5
10289
  8
CENTER
 10
68.088905
 20
195.739912
 30
0.0
 11
68.088905
 21
110.126714
 31
0.0
  0
LINE
  5
1028A
  8
CENTER
 10
153.545253
 20
118.235622
 30
0.0
 11
153.545253
 21
135.237377
 31
0.0
  0
LINE
  5
1028B
  8
CENTER
 10
179.045253
 20
120.537626
 30
0.0
 11
179.045253
 21
136.312611
 31
0.0
  0
ARC
  5
1028C
  8
HIDDEN
 10
68.538905
 20
118.92222
 30
0.0
 40
4.0
 50
226.903739
 51
270.0
  0
LINE
  5
1028D
  8
HIDDEN
 10
62.323997
 20
116.025445
 30
0.0
 11
56.200301
 21
116.025446
 31
0.0
  0
LINE
  5
1028E
  8
HIDDEN
 10
68.538905
 20
114.92222
 30
0.0
 11
79.438905
 21
114.92222
 31
0.0
  0
ARC
  5
1028F
  8
HIDDEN
 10
79.438905
 20
118.92222
 30
0.0
 40
4.0
 50
270.0
 51
0.0
  0
ARC
  5
10290
  8
HIDDEN
 10
150.020779
 20
123.168464
 30
0.0
 40
7.146592
 50
202.819746
 51
270.567754
  0
LINE
  5
10291
  8
HIDDEN
 10
169.766966
 20
116.02222
 30
0.0
 11
150.091594
 21
116.022222
 31
0.0
  0
LINE
  5
10292
  8
HIDDEN
 10
198.010685
 20
118.22222
 30
0.0
 11
213.821638
 21
118.22222
 31
0.0
  0
LINE
  5
10293
  8
HIDDEN
 10
194.041206
 20
114.92222
 30
0.0
 11
178.695253
 21
114.92222
 31
0.0
  0
ARC
  5
10294
  8
HIDDEN
 10
178.695253
 20
120.92222
 30
0.0
 40
6.0
 50
180.0
 51
270.0
  0
LINE
  5
10295
  8
HIDDEN
 10
173.29902
 20
117.22222
 30
0.0
 11
171.916257
 21
117.22222
 31
0.0
  0
LINE
  5
10296
  8
HIDDEN
 10
171.965381
 20
117.22222
 30
0.0
 11
170.735468
 21
116.337679
 31
0.0
  0
LINE
  5
10297
  8
HIDDEN
 10
197.747041
 20
117.08329
 30
0.0
 11
194.041206
 21
114.92222
 31
0.0
  0
POLYLINE
  5
10298
  8
HIDDEN
 66
     1
 10
0.0
 20
0.0
 30
0.0
  0
VERTEX
  5
10CC4
  8
HIDDEN
 10
197.747041
 20
117.08329
 30
0.0
  0
VERTEX
  5
10CC5
  8
HIDDEN
 10
197.78357
 20
117.174812
 30
0.0
  0
VERTEX
  5
10CC6
  8
HIDDEN
 10
197.839698
 20
117.294636
 30
0.0
  0
VERTEX
  5
10CC7
  8
HIDDEN
 10
197.893921
 20
117.463499
 30
0.0
  0
VERTEX
  5
10CC8
  8
HIDDEN
 10
197.943983
 20
117.671751
 30
0.0
  0
VERTEX
  5
10CC9
  8
HIDDEN
 10
197.992633
 20
117.930825
 30
0.0
  0
VERTEX
  5
10CCA
  8
HIDDEN
 10
198.245253
 20
121.488655
 30
0.0
  0
SEQEND
  5
10CCB
  8
HIDDEN
  0
LINE
  5
102A1
  8
CENTER
 10
86.791387
 20
143.319738
 30
0.0
 11
98.532498
 21
131.578627
 31
0.0
  0
LINE
  5
102A2
  8
CENTER
 10
86.791387
 20
180.724702
 30
0.0
 11
98.532498
 21
192.465813
 31
0.0
  0
LINE
  5
102A3
  8
0
 62
     5
 10
87.648274
 20
192.02222
 30
0.0
 11
93.588905
 21
192.02222
 31
0.0
  0
ARC
  5
102A4
  8
0
 62
     5
 10
87.730349
 20
184.02222
 30
0.0
 40
1.0
 50
28.28907
 51
90.0
  0
ARC
  5
102A5
  8
0
 62
     5
 10
92.837642
 20
186.770957
 30
0.0
 40
4.533836
 50
183.687572
 51
266.312428
  0
ARC
  5
102A6
  8
0
 62
     5
 10
88.032884
 20
140.52222
 30
0.0
 40
1.0
 50
270.0
 51
325.93541
  0
LINE
  5
102A7
  8
0
 62
     5
 10
93.588905
 20
132.02222
 30
0.0
 11
87.915023
 21
132.02222
 31
0.0
  0
ARC
  5
102A8
  8
0
 62
     5
 10
-291.165665
 20
162.02222
 30
0.0
 40
380.266164
 50
355.434883
 51
356.312428
  0
ARC
  5
102A9
  8
0
 62
     5
 10
92.837642
 20
137.273483
 30
0.0
 40
4.533836
 50
93.687572
 51
176.312428
  0
ARC
  5
102AA
  8
0
 62
     5
 10
92.837642
 20
137.273483
 30
0.0
 40
4.8
 50
93.687572
 51
176.312428
  0
ARC
  5
102AB
  8
0
 62
     5
 10
92.837642
 20
186.770957
 30
0.0
 40
4.8
 50
183.687572
 51
266.312428
  0
LINE
  5
102AC
  8
CENTER
 10
49.386423
 20
180.724702
 30
0.0
 11
37.645312
 21
192.465813
 31
0.0
  0
LINE
  5
102AD
  8
0
 62
     5
 10
45.088905
 20
181.663664
 30
0.0
 11
45.088905
 21
178.32222
 31
0.0
  0
ARC
  5
102AE
  8
0
 62
     5
 10
39.088905
 20
180.656523
 30
0.0
 40
1.0
 50
94.388399
 51
180.0
  0
ARC
  5
102AF
  8
0
 62
     5
 10
46.800113
 20
135.02222
 30
0.0
 40
1.5
 50
270.0
 51
4.058402
  0
ARC
  5
102B0
  8
HIDDEN
 10
47.39907
 20
124.525445
 30
0.0
 40
1.5
 50
180.0
 51
270.0
  0
ARC
  5
102B1
  8
CENTER
 10
68.088905
 20
162.02222
 30
0.0
 40
35.0
 50
216.254023
 51
234.381034
  0
LINE
  5
102B2
  8
CENTER
 10
49.386423
 20
143.319738
 30
0.0
 11
37.645312
 21
131.578627
 31
0.0
  0
ARC
  5
102B3
  8
0
 62
     5
 10
43.340168
 20
137.273483
 30
0.0
 40
4.533836
 50
3.687572
 51
86.312428
  0
ARC
  5
102B4
  8
0
 62
     5
 10
43.340168
 20
137.273483
 30
0.0
 40
4.8
 50
3.687572
 51
86.312428
  0
LINE
  5
102B5
  8
0
 62
     5
 10
45.899075
 20
129.02222
 30
0.0
 11
70.278735
 21
129.02222
 31
0.0
  0
LINE
  5
102B6
  8
0
 62
     5
 10
44.588905
 20
130.02222
 30
0.0
 11
72.588905
 21
130.02222
 31
0.0
  0
LINE
  5
102B7
  8
0
 62
     5
 10
37.822741
 20
143.141468
 30
0.0
 11
37.822741
 21
180.902972
 31
0.0
  0
LINE
  5
102B8
  8
0
 62
     5
 10
38.088905
 20
180.656523
 30
0.0
 11
38.088905
 21
143.387917
 31
0.0
  0
LINE
  5
102B9
  8
0
 62
     5
 10
38.088905
 20
136.52222
 30
0.0
 11
38.088905
 21
142.462851
 31
0.0
  0
CIRCLE
  5
102BA
  8
0
 62
     5
 10
43.340168
 20
137.273483
 30
0.0
 40
2.9
  0
LINE
  5
102BB
  8
0
 62
     5
 10
45.89907
 20
129.02222
 30
0.0
 11
45.89907
 21
130.02222
 31
0.0
  0
LINE
  5
102BC
  8
0
 62
     5
 10
45.948317
 20
130.02222
 30
0.0
 11
45.948317
 21
129.02222
 31
0.0
  0
LINE
  5
102BD
  8
HIDDEN
 10
45.89907
 20
124.525445
 30
0.0
 11
45.89907
 21
127.275445
 31
0.0
  0
ARC
  5
102BE
  8
0
 62
     5
 10
42.588905
 20
136.52222
 30
0.0
 40
4.5
 50
180.0
 51
270.0
  0
LINE
  5
102BF
  8
0
 62
     5
 10
47.020342
 20
133.023772
 30
0.0
 11
46.99423
 21
133.522996
 31
0.0
  0
POLYLINE
  5
102C0
  8
0
 62
     5
 66
     1
 10
0.0
 20
0.0
 30
0.0
 70
     8
  0
VERTEX
  5
102C1
  8
0
 62
     5
 10
46.9942
 20
133.523
 30
0.0
 70
    32
  0
VERTEX
  5
102C2
  8
0
 62
     5
 10
46.9938
 20
133.523
 30
0.0
 70
    32
  0
VERTEX
  5
102C3
  8
0
 62
     5
 10
46.9933
 20
133.523
 30
0.0
 70
    32
  0
VERTEX
  5
102C4
  8
0
 62
     5
 10
46.9929
 20
133.523
 30
0.0
 70
    32
  0
VERTEX
  5
102C5
  8
0
 62
     5
 10
46.9924
 20
133.523
 30
0.0
 70
    32
  0
VERTEX
  5
102C6
  8
0
 62
     5
 10
46.992
 20
133.523
 30
0.0
 70
    32
  0
VERTEX
  5
102C7
  8
0
 62
     5
 10
46.9915
 20
133.523
 30
0.0
 70
    32
  0
VERTEX
  5
102C8
  8
0
 62
     5
 10
46.9911
 20
133.523
 30
0.0
 70
    32
  0
VERTEX
  5
102C9
  8
0
 62
     5
 10
46.9906
 20
133.523
 30
0.0
 70
    32
  0
VERTEX
  5
102CA
  8
0
 62
     5
 10
46.9902
 20
133.523
 30
0.0
 70
    32
  0
VERTEX
  5
102CB
  8
0
 62
     5
 10
46.9897
 20
133.523
 30
0.0
 70
    32
  0
VERTEX
  5
102CC
  8
0
 62
     5
 10
46.9893
 20
133.523
 30
0.0
 70
    32
  0
VERTEX
  5
102CD
  8
0
 62
     5
 10
46.9888
 20
133.523
 30
0.0
 70
    32
  0
VERTEX
  5
102CE
  8
0
 62
     5
 10
46.9884
 20
133.523
 30
0.0
 70
    32
  0
VERTEX
  5
102CF
  8
0
 62
     5
 10
46.9879
 20
133.523
 30
0.0
 70
    32
  0
VERTEX
  5
102D0
  8
0
 62
     5
 10
46.9875
 20
133.523
 30
0.0
 70
    32
  0
VERTEX
  5
102D1
  8
0
 62
     5
 10
46.987
 20
133.523
 30
0.0
 70
    32
  0
VERTEX
  5
102D2
  8
0
 62
     5
 10
46.9866
 20
133.523
 30
0.0
 70
    32
  0
VERTEX
  5
102D3
  8
0
 62
     5
 10
46.9861
 20
133.523
 30
0.0
 70
    32
  0
VERTEX
  5
102D4
  8
0
 62
     5
 10
46.9857
 20
133.523
 30
0.0
 70
    32
  0
VERTEX
  5
102D5
  8
0
 62
     5
 10
46.9852
 20
133.523
 30
0.0
 70
    32
  0
VERTEX
  5
102D6
  8
0
 62
     5
 10
46.9848
 20
133.523
 30
0.0
 70
    32
  0
VERTEX
  5
102D7
  8
0
 62
     5
 10
46.9843
 20
133.523
 30
0.0
 70
    32
  0
VERTEX
  5
102D8
  8
0
 62
     5
 10
46.9839
 20
133.523
 30
0.0
 70
    32
  0
VERTEX
  5
102D9
  8
0
 62
     5
 10
46.9834
 20
133.523
 30
0.0
 70
    32
  0
VERTEX
  5
102DA
  8
0
 62
     5
 10
46.983
 20
133.523
 30
0.0
 70
    32
  0
VERTEX
  5
102DB
  8
0
 62
     5
 10
46.9825
 20
133.523
 30
0.0
 70
    32
  0
VERTEX
  5
102DC
  8
0
 62
     5
 10
46.9821
 20
133.523
 30
0.0
 70
    32
  0
VERTEX
  5
102DD
  8
0
 62
     5
 10
46.9816
 20
133.523
 30
0.0
 70
    32
  0
VERTEX
  5
102DE
  8
0
 62
     5
 10
46.9812
 20
133.523
 30
0.0
 70
    32
  0
VERTEX
  5
102DF
  8
0
 62
     5
 10
46.9807
 20
133.523
 30
0.0
 70
    32
  0
VERTEX
  5
102E0
  8
0
 62
     5
 10
46.9803
 20
133.523
 30
0.0
 70
    32
  0
VERTEX
  5
102E1
  8
0
 62
     5
 10
46.9798
 20
133.523
 30
0.0
 70
    32
  0
VERTEX
  5
102E2
  8
0
 62
     5
 10
46.9794
 20
133.523
 30
0.0
 70
    32
  0
VERTEX
  5
102E3
  8
0
 62
     5
 10
46.9789
 20
133.523
 30
0.0
 70
    32
  0
VERTEX
  5
102E4
  8
0
 62
     5
 10
46.9785
 20
133.523
 30
0.0
 70
    32
  0
VERTEX
  5
102E5
  8
0
 62
     5
 10
46.978
 20
133.523
 30
0.0
 70
    32
  0
VERTEX
  5
102E6
  8
0
 62
     5
 10
46.9776
 20
133.523
 30
0.0
 70
    32
  0
VERTEX
  5
102E7
  8
0
 62
     5
 10
46.9771
 20
133.523
 30
0.0
 70
    32
  0
VERTEX
  5
102E8
  8
0
 62
     5
 10
46.9767
 20
133.523
 30
0.0
 70
    32
  0
VERTEX
  5
102E9
  8
0
 62
     5
 10
46.9762
 20
133.523
 30
0.0
 70
    32
  0
VERTEX
  5
102EA
  8
0
 62
     5
 10
46.9758
 20
133.523
 30
0.0
 70
    32
  0
VERTEX
  5
102EB
  8
0
 62
     5
 10
46.9753
 20
133.523
 30
0.0
 70
    32
  0
VERTEX
  5
102EC
  8
0
 62
     5
 10
46.9749
 20
133.523
 30
0.0
 70
    32
  0
VERTEX
  5
102ED
  8
0
 62
     5
 10
46.9744
 20
133.523
 30
0.0
 70
    32
  0
VERTEX
  5
102EE
  8
0
 62
     5
 10
46.9739
 20
133.523
 30
0.0
 70
    32
  0
VERTEX
  5
102EF
  8
0
 62
     5
 10
46.9735
 20
133.523
 30
0.0
 70
    32
  0
VERTEX
  5
102F0
  8
0
 62
     5
 10
46.973
 20
133.523
 30
0.0
 70
    32
  0
VERTEX
  5
102F1
  8
0
 62
     5
 10
46.9726
 20
133.523
 30
0.0
 70
    32
  0
VERTEX
  5
102F2
  8
0
 62
     5
 10
46.9721
 20
133.523
 30
0.0
 70
    32
  0
VERTEX
  5
102F3
  8
0
 62
     5
 10
46.9717
 20
133.523
 30
0.0
 70
    32
  0
VERTEX
  5
102F4
  8
0
 62
     5
 10
46.9712
 20
133.523
 30
0.0
 70
    32
  0
VERTEX
  5
102F5
  8
0
 62
     5
 10
46.9708
 20
133.523
 30
0.0
 70
    32
  0
VERTEX
  5
102F6
  8
0
 62
     5
 10
46.9703
 20
133.523
 30
0.0
 70
    32
  0
VERTEX
  5
102F7
  8
0
 62
     5
 10
46.9699
 20
133.524
 30
0.0
 70
    32
  0
VERTEX
  5
102F8
  8
0
 62
     5
 10
46.9694
 20
133.524
 30
0.0
 70
    32
  0
VERTEX
  5
102F9
  8
0
 62
     5
 10
46.969
 20
133.524
 30
0.0
 70
    32
  0
VERTEX
  5
102FA
  8
0
 62
     5
 10
46.9685
 20
133.524
 30
0.0
 70
    32
  0
VERTEX
  5
102FB
  8
0
 62
     5
 10
46.9681
 20
133.524
 30
0.0
 70
    32
  0
VERTEX
  5
102FC
  8
0
 62
     5
 10
46.9676
 20
133.524
 30
0.0
 70
    32
  0
VERTEX
  5
102FD
  8
0
 62
     5
 10
46.9672
 20
133.524
 30
0.0
 70
    32
  0
VERTEX
  5
102FE
  8
0
 62
     5
 10
46.9667
 20
133.524
 30
0.0
 70
    32
  0
VERTEX
  5
102FF
  8
0
 62
     5
 10
46.9663
 20
133.524
 30
0.0
 70
    32
  0
VERTEX
  5
10300
  8
0
 62
     5
 10
46.9658
 20
133.524
 30
0.0
 70
    32
  0
VERTEX
  5
10301
  8
0
 62
     5
 10
46.9654
 20
133.524
 30
0.0
 70
    32
  0
VERTEX
  5
10302
  8
0
 62
     5
 10
46.9649
 20
133.524
 30
0.0
 70
    32
  0
VERTEX
  5
10303
  8
0
 62
     5
 10
46.9645
 20
133.524
 30
0.0
 70
    32
  0
VERTEX
  5
10304
  8
0
 62
     5
 10
46.964
 20
133.524
 30
0.0
 70
    32
  0
VERTEX
  5
10305
  8
0
 62
     5
 10
46.9636
 20
133.524
 30
0.0
 70
    32
  0
VERTEX
  5
10306
  8
0
 62
     5
 10
46.9631
 20
133.524
 30
0.0
 70
    32
  0
VERTEX
  5
10307
  8
0
 62
     5
 10
46.9627
 20
133.524
 30
0.0
 70
    32
  0
VERTEX
  5
10308
  8
0
 62
     5
 10
46.9622
 20
133.524
 30
0.0
 70
    32
  0
VERTEX
  5
10309
  8
0
 62
     5
 10
46.9618
 20
133.524
 30
0.0
 70
    32
  0
VERTEX
  5
1030A
  8
0
 62
     5
 10
46.9613
 20
133.524
 30
0.0
 70
    32
  0
VERTEX
  5
1030B
  8
0
 62
     5
 10
46.9609
 20
133.524
 30
0.0
 70
    32
  0
VERTEX
  5
1030C
  8
0
 62
     5
 10
46.9604
 20
133.524
 30
0.0
 70
    32
  0
VERTEX
  5
1030D
  8
0
 62
     5
 10
46.96
 20
133.524
 30
0.0
 70
    32
  0
VERTEX
  5
1030E
  8
0
 62
     5
 10
46.9595
 20
133.524
 30
0.0
 70
    32
  0
VERTEX
  5
1030F
  8
0
 62
     5
 10
46.9591
 20
133.524
 30
0.0
 70
    32
  0
VERTEX
  5
10310
  8
0
 62
     5
 10
46.9586
 20
133.524
 30
0.0
 70
    32
  0
VERTEX
  5
10311
  8
0
 62
     5
 10
46.9582
 20
133.524
 30
0.0
 70
    32
  0
VERTEX
  5
10312
  8
0
 62
     5
 10
46.9577
 20
133.524
 30
0.0
 70
    32
  0
VERTEX
  5
10313
  8
0
 62
     5
 10
46.9573
 20
133.524
 30
0.0
 70
    32
  0
VERTEX
  5
10314
  8
0
 62
     5
 10
46.9568
 20
133.524
 30
0.0
 70
    32
  0
VERTEX
  5
10315
  8
0
 62
     5
 10
46.9564
 20
133.524
 30
0.0
 70
    32
  0
VERTEX
  5
10316
  8
0
 62
     5
 10
46.9559
 20
133.524
 30
0.0
 70
    32
  0
VERTEX
  5
10317
  8
0
 62
     5
 10
46.9555
 20
133.524
 30
0.0
 70
    32
  0
VERTEX
  5
10318
  8
0
 62
     5
 10
46.955
 20
133.524
 30
0.0
 70
    32
  0
VERTEX
  5
10319
  8
0
 62
     5
 10
46.9546
 20
133.524
 30
0.0
 70
    32
  0
VERTEX
  5
1031A
  8
0
 62
     5
 10
46.9541
 20
133.524
 30
0.0
 70
    32
  0
VERTEX
  5
1031B
  8
0
 62
     5
 10
46.9537
 20
133.524
 30
0.0
 70
    32
  0
VERTEX
  5
1031C
  8
0
 62
     5
 10
46.9532
 20
133.524
 30
0.0
 70
    32
  0
VERTEX
  5
1031D
  8
0
 62
     5
 10
46.9528
 20
133.524
 30
0.0
 70
    32
  0
VERTEX
  5
1031E
  8
0
 62
     5
 10
46.9523
 20
133.524
 30
0.0
 70
    32
  0
VERTEX
  5
1031F
  8
0
 62
     5
 10
46.9519
 20
133.524
 30
0.0
 70
    32
  0
VERTEX
  5
10320
  8
0
 62
     5
 10
46.9514
 20
133.524
 30
0.0
 70
    32
  0
VERTEX
  5
10321
  8
0
 62
     5
 10
46.951
 20
133.524
 30
0.0
 70
    32
  0
VERTEX
  5
10322
  8
0
 62
     5
 10
46.9505
 20
133.524
 30
0.0
 70
    32
  0
VERTEX
  5
10323
  8
0
 62
     5
 10
46.9501
 20
133.524
 30
0.0
 70
    32
  0
VERTEX
  5
10324
  8
0
 62
     5
 10
46.9496
 20
133.524
 30
0.0
 70
    32
  0
VERTEX
  5
10325
  8
0
 62
     5
 10
46.9491
 20
133.524
 30
0.0
 70
    32
  0
VERTEX
  5
10326
  8
0
 62
     5
 10
46.9487
 20
133.524
 30
0.0
 70
    32
  0
VERTEX
  5
10327
  8
0
 62
     5
 10
46.9482
 20
133.524
 30
0.0
 70
    32
  0
VERTEX
  5
10328
  8
0
 62
     5
 10
46.9478
 20
133.524
 30
0.0
 70
    32
  0
VERTEX
  5
10329
  8
0
 62
     5
 10
46.9473
 20
133.524
 30
0.0
 70
    32
  0
VERTEX
  5
1032A
  8
0
 62
     5
 10
46.9469
 20
133.524
 30
0.0
 70
    32
  0
VERTEX
  5
1032B
  8
0
 62
     5
 10
46.9464
 20
133.524
 30
0.0
 70
    32
  0
VERTEX
  5
1032C
  8
0
 62
     5
 10
46.946
 20
133.524
 30
0.0
 70
    32
  0
VERTEX
  5
1032D
  8
0
 62
     5
 10
46.9455
 20
133.524
 30
0.0
 70
    32
  0
VERTEX
  5
1032E
  8
0
 62
     5
 10
46.9451
 20
133.524
 30
0.0
 70
    32
  0
VERTEX
  5
1032F
  8
0
 62
     5
 10
46.9446
 20
133.524
 30
0.0
 70
    32
  0
VERTEX
  5
10330
  8
0
 62
     5
 10
46.9442
 20
133.524
 30
0.0
 70
    32
  0
VERTEX
  5
10331
  8
0
 62
     5
 10
46.9437
 20
133.524
 30
0.0
 70
    32
  0
VERTEX
  5
10332
  8
0
 62
     5
 10
46.9433
 20
133.524
 30
0.0
 70
    32
  0
VERTEX
  5
10333
  8
0
 62
     5
 10
46.9428
 20
133.524
 30
0.0
 70
    32
  0
VERTEX
  5
10334
  8
0
 62
     5
 10
46.9424
 20
133.524
 30
0.0
 70
    32
  0
VERTEX
  5
10335
  8
0
 62
     5
 10
46.9419
 20
133.524
 30
0.0
 70
    32
  0
VERTEX
  5
10336
  8
0
 62
     5
 10
46.9415
 20
133.524
 30
0.0
 70
    32
  0
VERTEX
  5
10337
  8
0
 62
     5
 10
46.941
 20
133.524
 30
0.0
 70
    32
  0
VERTEX
  5
10338
  8
0
 62
     5
 10
46.9406
 20
133.524
 30
0.0
 70
    32
  0
VERTEX
  5
10339
  8
0
 62
     5
 10
46.9401
 20
133.524
 30
0.0
 70
    32
  0
VERTEX
  5
1033A
  8
0
 62
     5
 10
46.9397
 20
133.524
 30
0.0
 70
    32
  0
VERTEX
  5
1033B
  8
0
 62
     5
 10
46.9392
 20
133.524
 30
0.0
 70
    32
  0
VERTEX
  5
1033C
  8
0
 62
     5
 10
46.9388
 20
133.524
 30
0.0
 70
    32
  0
VERTEX
  5
1033D
  8
0
 62
     5
 10
46.9383
 20
133.524
 30
0.0
 70
    32
  0
VERTEX
  5
1033E
  8
0
 62
     5
 10
46.9379
 20
133.524
 30
0.0
 70
    32
  0
VERTEX
  5
1033F
  8
0
 62
     5
 10
46.9374
 20
133.524
 30
0.0
 70
    32
  0
VERTEX
  5
10340
  8
0
 62
     5
 10
46.937
 20
133.524
 30
0.0
 70
    32
  0
VERTEX
  5
10341
  8
0
 62
     5
 10
46.9365
 20
133.524
 30
0.0
 70
    32
  0
VERTEX
  5
10342
  8
0
 62
     5
 10
46.9361
 20
133.524
 30
0.0
 70
    32
  0
VERTEX
  5
10343
  8
0
 62
     5
 10
46.9356
 20
133.524
 30
0.0
 70
    32
  0
VERTEX
  5
10344
  8
0
 62
     5
 10
46.9352
 20
133.524
 30
0.0
 70
    32
  0
VERTEX
  5
10345
  8
0
 62
     5
 10
46.9347
 20
133.524
 30
0.0
 70
    32
  0
VERTEX
  5
10346
  8
0
 62
     5
 10
46.9343
 20
133.524
 30
0.0
 70
    32
  0
VERTEX
  5
10347
  8
0
 62
     5
 10
46.9338
 20
133.524
 30
0.0
 70
    32
  0
VERTEX
  5
10348
  8
0
 62
     5
 10
46.9334
 20
133.524
 30
0.0
 70
    32
  0
VERTEX
  5
10349
  8
0
 62
     5
 10
46.9329
 20
133.524
 30
0.0
 70
    32
  0
VERTEX
  5
1034A
  8
0
 62
     5
 10
46.9325
 20
133.524
 30
0.0
 70
    32
  0
VERTEX
  5
1034B
  8
0
 62
     5
 10
46.932
 20
133.524
 30
0.0
 70
    32
  0
VERTEX
  5
1034C
  8
0
 62
     5
 10
46.9316
 20
133.524
 30
0.0
 70
    32
  0
VERTEX
  5
1034D
  8
0
 62
     5
 10
46.9311
 20
133.524
 30
0.0
 70
    32
  0
VERTEX
  5
1034E
  8
0
 62
     5
 10
46.9307
 20
133.524
 30
0.0
 70
    32
  0
VERTEX
  5
1034F
  8
0
 62
     5
 10
46.9302
 20
133.524
 30
0.0
 70
    32
  0
VERTEX
  5
10350
  8
0
 62
     5
 10
46.9298
 20
133.524
 30
0.0
 70
    32
  0
VERTEX
  5
10351
  8
0
 62
     5
 10
46.9293
 20
133.524
 30
0.0
 70
    32
  0
VERTEX
  5
10352
  8
0
 62
     5
 10
46.9289
 20
133.524
 30
0.0
 70
    32
  0
VERTEX
  5
10353
  8
0
 62
     5
 10
46.9284
 20
133.524
 30
0.0
 70
    32
  0
VERTEX
  5
10354
  8
0
 62
     5
 10
46.928
 20
133.524
 30
0.0
 70
    32
  0
VERTEX
  5
10355
  8
0
 62
     5
 10
46.9275
 20
133.524
 30
0.0
 70
    32
  0
VERTEX
  5
10356
  8
0
 62
     5
 10
46.9271
 20
133.524
 30
0.0
 70
    32
  0
VERTEX
  5
10357
  8
0
 62
     5
 10
46.9266
 20
133.524
 30
0.0
 70
    32
  0
VERTEX
  5
10358
  8
0
 62
     5
 10
46.9262
 20
133.524
 30
0.0
 70
    32
  0
VERTEX
  5
10359
  8
0
 62
     5
 10
46.9257
 20
133.524
 30
0.0
 70
    32
  0
VERTEX
  5
1035A
  8
0
 62
     5
 10
46.9252
 20
133.524
 30
0.0
 70
    32
  0
VERTEX
  5
1035B
  8
0
 62
     5
 10
46.9248
 20
133.524
 30
0.0
 70
    32
  0
VERTEX
  5
1035C
  8
0
 62
     5
 10
46.9243
 20
133.524
 30
0.0
 70
    32
  0
VERTEX
  5
1035D
  8
0
 62
     5
 10
46.9239
 20
133.524
 30
0.0
 70
    32
  0
VERTEX
  5
1035E
  8
0
 62
     5
 10
46.9234
 20
133.524
 30
0.0
 70
    32
  0
VERTEX
  5
1035F
  8
0
 62
     5
 10
46.923
 20
133.524
 30
0.0
 70
    32
  0
VERTEX
  5
10360
  8
0
 62
     5
 10
46.9225
 20
133.524
 30
0.0
 70
    32
  0
VERTEX
  5
10361
  8
0
 62
     5
 10
46.9221
 20
133.524
 30
0.0
 70
    32
  0
VERTEX
  5
10362
  8
0
 62
     5
 10
46.9216
 20
133.524
 30
0.0
 70
    32
  0
VERTEX
  5
10363
  8
0
 62
     5
 10
46.9212
 20
133.524
 30
0.0
 70
    32
  0
VERTEX
  5
10364
  8
0
 62
     5
 10
46.9207
 20
133.524
 30
0.0
 70
    32
  0
VERTEX
  5
10365
  8
0
 62
     5
 10
46.9203
 20
133.524
 30
0.0
 70
    32
  0
VERTEX
  5
10366
  8
0
 62
     5
 10
46.9198
 20
133.524
 30
0.0
 70
    32
  0
VERTEX
  5
10367
  8
0
 62
     5
 10
46.9194
 20
133.524
 30
0.0
 70
    32
  0
VERTEX
  5
10368
  8
0
 62
     5
 10
46.9189
 20
133.524
 30
0.0
 70
    32
  0
VERTEX
  5
10369
  8
0
 62
     5
 10
46.9185
 20
133.524
 30
0.0
 70
    32
  0
VERTEX
  5
1036A
  8
0
 62
     5
 10
46.918
 20
133.524
 30
0.0
 70
    32
  0
VERTEX
  5
1036B
  8
0
 62
     5
 10
46.9176
 20
133.524
 30
0.0
 70
    32
  0
VERTEX
  5
1036C
  8
0
 62
     5
 10
46.9171
 20
133.524
 30
0.0
 70
    32
  0
VERTEX
  5
1036D
  8
0
 62
     5
 10
46.9167
 20
133.524
 30
0.0
 70
    32
  0
VERTEX
  5
1036E
  8
0
 62
     5
 10
46.9162
 20
133.524
 30
0.0
 70
    32
  0
VERTEX
  5
1036F
  8
0
 62
     5
 10
46.9158
 20
133.524
 30
0.0
 70
    32
  0
VERTEX
  5
10370
  8
0
 62
     5
 10
46.9153
 20
133.524
 30
0.0
 70
    32
  0
VERTEX
  5
10371
  8
0
 62
     5
 10
46.9149
 20
133.524
 30
0.0
 70
    32
  0
VERTEX
  5
10372
  8
0
 62
     5
 10
46.9144
 20
133.524
 30
0.0
 70
    32
  0
VERTEX
  5
10373
  8
0
 62
     5
 10
46.914
 20
133.524
 30
0.0
 70
    32
  0
VERTEX
  5
10374
  8
0
 62
     5
 10
46.9135
 20
133.524
 30
0.0
 70
    32
  0
VERTEX
  5
10375
  8
0
 62
     5
 10
46.9131
 20
133.524
 30
0.0
 70
    32
  0
VERTEX
  5
10376
  8
0
 62
     5
 10
46.9126
 20
133.523
 30
0.0
 70
    32
  0
VERTEX
  5
10377
  8
0
 62
     5
 10
46.9122
 20
133.523
 30
0.0
 70
    32
  0
VERTEX
  5
10378
  8
0
 62
     5
 10
46.9117
 20
133.523
 30
0.0
 70
    32
  0
VERTEX
  5
10379
  8
0
 62
     5
 10
46.9113
 20
133.523
 30
0.0
 70
    32
  0
VERTEX
  5
1037A
  8
0
 62
     5
 10
46.9108
 20
133.523
 30
0.0
 70
    32
  0
VERTEX
  5
1037B
  8
0
 62
     5
 10
46.9104
 20
133.523
 30
0.0
 70
    32
  0
VERTEX
  5
1037C
  8
0
 62
     5
 10
46.9099
 20
133.523
 30
0.0
 70
    32
  0
VERTEX
  5
1037D
  8
0
 62
     5
 10
46.9095
 20
133.523
 30
0.0
 70
    32
  0
VERTEX
  5
1037E
  8
0
 62
     5
 10
46.909
 20
133.523
 30
0.0
 70
    32
  0
VERTEX
  5
1037F
  8
0
 62
     5
 10
46.9086
 20
133.523
 30
0.0
 70
    32
  0
VERTEX
  5
10380
  8
0
 62
     5
 10
46.9081
 20
133.523
 30
0.0
 70
    32
  0
SEQEND
  5
10381
  8
0
 62
     5
  0
LINE
  5
10382
  8
0
 62
     5
 10
47.020342
 20
133.023771
 30
0.0
 11
47.020342
 21
130.02222
 31
0.0
  0
LINE
  5
10383
  8
0
 62
     5
 10
44.388905
 20
132.02222
 30
0.0
 11
42.588905
 21
132.02222
 31
0.0
  0
POLYLINE
  5
10384
  8
0
 62
     5
 66
     1
 10
0.0
 20
0.0
 30
0.0
  0
VERTEX
  5
10CCC
  8
0
 62
     5
 10
44.879848
 20
133.517942
 30
0.0
  0
VERTEX
  5
10CCD
  8
0
 62
     5
 10
44.912009
 20
133.521149
 30
0.0
  0
VERTEX
  5
10CCE
  8
0
 62
     5
 10
44.944307
 20
133.52222
 30
0.0
  0
SEQEND
  5
10CCF
  8
0
 62
     5
  0
ARC
  5
10389
  8
0
 62
     5
 10
44.888905
 20
133.02222
 30
0.0
 40
0.5
 50
90.0
 51
180.0
  0
ARC
  5
1038A
  8
0
 62
     5
 10
44.588905
 20
130.22222
 30
0.0
 40
0.2
 50
180.0
 51
270.0
  0
LINE
  5
1038B
  8
0
 62
     5
 10
44.388905
 20
130.22222
 30
0.0
 11
44.388905
 21
133.02222
 31
0.0
  0
LINE
  5
1038C
  8
0
 62
     5
 10
46.800113
 20
133.52222
 30
0.0
 11
44.888905
 21
133.52222
 31
0.0
  0
LINE
  5
1038D
  8
0
 62
     5
 10
41.880197
 20
144.508169
 30
0.0
 11
41.740197
 21
144.711371
 31
0.0
  0
LINE
  5
1038E
  8
0
 62
     5
 10
41.320197
 20
144.508169
 30
0.0
 11
40.976833
 21
145.102894
 31
0.0
  0
LINE
  5
1038F
  8
0
 62
     5
 10
41.880197
 20
143.948169
 30
0.0
 11
41.740197
 21
144.655371
 31
0.0
  0
LINE
  5
10390
  8
0
 62
     5
 10
41.320197
 20
143.948169
 30
0.0
 11
41.460197
 21
144.655371
 31
0.0
  0
LINE
  5
10391
  8
0
 62
     5
 10
41.320197
 20
144.508169
 30
0.0
 11
41.460197
 21
144.711371
 31
0.0
  0
LINE
  5
10392
  8
0
 62
     5
 10
42.223562
 20
145.102894
 30
0.0
 11
41.880197
 21
144.508169
 31
0.0
  0
LINE
  5
10393
  8
0
 62
     5
 10
45.588905
 20
146.02222
 30
0.0
 11
45.588905
 21
142.078241
 31
0.0
  0
CIRCLE
  5
10394
  8
0
 62
     5
 10
41.600197
 20
145.726258
 30
0.0
 40
2.75
  0
ARC
  5
10395
  8
0
 62
     5
 10
41.600197
 20
145.726258
 30
0.0
 40
2.95
 50
276.813854
 51
263.186146
  0
CIRCLE
  5
10396
  8
0
 62
     5
 10
41.600197
 20
145.726258
 30
0.0
 40
3.0
  0
ARC
  5
10397
  8
0
 62
     5
 10
68.088905
 20
521.27679
 30
0.0
 40
380.266164
 50
265.574357
 51
266.312428
  0
ARC
  5
10398
  8
0
 62
     5
 10
68.088905
 20
521.27679
 30
0.0
 40
380.0
 50
265.611601
 51
266.312428
  0
LINE
  5
10399
  8
0
 62
     5
 10
41.320197
 20
143.948169
 30
0.0
 11
41.320197
 21
144.508169
 31
0.0
  0
LINE
  5
1039A
  8
0
 62
     5
 10
41.880197
 20
144.508169
 30
0.0
 11
41.880197
 21
143.948169
 31
0.0
  0
ARC
  5
1039B
  8
0
 62
     5
 10
41.600197
 20
145.726258
 30
0.0
 40
1.8
 50
261.050982
 51
278.949018
  0
LINE
  5
1039C
  8
0
 62
     5
 10
41.250197
 20
143.000998
 30
0.0
 11
41.250197
 21
142.797095
 31
0.0
  0
LINE
  5
1039D
  8
0
 62
     5
 10
41.950197
 20
142.797095
 30
0.0
 11
41.950197
 21
143.000998
 31
0.0
  0
ARC
  5
1039E
  8
0
 62
     5
 10
39.088905
 20
143.387917
 30
0.0
 40
1.0
 50
180.0
 51
265.611601
  0
ARC
  5
1039F
  8
0
 62
     5
 10
46.588905
 20
142.078241
 30
0.0
 40
1.0
 50
180.0
 51
235.93541
  0
LINE
  5
103A0
  8
0
 62
     5
 10
42.223562
 20
145.102894
 30
0.0
 11
40.976833
 21
146.349623
 31
0.0
  0
LINE
  5
103A1
  8
0
 62
     5
 10
41.880197
 20
146.944347
 30
0.0
 11
42.223562
 21
146.349623
 31
0.0
  0
LINE
  5
103A2
  8
0
 62
     5
 10
42.615085
 20
145.866258
 30
0.0
 11
42.060428
 21
146.186489
 31
0.0
  0
LINE
  5
103A3
  8
0
 62
     5
 10
40.52931
 20
145.866258
 30
0.0
 11
42.671085
 21
145.586258
 31
0.0
  0
LINE
  5
103A4
  8
0
 62
     5
 10
40.58531
 20
145.866258
 30
0.0
 11
42.615085
 21
145.586258
 31
0.0
  0
LINE
  5
103A5
  8
0
 62
     5
 10
40.52931
 20
145.586258
 30
0.0
 11
42.671085
 21
145.866258
 31
0.0
  0
LINE
  5
103A6
  8
0
 62
     5
 10
40.58531
 20
145.586258
 30
0.0
 11
42.615085
 21
145.866258
 31
0.0
  0
LINE
  5
103A7
  8
0
 62
     5
 10
40.976833
 20
145.102894
 30
0.0
 11
42.223562
 21
146.349623
 31
0.0
  0
LINE
  5
103A8
  8
0
 62
     5
 10
42.060428
 20
145.266027
 30
0.0
 11
42.615085
 21
145.586258
 31
0.0
  0
ARC
  5
103A9
  8
0
 62
     5
 10
41.600197
 20
145.726258
 30
0.0
 40
1.127721
 50
289.033269
 51
340.966731
  0
ARC
  5
103AA
  8
0
 62
     5
 10
41.600197
 20
145.726258
 30
0.0
 40
1.127721
 50
19.033269
 51
70.966731
  0
ARC
  5
103AB
  8
0
 62
     5
 10
42.088905
 20
146.02222
 30
0.0
 40
3.5
 50
0.0
 51
90.0
  0
LINE
  5
103AC
  8
0
 62
     5
 10
39.088905
 20
149.52222
 30
0.0
 11
42.088905
 21
149.52222
 31
0.0
  0
LINE
  5
103AD
  8
0
 62
     5
 10
40.382108
 20
146.006258
 30
0.0
 11
40.58531
 21
145.866258
 31
0.0
  0
LINE
  5
103AE
  8
0
 62
     5
 10
41.320197
 20
146.944347
 30
0.0
 11
41.460197
 21
146.741146
 31
0.0
  0
LINE
  5
103AF
  8
0
 62
     5
 10
41.139966
 20
145.266027
 30
0.0
 11
41.460197
 21
144.711371
 31
0.0
  0
LINE
  5
103B0
  8
0
 62
     5
 10
42.060428
 20
146.186489
 30
0.0
 11
41.740197
 21
146.741146
 31
0.0
  0
LINE
  5
103B1
  8
0
 62
     5
 10
41.320197
 20
147.504347
 30
0.0
 11
41.460197
 21
146.797146
 31
0.0
  0
LINE
  5
103B2
  8
0
 62
     5
 10
41.320197
 20
146.944347
 30
0.0
 11
41.320197
 21
147.504347
 31
0.0
  0
LINE
  5
103B3
  8
0
 62
     5
 10
41.460197
 20
146.797146
 30
0.0
 11
41.460197
 21
146.741146
 31
0.0
  0
LINE
  5
103B4
  8
0
 62
     5
 10
41.460197
 20
144.711371
 30
0.0
 11
41.460197
 21
144.655371
 31
0.0
  0
LINE
  5
103B5
  8
0
 62
     5
 10
41.740197
 20
144.655371
 30
0.0
 11
41.740197
 21
144.711371
 31
0.0
  0
LINE
  5
103B6
  8
0
 62
     5
 10
41.740197
 20
146.741146
 30
0.0
 11
41.740197
 21
146.797146
 31
0.0
  0
LINE
  5
103B7
  8
0
 62
     5
 10
41.880197
 20
147.504347
 30
0.0
 11
41.880197
 21
146.944347
 31
0.0
  0
LINE
  5
103B8
  8
0
 62
     5
 10
40.976833
 20
145.102894
 30
0.0
 11
40.382108
 21
145.446258
 31
0.0
  0
LINE
  5
103B9
  8
0
 62
     5
 10
40.58531
 20
145.586258
 30
0.0
 11
41.139966
 21
145.266027
 31
0.0
  0
LINE
  5
103BA
  8
0
 62
     5
 10
41.740197
 20
144.711371
 30
0.0
 11
41.460197
 21
146.741146
 31
0.0
  0
LINE
  5
103BB
  8
0
 62
     5
 10
41.740197
 20
144.655371
 30
0.0
 11
41.460197
 21
146.797146
 31
0.0
  0
LINE
  5
103BC
  8
0
 62
     5
 10
41.460197
 20
144.655371
 30
0.0
 11
41.740197
 21
146.797146
 31
0.0
  0
LINE
  5
103BD
  8
0
 62
     5
 10
41.460197
 20
144.711371
 30
0.0
 11
41.740197
 21
146.741146
 31
0.0
  0
LINE
  5
103BE
  8
0
 62
     5
 10
41.880197
 20
147.504347
 30
0.0
 11
41.740197
 21
146.797146
 31
0.0
  0
LINE
  5
103BF
  8
0
 62
     5
 10
39.822108
 20
146.006258
 30
0.0
 11
40.52931
 21
145.866258
 31
0.0
  0
LINE
  5
103C0
  8
0
 62
     5
 10
40.382108
 20
145.446258
 30
0.0
 11
39.822108
 21
145.446258
 31
0.0
  0
LINE
  5
103C1
  8
0
 62
     5
 10
40.52931
 20
145.586258
 30
0.0
 11
40.58531
 21
145.586258
 31
0.0
  0
LINE
  5
103C2
  8
0
 62
     5
 10
40.58531
 20
145.866258
 30
0.0
 11
40.52931
 21
145.866258
 31
0.0
  0
LINE
  5
103C3
  8
0
 62
     5
 10
39.822108
 20
146.006258
 30
0.0
 11
40.382108
 21
146.006258
 31
0.0
  0
LINE
  5
103C4
  8
0
 62
     5
 10
40.976833
 20
146.349623
 30
0.0
 11
41.320197
 21
146.944347
 31
0.0
  0
LINE
  5
103C5
  8
0
 62
     5
 10
41.460197
 20
146.741146
 30
0.0
 11
41.139966
 21
146.186489
 31
0.0
  0
LINE
  5
103C6
  8
0
 62
     5
 10
41.740197
 20
144.711371
 30
0.0
 11
42.060428
 21
145.266027
 31
0.0
  0
LINE
  5
103C7
  8
0
 62
     5
 10
41.880197
 20
146.944347
 30
0.0
 11
41.740197
 21
146.741146
 31
0.0
  0
LINE
  5
103C8
  8
0
 62
     5
 10
39.822108
 20
145.446258
 30
0.0
 11
40.52931
 21
145.586258
 31
0.0
  0
LINE
  5
103C9
  8
0
 62
     5
 10
40.382108
 20
145.446258
 30
0.0
 11
40.58531
 21
145.586258
 31
0.0
  0
LINE
  5
103CA
  8
0
 62
     5
 10
40.382108
 20
146.006258
 30
0.0
 11
40.976833
 21
146.349623
 31
0.0
  0
LINE
  5
103CB
  8
0
 62
     5
 10
41.139966
 20
146.186489
 30
0.0
 11
40.58531
 21
145.866258
 31
0.0
  0
ARC
  5
103CC
  8
0
 62
     5
 10
41.600197
 20
145.726258
 30
0.0
 40
1.127721
 50
109.033269
 51
160.966731
  0
ARC
  5
103CD
  8
0
 62
     5
 10
41.600197
 20
145.726258
 30
0.0
 40
1.08
 50
172.551809
 51
187.448191
  0
ARC
  5
103CE
  8
0
 62
     5
 10
41.600197
 20
145.726258
 30
0.0
 40
1.08
 50
262.551809
 51
277.448191
  0
ARC
  5
103CF
  8
0
 62
     5
 10
41.600197
 20
145.726258
 30
0.0
 40
1.08
 50
82.551809
 51
97.448191
  0
ARC
  5
103D0
  8
0
 62
     5
 10
41.600197
 20
145.726258
 30
0.0
 40
1.127721
 50
199.033269
 51
250.966731
  0
ARC
  5
103D1
  8
0
 62
     5
 10
41.600197
 20
145.726258
 30
0.0
 40
1.8
 50
171.050982
 51
188.949018
  0
ARC
  5
103D2
  8
0
 62
     5
 10
41.600197
 20
145.726258
 30
0.0
 40
1.8
 50
81.050982
 51
98.949018
  0
ARC
  5
103D3
  8
0
 62
     5
 10
39.088905
 20
150.52222
 30
0.0
 40
1.0
 50
180.0
 51
270.0
  0
LINE
  5
103D4
  8
0
 62
     5
 10
42.223562
 20
146.349623
 30
0.0
 11
42.818286
 21
146.006258
 31
0.0
  0
LINE
  5
103D5
  8
0
 62
     5
 10
42.818286
 20
145.446258
 30
0.0
 11
42.615085
 21
145.586258
 31
0.0
  0
LINE
  5
103D6
  8
0
 62
     5
 10
43.378286
 20
145.446258
 30
0.0
 11
42.671085
 21
145.586258
 31
0.0
  0
LINE
  5
103D7
  8
0
 62
     5
 10
43.378286
 20
145.446258
 30
0.0
 11
42.818286
 21
145.446258
 31
0.0
  0
LINE
  5
103D8
  8
0
 62
     5
 10
42.615085
 20
145.586258
 30
0.0
 11
42.671085
 21
145.586258
 31
0.0
  0
LINE
  5
103D9
  8
0
 62
     5
 10
42.671085
 20
145.866258
 30
0.0
 11
42.615085
 21
145.866258
 31
0.0
  0
LINE
  5
103DA
  8
0
 62
     5
 10
42.818286
 20
146.006258
 30
0.0
 11
43.378286
 21
146.006258
 31
0.0
  0
LINE
  5
103DB
  8
0
 62
     5
 10
43.378286
 20
146.006258
 30
0.0
 11
42.671085
 21
145.866258
 31
0.0
  0
LINE
  5
103DC
  8
0
 62
     5
 10
42.818286
 20
146.006258
 30
0.0
 11
42.615085
 21
145.866258
 31
0.0
  0
LINE
  5
103DD
  8
0
 62
     5
 10
42.818286
 20
145.446258
 30
0.0
 11
42.223562
 21
145.102894
 31
0.0
  0
ARC
  5
103DE
  8
0
 62
     5
 10
41.600197
 20
145.726258
 30
0.0
 40
1.08
 50
352.551809
 51
7.448191
  0
ARC
  5
103DF
  8
0
 62
     5
 10
41.600197
 20
145.726258
 30
0.0
 40
1.8
 50
351.050982
 51
8.949018
  0
ARC
  5
103E0
  8
0
 62
     5
 10
41.588905
 20
178.32222
 30
0.0
 40
3.5
 50
270.0
 51
0.0
  0
LINE
  5
103E1
  8
0
 62
     5
 10
41.588905
 20
174.82222
 30
0.0
 11
39.088905
 21
174.82222
 31
0.0
  0
ARC
  5
103E2
  8
0
 62
     5
 10
39.088905
 20
173.82222
 30
0.0
 40
1.0
 50
90.0
 51
180.0
  0
LINE
  5
103E3
  8
HIDDEN
 10
66.431367
 20
123.019088
 30
0.0
 11
68.778778
 21
123.025445
 31
0.0
  0
LINE
  5
103E4
  8
0
 62
     5
 10
67.873766
 20
124.82222
 30
0.0
 11
67.577459
 21
124.52222
 31
0.0
  0
LINE
  5
103E5
  8
0
 62
     5
 10
64.798126
 20
125.12222
 30
0.0
 11
68.178691
 21
125.12222
 31
0.0
  0
LINE
  5
103E6
  8
0
 62
     5
 10
66.630605
 20
123.22222
 30
0.0
 11
81.347205
 21
123.22222
 31
0.0
  0
ARC
  5
103E7
  8
0
 62
     5
 10
427.343475
 20
162.02222
 30
0.0
 40
380.266164
 50
183.687572
 51
184.186722
  0
ARC
  5
103E8
  8
0
 62
     5
 10
427.343475
 20
162.02222
 30
0.0
 40
380.0
 50
183.687572
 51
184.058402
  0
LINE
  5
103E9
  8
0
 62
     5
 10
54.723705
 20
127.82222
 30
0.0
 11
63.6129
 21
127.82222
 31
0.0
  0
LINE
  5
103EA
  8
0
 62
     5
 10
64.751196
 20
124.52222
 30
0.0
 11
48.600351
 21
124.52222
 31
0.0
  0
LINE
  5
103EB
  8
0
 62
     5
 10
52.089153
 20
130.02222
 30
0.0
 11
52.089153
 21
129.02222
 31
0.0
  0
LINE
  5
103EC
  8
0
 62
     5
 10
47.512661
 20
129.02222
 30
0.0
 11
47.512661
 21
130.02222
 31
0.0
  0
LINE
  5
103ED
  8
0
 62
     5
 10
49.305225
 20
125.12222
 30
0.0
 11
53.538479
 21
125.12222
 31
0.0
  0
LINE
  5
103EE
  8
HIDDEN
 10
47.399032
 20
123.025445
 30
0.0
 11
52.183444
 21
123.025445
 31
0.0
  0
LINE
  5
103EF
  8
0
 62
     5
 10
51.181833
 20
125.12222
 30
0.0
 11
51.181833
 21
124.52222
 31
0.0
  0
LINE
  5
103F0
  8
0
 62
     5
 10
48.600351
 20
124.52222
 30
0.0
 11
48.304044
 21
124.82222
 31
0.0
  0
LINE
  5
103F1
  8
0
 62
     5
 10
48.304044
 20
124.82222
 30
0.0
 11
49.305225
 21
124.82222
 31
0.0
  0
LINE
  5
103F2
  8
0
 62
     5
 10
48.304044
 20
125.12222
 30
0.0
 11
47.999119
 21
125.12222
 31
0.0
  0
LINE
  5
103F3
  8
0
 62
     5
 10
48.304044
 20
125.12222
 30
0.0
 11
48.304044
 21
124.82222
 31
0.0
  0
LINE
  5
103F4
  8
0
 62
     5
 10
49.305225
 20
124.82222
 30
0.0
 11
49.305225
 21
125.12222
 31
0.0
  0
LINE
  5
103F5
  8
0
 62
     5
 10
49.601531
 20
124.52222
 30
0.0
 11
49.305225
 21
124.82222
 31
0.0
  0
LINE
  5
103F6
  8
0
 62
     5
 10
47.99907
 20
129.02222
 30
0.0
 11
47.99907
 21
125.12222
 31
0.0
  0
LINE
  5
103F7
  8
0
 62
     5
 10
48.022462
 20
129.02222
 30
0.0
 11
48.022462
 21
125.12222
 31
0.0
  0
LINE
  5
103F8
  8
0
 62
     5
 10
49.586807
 20
125.12222
 30
0.0
 11
49.586807
 21
129.02222
 31
0.0
  0
LINE
  5
103F9
  8
0
 62
     5
 10
51.76064
 20
129.02222
 30
0.0
 11
51.76064
 21
125.12222
 31
0.0
  0
LINE
  5
103FA
  8
0
 62
     5
 10
53.538479
 20
124.82222
 30
0.0
 11
54.723705
 21
124.82222
 31
0.0
  0
LINE
  5
103FB
  8
0
 62
     5
 10
53.538479
 20
125.12222
 30
0.0
 11
53.538479
 21
124.82222
 31
0.0
  0
LINE
  5
103FC
  8
0
 62
     5
 10
53.491549
 20
124.52222
 30
0.0
 11
53.538479
 21
124.82222
 31
0.0
  0
LINE
  5
103FD
  8
0
 62
     5
 10
54.676775
 20
124.52222
 30
0.0
 11
54.723705
 21
124.82222
 31
0.0
  0
LINE
  5
103FE
  8
0
 62
     5
 10
54.723705
 20
124.82222
 30
0.0
 11
54.723705
 21
127.82222
 31
0.0
  0
LINE
  5
103FF
  8
0
 62
     5
 10
53.241254
 20
124.52222
 30
0.0
 11
53.241254
 21
125.12222
 31
0.0
  0
LINE
  5
10400
  8
0
 62
     5
 10
66.904478
 20
129.02222
 30
0.0
 11
66.904478
 21
130.02222
 31
0.0
  0
LINE
  5
10401
  8
0
 62
     5
 10
66.301387
 20
124.52222
 30
0.0
 11
66.31831
 21
123.22222
 31
0.0
  0
LINE
  5
10402
  8
0
 62
     5
 10
65.997158
 20
124.52222
 30
0.0
 11
65.997158
 21
125.12222
 31
0.0
  0
LINE
  5
10403
  8
0
 62
     5
 10
63.6129
 20
124.82222
 30
0.0
 11
64.798126
 21
124.82222
 31
0.0
  0
LINE
  5
10404
  8
0
 62
     5
 10
65.630605
 20
123.22222
 30
0.0
 11
65.589751
 21
124.52222
 31
0.0
  0
LINE
  5
10405
  8
0
 62
     5
 10
64.798126
 20
124.82222
 30
0.0
 11
64.798126
 21
125.12222
 31
0.0
  0
LINE
  5
10406
  8
0
 62
     5
 10
63.6129
 20
124.82222
 30
0.0
 11
63.56597
 21
124.52222
 31
0.0
  0
LINE
  5
10407
  8
0
 62
     5
 10
64.798126
 20
124.82222
 30
0.0
 11
64.751196
 21
124.52222
 31
0.0
  0
LINE
  5
10408
  8
0
 62
     5
 10
67.577459
 20
124.52222
 30
0.0
 11
64.822595
 21
124.52222
 31
0.0
  0
LINE
  5
10409
  8
0
 62
     5
 10
63.253101
 20
124.52222
 30
0.0
 11
63.253101
 21
127.82222
 31
0.0
  0
LINE
  5
1040A
  8
0
 62
     5
 10
63.6129
 20
127.82222
 30
0.0
 11
63.6129
 21
124.82222
 31
0.0
  0
LINE
  5
1040B
  8
0
 62
     5
 10
66.575965
 20
125.12222
 30
0.0
 11
66.575965
 21
129.02222
 31
0.0
  0
ARC
  5
1040C
  8
0
 62
     5
 10
-291.165665
 20
162.02222
 30
0.0
 40
380.0
 50
355.611601
 51
356.312428
  0
LINE
  5
1040D
  8
0
 62
     5
 10
84.104867
 20
137.311601
 30
0.0
 11
84.244867
 21
136.6044
 31
0.0
  0
LINE
  5
1040E
  8
0
 62
     5
 10
84.104867
 20
136.751601
 30
0.0
 11
84.104867
 21
137.311601
 31
0.0
  0
LINE
  5
1040F
  8
0
 62
     5
 10
84.664867
 20
137.311601
 30
0.0
 11
84.664867
 21
136.751601
 31
0.0
  0
LINE
  5
10410
  8
0
 62
     5
 10
84.664867
 20
137.311601
 30
0.0
 11
84.524867
 21
136.6044
 31
0.0
  0
CIRCLE
  5
10411
  8
0
 62
     5
 10
84.384867
 20
135.533512
 30
0.0
 40
2.75
  0
ARC
  5
10412
  8
0
 62
     5
 10
84.088905
 20
136.02222
 30
0.0
 40
3.5
 50
90.0
 51
180.0
  0
ARC
  5
10413
  8
0
 62
     5
 10
84.384867
 20
135.533512
 30
0.0
 40
2.95
 50
276.813854
 51
263.186146
  0
CIRCLE
  5
10414
  8
0
 62
     5
 10
84.384867
 20
135.533512
 30
0.0
 40
3.0
  0
LINE
  5
10415
  8
0
 62
     5
 10
73.288905
 20
132.02222
 30
0.0
 11
86.723208
 21
132.02222
 31
0.0
  0
LINE
  5
10416
  8
0
 62
     5
 10
87.411597
 20
128.62222
 30
0.0
 11
68.17874
 21
128.62222
 31
0.0
  0
LINE
  5
10417
  8
0
 62
     5
 10
87.894113
 20
131.756056
 30
0.0
 11
72.847008
 21
131.756056
 31
0.0
  0
LINE
  5
10418
  8
0
 62
     5
 10
70.27874
 20
129.02222
 30
0.0
 11
70.27874
 21
130.02222
 31
0.0
  0
LINE
  5
10419
  8
0
 62
     5
 10
77.488905
 20
128.64525
 30
0.0
 11
70.488905
 21
128.64525
 31
0.0
  0
LINE
  5
1041A
  8
0
 62
     5
 10
77.488905
 20
128.92222
 30
0.0
 11
70.488905
 21
128.92222
 31
0.0
  0
LINE
  5
1041B
  8
HIDDEN
 10
70.27874
 20
124.525445
 30
0.0
 11
70.27874
 21
127.275445
 31
0.0
  0
ARC
  5
1041C
  8
HIDDEN
 10
68.77874
 20
124.525445
 30
0.0
 40
1.5
 50
270.0
 51
0.0
  0
LINE
  5
1041D
  8
0
 62
     5
 10
70.488905
 20
128.64525
 30
0.0
 11
70.488905
 21
128.92222
 31
0.0
  0
LINE
  5
1041E
  8
0
 62
     5
 10
67.873766
 20
125.12222
 30
0.0
 11
67.873766
 21
124.82222
 31
0.0
  0
LINE
  5
1041F
  8
0
 62
     5
 10
68.17874
 20
129.02222
 30
0.0
 11
68.17874
 21
125.12222
 31
0.0
  0
LINE
  5
10420
  8
0
 62
     5
 10
77.488905
 20
128.64525
 30
0.0
 11
77.488905
 21
128.92222
 31
0.0
  0
ARC
  5
10421
  8
0
 62
     5
 10
73.288905
 20
131.52222
 30
0.0
 40
0.5
 50
90.0
 51
180.0
  0
LINE
  5
10422
  8
0
 62
     5
 10
72.788905
 20
131.52222
 30
0.0
 11
72.788905
 21
130.22222
 31
0.0
  0
ARC
  5
10423
  8
0
 62
     5
 10
72.588905
 20
130.22222
 30
0.0
 40
0.2
 50
270.0
 51
0.0
  0
LINE
  5
10424
  8
0
 62
     5
 10
87.911597
 20
131.978612
 30
0.0
 11
87.911597
 21
129.12222
 31
0.0
  0
LINE
  5
10425
  8
0
 62
     5
 10
80.6595
 20
123.22222
 30
0.0
 11
80.729793
 21
128.62222
 31
0.0
  0
LINE
  5
10426
  8
0
 62
     5
 10
81.516907
 20
128.62222
 30
0.0
 11
81.347205
 21
123.22222
 31
0.0
  0
LINE
  5
10427
  8
HIDDEN
 10
85.738905
 20
126.12222
 30
0.0
 11
83.438905
 21
126.12222
 31
0.0
  0
ARC
  5
10428
  8
HIDDEN
 10
85.738905
 20
126.62222
 30
0.0
 40
0.5
 50
270.0
 51
0.0
  0
LINE
  5
10429
  8
HIDDEN
 10
86.238905
 20
127.17222
 30
0.0
 11
86.238905
 21
126.62222
 31
0.0
  0
LINE
  5
1042A
  8
0
 62
     5
 10
82.606778
 20
135.253512
 30
0.0
 11
83.313979
 21
135.393512
 31
0.0
  0
LINE
  5
1042B
  8
0
 62
     5
 10
82.606778
 20
135.813512
 30
0.0
 11
83.313979
 21
135.673512
 31
0.0
  0
LINE
  5
1042C
  8
0
 62
     5
 10
83.761502
 20
134.910148
 30
0.0
 11
83.166778
 21
135.253512
 31
0.0
  0
LINE
  5
1042D
  8
0
 62
     5
 10
83.166778
 20
135.813512
 30
0.0
 11
83.369979
 21
135.673512
 31
0.0
  0
LINE
  5
1042E
  8
0
 62
     5
 10
83.166778
 20
135.253512
 30
0.0
 11
83.369979
 21
135.393512
 31
0.0
  0
LINE
  5
1042F
  8
0
 62
     5
 10
83.166778
 20
135.813512
 30
0.0
 11
83.761502
 21
136.156877
 31
0.0
  0
LINE
  5
10430
  8
0
 62
     5
 10
83.166778
 20
135.253512
 30
0.0
 11
82.606778
 21
135.253512
 31
0.0
  0
LINE
  5
10431
  8
0
 62
     5
 10
82.606778
 20
135.813512
 30
0.0
 11
83.166778
 21
135.813512
 31
0.0
  0
LINE
  5
10432
  8
0
 62
     5
 10
80.588905
 20
133.02222
 30
0.0
 11
80.588905
 21
136.02222
 31
0.0
  0
ARC
  5
10433
  8
0
 62
     5
 10
84.384867
 20
135.533512
 30
0.0
 40
1.8
 50
171.050982
 51
188.949018
  0
ARC
  5
10434
  8
0
 62
     5
 10
79.588905
 20
133.02222
 30
0.0
 40
1.0
 50
270.0
 51
0.0
  0
LINE
  5
10435
  8
0
 62
     5
 10
86.162956
 20
135.813512
 30
0.0
 11
85.455754
 21
135.673512
 31
0.0
  0
LINE
  5
10436
  8
0
 62
     5
 10
83.369979
 20
135.393512
 30
0.0
 11
85.399754
 21
135.673512
 31
0.0
  0
LINE
  5
10437
  8
0
 62
     5
 10
83.313979
 20
135.393512
 30
0.0
 11
85.455754
 21
135.673512
 31
0.0
  0
LINE
  5
10438
  8
0
 62
     5
 10
86.162956
 20
135.253512
 30
0.0
 11
85.602956
 21
135.253512
 31
0.0
  0
LINE
  5
10439
  8
0
 62
     5
 10
83.313979
 20
135.393512
 30
0.0
 11
83.369979
 21
135.393512
 31
0.0
  0
LINE
  5
1043A
  8
0
 62
     5
 10
85.399754
 20
135.393512
 30
0.0
 11
85.455754
 21
135.393512
 31
0.0
  0
LINE
  5
1043B
  8
0
 62
     5
 10
85.455754
 20
135.673512
 30
0.0
 11
85.399754
 21
135.673512
 31
0.0
  0
LINE
  5
1043C
  8
0
 62
     5
 10
83.369979
 20
135.673512
 30
0.0
 11
83.313979
 21
135.673512
 31
0.0
  0
LINE
  5
1043D
  8
0
 62
     5
 10
85.602956
 20
135.813512
 30
0.0
 11
86.162956
 21
135.813512
 31
0.0
  0
LINE
  5
1043E
  8
0
 62
     5
 10
83.313979
 20
135.673512
 30
0.0
 11
85.455754
 21
135.393512
 31
0.0
  0
LINE
  5
1043F
  8
0
 62
     5
 10
83.369979
 20
135.673512
 30
0.0
 11
85.399754
 21
135.393512
 31
0.0
  0
LINE
  5
10440
  8
0
 62
     5
 10
86.162956
 20
135.253512
 30
0.0
 11
85.455754
 21
135.393512
 31
0.0
  0
LINE
  5
10441
  8
0
 62
     5
 10
83.369979
 20
135.393512
 30
0.0
 11
83.924636
 21
135.073281
 31
0.0
  0
LINE
  5
10442
  8
0
 62
     5
 10
85.399754
 20
135.673512
 30
0.0
 11
84.845098
 21
135.993743
 31
0.0
  0
LINE
  5
10443
  8
0
 62
     5
 10
85.008231
 20
136.156877
 30
0.0
 11
85.602956
 21
135.813512
 31
0.0
  0
LINE
  5
10444
  8
0
 62
     5
 10
85.602956
 20
135.253512
 30
0.0
 11
85.399754
 21
135.393512
 31
0.0
  0
LINE
  5
10445
  8
0
 62
     5
 10
85.008231
 20
134.910148
 30
0.0
 11
83.761502
 21
136.156877
 31
0.0
  0
LINE
  5
10446
  8
0
 62
     5
 10
84.664867
 20
134.315423
 30
0.0
 11
84.524867
 21
134.518625
 31
0.0
  0
LINE
  5
10447
  8
0
 62
     5
 10
84.104867
 20
136.751601
 30
0.0
 11
84.244867
 21
136.5484
 31
0.0
  0
LINE
  5
10448
  8
0
 62
     5
 10
84.104867
 20
134.315423
 30
0.0
 11
83.761502
 21
134.910148
 31
0.0
  0
LINE
  5
10449
  8
0
 62
     5
 10
83.924636
 20
135.073281
 30
0.0
 11
84.244867
 21
134.518625
 31
0.0
  0
LINE
  5
1044A
  8
0
 62
     5
 10
84.845098
 20
135.993743
 30
0.0
 11
84.524867
 21
136.5484
 31
0.0
  0
LINE
  5
1044B
  8
0
 62
     5
 10
84.664867
 20
136.751601
 30
0.0
 11
85.008231
 21
136.156877
 31
0.0
  0
LINE
  5
1044C
  8
0
 62
     5
 10
84.664867
 20
133.755423
 30
0.0
 11
84.524867
 21
134.462625
 31
0.0
  0
LINE
  5
1044D
  8
0
 62
     5
 10
84.524867
 20
134.518625
 30
0.0
 11
84.244867
 21
136.5484
 31
0.0
  0
LINE
  5
1044E
  8
0
 62
     5
 10
84.524867
 20
134.462625
 30
0.0
 11
84.244867
 21
136.6044
 31
0.0
  0
LINE
  5
1044F
  8
0
 62
     5
 10
84.034867
 20
132.808252
 30
0.0
 11
84.034867
 21
132.604349
 31
0.0
  0
LINE
  5
10450
  8
0
 62
     5
 10
84.104867
 20
133.755423
 30
0.0
 11
84.104867
 21
134.315423
 31
0.0
  0
LINE
  5
10451
  8
0
 62
     5
 10
84.244867
 20
136.6044
 30
0.0
 11
84.244867
 21
136.5484
 31
0.0
  0
LINE
  5
10452
  8
0
 62
     5
 10
84.244867
 20
134.518625
 30
0.0
 11
84.244867
 21
134.462625
 31
0.0
  0
LINE
  5
10453
  8
0
 62
     5
 10
84.524867
 20
134.462625
 30
0.0
 11
84.524867
 21
134.518625
 31
0.0
  0
LINE
  5
10454
  8
0
 62
     5
 10
84.524867
 20
136.5484
 30
0.0
 11
84.524867
 21
136.6044
 31
0.0
  0
LINE
  5
10455
  8
0
 62
     5
 10
84.664867
 20
134.315423
 30
0.0
 11
84.664867
 21
133.755423
 31
0.0
  0
LINE
  5
10456
  8
0
 62
     5
 10
84.734867
 20
132.604349
 30
0.0
 11
84.734867
 21
132.808252
 31
0.0
  0
LINE
  5
10457
  8
0
 62
     5
 10
84.244867
 20
134.462625
 30
0.0
 11
84.524867
 21
136.6044
 31
0.0
  0
LINE
  5
10458
  8
0
 62
     5
 10
84.244867
 20
134.518625
 30
0.0
 11
84.524867
 21
136.5484
 31
0.0
  0
LINE
  5
10459
  8
0
 62
     5
 10
84.104867
 20
133.755423
 30
0.0
 11
84.244867
 21
134.462625
 31
0.0
  0
LINE
  5
1045A
  8
0
 62
     5
 10
83.761502
 20
136.156877
 30
0.0
 11
84.104867
 21
136.751601
 31
0.0
  0
LINE
  5
1045B
  8
0
 62
     5
 10
84.244867
 20
136.5484
 30
0.0
 11
83.924636
 21
135.993743
 31
0.0
  0
LINE
  5
1045C
  8
0
 62
     5
 10
84.524867
 20
134.518625
 30
0.0
 11
84.845098
 21
135.073281
 31
0.0
  0
LINE
  5
1045D
  8
0
 62
     5
 10
85.008231
 20
134.910148
 30
0.0
 11
84.664867
 21
134.315423
 31
0.0
  0
LINE
  5
1045E
  8
0
 62
     5
 10
84.664867
 20
136.751601
 30
0.0
 11
84.524867
 21
136.5484
 31
0.0
  0
LINE
  5
1045F
  8
0
 62
     5
 10
84.104867
 20
134.315423
 30
0.0
 11
84.244867
 21
134.518625
 31
0.0
  0
LINE
  5
10460
  8
0
 62
     5
 10
83.761502
 20
134.910148
 30
0.0
 11
85.008231
 21
136.156877
 31
0.0
  0
LINE
  5
10461
  8
0
 62
     5
 10
85.602956
 20
135.813512
 30
0.0
 11
85.399754
 21
135.673512
 31
0.0
  0
LINE
  5
10462
  8
0
 62
     5
 10
83.924636
 20
135.993743
 30
0.0
 11
83.369979
 21
135.673512
 31
0.0
  0
LINE
  5
10463
  8
0
 62
     5
 10
84.845098
 20
135.073281
 30
0.0
 11
85.399754
 21
135.393512
 31
0.0
  0
LINE
  5
10464
  8
0
 62
     5
 10
85.602956
 20
135.253512
 30
0.0
 11
85.008231
 21
134.910148
 31
0.0
  0
ARC
  5
10465
  8
0
 62
     5
 10
84.384867
 20
135.533512
 30
0.0
 40
1.127721
 50
109.033269
 51
160.966731
  0
ARC
  5
10466
  8
0
 62
     5
 10
84.384867
 20
135.533512
 30
0.0
 40
1.127721
 50
289.033269
 51
340.966731
  0
ARC
  5
10467
  8
0
 62
     5
 10
84.384867
 20
135.533512
 30
0.0
 40
1.127721
 50
19.033269
 51
70.966731
  0
ARC
  5
10468
  8
0
 62
     5
 10
84.384867
 20
135.533512
 30
0.0
 40
1.08
 50
172.551809
 51
187.448191
  0
ARC
  5
10469
  8
0
 62
     5
 10
84.384867
 20
135.533512
 30
0.0
 40
1.08
 50
262.551809
 51
277.448191
  0
ARC
  5
1046A
  8
0
 62
     5
 10
84.384867
 20
135.533512
 30
0.0
 40
1.08
 50
352.551809
 51
7.448191
  0
ARC
  5
1046B
  8
0
 62
     5
 10
84.384867
 20
135.533512
 30
0.0
 40
1.08
 50
82.551809
 51
97.448191
  0
ARC
  5
1046C
  8
0
 62
     5
 10
84.384867
 20
135.533512
 30
0.0
 40
1.8
 50
261.050982
 51
278.949018
  0
ARC
  5
1046D
  8
0
 62
     5
 10
84.384867
 20
135.533512
 30
0.0
 40
1.127721
 50
199.033269
 51
250.966731
  0
ARC
  5
1046E
  8
0
 62
     5
 10
84.384867
 20
135.533512
 30
0.0
 40
1.8
 50
351.050982
 51
8.949018
  0
ARC
  5
1046F
  8
0
 62
     5
 10
86.723208
 20
133.02222
 30
0.0
 40
1.0
 50
270.0
 51
355.611601
  0
ARC
  5
10470
  8
0
 62
     5
 10
84.384867
 20
135.533512
 30
0.0
 40
1.8
 50
81.050982
 51
98.949018
  0
LINE
  5
10471
  8
0
 62
     5
 10
84.088905
 20
139.52222
 30
0.0
 11
88.032884
 21
139.52222
 31
0.0
  0
ARC
  5
10472
  8
CENTER
 10
68.088905
 20
162.02222
 30
0.0
 40
35.0
 50
126.254023
 51
144.381034
  0
LINE
  5
10473
  8
0
 62
     5
 10
42.588905
 20
192.02222
 30
0.0
 11
48.529536
 21
192.02222
 31
0.0
  0
ARC
  5
10474
  8
0
 62
     5
 10
43.340168
 20
186.770957
 30
0.0
 40
4.533836
 50
273.687572
 51
356.312428
  0
ARC
  5
10475
  8
0
 62
     5
 10
48.144926
 20
183.52222
 30
0.0
 40
1.0
 50
90.0
 51
145.93541
  0
ARC
  5
10476
  8
0
 62
     5
 10
43.340168
 20
186.770957
 30
0.0
 40
4.8
 50
273.687572
 51
356.312428
  0
ARC
  5
10477
  8
0
 62
     5
 10
42.588905
 20
187.52222
 30
0.0
 40
4.5
 50
90.0
 51
180.0
  0
CIRCLE
  5
10478
  8
0
 62
     5
 10
43.340168
 20
186.770957
 30
0.0
 40
2.9
  0
LINE
  5
10479
  8
0
 62
     5
 10
39.012388
 20
181.653591
 30
0.0
 11
43.648884
 21
181.980895
 31
0.0
  0
ARC
  5
1047A
  8
0
 62
     5
 10
68.088905
 20
-197.23235
 30
0.0
 40
380.266164
 50
93.687572
 51
94.425643
  0
LINE
  5
1047B
  8
0
 62
     5
 10
38.088905
 20
181.581589
 30
0.0
 11
38.088905
 21
187.52222
 31
0.0
  0
ARC
  5
1047C
  8
0
 62
     5
 10
46.088905
 20
181.663664
 30
0.0
 40
1.0
 50
118.28907
 51
180.0
  0
LINE
  5
1047D
  8
0
 62
     5
 10
86.723208
 20
192.02222
 30
0.0
 11
49.454602
 21
192.02222
 31
0.0
  0
LINE
  5
1047E
  8
0
 62
     5
 10
49.208153
 20
192.288384
 30
0.0
 11
86.969657
 21
192.288384
 31
0.0
  0
LINE
  5
1047F
  8
0
 62
     5
 10
55.588905
 20
191.02222
 30
0.0
 11
55.588905
 21
188.02222
 31
0.0
  0
LINE
  5
10480
  8
0
 62
     5
 10
51.169579
 20
187.887563
 30
0.0
 11
52.416308
 21
189.134292
 31
0.0
  0
LINE
  5
10481
  8
0
 62
     5
 10
51.652943
 20
187.44004
 30
0.0
 11
51.932943
 21
189.581815
 31
0.0
  0
LINE
  5
10482
  8
0
 62
     5
 10
51.652943
 20
187.49604
 30
0.0
 11
51.932943
 21
189.525815
 31
0.0
  0
LINE
  5
10483
  8
0
 62
     5
 10
51.932943
 20
187.49604
 30
0.0
 11
51.652943
 21
189.525815
 31
0.0
  0
LINE
  5
10484
  8
0
 62
     5
 10
51.932943
 20
187.44004
 30
0.0
 11
51.652943
 21
189.581815
 31
0.0
  0
LINE
  5
10485
  8
0
 62
     5
 10
52.416308
 20
187.887563
 30
0.0
 11
51.169579
 21
189.134292
 31
0.0
  0
LINE
  5
10486
  8
0
 62
     5
 10
50.722056
 20
188.650928
 30
0.0
 11
52.863831
 21
188.370928
 31
0.0
  0
LINE
  5
10487
  8
0
 62
     5
 10
50.778056
 20
188.650928
 30
0.0
 11
52.807831
 21
188.370928
 31
0.0
  0
LINE
  5
10488
  8
0
 62
     5
 10
50.778056
 20
188.370928
 30
0.0
 11
52.807831
 21
188.650928
 31
0.0
  0
LINE
  5
10489
  8
0
 62
     5
 10
50.722056
 20
188.370928
 30
0.0
 11
52.863831
 21
188.650928
 31
0.0
  0
ARC
  5
1048A
  8
0
 62
     5
 10
51.792943
 20
188.510928
 30
0.0
 40
1.08
 50
172.551809
 51
187.448191
  0
ARC
  5
1048B
  8
0
 62
     5
 10
51.792943
 20
188.510928
 30
0.0
 40
1.08
 50
352.551809
 51
7.448191
  0
ARC
  5
1048C
  8
0
 62
     5
 10
51.792943
 20
188.510928
 30
0.0
 40
1.8
 50
351.050982
 51
8.949018
  0
ARC
  5
1048D
  8
0
 62
     5
 10
51.792943
 20
188.510928
 30
0.0
 40
1.8
 50
171.050982
 51
188.949018
  0
LINE
  5
1048E
  8
0
 62
     5
 10
48.457534
 20
191.098737
 30
0.0
 11
48.13023
 21
186.462241
 31
0.0
  0
ARC
  5
1048F
  8
0
 62
     5
 10
427.343475
 20
162.02222
 30
0.0
 40
380.266164
 50
175.574357
 51
176.312428
  0
CIRCLE
  5
10490
  8
0
 62
     5
 10
51.792943
 20
188.510928
 30
0.0
 40
2.75
  0
ARC
  5
10491
  8
0
 62
     5
 10
51.792943
 20
188.510928
 30
0.0
 40
2.95
 50
276.813854
 51
263.186146
  0
CIRCLE
  5
10492
  8
0
 62
     5
 10
51.792943
 20
188.510928
 30
0.0
 40
3.0
  0
LINE
  5
10493
  8
0
 62
     5
 10
52.253174
 20
188.050697
 30
0.0
 11
52.807831
 21
188.370928
 31
0.0
  0
LINE
  5
10494
  8
0
 62
     5
 10
53.011032
 20
188.230928
 30
0.0
 11
52.416308
 21
187.887563
 31
0.0
  0
ARC
  5
10495
  8
0
 62
     5
 10
51.792943
 20
188.510928
 30
0.0
 40
1.127721
 50
289.033269
 51
340.966731
  0
ARC
  5
10496
  8
0
 62
     5
 10
52.088905
 20
188.02222
 30
0.0
 40
3.5
 50
270.0
 51
0.0
  0
LINE
  5
10497
  8
0
 62
     5
 10
50.574854
 20
188.230928
 30
0.0
 11
50.778056
 21
188.370928
 31
0.0
  0
LINE
  5
10498
  8
0
 62
     5
 10
51.932943
 20
187.49604
 30
0.0
 11
52.253174
 21
188.050697
 31
0.0
  0
LINE
  5
10499
  8
0
 62
     5
 10
52.416308
 20
187.887563
 30
0.0
 11
52.072943
 21
187.292839
 31
0.0
  0
LINE
  5
1049A
  8
0
 62
     5
 10
51.512943
 20
187.292839
 30
0.0
 11
51.652943
 21
187.49604
 31
0.0
  0
LINE
  5
1049B
  8
0
 62
     5
 10
51.512943
 20
186.732839
 30
0.0
 11
51.652943
 21
187.44004
 31
0.0
  0
LINE
  5
1049C
  8
0
 62
     5
 10
51.442943
 20
185.785667
 30
0.0
 11
51.442943
 21
185.581764
 31
0.0
  0
LINE
  5
1049D
  8
0
 62
     5
 10
51.512943
 20
186.732839
 30
0.0
 11
51.512943
 21
187.292839
 31
0.0
  0
LINE
  5
1049E
  8
0
 62
     5
 10
51.652943
 20
187.49604
 30
0.0
 11
51.652943
 21
187.44004
 31
0.0
  0
LINE
  5
1049F
  8
0
 62
     5
 10
51.932943
 20
187.44004
 30
0.0
 11
51.932943
 21
187.49604
 31
0.0
  0
LINE
  5
104A0
  8
0
 62
     5
 10
52.072943
 20
187.292839
 30
0.0
 11
52.072943
 21
186.732839
 31
0.0
  0
LINE
  5
104A1
  8
0
 62
     5
 10
52.142943
 20
185.581764
 30
0.0
 11
52.142943
 21
185.785667
 31
0.0
  0
LINE
  5
104A2
  8
0
 62
     5
 10
52.072943
 20
186.732839
 30
0.0
 11
51.932943
 21
187.44004
 31
0.0
  0
LINE
  5
104A3
  8
0
 62
     5
 10
51.512943
 20
187.292839
 30
0.0
 11
51.169579
 21
187.887563
 31
0.0
  0
LINE
  5
104A4
  8
0
 62
     5
 10
51.332712
 20
188.050697
 30
0.0
 11
51.652943
 21
187.49604
 31
0.0
  0
LINE
  5
104A5
  8
0
 62
     5
 10
52.072943
 20
187.292839
 30
0.0
 11
51.932943
 21
187.49604
 31
0.0
  0
LINE
  5
104A6
  8
0
 62
     5
 10
51.169579
 20
187.887563
 30
0.0
 11
50.574854
 21
188.230928
 31
0.0
  0
LINE
  5
104A7
  8
0
 62
     5
 10
50.778056
 20
188.370928
 30
0.0
 11
51.332712
 21
188.050697
 31
0.0
  0
LINE
  5
104A8
  8
0
 62
     5
 10
50.722056
 20
188.370928
 30
0.0
 11
50.778056
 21
188.370928
 31
0.0
  0
ARC
  5
104A9
  8
0
 62
     5
 10
51.792943
 20
188.510928
 30
0.0
 40
1.08
 50
262.551809
 51
277.448191
  0
ARC
  5
104AA
  8
0
 62
     5
 10
51.792943
 20
188.510928
 30
0.0
 40
1.8
 50
261.050982
 51
278.949018
  0
ARC
  5
104AB
  8
0
 62
     5
 10
51.792943
 20
188.510928
 30
0.0
 40
1.127721
 50
199.033269
 51
250.966731
  0
LINE
  5
104AC
  8
0
 62
     5
 10
52.088905
 20
184.52222
 30
0.0
 11
48.144926
 21
184.52222
 31
0.0
  0
LINE
  5
104AD
  8
0
 62
     5
 10
50.574854
 20
188.230928
 30
0.0
 11
50.014854
 21
188.230928
 31
0.0
  0
LINE
  5
104AE
  8
0
 62
     5
 10
50.014854
 20
188.230928
 30
0.0
 11
50.722056
 21
188.370928
 31
0.0
  0
LINE
  5
104AF
  8
0
 62
     5
 10
53.011032
 20
188.230928
 30
0.0
 11
52.807831
 21
188.370928
 31
0.0
  0
LINE
  5
104B0
  8
0
 62
     5
 10
53.571032
 20
188.230928
 30
0.0
 11
52.863831
 21
188.370928
 31
0.0
  0
LINE
  5
104B1
  8
0
 62
     5
 10
53.571032
 20
188.230928
 30
0.0
 11
53.011032
 21
188.230928
 31
0.0
  0
LINE
  5
104B2
  8
0
 62
     5
 10
52.807831
 20
188.370928
 30
0.0
 11
52.863831
 21
188.370928
 31
0.0
  0
LINE
  5
104B3
  8
0
 62
     5
 10
52.807831
 20
188.650928
 30
0.0
 11
52.253174
 21
188.971159
 31
0.0
  0
LINE
  5
104B4
  8
0
 62
     5
 10
52.416308
 20
189.134292
 30
0.0
 11
53.011032
 21
188.790928
 31
0.0
  0
ARC
  5
104B5
  8
0
 62
     5
 10
51.792943
 20
188.510928
 30
0.0
 40
1.127721
 50
19.033269
 51
70.966731
  0
ARC
  5
104B6
  8
0
 62
     5
 10
51.792943
 20
188.510928
 30
0.0
 40
1.8
 50
81.050982
 51
98.949018
  0
ARC
  5
104B7
  8
0
 62
     5
 10
49.454602
 20
191.02222
 30
0.0
 40
1.0
 50
90.0
 51
175.611601
  0
LINE
  5
104B8
  8
0
 62
     5
 10
50.574854
 20
188.790928
 30
0.0
 11
51.169579
 21
189.134292
 31
0.0
  0
LINE
  5
104B9
  8
0
 62
     5
 10
51.332712
 20
188.971159
 30
0.0
 11
50.778056
 21
188.650928
 31
0.0
  0
LINE
  5
104BA
  8
0
 62
     5
 10
51.169579
 20
189.134292
 30
0.0
 11
51.512943
 21
189.729017
 31
0.0
  0
LINE
  5
104BB
  8
0
 62
     5
 10
51.652943
 20
189.525815
 30
0.0
 11
51.332712
 21
188.971159
 31
0.0
  0
LINE
  5
104BC
  8
0
 62
     5
 10
52.072943
 20
189.729017
 30
0.0
 11
51.932943
 21
189.525815
 31
0.0
  0
LINE
  5
104BD
  8
0
 62
     5
 10
51.652943
 20
189.581815
 30
0.0
 11
51.652943
 21
189.525815
 31
0.0
  0
LINE
  5
104BE
  8
0
 62
     5
 10
51.932943
 20
189.525815
 30
0.0
 11
51.932943
 21
189.581815
 31
0.0
  0
LINE
  5
104BF
  8
0
 62
     5
 10
51.512943
 20
189.729017
 30
0.0
 11
51.652943
 21
189.525815
 31
0.0
  0
LINE
  5
104C0
  8
0
 62
     5
 10
52.253174
 20
188.971159
 30
0.0
 11
51.932943
 21
189.525815
 31
0.0
  0
LINE
  5
104C1
  8
0
 62
     5
 10
52.072943
 20
189.729017
 30
0.0
 11
52.416308
 21
189.134292
 31
0.0
  0
LINE
  5
104C2
  8
0
 62
     5
 10
50.574854
 20
188.790928
 30
0.0
 11
50.778056
 21
188.650928
 31
0.0
  0
LINE
  5
104C3
  8
0
 62
     5
 10
50.778056
 20
188.650928
 30
0.0
 11
50.722056
 21
188.650928
 31
0.0
  0
ARC
  5
104C4
  8
0
 62
     5
 10
51.792943
 20
188.510928
 30
0.0
 40
1.127721
 50
109.033269
 51
160.966731
  0
ARC
  5
104C5
  8
0
 62
     5
 10
51.792943
 20
188.510928
 30
0.0
 40
1.08
 50
82.551809
 51
97.448191
  0
LINE
  5
104C6
  8
0
 62
     5
 10
50.014854
 20
188.790928
 30
0.0
 11
50.722056
 21
188.650928
 31
0.0
  0
LINE
  5
104C7
  8
0
 62
     5
 10
50.014854
 20
188.790928
 30
0.0
 11
50.574854
 21
188.790928
 31
0.0
  0
LINE
  5
104C8
  8
0
 62
     5
 10
52.072943
 20
190.289017
 30
0.0
 11
51.932943
 21
189.581815
 31
0.0
  0
LINE
  5
104C9
  8
0
 62
     5
 10
51.512943
 20
189.729017
 30
0.0
 11
51.512943
 21
190.289017
 31
0.0
  0
LINE
  5
104CA
  8
0
 62
     5
 10
52.072943
 20
190.289017
 30
0.0
 11
52.072943
 21
189.729017
 31
0.0
  0
LINE
  5
104CB
  8
0
 62
     5
 10
51.512943
 20
190.289017
 30
0.0
 11
51.652943
 21
189.581815
 31
0.0
  0
ARC
  5
104CC
  8
0
 62
     5
 10
56.588905
 20
191.02222
 30
0.0
 40
1.0
 50
90.0
 51
180.0
  0
LINE
  5
104CD
  8
0
 62
     5
 10
53.011032
 20
188.790928
 30
0.0
 11
52.807831
 21
188.650928
 31
0.0
  0
LINE
  5
104CE
  8
0
 62
     5
 10
53.571032
 20
188.790928
 30
0.0
 11
52.863831
 21
188.650928
 31
0.0
  0
LINE
  5
104CF
  8
0
 62
     5
 10
52.863831
 20
188.650928
 30
0.0
 11
52.807831
 21
188.650928
 31
0.0
  0
LINE
  5
104D0
  8
0
 62
     5
 10
53.011032
 20
188.790928
 30
0.0
 11
53.571032
 21
188.790928
 31
0.0
  0
LINE
  5
104D1
  8
0
 62
     5
 10
87.720276
 20
191.098737
 30
0.0
 11
88.04758
 21
186.462241
 31
0.0
  0
ARC
  5
104D2
  8
0
 62
     5
 10
-291.165665
 20
162.02222
 30
0.0
 40
380.266164
 50
3.687572
 51
4.425643
  0
ARC
  5
104D3
  8
0
 62
     5
 10
84.388905
 20
188.52222
 30
0.0
 40
3.5
 50
180.0
 51
270.0
  0
LINE
  5
104D4
  8
0
 62
     5
 10
87.730349
 20
185.02222
 30
0.0
 11
84.388905
 21
185.02222
 31
0.0
  0
ARC
  5
104D5
  8
0
 62
     5
 10
79.888905
 20
191.02222
 30
0.0
 40
1.0
 50
0.0
 51
90.0
  0
LINE
  5
104D6
  8
0
 62
     5
 10
80.888905
 20
188.52222
 30
0.0
 11
80.888905
 21
191.02222
 31
0.0
  0
ARC
  5
104D7
  8
0
 62
     5
 10
86.723208
 20
191.02222
 30
0.0
 40
1.0
 50
4.388399
 51
90.0
  0
LINE
  5
104D8
  8
0
 62
     5
 10
170.756822
 20
131.758288
 30
0.0
 11
170.245253
 21
131.756056
 31
0.0
  0
ARC
  5
104D9
  8
0
 62
     5
 10
170.895253
 20
129.12222
 30
0.0
 40
0.5
 50
180.0
 51
270.0
  0
LINE
  5
104DA
  8
0
 62
     5
 10
231.245253
 20
192.02222
 30
0.0
 11
170.245253
 21
192.288384
 31
0.0
  0
POLYLINE
  5
104DB
  8
0
 62
     5
 66
     1
 10
0.0
 20
0.0
 30
0.0
 70
     8
  0
VERTEX
  5
104DC
  8
0
 62
     5
 10
170.245
 20
142.144
 30
0.0
 70
    32
  0
VERTEX
  5
104DD
  8
0
 62
     5
 10
170.565
 20
142.146
 30
0.0
 70
    32
  0
VERTEX
  5
104DE
  8
0
 62
     5
 10
170.884
 20
142.147
 30
0.0
 70
    32
  0
VERTEX
  5
104DF
  8
0
 62
     5
 10
171.203
 20
142.148
 30
0.0
 70
    32
  0
VERTEX
  5
104E0
  8
0
 62
     5
 10
171.523
 20
142.15
 30
0.0
 70
    32
  0
VERTEX
  5
104E1
  8
0
 62
     5
 10
171.842
 20
142.151
 30
0.0
 70
    32
  0
VERTEX
  5
104E2
  8
0
 62
     5
 10
172.161
 20
142.152
 30
0.0
 70
    32
  0
VERTEX
  5
104E3
  8
0
 62
     5
 10
172.481
 20
142.153
 30
0.0
 70
    32
  0
VERTEX
  5
104E4
  8
0
 62
     5
 10
172.8
 20
142.155
 30
0.0
 70
    32
  0
VERTEX
  5
104E5
  8
0
 62
     5
 10
173.12
 20
142.156
 30
0.0
 70
    32
  0
VERTEX
  5
104E6
  8
0
 62
     5
 10
173.439
 20
142.157
 30
0.0
 70
    32
  0
VERTEX
  5
104E7
  8
0
 62
     5
 10
173.758
 20
142.159
 30
0.0
 70
    32
  0
VERTEX
  5
104E8
  8
0
 62
     5
 10
174.078
 20
142.16
 30
0.0
 70
    32
  0
VERTEX
  5
104E9
  8
0
 62
     5
 10
174.397
 20
142.161
 30
0.0
 70
    32
  0
VERTEX
  5
104EA
  8
0
 62
     5
 10
174.716
 20
142.163
 30
0.0
 70
    32
  0
VERTEX
  5
104EB
  8
0
 62
     5
 10
175.036
 20
142.164
 30
0.0
 70
    32
  0
VERTEX
  5
104EC
  8
0
 62
     5
 10
175.355
 20
142.165
 30
0.0
 70
    32
  0
VERTEX
  5
104ED
  8
0
 62
     5
 10
175.675
 20
142.166
 30
0.0
 70
    32
  0
VERTEX
  5
104EE
  8
0
 62
     5
 10
175.994
 20
142.168
 30
0.0
 70
    32
  0
VERTEX
  5
104EF
  8
0
 62
     5
 10
176.313
 20
142.169
 30
0.0
 70
    32
  0
VERTEX
  5
104F0
  8
0
 62
     5
 10
176.633
 20
142.17
 30
0.0
 70
    32
  0
VERTEX
  5
104F1
  8
0
 62
     5
 10
176.952
 20
142.172
 30
0.0
 70
    32
  0
VERTEX
  5
104F2
  8
0
 62
     5
 10
177.271
 20
142.173
 30
0.0
 70
    32
  0
VERTEX
  5
104F3
  8
0
 62
     5
 10
177.591
 20
142.174
 30
0.0
 70
    32
  0
VERTEX
  5
104F4
  8
0
 62
     5
 10
177.91
 20
142.175
 30
0.0
 70
    32
  0
VERTEX
  5
104F5
  8
0
 62
     5
 10
178.23
 20
142.177
 30
0.0
 70
    32
  0
VERTEX
  5
104F6
  8
0
 62
     5
 10
178.549
 20
142.178
 30
0.0
 70
    32
  0
VERTEX
  5
104F7
  8
0
 62
     5
 10
178.868
 20
142.179
 30
0.0
 70
    32
  0
VERTEX
  5
104F8
  8
0
 62
     5
 10
179.188
 20
142.181
 30
0.0
 70
    32
  0
VERTEX
  5
104F9
  8
0
 62
     5
 10
179.507
 20
142.182
 30
0.0
 70
    32
  0
VERTEX
  5
104FA
  8
0
 62
     5
 10
179.826
 20
142.183
 30
0.0
 70
    32
  0
VERTEX
  5
104FB
  8
0
 62
     5
 10
180.146
 20
142.184
 30
0.0
 70
    32
  0
VERTEX
  5
104FC
  8
0
 62
     5
 10
180.465
 20
142.186
 30
0.0
 70
    32
  0
VERTEX
  5
104FD
  8
0
 62
     5
 10
180.785
 20
142.187
 30
0.0
 70
    32
  0
VERTEX
  5
104FE
  8
0
 62
     5
 10
181.104
 20
142.188
 30
0.0
 70
    32
  0
VERTEX
  5
104FF
  8
0
 62
     5
 10
181.423
 20
142.19
 30
0.0
 70
    32
  0
VERTEX
  5
10500
  8
0
 62
     5
 10
181.743
 20
142.191
 30
0.0
 70
    32
  0
VERTEX
  5
10501
  8
0
 62
     5
 10
182.062
 20
142.192
 30
0.0
 70
    32
  0
VERTEX
  5
10502
  8
0
 62
     5
 10
182.381
 20
142.193
 30
0.0
 70
    32
  0
VERTEX
  5
10503
  8
0
 62
     5
 10
182.701
 20
142.195
 30
0.0
 70
    32
  0
VERTEX
  5
10504
  8
0
 62
     5
 10
183.02
 20
142.196
 30
0.0
 70
    32
  0
VERTEX
  5
10505
  8
0
 62
     5
 10
183.339
 20
142.197
 30
0.0
 70
    32
  0
VERTEX
  5
10506
  8
0
 62
     5
 10
183.659
 20
142.199
 30
0.0
 70
    32
  0
VERTEX
  5
10507
  8
0
 62
     5
 10
183.978
 20
142.2
 30
0.0
 70
    32
  0
VERTEX
  5
10508
  8
0
 62
     5
 10
184.298
 20
142.201
 30
0.0
 70
    32
  0
VERTEX
  5
10509
  8
0
 62
     5
 10
184.617
 20
142.202
 30
0.0
 70
    32
  0
VERTEX
  5
1050A
  8
0
 62
     5
 10
184.936
 20
142.204
 30
0.0
 70
    32
  0
VERTEX
  5
1050B
  8
0
 62
     5
 10
185.256
 20
142.205
 30
0.0
 70
    32
  0
VERTEX
  5
1050C
  8
0
 62
     5
 10
185.575
 20
142.206
 30
0.0
 70
    32
  0
VERTEX
  5
1050D
  8
0
 62
     5
 10
185.894
 20
142.208
 30
0.0
 70
    32
  0
VERTEX
  5
1050E
  8
0
 62
     5
 10
186.214
 20
142.209
 30
0.0
 70
    32
  0
VERTEX
  5
1050F
  8
0
 62
     5
 10
186.533
 20
142.21
 30
0.0
 70
    32
  0
VERTEX
  5
10510
  8
0
 62
     5
 10
186.853
 20
142.212
 30
0.0
 70
    32
  0
VERTEX
  5
10511
  8
0
 62
     5
 10
187.172
 20
142.213
 30
0.0
 70
    32
  0
VERTEX
  5
10512
  8
0
 62
     5
 10
187.491
 20
142.214
 30
0.0
 70
    32
  0
VERTEX
  5
10513
  8
0
 62
     5
 10
187.811
 20
142.215
 30
0.0
 70
    32
  0
VERTEX
  5
10514
  8
0
 62
     5
 10
188.13
 20
142.217
 30
0.0
 70
    32
  0
VERTEX
  5
10515
  8
0
 62
     5
 10
188.449
 20
142.218
 30
0.0
 70
    32
  0
VERTEX
  5
10516
  8
0
 62
     5
 10
188.769
 20
142.219
 30
0.0
 70
    32
  0
VERTEX
  5
10517
  8
0
 62
     5
 10
189.088
 20
142.221
 30
0.0
 70
    32
  0
VERTEX
  5
10518
  8
0
 62
     5
 10
189.408
 20
142.222
 30
0.0
 70
    32
  0
VERTEX
  5
10519
  8
0
 62
     5
 10
189.727
 20
142.223
 30
0.0
 70
    32
  0
VERTEX
  5
1051A
  8
0
 62
     5
 10
190.046
 20
142.224
 30
0.0
 70
    32
  0
VERTEX
  5
1051B
  8
0
 62
     5
 10
190.366
 20
142.226
 30
0.0
 70
    32
  0
VERTEX
  5
1051C
  8
0
 62
     5
 10
190.685
 20
142.227
 30
0.0
 70
    32
  0
VERTEX
  5
1051D
  8
0
 62
     5
 10
191.004
 20
142.228
 30
0.0
 70
    32
  0
VERTEX
  5
1051E
  8
0
 62
     5
 10
191.324
 20
142.23
 30
0.0
 70
    32
  0
VERTEX
  5
1051F
  8
0
 62
     5
 10
191.643
 20
142.231
 30
0.0
 70
    32
  0
VERTEX
  5
10520
  8
0
 62
     5
 10
191.963
 20
142.232
 30
0.0
 70
    32
  0
VERTEX
  5
10521
  8
0
 62
     5
 10
192.282
 20
142.233
 30
0.0
 70
    32
  0
VERTEX
  5
10522
  8
0
 62
     5
 10
192.601
 20
142.235
 30
0.0
 70
    32
  0
VERTEX
  5
10523
  8
0
 62
     5
 10
192.921
 20
142.236
 30
0.0
 70
    32
  0
VERTEX
  5
10524
  8
0
 62
     5
 10
193.24
 20
142.237
 30
0.0
 70
    32
  0
VERTEX
  5
10525
  8
0
 62
     5
 10
193.559
 20
142.239
 30
0.0
 70
    32
  0
VERTEX
  5
10526
  8
0
 62
     5
 10
193.879
 20
142.24
 30
0.0
 70
    32
  0
VERTEX
  5
10527
  8
0
 62
     5
 10
194.198
 20
142.241
 30
0.0
 70
    32
  0
VERTEX
  5
10528
  8
0
 62
     5
 10
194.518
 20
142.242
 30
0.0
 70
    32
  0
VERTEX
  5
10529
  8
0
 62
     5
 10
194.837
 20
142.244
 30
0.0
 70
    32
  0
VERTEX
  5
1052A
  8
0
 62
     5
 10
195.156
 20
142.245
 30
0.0
 70
    32
  0
VERTEX
  5
1052B
  8
0
 62
     5
 10
195.476
 20
142.246
 30
0.0
 70
    32
  0
VERTEX
  5
1052C
  8
0
 62
     5
 10
195.795
 20
142.248
 30
0.0
 70
    32
  0
VERTEX
  5
1052D
  8
0
 62
     5
 10
196.114
 20
142.249
 30
0.0
 70
    32
  0
VERTEX
  5
1052E
  8
0
 62
     5
 10
196.434
 20
142.25
 30
0.0
 70
    32
  0
VERTEX
  5
1052F
  8
0
 62
     5
 10
196.753
 20
142.252
 30
0.0
 70
    32
  0
VERTEX
  5
10530
  8
0
 62
     5
 10
197.072
 20
142.253
 30
0.0
 70
    32
  0
VERTEX
  5
10531
  8
0
 62
     5
 10
197.392
 20
142.254
 30
0.0
 70
    32
  0
VERTEX
  5
10532
  8
0
 62
     5
 10
197.711
 20
142.255
 30
0.0
 70
    32
  0
VERTEX
  5
10533
  8
0
 62
     5
 10
198.031
 20
142.257
 30
0.0
 70
    32
  0
VERTEX
  5
10534
  8
0
 62
     5
 10
198.35
 20
142.258
 30
0.0
 70
    32
  0
VERTEX
  5
10535
  8
0
 62
     5
 10
198.669
 20
142.259
 30
0.0
 70
    32
  0
VERTEX
  5
10536
  8
0
 62
     5
 10
198.989
 20
142.261
 30
0.0
 70
    32
  0
VERTEX
  5
10537
  8
0
 62
     5
 10
199.308
 20
142.262
 30
0.0
 70
    32
  0
VERTEX
  5
10538
  8
0
 62
     5
 10
199.627
 20
142.263
 30
0.0
 70
    32
  0
VERTEX
  5
10539
  8
0
 62
     5
 10
199.947
 20
142.264
 30
0.0
 70
    32
  0
VERTEX
  5
1053A
  8
0
 62
     5
 10
200.266
 20
142.266
 30
0.0
 70
    32
  0
VERTEX
  5
1053B
  8
0
 62
     5
 10
200.586
 20
142.267
 30
0.0
 70
    32
  0
VERTEX
  5
1053C
  8
0
 62
     5
 10
200.905
 20
142.268
 30
0.0
 70
    32
  0
VERTEX
  5
1053D
  8
0
 62
     5
 10
201.224
 20
142.27
 30
0.0
 70
    32
  0
VERTEX
  5
1053E
  8
0
 62
     5
 10
201.544
 20
142.271
 30
0.0
 70
    32
  0
VERTEX
  5
1053F
  8
0
 62
     5
 10
201.863
 20
142.272
 30
0.0
 70
    32
  0
VERTEX
  5
10540
  8
0
 62
     5
 10
202.182
 20
142.273
 30
0.0
 70
    32
  0
VERTEX
  5
10541
  8
0
 62
     5
 10
202.502
 20
142.275
 30
0.0
 70
    32
  0
VERTEX
  5
10542
  8
0
 62
     5
 10
202.821
 20
142.276
 30
0.0
 70
    32
  0
VERTEX
  5
10543
  8
0
 62
     5
 10
203.141
 20
142.277
 30
0.0
 70
    32
  0
VERTEX
  5
10544
  8
0
 62
     5
 10
203.46
 20
142.279
 30
0.0
 70
    32
  0
VERTEX
  5
10545
  8
0
 62
     5
 10
203.779
 20
142.28
 30
0.0
 70
    32
  0
VERTEX
  5
10546
  8
0
 62
     5
 10
204.099
 20
142.281
 30
0.0
 70
    32
  0
VERTEX
  5
10547
  8
0
 62
     5
 10
204.418
 20
142.282
 30
0.0
 70
    32
  0
VERTEX
  5
10548
  8
0
 62
     5
 10
204.737
 20
142.284
 30
0.0
 70
    32
  0
VERTEX
  5
10549
  8
0
 62
     5
 10
205.057
 20
142.285
 30
0.0
 70
    32
  0
VERTEX
  5
1054A
  8
0
 62
     5
 10
205.376
 20
142.286
 30
0.0
 70
    32
  0
VERTEX
  5
1054B
  8
0
 62
     5
 10
205.696
 20
142.288
 30
0.0
 70
    32
  0
VERTEX
  5
1054C
  8
0
 62
     5
 10
206.015
 20
142.289
 30
0.0
 70
    32
  0
VERTEX
  5
1054D
  8
0
 62
     5
 10
206.334
 20
142.29
 30
0.0
 70
    32
  0
VERTEX
  5
1054E
  8
0
 62
     5
 10
206.654
 20
142.291
 30
0.0
 70
    32
  0
VERTEX
  5
1054F
  8
0
 62
     5
 10
206.973
 20
142.293
 30
0.0
 70
    32
  0
VERTEX
  5
10550
  8
0
 62
     5
 10
207.292
 20
142.294
 30
0.0
 70
    32
  0
VERTEX
  5
10551
  8
0
 62
     5
 10
207.612
 20
142.295
 30
0.0
 70
    32
  0
VERTEX
  5
10552
  8
0
 62
     5
 10
207.931
 20
142.297
 30
0.0
 70
    32
  0
VERTEX
  5
10553
  8
0
 62
     5
 10
208.25
 20
142.298
 30
0.0
 70
    32
  0
VERTEX
  5
10554
  8
0
 62
     5
 10
208.57
 20
142.299
 30
0.0
 70
    32
  0
VERTEX
  5
10555
  8
0
 62
     5
 10
208.889
 20
142.301
 30
0.0
 70
    32
  0
VERTEX
  5
10556
  8
0
 62
     5
 10
209.209
 20
142.302
 30
0.0
 70
    32
  0
VERTEX
  5
10557
  8
0
 62
     5
 10
209.528
 20
142.303
 30
0.0
 70
    32
  0
VERTEX
  5
10558
  8
0
 62
     5
 10
209.847
 20
142.304
 30
0.0
 70
    32
  0
VERTEX
  5
10559
  8
0
 62
     5
 10
210.167
 20
142.306
 30
0.0
 70
    32
  0
VERTEX
  5
1055A
  8
0
 62
     5
 10
210.486
 20
142.307
 30
0.0
 70
    32
  0
VERTEX
  5
1055B
  8
0
 62
     5
 10
210.805
 20
142.308
 30
0.0
 70
    32
  0
VERTEX
  5
1055C
  8
0
 62
     5
 10
211.125
 20
142.31
 30
0.0
 70
    32
  0
VERTEX
  5
1055D
  8
0
 62
     5
 10
211.444
 20
142.311
 30
0.0
 70
    32
  0
VERTEX
  5
1055E
  8
0
 62
     5
 10
211.764
 20
142.312
 30
0.0
 70
    32
  0
VERTEX
  5
1055F
  8
0
 62
     5
 10
212.083
 20
142.313
 30
0.0
 70
    32
  0
VERTEX
  5
10560
  8
0
 62
     5
 10
212.402
 20
142.315
 30
0.0
 70
    32
  0
VERTEX
  5
10561
  8
0
 62
     5
 10
212.722
 20
142.316
 30
0.0
 70
    32
  0
VERTEX
  5
10562
  8
0
 62
     5
 10
213.041
 20
142.317
 30
0.0
 70
    32
  0
VERTEX
  5
10563
  8
0
 62
     5
 10
213.36
 20
142.319
 30
0.0
 70
    32
  0
VERTEX
  5
10564
  8
0
 62
     5
 10
213.68
 20
142.32
 30
0.0
 70
    32
  0
VERTEX
  5
10565
  8
0
 62
     5
 10
213.999
 20
142.321
 30
0.0
 70
    32
  0
VERTEX
  5
10566
  8
0
 62
     5
 10
214.319
 20
142.322
 30
0.0
 70
    32
  0
VERTEX
  5
10567
  8
0
 62
     5
 10
214.638
 20
142.324
 30
0.0
 70
    32
  0
VERTEX
  5
10568
  8
0
 62
     5
 10
214.957
 20
142.325
 30
0.0
 70
    32
  0
VERTEX
  5
10569
  8
0
 62
     5
 10
215.277
 20
142.326
 30
0.0
 70
    32
  0
VERTEX
  5
1056A
  8
0
 62
     5
 10
215.596
 20
142.328
 30
0.0
 70
    32
  0
VERTEX
  5
1056B
  8
0
 62
     5
 10
215.915
 20
142.329
 30
0.0
 70
    32
  0
VERTEX
  5
1056C
  8
0
 62
     5
 10
216.235
 20
142.33
 30
0.0
 70
    32
  0
VERTEX
  5
1056D
  8
0
 62
     5
 10
216.554
 20
142.331
 30
0.0
 70
    32
  0
VERTEX
  5
1056E
  8
0
 62
     5
 10
216.874
 20
142.333
 30
0.0
 70
    32
  0
VERTEX
  5
1056F
  8
0
 62
     5
 10
217.193
 20
142.334
 30
0.0
 70
    32
  0
VERTEX
  5
10570
  8
0
 62
     5
 10
217.512
 20
142.335
 30
0.0
 70
    32
  0
VERTEX
  5
10571
  8
0
 62
     5
 10
217.832
 20
142.337
 30
0.0
 70
    32
  0
VERTEX
  5
10572
  8
0
 62
     5
 10
218.151
 20
142.338
 30
0.0
 70
    32
  0
VERTEX
  5
10573
  8
0
 62
     5
 10
218.47
 20
142.339
 30
0.0
 70
    32
  0
VERTEX
  5
10574
  8
0
 62
     5
 10
218.79
 20
142.341
 30
0.0
 70
    32
  0
VERTEX
  5
10575
  8
0
 62
     5
 10
219.109
 20
142.342
 30
0.0
 70
    32
  0
VERTEX
  5
10576
  8
0
 62
     5
 10
219.428
 20
142.343
 30
0.0
 70
    32
  0
VERTEX
  5
10577
  8
0
 62
     5
 10
219.748
 20
142.344
 30
0.0
 70
    32
  0
VERTEX
  5
10578
  8
0
 62
     5
 10
220.067
 20
142.346
 30
0.0
 70
    32
  0
VERTEX
  5
10579
  8
0
 62
     5
 10
220.387
 20
142.347
 30
0.0
 70
    32
  0
VERTEX
  5
1057A
  8
0
 62
     5
 10
220.706
 20
142.348
 30
0.0
 70
    32
  0
VERTEX
  5
1057B
  8
0
 62
     5
 10
221.025
 20
142.35
 30
0.0
 70
    32
  0
VERTEX
  5
1057C
  8
0
 62
     5
 10
221.345
 20
142.351
 30
0.0
 70
    32
  0
VERTEX
  5
1057D
  8
0
 62
     5
 10
221.664
 20
142.352
 30
0.0
 70
    32
  0
VERTEX
  5
1057E
  8
0
 62
     5
 10
221.983
 20
142.353
 30
0.0
 70
    32
  0
VERTEX
  5
1057F
  8
0
 62
     5
 10
222.303
 20
142.355
 30
0.0
 70
    32
  0
VERTEX
  5
10580
  8
0
 62
     5
 10
222.622
 20
142.356
 30
0.0
 70
    32
  0
VERTEX
  5
10581
  8
0
 62
     5
 10
222.942
 20
142.357
 30
0.0
 70
    32
  0
VERTEX
  5
10582
  8
0
 62
     5
 10
223.261
 20
142.359
 30
0.0
 70
    32
  0
VERTEX
  5
10583
  8
0
 62
     5
 10
223.58
 20
142.36
 30
0.0
 70
    32
  0
VERTEX
  5
10584
  8
0
 62
     5
 10
223.9
 20
142.361
 30
0.0
 70
    32
  0
VERTEX
  5
10585
  8
0
 62
     5
 10
224.219
 20
142.362
 30
0.0
 70
    32
  0
VERTEX
  5
10586
  8
0
 62
     5
 10
224.538
 20
142.364
 30
0.0
 70
    32
  0
VERTEX
  5
10587
  8
0
 62
     5
 10
224.858
 20
142.365
 30
0.0
 70
    32
  0
VERTEX
  5
10588
  8
0
 62
     5
 10
225.177
 20
142.366
 30
0.0
 70
    32
  0
VERTEX
  5
10589
  8
0
 62
     5
 10
225.497
 20
142.368
 30
0.0
 70
    32
  0
VERTEX
  5
1058A
  8
0
 62
     5
 10
225.816
 20
142.369
 30
0.0
 70
    32
  0
VERTEX
  5
1058B
  8
0
 62
     5
 10
226.135
 20
142.37
 30
0.0
 70
    32
  0
VERTEX
  5
1058C
  8
0
 62
     5
 10
226.455
 20
142.371
 30
0.0
 70
    32
  0
VERTEX
  5
1058D
  8
0
 62
     5
 10
226.774
 20
142.373
 30
0.0
 70
    32
  0
VERTEX
  5
1058E
  8
0
 62
     5
 10
227.093
 20
142.374
 30
0.0
 70
    32
  0
VERTEX
  5
1058F
  8
0
 62
     5
 10
227.413
 20
142.375
 30
0.0
 70
    32
  0
VERTEX
  5
10590
  8
0
 62
     5
 10
227.732
 20
142.377
 30
0.0
 70
    32
  0
VERTEX
  5
10591
  8
0
 62
     5
 10
228.052
 20
142.378
 30
0.0
 70
    32
  0
VERTEX
  5
10592
  8
0
 62
     5
 10
228.371
 20
142.379
 30
0.0
 70
    32
  0
VERTEX
  5
10593
  8
0
 62
     5
 10
228.69
 20
142.381
 30
0.0
 70
    32
  0
VERTEX
  5
10594
  8
0
 62
     5
 10
229.01
 20
142.382
 30
0.0
 70
    32
  0
VERTEX
  5
10595
  8
0
 62
     5
 10
229.329
 20
142.383
 30
0.0
 70
    32
  0
VERTEX
  5
10596
  8
0
 62
     5
 10
229.648
 20
142.384
 30
0.0
 70
    32
  0
VERTEX
  5
10597
  8
0
 62
     5
 10
229.968
 20
142.386
 30
0.0
 70
    32
  0
VERTEX
  5
10598
  8
0
 62
     5
 10
230.287
 20
142.387
 30
0.0
 70
    32
  0
VERTEX
  5
10599
  8
0
 62
     5
 10
230.607
 20
142.388
 30
0.0
 70
    32
  0
VERTEX
  5
1059A
  8
0
 62
     5
 10
230.926
 20
142.39
 30
0.0
 70
    32
  0
VERTEX
  5
1059B
  8
0
 62
     5
 10
231.245
 20
142.391
 30
0.0
 70
    32
  0
SEQEND
  5
1059C
  8
0
 62
     5
  0
POLYLINE
  5
1059D
  8
0
 62
     5
 66
     1
 10
0.0
 20
0.0
 30
0.0
 70
     8
  0
VERTEX
  5
1059E
  8
0
 62
     5
 10
231.245
 20
181.654
 30
0.0
 70
    32
  0
VERTEX
  5
1059F
  8
0
 62
     5
 10
230.926
 20
181.655
 30
0.0
 70
    32
  0
VERTEX
  5
105A0
  8
0
 62
     5
 10
230.607
 20
181.656
 30
0.0
 70
    32
  0
VERTEX
  5
105A1
  8
0
 62
     5
 10
230.287
 20
181.657
 30
0.0
 70
    32
  0
VERTEX
  5
105A2
  8
0
 62
     5
 10
229.968
 20
181.659
 30
0.0
 70
    32
  0
VERTEX
  5
105A3
  8
0
 62
     5
 10
229.648
 20
181.66
 30
0.0
 70
    32
  0
VERTEX
  5
105A4
  8
0
 62
     5
 10
229.329
 20
181.661
 30
0.0
 70
    32
  0
VERTEX
  5
105A5
  8
0
 62
     5
 10
229.01
 20
181.663
 30
0.0
 70
    32
  0
VERTEX
  5
105A6
  8
0
 62
     5
 10
228.69
 20
181.664
 30
0.0
 70
    32
  0
VERTEX
  5
105A7
  8
0
 62
     5
 10
228.371
 20
181.665
 30
0.0
 70
    32
  0
VERTEX
  5
105A8
  8
0
 62
     5
 10
228.052
 20
181.666
 30
0.0
 70
    32
  0
VERTEX
  5
105A9
  8
0
 62
     5
 10
227.732
 20
181.668
 30
0.0
 70
    32
  0
VERTEX
  5
105AA
  8
0
 62
     5
 10
227.413
 20
181.669
 30
0.0
 70
    32
  0
VERTEX
  5
105AB
  8
0
 62
     5
 10
227.093
 20
181.67
 30
0.0
 70
    32
  0
VERTEX
  5
105AC
  8
0
 62
     5
 10
226.774
 20
181.672
 30
0.0
 70
    32
  0
VERTEX
  5
105AD
  8
0
 62
     5
 10
226.455
 20
181.673
 30
0.0
 70
    32
  0
VERTEX
  5
105AE
  8
0
 62
     5
 10
226.135
 20
181.674
 30
0.0
 70
    32
  0
VERTEX
  5
105AF
  8
0
 62
     5
 10
225.816
 20
181.676
 30
0.0
 70
    32
  0
VERTEX
  5
105B0
  8
0
 62
     5
 10
225.497
 20
181.677
 30
0.0
 70
    32
  0
VERTEX
  5
105B1
  8
0
 62
     5
 10
225.177
 20
181.678
 30
0.0
 70
    32
  0
VERTEX
  5
105B2
  8
0
 62
     5
 10
224.858
 20
181.679
 30
0.0
 70
    32
  0
VERTEX
  5
105B3
  8
0
 62
     5
 10
224.538
 20
181.681
 30
0.0
 70
    32
  0
VERTEX
  5
105B4
  8
0
 62
     5
 10
224.219
 20
181.682
 30
0.0
 70
    32
  0
VERTEX
  5
105B5
  8
0
 62
     5
 10
223.9
 20
181.683
 30
0.0
 70
    32
  0
VERTEX
  5
105B6
  8
0
 62
     5
 10
223.58
 20
181.685
 30
0.0
 70
    32
  0
VERTEX
  5
105B7
  8
0
 62
     5
 10
223.261
 20
181.686
 30
0.0
 70
    32
  0
VERTEX
  5
105B8
  8
0
 62
     5
 10
222.942
 20
181.687
 30
0.0
 70
    32
  0
VERTEX
  5
105B9
  8
0
 62
     5
 10
222.622
 20
181.688
 30
0.0
 70
    32
  0
VERTEX
  5
105BA
  8
0
 62
     5
 10
222.303
 20
181.69
 30
0.0
 70
    32
  0
VERTEX
  5
105BB
  8
0
 62
     5
 10
221.983
 20
181.691
 30
0.0
 70
    32
  0
VERTEX
  5
105BC
  8
0
 62
     5
 10
221.664
 20
181.692
 30
0.0
 70
    32
  0
VERTEX
  5
105BD
  8
0
 62
     5
 10
221.345
 20
181.694
 30
0.0
 70
    32
  0
VERTEX
  5
105BE
  8
0
 62
     5
 10
221.025
 20
181.695
 30
0.0
 70
    32
  0
VERTEX
  5
105BF
  8
0
 62
     5
 10
220.706
 20
181.696
 30
0.0
 70
    32
  0
VERTEX
  5
105C0
  8
0
 62
     5
 10
220.387
 20
181.697
 30
0.0
 70
    32
  0
VERTEX
  5
105C1
  8
0
 62
     5
 10
220.067
 20
181.699
 30
0.0
 70
    32
  0
VERTEX
  5
105C2
  8
0
 62
     5
 10
219.748
 20
181.7
 30
0.0
 70
    32
  0
VERTEX
  5
105C3
  8
0
 62
     5
 10
219.428
 20
181.701
 30
0.0
 70
    32
  0
VERTEX
  5
105C4
  8
0
 62
     5
 10
219.109
 20
181.703
 30
0.0
 70
    32
  0
VERTEX
  5
105C5
  8
0
 62
     5
 10
218.79
 20
181.704
 30
0.0
 70
    32
  0
VERTEX
  5
105C6
  8
0
 62
     5
 10
218.47
 20
181.705
 30
0.0
 70
    32
  0
VERTEX
  5
105C7
  8
0
 62
     5
 10
218.151
 20
181.706
 30
0.0
 70
    32
  0
VERTEX
  5
105C8
  8
0
 62
     5
 10
217.832
 20
181.708
 30
0.0
 70
    32
  0
VERTEX
  5
105C9
  8
0
 62
     5
 10
217.512
 20
181.709
 30
0.0
 70
    32
  0
VERTEX
  5
105CA
  8
0
 62
     5
 10
217.193
 20
181.71
 30
0.0
 70
    32
  0
VERTEX
  5
105CB
  8
0
 62
     5
 10
216.874
 20
181.712
 30
0.0
 70
    32
  0
VERTEX
  5
105CC
  8
0
 62
     5
 10
216.554
 20
181.713
 30
0.0
 70
    32
  0
VERTEX
  5
105CD
  8
0
 62
     5
 10
216.235
 20
181.714
 30
0.0
 70
    32
  0
VERTEX
  5
105CE
  8
0
 62
     5
 10
215.915
 20
181.716
 30
0.0
 70
    32
  0
VERTEX
  5
105CF
  8
0
 62
     5
 10
215.596
 20
181.717
 30
0.0
 70
    32
  0
VERTEX
  5
105D0
  8
0
 62
     5
 10
215.277
 20
181.718
 30
0.0
 70
    32
  0
VERTEX
  5
105D1
  8
0
 62
     5
 10
214.957
 20
181.719
 30
0.0
 70
    32
  0
VERTEX
  5
105D2
  8
0
 62
     5
 10
214.638
 20
181.721
 30
0.0
 70
    32
  0
VERTEX
  5
105D3
  8
0
 62
     5
 10
214.319
 20
181.722
 30
0.0
 70
    32
  0
VERTEX
  5
105D4
  8
0
 62
     5
 10
213.999
 20
181.723
 30
0.0
 70
    32
  0
VERTEX
  5
105D5
  8
0
 62
     5
 10
213.68
 20
181.725
 30
0.0
 70
    32
  0
VERTEX
  5
105D6
  8
0
 62
     5
 10
213.36
 20
181.726
 30
0.0
 70
    32
  0
VERTEX
  5
105D7
  8
0
 62
     5
 10
213.041
 20
181.727
 30
0.0
 70
    32
  0
VERTEX
  5
105D8
  8
0
 62
     5
 10
212.722
 20
181.728
 30
0.0
 70
    32
  0
VERTEX
  5
105D9
  8
0
 62
     5
 10
212.402
 20
181.73
 30
0.0
 70
    32
  0
VERTEX
  5
105DA
  8
0
 62
     5
 10
212.083
 20
181.731
 30
0.0
 70
    32
  0
VERTEX
  5
105DB
  8
0
 62
     5
 10
211.764
 20
181.732
 30
0.0
 70
    32
  0
VERTEX
  5
105DC
  8
0
 62
     5
 10
211.444
 20
181.734
 30
0.0
 70
    32
  0
VERTEX
  5
105DD
  8
0
 62
     5
 10
211.125
 20
181.735
 30
0.0
 70
    32
  0
VERTEX
  5
105DE
  8
0
 62
     5
 10
210.805
 20
181.736
 30
0.0
 70
    32
  0
VERTEX
  5
105DF
  8
0
 62
     5
 10
210.486
 20
181.737
 30
0.0
 70
    32
  0
VERTEX
  5
105E0
  8
0
 62
     5
 10
210.167
 20
181.739
 30
0.0
 70
    32
  0
VERTEX
  5
105E1
  8
0
 62
     5
 10
209.847
 20
181.74
 30
0.0
 70
    32
  0
VERTEX
  5
105E2
  8
0
 62
     5
 10
209.528
 20
181.741
 30
0.0
 70
    32
  0
VERTEX
  5
105E3
  8
0
 62
     5
 10
209.209
 20
181.743
 30
0.0
 70
    32
  0
VERTEX
  5
105E4
  8
0
 62
     5
 10
208.889
 20
181.744
 30
0.0
 70
    32
  0
VERTEX
  5
105E5
  8
0
 62
     5
 10
208.57
 20
181.745
 30
0.0
 70
    32
  0
VERTEX
  5
105E6
  8
0
 62
     5
 10
208.25
 20
181.746
 30
0.0
 70
    32
  0
VERTEX
  5
105E7
  8
0
 62
     5
 10
207.931
 20
181.748
 30
0.0
 70
    32
  0
VERTEX
  5
105E8
  8
0
 62
     5
 10
207.612
 20
181.749
 30
0.0
 70
    32
  0
VERTEX
  5
105E9
  8
0
 62
     5
 10
207.292
 20
181.75
 30
0.0
 70
    32
  0
VERTEX
  5
105EA
  8
0
 62
     5
 10
206.973
 20
181.752
 30
0.0
 70
    32
  0
VERTEX
  5
105EB
  8
0
 62
     5
 10
206.654
 20
181.753
 30
0.0
 70
    32
  0
VERTEX
  5
105EC
  8
0
 62
     5
 10
206.334
 20
181.754
 30
0.0
 70
    32
  0
VERTEX
  5
105ED
  8
0
 62
     5
 10
206.015
 20
181.756
 30
0.0
 70
    32
  0
VERTEX
  5
105EE
  8
0
 62
     5
 10
205.696
 20
181.757
 30
0.0
 70
    32
  0
VERTEX
  5
105EF
  8
0
 62
     5
 10
205.376
 20
181.758
 30
0.0
 70
    32
  0
VERTEX
  5
105F0
  8
0
 62
     5
 10
205.057
 20
181.759
 30
0.0
 70
    32
  0
VERTEX
  5
105F1
  8
0
 62
     5
 10
204.737
 20
181.761
 30
0.0
 70
    32
  0
VERTEX
  5
105F2
  8
0
 62
     5
 10
204.418
 20
181.762
 30
0.0
 70
    32
  0
VERTEX
  5
105F3
  8
0
 62
     5
 10
204.099
 20
181.763
 30
0.0
 70
    32
  0
VERTEX
  5
105F4
  8
0
 62
     5
 10
203.779
 20
181.765
 30
0.0
 70
    32
  0
VERTEX
  5
105F5
  8
0
 62
     5
 10
203.46
 20
181.766
 30
0.0
 70
    32
  0
VERTEX
  5
105F6
  8
0
 62
     5
 10
203.141
 20
181.767
 30
0.0
 70
    32
  0
VERTEX
  5
105F7
  8
0
 62
     5
 10
202.821
 20
181.768
 30
0.0
 70
    32
  0
VERTEX
  5
105F8
  8
0
 62
     5
 10
202.502
 20
181.77
 30
0.0
 70
    32
  0
VERTEX
  5
105F9
  8
0
 62
     5
 10
202.182
 20
181.771
 30
0.0
 70
    32
  0
VERTEX
  5
105FA
  8
0
 62
     5
 10
201.863
 20
181.772
 30
0.0
 70
    32
  0
VERTEX
  5
105FB
  8
0
 62
     5
 10
201.544
 20
181.774
 30
0.0
 70
    32
  0
VERTEX
  5
105FC
  8
0
 62
     5
 10
201.224
 20
181.775
 30
0.0
 70
    32
  0
VERTEX
  5
105FD
  8
0
 62
     5
 10
200.905
 20
181.776
 30
0.0
 70
    32
  0
VERTEX
  5
105FE
  8
0
 62
     5
 10
200.586
 20
181.777
 30
0.0
 70
    32
  0
VERTEX
  5
105FF
  8
0
 62
     5
 10
200.266
 20
181.779
 30
0.0
 70
    32
  0
VERTEX
  5
10600
  8
0
 62
     5
 10
199.947
 20
181.78
 30
0.0
 70
    32
  0
VERTEX
  5
10601
  8
0
 62
     5
 10
199.627
 20
181.781
 30
0.0
 70
    32
  0
VERTEX
  5
10602
  8
0
 62
     5
 10
199.308
 20
181.783
 30
0.0
 70
    32
  0
VERTEX
  5
10603
  8
0
 62
     5
 10
198.989
 20
181.784
 30
0.0
 70
    32
  0
VERTEX
  5
10604
  8
0
 62
     5
 10
198.669
 20
181.785
 30
0.0
 70
    32
  0
VERTEX
  5
10605
  8
0
 62
     5
 10
198.35
 20
181.786
 30
0.0
 70
    32
  0
VERTEX
  5
10606
  8
0
 62
     5
 10
198.031
 20
181.788
 30
0.0
 70
    32
  0
VERTEX
  5
10607
  8
0
 62
     5
 10
197.711
 20
181.789
 30
0.0
 70
    32
  0
VERTEX
  5
10608
  8
0
 62
     5
 10
197.392
 20
181.79
 30
0.0
 70
    32
  0
VERTEX
  5
10609
  8
0
 62
     5
 10
197.072
 20
181.792
 30
0.0
 70
    32
  0
VERTEX
  5
1060A
  8
0
 62
     5
 10
196.753
 20
181.793
 30
0.0
 70
    32
  0
VERTEX
  5
1060B
  8
0
 62
     5
 10
196.434
 20
181.794
 30
0.0
 70
    32
  0
VERTEX
  5
1060C
  8
0
 62
     5
 10
196.114
 20
181.796
 30
0.0
 70
    32
  0
VERTEX
  5
1060D
  8
0
 62
     5
 10
195.795
 20
181.797
 30
0.0
 70
    32
  0
VERTEX
  5
1060E
  8
0
 62
     5
 10
195.476
 20
181.798
 30
0.0
 70
    32
  0
VERTEX
  5
1060F
  8
0
 62
     5
 10
195.156
 20
181.799
 30
0.0
 70
    32
  0
VERTEX
  5
10610
  8
0
 62
     5
 10
194.837
 20
181.801
 30
0.0
 70
    32
  0
VERTEX
  5
10611
  8
0
 62
     5
 10
194.518
 20
181.802
 30
0.0
 70
    32
  0
VERTEX
  5
10612
  8
0
 62
     5
 10
194.198
 20
181.803
 30
0.0
 70
    32
  0
VERTEX
  5
10613
  8
0
 62
     5
 10
193.879
 20
181.805
 30
0.0
 70
    32
  0
VERTEX
  5
10614
  8
0
 62
     5
 10
193.559
 20
181.806
 30
0.0
 70
    32
  0
VERTEX
  5
10615
  8
0
 62
     5
 10
193.24
 20
181.807
 30
0.0
 70
    32
  0
VERTEX
  5
10616
  8
0
 62
     5
 10
192.921
 20
181.808
 30
0.0
 70
    32
  0
VERTEX
  5
10617
  8
0
 62
     5
 10
192.601
 20
181.81
 30
0.0
 70
    32
  0
VERTEX
  5
10618
  8
0
 62
     5
 10
192.282
 20
181.811
 30
0.0
 70
    32
  0
VERTEX
  5
10619
  8
0
 62
     5
 10
191.963
 20
181.812
 30
0.0
 70
    32
  0
VERTEX
  5
1061A
  8
0
 62
     5
 10
191.643
 20
181.814
 30
0.0
 70
    32
  0
VERTEX
  5
1061B
  8
0
 62
     5
 10
191.324
 20
181.815
 30
0.0
 70
    32
  0
VERTEX
  5
1061C
  8
0
 62
     5
 10
191.004
 20
181.816
 30
0.0
 70
    32
  0
VERTEX
  5
1061D
  8
0
 62
     5
 10
190.685
 20
181.817
 30
0.0
 70
    32
  0
VERTEX
  5
1061E
  8
0
 62
     5
 10
190.366
 20
181.819
 30
0.0
 70
    32
  0
VERTEX
  5
1061F
  8
0
 62
     5
 10
190.046
 20
181.82
 30
0.0
 70
    32
  0
VERTEX
  5
10620
  8
0
 62
     5
 10
189.727
 20
181.821
 30
0.0
 70
    32
  0
VERTEX
  5
10621
  8
0
 62
     5
 10
189.408
 20
181.823
 30
0.0
 70
    32
  0
VERTEX
  5
10622
  8
0
 62
     5
 10
189.088
 20
181.824
 30
0.0
 70
    32
  0
VERTEX
  5
10623
  8
0
 62
     5
 10
188.769
 20
181.825
 30
0.0
 70
    32
  0
VERTEX
  5
10624
  8
0
 62
     5
 10
188.449
 20
181.826
 30
0.0
 70
    32
  0
VERTEX
  5
10625
  8
0
 62
     5
 10
188.13
 20
181.828
 30
0.0
 70
    32
  0
VERTEX
  5
10626
  8
0
 62
     5
 10
187.811
 20
181.829
 30
0.0
 70
    32
  0
VERTEX
  5
10627
  8
0
 62
     5
 10
187.491
 20
181.83
 30
0.0
 70
    32
  0
VERTEX
  5
10628
  8
0
 62
     5
 10
187.172
 20
181.832
 30
0.0
 70
    32
  0
VERTEX
  5
10629
  8
0
 62
     5
 10
186.853
 20
181.833
 30
0.0
 70
    32
  0
VERTEX
  5
1062A
  8
0
 62
     5
 10
186.533
 20
181.834
 30
0.0
 70
    32
  0
VERTEX
  5
1062B
  8
0
 62
     5
 10
186.214
 20
181.835
 30
0.0
 70
    32
  0
VERTEX
  5
1062C
  8
0
 62
     5
 10
185.894
 20
181.837
 30
0.0
 70
    32
  0
VERTEX
  5
1062D
  8
0
 62
     5
 10
185.575
 20
181.838
 30
0.0
 70
    32
  0
VERTEX
  5
1062E
  8
0
 62
     5
 10
185.256
 20
181.839
 30
0.0
 70
    32
  0
VERTEX
  5
1062F
  8
0
 62
     5
 10
184.936
 20
181.841
 30
0.0
 70
    32
  0
VERTEX
  5
10630
  8
0
 62
     5
 10
184.617
 20
181.842
 30
0.0
 70
    32
  0
VERTEX
  5
10631
  8
0
 62
     5
 10
184.298
 20
181.843
 30
0.0
 70
    32
  0
VERTEX
  5
10632
  8
0
 62
     5
 10
183.978
 20
181.845
 30
0.0
 70
    32
  0
VERTEX
  5
10633
  8
0
 62
     5
 10
183.659
 20
181.846
 30
0.0
 70
    32
  0
VERTEX
  5
10634
  8
0
 62
     5
 10
183.339
 20
181.847
 30
0.0
 70
    32
  0
VERTEX
  5
10635
  8
0
 62
     5
 10
183.02
 20
181.848
 30
0.0
 70
    32
  0
VERTEX
  5
10636
  8
0
 62
     5
 10
182.701
 20
181.85
 30
0.0
 70
    32
  0
VERTEX
  5
10637
  8
0
 62
     5
 10
182.381
 20
181.851
 30
0.0
 70
    32
  0
VERTEX
  5
10638
  8
0
 62
     5
 10
182.062
 20
181.852
 30
0.0
 70
    32
  0
VERTEX
  5
10639
  8
0
 62
     5
 10
181.743
 20
181.854
 30
0.0
 70
    32
  0
VERTEX
  5
1063A
  8
0
 62
     5
 10
181.423
 20
181.855
 30
0.0
 70
    32
  0
VERTEX
  5
1063B
  8
0
 62
     5
 10
181.104
 20
181.856
 30
0.0
 70
    32
  0
VERTEX
  5
1063C
  8
0
 62
     5
 10
180.785
 20
181.857
 30
0.0
 70
    32
  0
VERTEX
  5
1063D
  8
0
 62
     5
 10
180.465
 20
181.859
 30
0.0
 70
    32
  0
VERTEX
  5
1063E
  8
0
 62
     5
 10
180.146
 20
181.86
 30
0.0
 70
    32
  0
VERTEX
  5
1063F
  8
0
 62
     5
 10
179.826
 20
181.861
 30
0.0
 70
    32
  0
VERTEX
  5
10640
  8
0
 62
     5
 10
179.507
 20
181.863
 30
0.0
 70
    32
  0
VERTEX
  5
10641
  8
0
 62
     5
 10
179.188
 20
181.864
 30
0.0
 70
    32
  0
VERTEX
  5
10642
  8
0
 62
     5
 10
178.868
 20
181.865
 30
0.0
 70
    32
  0
VERTEX
  5
10643
  8
0
 62
     5
 10
178.549
 20
181.866
 30
0.0
 70
    32
  0
VERTEX
  5
10644
  8
0
 62
     5
 10
178.23
 20
181.868
 30
0.0
 70
    32
  0
VERTEX
  5
10645
  8
0
 62
     5
 10
177.91
 20
181.869
 30
0.0
 70
    32
  0
VERTEX
  5
10646
  8
0
 62
     5
 10
177.591
 20
181.87
 30
0.0
 70
    32
  0
VERTEX
  5
10647
  8
0
 62
     5
 10
177.271
 20
181.872
 30
0.0
 70
    32
  0
VERTEX
  5
10648
  8
0
 62
     5
 10
176.952
 20
181.873
 30
0.0
 70
    32
  0
VERTEX
  5
10649
  8
0
 62
     5
 10
176.633
 20
181.874
 30
0.0
 70
    32
  0
VERTEX
  5
1064A
  8
0
 62
     5
 10
176.313
 20
181.875
 30
0.0
 70
    32
  0
VERTEX
  5
1064B
  8
0
 62
     5
 10
175.994
 20
181.877
 30
0.0
 70
    32
  0
VERTEX
  5
1064C
  8
0
 62
     5
 10
175.675
 20
181.878
 30
0.0
 70
    32
  0
VERTEX
  5
1064D
  8
0
 62
     5
 10
175.355
 20
181.879
 30
0.0
 70
    32
  0
VERTEX
  5
1064E
  8
0
 62
     5
 10
175.036
 20
181.881
 30
0.0
 70
    32
  0
VERTEX
  5
1064F
  8
0
 62
     5
 10
174.716
 20
181.882
 30
0.0
 70
    32
  0
VERTEX
  5
10650
  8
0
 62
     5
 10
174.397
 20
181.883
 30
0.0
 70
    32
  0
VERTEX
  5
10651
  8
0
 62
     5
 10
174.078
 20
181.885
 30
0.0
 70
    32
  0
VERTEX
  5
10652
  8
0
 62
     5
 10
173.758
 20
181.886
 30
0.0
 70
    32
  0
VERTEX
  5
10653
  8
0
 62
     5
 10
173.439
 20
181.887
 30
0.0
 70
    32
  0
VERTEX
  5
10654
  8
0
 62
     5
 10
173.12
 20
181.888
 30
0.0
 70
    32
  0
VERTEX
  5
10655
  8
0
 62
     5
 10
172.8
 20
181.89
 30
0.0
 70
    32
  0
VERTEX
  5
10656
  8
0
 62
     5
 10
172.481
 20
181.891
 30
0.0
 70
    32
  0
VERTEX
  5
10657
  8
0
 62
     5
 10
172.161
 20
181.892
 30
0.0
 70
    32
  0
VERTEX
  5
10658
  8
0
 62
     5
 10
171.842
 20
181.894
 30
0.0
 70
    32
  0
VERTEX
  5
10659
  8
0
 62
     5
 10
171.523
 20
181.895
 30
0.0
 70
    32
  0
VERTEX
  5
1065A
  8
0
 62
     5
 10
171.203
 20
181.896
 30
0.0
 70
    32
  0
VERTEX
  5
1065B
  8
0
 62
     5
 10
170.884
 20
181.897
 30
0.0
 70
    32
  0
VERTEX
  5
1065C
  8
0
 62
     5
 10
170.565
 20
181.899
 30
0.0
 70
    32
  0
VERTEX
  5
1065D
  8
0
 62
     5
 10
170.245
 20
181.9
 30
0.0
 70
    32
  0
SEQEND
  5
1065E
  8
0
 62
     5
  0
LINE
  5
1065F
  8
0
 62
     5
 10
161.245253
 20
175.02222
 30
0.0
 11
161.245253
 21
181.966199
 31
0.0
  0
ARC
  5
10660
  8
0
 62
     5
 10
160.045253
 20
179.134358
 30
0.0
 40
1.933824
 50
90.0
 51
149.419713
  0
LINE
  5
10661
  8
0
 62
     5
 10
160.045253
 20
175.389018
 30
0.0
 11
160.045253
 21
181.26638
 31
0.0
  0
LINE
  5
10662
  8
0
 62
     5
 10
160.745253
 20
181.315377
 30
0.0
 11
160.745253
 21
175.320987
 31
0.0
  0
LINE
  5
10663
  8
0
 62
     5
 10
165.745253
 20
191.82222
 30
0.0
 11
165.745253
 21
132.02222
 31
0.0
  0
LINE
  5
10664
  8
0
 62
     5
 10
170.245253
 20
131.756056
 30
0.0
 11
170.245253
 21
192.288384
 31
0.0
  0
ARC
  5
10665
  8
0
 62
     5
 10
97.088905
 20
180.656523
 30
0.0
 40
1.0
 50
0.0
 51
85.611601
  0
LINE
  5
10666
  8
0
 62
     5
 10
90.588905
 20
178.02222
 30
0.0
 11
90.588905
 21
181.966199
 31
0.0
  0
ARC
  5
10667
  8
0
 62
     5
 10
94.577613
 20
178.318182
 30
0.0
 40
2.95
 50
276.813854
 51
263.186146
  0
CIRCLE
  5
10668
  8
0
 62
     5
 10
94.577613
 20
178.318182
 30
0.0
 40
3.0
  0
LINE
  5
10669
  8
0
 62
     5
 10
141.745253
 20
130.22222
 30
0.0
 11
141.745253
 21
191.02222
 31
0.0
  0
LINE
  5
1066A
  8
0
 62
     5
 10
98.088905
 20
143.387917
 30
0.0
 11
98.088905
 21
180.656523
 31
0.0
  0
LINE
  5
1066B
  8
0
 62
     5
 10
98.355069
 20
180.902972
 30
0.0
 11
98.355069
 21
143.141468
 31
0.0
  0
ARC
  5
1066C
  8
CENTER
 10
68.088905
 20
162.02222
 30
0.0
 40
35.0
 50
306.254023
 51
324.381034
  0
LINE
  5
1066D
  8
0
 62
     5
 10
98.088905
 20
142.462851
 30
0.0
 11
98.088905
 21
136.52222
 31
0.0
  0
CIRCLE
  5
1066E
  8
0
 62
     5
 10
92.837642
 20
137.273483
 30
0.0
 40
2.9
  0
ARC
  5
1066F
  8
0
 62
     5
 10
93.588905
 20
136.52222
 30
0.0
 40
4.5
 50
270.0
 51
0.0
  0
LINE
  5
10670
  8
0
 62
     5
 10
91.088905
 20
142.380776
 30
0.0
 11
91.088905
 21
145.72222
 31
0.0
  0
LINE
  5
10671
  8
0
 62
     5
 10
92.528926
 20
142.063545
 30
0.0
 11
97.165422
 21
142.390849
 31
0.0
  0
ARC
  5
10672
  8
0
 62
     5
 10
68.088905
 20
521.27679
 30
0.0
 40
380.266164
 50
273.687572
 51
274.425643
  0
ARC
  5
10673
  8
0
 62
     5
 10
90.088905
 20
142.380776
 30
0.0
 40
1.0
 50
298.28907
 51
0.0
  0
ARC
  5
10674
  8
0
 62
     5
 10
97.088905
 20
143.387917
 30
0.0
 40
1.0
 50
274.388399
 51
0.0
  0
ARC
  5
10675
  8
0
 62
     5
 10
94.588905
 20
145.72222
 30
0.0
 40
3.5
 50
90.0
 51
180.0
  0
LINE
  5
10676
  8
0
 62
     5
 10
94.588905
 20
149.22222
 30
0.0
 11
97.088905
 21
149.22222
 31
0.0
  0
ARC
  5
10677
  8
0
 62
     5
 10
97.088905
 20
150.22222
 30
0.0
 40
1.0
 50
270.0
 51
0.0
  0
ARC
  5
10678
  8
0
 62
     5
 10
97.088905
 20
173.52222
 30
0.0
 40
1.0
 50
0.0
 51
90.0
  0
LINE
  5
10679
  8
0
 62
     5
 10
93.359524
 20
178.598182
 30
0.0
 11
93.954248
 21
178.941546
 31
0.0
  0
LINE
  5
1067A
  8
0
 62
     5
 10
92.799524
 20
178.598182
 30
0.0
 11
93.506725
 21
178.458182
 31
0.0
  0
LINE
  5
1067B
  8
0
 62
     5
 10
93.359524
 20
178.598182
 30
0.0
 11
93.562725
 21
178.458182
 31
0.0
  0
ARC
  5
1067C
  8
0
 62
     5
 10
94.577613
 20
178.318182
 30
0.0
 40
1.127721
 50
109.033269
 51
160.966731
  0
LINE
  5
1067D
  8
0
 62
     5
 10
93.359524
 20
178.038182
 30
0.0
 11
93.562725
 21
178.178182
 31
0.0
  0
LINE
  5
1067E
  8
0
 62
     5
 10
92.799524
 20
178.038182
 30
0.0
 11
93.506725
 21
178.178182
 31
0.0
  0
LINE
  5
1067F
  8
0
 62
     5
 10
93.954248
 20
177.694817
 30
0.0
 11
93.359524
 21
178.038182
 31
0.0
  0
ARC
  5
10680
  8
0
 62
     5
 10
94.577613
 20
178.318182
 30
0.0
 40
1.127721
 50
199.033269
 51
250.966731
  0
ARC
  5
10681
  8
0
 62
     5
 10
94.088905
 20
178.02222
 30
0.0
 40
3.5
 50
180.0
 51
270.0
  0
CIRCLE
  5
10682
  8
0
 62
     5
 10
94.577613
 20
178.318182
 30
0.0
 40
2.75
  0
LINE
  5
10683
  8
0
 62
     5
 10
92.799524
 20
178.598182
 30
0.0
 11
93.359524
 21
178.598182
 31
0.0
  0
LINE
  5
10684
  8
0
 62
     5
 10
93.359524
 20
178.038182
 30
0.0
 11
92.799524
 21
178.038182
 31
0.0
  0
ARC
  5
10685
  8
0
 62
     5
 10
94.577613
 20
178.318182
 30
0.0
 40
1.8
 50
171.050982
 51
188.949018
  0
LINE
  5
10686
  8
0
 62
     5
 10
95.795702
 20
178.598182
 30
0.0
 11
95.5925
 21
178.458182
 31
0.0
  0
LINE
  5
10687
  8
0
 62
     5
 10
96.355702
 20
178.598182
 30
0.0
 11
95.6485
 21
178.458182
 31
0.0
  0
LINE
  5
10688
  8
0
 62
     5
 10
95.6485
 20
178.458182
 30
0.0
 11
95.5925
 21
178.458182
 31
0.0
  0
LINE
  5
10689
  8
0
 62
     5
 10
95.795702
 20
178.598182
 30
0.0
 11
96.355702
 21
178.598182
 31
0.0
  0
LINE
  5
1068A
  8
0
 62
     5
 10
96.355702
 20
178.038182
 30
0.0
 11
95.795702
 21
178.038182
 31
0.0
  0
LINE
  5
1068B
  8
0
 62
     5
 10
95.5925
 20
178.178182
 30
0.0
 11
95.6485
 21
178.178182
 31
0.0
  0
LINE
  5
1068C
  8
0
 62
     5
 10
96.355702
 20
178.038182
 30
0.0
 11
95.6485
 21
178.178182
 31
0.0
  0
LINE
  5
1068D
  8
0
 62
     5
 10
95.795702
 20
178.038182
 30
0.0
 11
95.5925
 21
178.178182
 31
0.0
  0
ARC
  5
1068E
  8
0
 62
     5
 10
94.577613
 20
178.318182
 30
0.0
 40
1.08
 50
352.551809
 51
7.448191
  0
ARC
  5
1068F
  8
0
 62
     5
 10
94.577613
 20
178.318182
 30
0.0
 40
1.8
 50
351.050982
 51
8.949018
  0
LINE
  5
10690
  8
0
 62
     5
 10
94.117382
 20
178.778413
 30
0.0
 11
93.562725
 21
178.458182
 31
0.0
  0
LINE
  5
10691
  8
0
 62
     5
 10
94.857613
 20
179.536271
 30
0.0
 11
94.717613
 21
179.333069
 31
0.0
  0
LINE
  5
10692
  8
0
 62
     5
 10
93.954248
 20
178.941546
 30
0.0
 11
94.297613
 21
179.536271
 31
0.0
  0
LINE
  5
10693
  8
0
 62
     5
 10
94.437613
 20
179.333069
 30
0.0
 11
94.117382
 21
178.778413
 31
0.0
  0
LINE
  5
10694
  8
0
 62
     5
 10
93.562725
 20
178.458182
 30
0.0
 11
93.506725
 21
178.458182
 31
0.0
  0
LINE
  5
10695
  8
0
 62
     5
 10
94.857613
 20
180.096271
 30
0.0
 11
94.717613
 21
179.389069
 31
0.0
  0
LINE
  5
10696
  8
0
 62
     5
 10
94.297613
 20
179.536271
 30
0.0
 11
94.297613
 21
180.096271
 31
0.0
  0
LINE
  5
10697
  8
0
 62
     5
 10
94.437613
 20
179.389069
 30
0.0
 11
94.437613
 21
179.333069
 31
0.0
  0
LINE
  5
10698
  8
0
 62
     5
 10
94.717613
 20
179.333069
 30
0.0
 11
94.717613
 21
179.389069
 31
0.0
  0
LINE
  5
10699
  8
0
 62
     5
 10
94.857613
 20
180.096271
 30
0.0
 11
94.857613
 21
179.536271
 31
0.0
  0
LINE
  5
1069A
  8
0
 62
     5
 10
94.297613
 20
180.096271
 30
0.0
 11
94.437613
 21
179.389069
 31
0.0
  0
LINE
  5
1069B
  8
0
 62
     5
 10
94.297613
 20
179.536271
 30
0.0
 11
94.437613
 21
179.333069
 31
0.0
  0
LINE
  5
1069C
  8
0
 62
     5
 10
95.037844
 20
178.778413
 30
0.0
 11
94.717613
 21
179.333069
 31
0.0
  0
LINE
  5
1069D
  8
0
 62
     5
 10
94.857613
 20
179.536271
 30
0.0
 11
95.200977
 21
178.941546
 31
0.0
  0
ARC
  5
1069E
  8
0
 62
     5
 10
94.577613
 20
178.318182
 30
0.0
 40
1.08
 50
82.551809
 51
97.448191
  0
ARC
  5
1069F
  8
0
 62
     5
 10
94.577613
 20
178.318182
 30
0.0
 40
1.8
 50
81.050982
 51
98.949018
  0
LINE
  5
106A0
  8
0
 62
     5
 10
94.717613
 20
177.303294
 30
0.0
 11
95.037844
 21
177.857951
 31
0.0
  0
LINE
  5
106A1
  8
0
 62
     5
 10
95.200977
 20
177.694817
 30
0.0
 11
94.857613
 21
177.100093
 31
0.0
  0
LINE
  5
106A2
  8
0
 62
     5
 10
94.297613
 20
177.100093
 30
0.0
 11
94.437613
 21
177.303294
 31
0.0
  0
LINE
  5
106A3
  8
0
 62
     5
 10
93.506725
 20
178.178182
 30
0.0
 11
93.562725
 21
178.178182
 31
0.0
  0
LINE
  5
106A4
  8
0
 62
     5
 10
94.297613
 20
176.540093
 30
0.0
 11
94.437613
 21
177.247294
 31
0.0
  0
LINE
  5
106A5
  8
0
 62
     5
 10
94.227613
 20
175.592921
 30
0.0
 11
94.227613
 21
175.389018
 31
0.0
  0
LINE
  5
106A6
  8
0
 62
     5
 10
94.297613
 20
176.540093
 30
0.0
 11
94.297613
 21
177.100093
 31
0.0
  0
LINE
  5
106A7
  8
0
 62
     5
 10
94.437613
 20
177.303294
 30
0.0
 11
94.437613
 21
177.247294
 31
0.0
  0
LINE
  5
106A8
  8
0
 62
     5
 10
94.717613
 20
177.247294
 30
0.0
 11
94.717613
 21
177.303294
 31
0.0
  0
LINE
  5
106A9
  8
0
 62
     5
 10
94.857613
 20
177.100093
 30
0.0
 11
94.857613
 21
176.540093
 31
0.0
  0
LINE
  5
106AA
  8
0
 62
     5
 10
94.927613
 20
175.389018
 30
0.0
 11
94.927613
 21
175.592921
 31
0.0
  0
LINE
  5
106AB
  8
0
 62
     5
 10
93.562725
 20
178.178182
 30
0.0
 11
94.117382
 21
177.857951
 31
0.0
  0
LINE
  5
106AC
  8
0
 62
     5
 10
94.857613
 20
177.100093
 30
0.0
 11
94.717613
 21
177.303294
 31
0.0
  0
LINE
  5
106AD
  8
0
 62
     5
 10
94.297613
 20
177.100093
 30
0.0
 11
93.954248
 21
177.694817
 31
0.0
  0
LINE
  5
106AE
  8
0
 62
     5
 10
94.117382
 20
177.857951
 30
0.0
 11
94.437613
 21
177.303294
 31
0.0
  0
LINE
  5
106AF
  8
0
 62
     5
 10
94.857613
 20
176.540093
 30
0.0
 11
94.717613
 21
177.247294
 31
0.0
  0
ARC
  5
106B0
  8
0
 62
     5
 10
94.577613
 20
178.318182
 30
0.0
 40
1.08
 50
262.551809
 51
277.448191
  0
ARC
  5
106B1
  8
0
 62
     5
 10
94.577613
 20
178.318182
 30
0.0
 40
1.8
 50
261.050982
 51
278.949018
  0
LINE
  5
106B2
  8
0
 62
     5
 10
93.954248
 20
177.694817
 30
0.0
 11
95.200977
 21
178.941546
 31
0.0
  0
LINE
  5
106B3
  8
0
 62
     5
 10
94.437613
 20
177.247294
 30
0.0
 11
94.717613
 21
179.389069
 31
0.0
  0
LINE
  5
106B4
  8
0
 62
     5
 10
94.437613
 20
177.303294
 30
0.0
 11
94.717613
 21
179.333069
 31
0.0
  0
LINE
  5
106B5
  8
0
 62
     5
 10
95.200977
 20
177.694817
 30
0.0
 11
93.954248
 21
178.941546
 31
0.0
  0
LINE
  5
106B6
  8
0
 62
     5
 10
94.717613
 20
177.303294
 30
0.0
 11
94.437613
 21
179.333069
 31
0.0
  0
LINE
  5
106B7
  8
0
 62
     5
 10
94.717613
 20
177.247294
 30
0.0
 11
94.437613
 21
179.389069
 31
0.0
  0
ARC
  5
106B8
  8
0
 62
     5
 10
94.577613
 20
178.318182
 30
0.0
 40
1.08
 50
172.551809
 51
187.448191
  0
LINE
  5
106B9
  8
0
 62
     5
 10
95.037844
 20
177.857951
 30
0.0
 11
95.5925
 21
178.178182
 31
0.0
  0
LINE
  5
106BA
  8
0
 62
     5
 10
95.795702
 20
178.038182
 30
0.0
 11
95.200977
 21
177.694817
 31
0.0
  0
LINE
  5
106BB
  8
0
 62
     5
 10
93.562725
 20
178.178182
 30
0.0
 11
95.5925
 21
178.458182
 31
0.0
  0
LINE
  5
106BC
  8
0
 62
     5
 10
93.506725
 20
178.178182
 30
0.0
 11
95.6485
 21
178.458182
 31
0.0
  0
LINE
  5
106BD
  8
0
 62
     5
 10
97.088905
 20
174.52222
 30
0.0
 11
94.088905
 21
174.52222
 31
0.0
  0
LINE
  5
106BE
  8
0
 62
     5
 10
93.506725
 20
178.458182
 30
0.0
 11
95.6485
 21
178.178182
 31
0.0
  0
LINE
  5
106BF
  8
0
 62
     5
 10
93.562725
 20
178.458182
 30
0.0
 11
95.5925
 21
178.178182
 31
0.0
  0
LINE
  5
106C0
  8
0
 62
     5
 10
95.5925
 20
178.458182
 30
0.0
 11
95.037844
 21
178.778413
 31
0.0
  0
LINE
  5
106C1
  8
0
 62
     5
 10
95.200977
 20
178.941546
 30
0.0
 11
95.795702
 21
178.598182
 31
0.0
  0
ARC
  5
106C2
  8
0
 62
     5
 10
94.577613
 20
178.318182
 30
0.0
 40
1.127721
 50
289.033269
 51
340.966731
  0
ARC
  5
106C3
  8
0
 62
     5
 10
94.577613
 20
178.318182
 30
0.0
 40
1.127721
 50
19.033269
 51
70.966731
  0
LINE
  5
106C4
  8
0
 62
     5
 10
141.745253
 20
142.380776
 30
0.0
 11
157.746147
 21
142.380776
 31
0.0
  0
LINE
  5
106C5
  8
0
 62
     5
 10
142.745253
 20
149.22222
 30
0.0
 11
157.745253
 21
149.22222
 31
0.0
  0
LINE
  5
106C6
  8
0
 62
     5
 10
147.62188
 20
125.12222
 30
0.0
 11
151.855135
 21
125.12222
 31
0.0
  0
LINE
  5
106C7
  8
0
 62
     5
 10
160.955673
 20
124.52222
 30
0.0
 11
146.134834
 21
124.52222
 31
0.0
  0
LINE
  5
106C8
  8
0
 62
     5
 10
143.433558
 20
129.02222
 30
0.0
 11
163.656949
 21
129.02222
 31
0.0
  0
LINE
  5
106C9
  8
0
 62
     5
 10
141.945253
 20
130.02222
 30
0.0
 11
165.045253
 21
130.02222
 31
0.0
  0
LINE
  5
106CA
  8
0
 62
     5
 10
142.745253
 20
132.02222
 30
0.0
 11
165.745253
 21
132.02222
 31
0.0
  0
LINE
  5
106CB
  8
0
 62
     5
 10
160.745253
 20
139.52222
 30
0.0
 11
142.745253
 21
139.52222
 31
0.0
  0
LINE
  5
106CC
  8
0
  6
CONTINUOUS
 62
     5
 10
143.433553
 20
129.62222
 30
0.0
 11
143.433553
 21
130.02222
 31
0.0
  0
LINE
  5
106CD
  8
0
 62
     5
 10
143.433553
 20
129.02222
 30
0.0
 11
143.433553
 21
130.02222
 31
0.0
  0
LINE
  5
106CE
  8
0
 62
     5
 10
146.026249
 20
127.82222
 30
0.0
 11
147.434159
 21
127.82222
 31
0.0
  0
LINE
  5
106CF
  8
0
 62
     5
 10
146.134834
 20
124.52222
 30
0.0
 11
145.838527
 21
124.82222
 31
0.0
  0
LINE
  5
106D0
  8
0
 62
     5
 10
146.322555
 20
124.52222
 30
0.0
 11
146.026249
 21
124.82222
 31
0.0
  0
LINE
  5
106D1
  8
0
 62
     5
 10
147.434159
 20
124.82222
 30
0.0
 11
147.730465
 21
124.52222
 31
0.0
  0
LINE
  5
106D2
  8
0
 62
     5
 10
147.62188
 20
124.82222
 30
0.0
 11
147.918187
 21
124.52222
 31
0.0
  0
LINE
  5
106D3
  8
0
 62
     5
 10
145.838527
 20
125.12222
 30
0.0
 11
145.838527
 21
124.82222
 31
0.0
  0
LINE
  5
106D4
  8
0
 62
     5
 10
147.62188
 20
124.82222
 30
0.0
 11
147.62188
 21
125.12222
 31
0.0
  0
LINE
  5
106D5
  8
0
 62
     5
 10
149.498488
 20
125.12222
 30
0.0
 11
149.498488
 21
124.52222
 31
0.0
  0
LINE
  5
106D6
  8
0
 62
     5
 10
145.838527
 20
124.82222
 30
0.0
 11
146.026249
 21
124.82222
 31
0.0
  0
LINE
  5
106D7
  8
0
 62
     5
 10
147.434159
 20
124.82222
 30
0.0
 11
147.62188
 21
124.82222
 31
0.0
  0
LINE
  5
106D8
  8
0
 62
     5
 10
145.533602
 20
125.12222
 30
0.0
 11
145.838527
 21
125.12222
 31
0.0
  0
LINE
  5
106D9
  8
0
 62
     5
 10
145.533553
 20
129.02222
 30
0.0
 11
145.533553
 21
125.12222
 31
0.0
  0
LINE
  5
106DA
  8
0
 62
     5
 10
145.556945
 20
129.02222
 30
0.0
 11
145.556945
 21
125.12222
 31
0.0
  0
LINE
  5
106DB
  8
0
 62
     5
 10
146.026249
 20
124.82222
 30
0.0
 11
146.026249
 21
127.82222
 31
0.0
  0
LINE
  5
106DC
  8
0
 62
     5
 10
147.434159
 20
127.82222
 30
0.0
 11
147.434159
 21
124.82222
 31
0.0
  0
LINE
  5
106DD
  8
0
 62
     5
 10
147.903462
 20
125.12222
 30
0.0
 11
147.903462
 21
129.02222
 31
0.0
  0
POLYLINE
  5
106DE
  8
0
 62
     5
 66
     1
 10
0.0
 20
0.0
 30
0.0
 70
     8
  0
VERTEX
  5
106DF
  8
0
 62
     5
 10
141.746
 20
132.967
 30
0.0
 70
    32
  0
VERTEX
  5
106E0
  8
0
 62
     5
 10
141.746
 20
132.968
 30
0.0
 70
    32
  0
VERTEX
  5
106E1
  8
0
 62
     5
 10
141.746
 20
132.968
 30
0.0
 70
    32
  0
VERTEX
  5
106E2
  8
0
 62
     5
 10
141.746
 20
132.968
 30
0.0
 70
    32
  0
VERTEX
  5
106E3
  8
0
 62
     5
 10
141.746
 20
132.969
 30
0.0
 70
    32
  0
VERTEX
  5
106E4
  8
0
 62
     5
 10
141.746
 20
132.969
 30
0.0
 70
    32
  0
VERTEX
  5
106E5
  8
0
 62
     5
 10
141.746
 20
132.97
 30
0.0
 70
    32
  0
VERTEX
  5
106E6
  8
0
 62
     5
 10
141.746
 20
132.97
 30
0.0
 70
    32
  0
VERTEX
  5
106E7
  8
0
 62
     5
 10
141.746
 20
132.971
 30
0.0
 70
    32
  0
VERTEX
  5
106E8
  8
0
 62
     5
 10
141.746
 20
132.971
 30
0.0
 70
    32
  0
VERTEX
  5
106E9
  8
0
 62
     5
 10
141.746
 20
132.972
 30
0.0
 70
    32
  0
VERTEX
  5
106EA
  8
0
 62
     5
 10
141.746
 20
132.972
 30
0.0
 70
    32
  0
VERTEX
  5
106EB
  8
0
 62
     5
 10
141.746
 20
132.972
 30
0.0
 70
    32
  0
VERTEX
  5
106EC
  8
0
 62
     5
 10
141.746
 20
132.973
 30
0.0
 70
    32
  0
VERTEX
  5
106ED
  8
0
 62
     5
 10
141.746
 20
132.973
 30
0.0
 70
    32
  0
VERTEX
  5
106EE
  8
0
 62
     5
 10
141.746
 20
132.974
 30
0.0
 70
    32
  0
VERTEX
  5
106EF
  8
0
 62
     5
 10
141.746
 20
132.974
 30
0.0
 70
    32
  0
VERTEX
  5
106F0
  8
0
 62
     5
 10
141.746
 20
132.975
 30
0.0
 70
    32
  0
VERTEX
  5
106F1
  8
0
 62
     5
 10
141.746
 20
132.975
 30
0.0
 70
    32
  0
VERTEX
  5
106F2
  8
0
 62
     5
 10
141.746
 20
132.975
 30
0.0
 70
    32
  0
VERTEX
  5
106F3
  8
0
 62
     5
 10
141.746
 20
132.976
 30
0.0
 70
    32
  0
VERTEX
  5
106F4
  8
0
 62
     5
 10
141.746
 20
132.976
 30
0.0
 70
    32
  0
VERTEX
  5
106F5
  8
0
 62
     5
 10
141.746
 20
132.977
 30
0.0
 70
    32
  0
VERTEX
  5
106F6
  8
0
 62
     5
 10
141.746
 20
132.977
 30
0.0
 70
    32
  0
VERTEX
  5
106F7
  8
0
 62
     5
 10
141.746
 20
132.978
 30
0.0
 70
    32
  0
VERTEX
  5
106F8
  8
0
 62
     5
 10
141.746
 20
132.978
 30
0.0
 70
    32
  0
VERTEX
  5
106F9
  8
0
 62
     5
 10
141.746
 20
132.978
 30
0.0
 70
    32
  0
VERTEX
  5
106FA
  8
0
 62
     5
 10
141.746
 20
132.979
 30
0.0
 70
    32
  0
VERTEX
  5
106FB
  8
0
 62
     5
 10
141.746
 20
132.979
 30
0.0
 70
    32
  0
VERTEX
  5
106FC
  8
0
 62
     5
 10
141.746
 20
132.98
 30
0.0
 70
    32
  0
VERTEX
  5
106FD
  8
0
 62
     5
 10
141.746
 20
132.98
 30
0.0
 70
    32
  0
VERTEX
  5
106FE
  8
0
 62
     5
 10
141.746
 20
132.981
 30
0.0
 70
    32
  0
VERTEX
  5
106FF
  8
0
 62
     5
 10
141.746
 20
132.981
 30
0.0
 70
    32
  0
VERTEX
  5
10700
  8
0
 62
     5
 10
141.746
 20
132.981
 30
0.0
 70
    32
  0
VERTEX
  5
10701
  8
0
 62
     5
 10
141.746
 20
132.982
 30
0.0
 70
    32
  0
VERTEX
  5
10702
  8
0
 62
     5
 10
141.746
 20
132.982
 30
0.0
 70
    32
  0
VERTEX
  5
10703
  8
0
 62
     5
 10
141.746
 20
132.983
 30
0.0
 70
    32
  0
VERTEX
  5
10704
  8
0
 62
     5
 10
141.746
 20
132.983
 30
0.0
 70
    32
  0
VERTEX
  5
10705
  8
0
 62
     5
 10
141.746
 20
132.984
 30
0.0
 70
    32
  0
VERTEX
  5
10706
  8
0
 62
     5
 10
141.746
 20
132.984
 30
0.0
 70
    32
  0
VERTEX
  5
10707
  8
0
 62
     5
 10
141.746
 20
132.985
 30
0.0
 70
    32
  0
VERTEX
  5
10708
  8
0
 62
     5
 10
141.746
 20
132.985
 30
0.0
 70
    32
  0
VERTEX
  5
10709
  8
0
 62
     5
 10
141.746
 20
132.985
 30
0.0
 70
    32
  0
VERTEX
  5
1070A
  8
0
 62
     5
 10
141.746
 20
132.986
 30
0.0
 70
    32
  0
VERTEX
  5
1070B
  8
0
 62
     5
 10
141.746
 20
132.986
 30
0.0
 70
    32
  0
VERTEX
  5
1070C
  8
0
 62
     5
 10
141.746
 20
132.987
 30
0.0
 70
    32
  0
VERTEX
  5
1070D
  8
0
 62
     5
 10
141.746
 20
132.987
 30
0.0
 70
    32
  0
VERTEX
  5
1070E
  8
0
 62
     5
 10
141.746
 20
132.988
 30
0.0
 70
    32
  0
VERTEX
  5
1070F
  8
0
 62
     5
 10
141.746
 20
132.988
 30
0.0
 70
    32
  0
VERTEX
  5
10710
  8
0
 62
     5
 10
141.746
 20
132.988
 30
0.0
 70
    32
  0
VERTEX
  5
10711
  8
0
 62
     5
 10
141.746
 20
132.989
 30
0.0
 70
    32
  0
VERTEX
  5
10712
  8
0
 62
     5
 10
141.746
 20
132.989
 30
0.0
 70
    32
  0
VERTEX
  5
10713
  8
0
 62
     5
 10
141.746
 20
132.99
 30
0.0
 70
    32
  0
VERTEX
  5
10714
  8
0
 62
     5
 10
141.746
 20
132.99
 30
0.0
 70
    32
  0
VERTEX
  5
10715
  8
0
 62
     5
 10
141.746
 20
132.991
 30
0.0
 70
    32
  0
VERTEX
  5
10716
  8
0
 62
     5
 10
141.746
 20
132.991
 30
0.0
 70
    32
  0
VERTEX
  5
10717
  8
0
 62
     5
 10
141.746
 20
132.991
 30
0.0
 70
    32
  0
VERTEX
  5
10718
  8
0
 62
     5
 10
141.746
 20
132.992
 30
0.0
 70
    32
  0
VERTEX
  5
10719
  8
0
 62
     5
 10
141.746
 20
132.992
 30
0.0
 70
    32
  0
VERTEX
  5
1071A
  8
0
 62
     5
 10
141.746
 20
132.993
 30
0.0
 70
    32
  0
VERTEX
  5
1071B
  8
0
 62
     5
 10
141.746
 20
132.993
 30
0.0
 70
    32
  0
VERTEX
  5
1071C
  8
0
 62
     5
 10
141.746
 20
132.994
 30
0.0
 70
    32
  0
VERTEX
  5
1071D
  8
0
 62
     5
 10
141.746
 20
132.994
 30
0.0
 70
    32
  0
VERTEX
  5
1071E
  8
0
 62
     5
 10
141.746
 20
132.994
 30
0.0
 70
    32
  0
VERTEX
  5
1071F
  8
0
 62
     5
 10
141.746
 20
132.995
 30
0.0
 70
    32
  0
VERTEX
  5
10720
  8
0
 62
     5
 10
141.746
 20
132.995
 30
0.0
 70
    32
  0
VERTEX
  5
10721
  8
0
 62
     5
 10
141.746
 20
132.996
 30
0.0
 70
    32
  0
VERTEX
  5
10722
  8
0
 62
     5
 10
141.746
 20
132.996
 30
0.0
 70
    32
  0
VERTEX
  5
10723
  8
0
 62
     5
 10
141.746
 20
132.997
 30
0.0
 70
    32
  0
VERTEX
  5
10724
  8
0
 62
     5
 10
141.746
 20
132.997
 30
0.0
 70
    32
  0
VERTEX
  5
10725
  8
0
 62
     5
 10
141.746
 20
132.998
 30
0.0
 70
    32
  0
VERTEX
  5
10726
  8
0
 62
     5
 10
141.746
 20
132.998
 30
0.0
 70
    32
  0
VERTEX
  5
10727
  8
0
 62
     5
 10
141.746
 20
132.998
 30
0.0
 70
    32
  0
VERTEX
  5
10728
  8
0
 62
     5
 10
141.746
 20
132.999
 30
0.0
 70
    32
  0
VERTEX
  5
10729
  8
0
 62
     5
 10
141.746
 20
132.999
 30
0.0
 70
    32
  0
VERTEX
  5
1072A
  8
0
 62
     5
 10
141.746
 20
133.0
 30
0.0
 70
    32
  0
VERTEX
  5
1072B
  8
0
 62
     5
 10
141.746
 20
133.0
 30
0.0
 70
    32
  0
VERTEX
  5
1072C
  8
0
 62
     5
 10
141.746
 20
133.001
 30
0.0
 70
    32
  0
VERTEX
  5
1072D
  8
0
 62
     5
 10
141.746
 20
133.001
 30
0.0
 70
    32
  0
VERTEX
  5
1072E
  8
0
 62
     5
 10
141.746
 20
133.001
 30
0.0
 70
    32
  0
VERTEX
  5
1072F
  8
0
 62
     5
 10
141.746
 20
133.002
 30
0.0
 70
    32
  0
VERTEX
  5
10730
  8
0
 62
     5
 10
141.746
 20
133.002
 30
0.0
 70
    32
  0
VERTEX
  5
10731
  8
0
 62
     5
 10
141.746
 20
133.003
 30
0.0
 70
    32
  0
VERTEX
  5
10732
  8
0
 62
     5
 10
141.746
 20
133.003
 30
0.0
 70
    32
  0
VERTEX
  5
10733
  8
0
 62
     5
 10
141.746
 20
133.004
 30
0.0
 70
    32
  0
VERTEX
  5
10734
  8
0
 62
     5
 10
141.746
 20
133.004
 30
0.0
 70
    32
  0
VERTEX
  5
10735
  8
0
 62
     5
 10
141.746
 20
133.004
 30
0.0
 70
    32
  0
VERTEX
  5
10736
  8
0
 62
     5
 10
141.746
 20
133.005
 30
0.0
 70
    32
  0
VERTEX
  5
10737
  8
0
 62
     5
 10
141.746
 20
133.005
 30
0.0
 70
    32
  0
VERTEX
  5
10738
  8
0
 62
     5
 10
141.746
 20
133.006
 30
0.0
 70
    32
  0
VERTEX
  5
10739
  8
0
 62
     5
 10
141.746
 20
133.006
 30
0.0
 70
    32
  0
VERTEX
  5
1073A
  8
0
 62
     5
 10
141.745
 20
133.007
 30
0.0
 70
    32
  0
VERTEX
  5
1073B
  8
0
 62
     5
 10
141.745
 20
133.007
 30
0.0
 70
    32
  0
VERTEX
  5
1073C
  8
0
 62
     5
 10
141.745
 20
133.007
 30
0.0
 70
    32
  0
VERTEX
  5
1073D
  8
0
 62
     5
 10
141.745
 20
133.008
 30
0.0
 70
    32
  0
VERTEX
  5
1073E
  8
0
 62
     5
 10
141.745
 20
133.008
 30
0.0
 70
    32
  0
VERTEX
  5
1073F
  8
0
 62
     5
 10
141.745
 20
133.009
 30
0.0
 70
    32
  0
VERTEX
  5
10740
  8
0
 62
     5
 10
141.745
 20
133.009
 30
0.0
 70
    32
  0
VERTEX
  5
10741
  8
0
 62
     5
 10
141.745
 20
133.01
 30
0.0
 70
    32
  0
VERTEX
  5
10742
  8
0
 62
     5
 10
141.745
 20
133.01
 30
0.0
 70
    32
  0
VERTEX
  5
10743
  8
0
 62
     5
 10
141.745
 20
133.011
 30
0.0
 70
    32
  0
VERTEX
  5
10744
  8
0
 62
     5
 10
141.745
 20
133.011
 30
0.0
 70
    32
  0
VERTEX
  5
10745
  8
0
 62
     5
 10
141.745
 20
133.011
 30
0.0
 70
    32
  0
VERTEX
  5
10746
  8
0
 62
     5
 10
141.745
 20
133.012
 30
0.0
 70
    32
  0
VERTEX
  5
10747
  8
0
 62
     5
 10
141.745
 20
133.012
 30
0.0
 70
    32
  0
VERTEX
  5
10748
  8
0
 62
     5
 10
141.745
 20
133.013
 30
0.0
 70
    32
  0
VERTEX
  5
10749
  8
0
 62
     5
 10
141.745
 20
133.013
 30
0.0
 70
    32
  0
VERTEX
  5
1074A
  8
0
 62
     5
 10
141.745
 20
133.014
 30
0.0
 70
    32
  0
VERTEX
  5
1074B
  8
0
 62
     5
 10
141.745
 20
133.014
 30
0.0
 70
    32
  0
VERTEX
  5
1074C
  8
0
 62
     5
 10
141.745
 20
133.014
 30
0.0
 70
    32
  0
VERTEX
  5
1074D
  8
0
 62
     5
 10
141.745
 20
133.015
 30
0.0
 70
    32
  0
VERTEX
  5
1074E
  8
0
 62
     5
 10
141.745
 20
133.015
 30
0.0
 70
    32
  0
VERTEX
  5
1074F
  8
0
 62
     5
 10
141.745
 20
133.016
 30
0.0
 70
    32
  0
VERTEX
  5
10750
  8
0
 62
     5
 10
141.745
 20
133.016
 30
0.0
 70
    32
  0
VERTEX
  5
10751
  8
0
 62
     5
 10
141.745
 20
133.017
 30
0.0
 70
    32
  0
VERTEX
  5
10752
  8
0
 62
     5
 10
141.745
 20
133.017
 30
0.0
 70
    32
  0
VERTEX
  5
10753
  8
0
 62
     5
 10
141.745
 20
133.017
 30
0.0
 70
    32
  0
VERTEX
  5
10754
  8
0
 62
     5
 10
141.745
 20
133.018
 30
0.0
 70
    32
  0
VERTEX
  5
10755
  8
0
 62
     5
 10
141.745
 20
133.018
 30
0.0
 70
    32
  0
VERTEX
  5
10756
  8
0
 62
     5
 10
141.745
 20
133.019
 30
0.0
 70
    32
  0
VERTEX
  5
10757
  8
0
 62
     5
 10
141.745
 20
133.019
 30
0.0
 70
    32
  0
VERTEX
  5
10758
  8
0
 62
     5
 10
141.745
 20
133.02
 30
0.0
 70
    32
  0
VERTEX
  5
10759
  8
0
 62
     5
 10
141.745
 20
133.02
 30
0.0
 70
    32
  0
VERTEX
  5
1075A
  8
0
 62
     5
 10
141.745
 20
133.02
 30
0.0
 70
    32
  0
VERTEX
  5
1075B
  8
0
 62
     5
 10
141.745
 20
133.021
 30
0.0
 70
    32
  0
VERTEX
  5
1075C
  8
0
 62
     5
 10
141.745
 20
133.021
 30
0.0
 70
    32
  0
VERTEX
  5
1075D
  8
0
 62
     5
 10
141.745
 20
133.022
 30
0.0
 70
    32
  0
VERTEX
  5
1075E
  8
0
 62
     5
 10
141.745
 20
133.022
 30
0.0
 70
    32
  0
SEQEND
  5
1075F
  8
0
 62
     5
  0
ARC
  5
10760
  8
0
 62
     5
 10
141.945253
 20
130.22222
 30
0.0
 40
0.2
 50
180.0
 51
270.0
  0
ARC
  5
10761
  8
0
 62
     5
 10
142.745253
 20
133.02222
 30
0.0
 40
1.0
 50
180.0
 51
270.0
  0
ARC
  5
10762
  8
0
 62
     5
 10
142.745253
 20
140.52222
 30
0.0
 40
1.0
 50
180.0
 51
270.0
  0
ARC
  5
10763
  8
0
 62
     5
 10
142.745253
 20
150.22222
 30
0.0
 40
1.0
 50
180.0
 51
270.0
  0
LINE
  5
10764
  8
0
 62
     5
 10
160.045253
 20
132.604349
 30
0.0
 11
160.045253
 21
138.48171
 31
0.0
  0
LINE
  5
10765
  8
0
 62
     5
 10
160.745253
 20
138.530707
 30
0.0
 11
160.745253
 21
132.536317
 31
0.0
  0
LINE
  5
10766
  8
0
 62
     5
 10
161.245253
 20
132.22222
 30
0.0
 11
161.245253
 21
139.027223
 31
0.0
  0
LINE
  5
10767
  8
0
 62
     5
 10
160.745253
 20
132.604349
 30
0.0
 11
160.045253
 21
132.604349
 31
0.0
  0
LINE
  5
10768
  8
0
 62
     5
 10
161.556905
 20
125.12222
 30
0.0
 11
158.17634
 21
125.12222
 31
0.0
  0
LINE
  5
10769
  8
0
 62
     5
 10
151.855135
 20
124.82222
 30
0.0
 11
158.17634
 21
124.82222
 31
0.0
  0
LINE
  5
1076A
  8
0
 62
     5
 10
151.557909
 20
124.52222
 30
0.0
 11
151.557909
 21
125.12222
 31
0.0
  0
LINE
  5
1076B
  8
0
 62
     5
 10
151.855135
 20
125.12222
 30
0.0
 11
151.855135
 21
124.82222
 31
0.0
  0
LINE
  5
1076C
  8
0
 62
     5
 10
151.855135
 20
124.82222
 30
0.0
 11
151.808204
 21
124.52222
 31
0.0
  0
LINE
  5
1076D
  8
0
 62
     5
 10
150.077296
 20
129.02222
 30
0.0
 11
150.077296
 21
125.12222
 31
0.0
  0
LINE
  5
1076E
  8
0
 62
     5
 10
158.17634
 20
124.82222
 30
0.0
 11
158.17634
 21
125.12222
 31
0.0
  0
LINE
  5
1076F
  8
0
 62
     5
 10
159.375372
 20
124.52222
 30
0.0
 11
159.375372
 21
125.12222
 31
0.0
  0
LINE
  5
10770
  8
0
 62
     5
 10
158.12941
 20
124.52222
 30
0.0
 11
158.17634
 21
124.82222
 31
0.0
  0
LINE
  5
10771
  8
0
 62
     5
 10
159.954179
 20
125.12222
 30
0.0
 11
159.954179
 21
129.02222
 31
0.0
  0
LINE
  5
10772
  8
0
 62
     5
 10
158.13669
 20
135.165743
 30
0.0
 11
158.13669
 21
134.467444
 31
0.0
  0
LINE
  5
10773
  8
0
 62
     5
 10
158.13669
 20
135.901282
 30
0.0
 11
158.13669
 21
136.59958
 31
0.0
  0
LINE
  5
10774
  8
0
 62
     5
 10
158.380392
 20
135.813512
 30
0.0
 11
158.380392
 21
135.253512
 31
0.0
  0
LINE
  5
10775
  8
0
 62
     5
 10
158.380392
 20
133.755423
 30
0.0
 11
158.380392
 21
133.733512
 31
0.0
  0
LINE
  5
10776
  8
0
 62
     5
 10
158.380392
 20
135.253512
 30
0.0
 11
158.160686
 21
135.253512
 31
0.0
  0
LINE
  5
10777
  8
0
 62
     5
 10
158.160686
 20
135.813512
 30
0.0
 11
158.380392
 21
135.813512
 31
0.0
  0
ARC
  5
10778
  8
0
 62
     5
 10
160.045253
 20
134.717336
 30
0.0
 40
1.933824
 50
210.580287
 51
270.0
  0
LINE
  5
10779
  8
0
 62
     5
 10
163.656954
 20
129.02222
 30
0.0
 11
163.656954
 21
130.02222
 31
0.0
  0
LINE
  5
1077A
  8
HIDDEN
 10
169.766966
 20
129.62222
 30
0.0
 11
163.656954
 21
129.62222
 31
0.0
  0
LINE
  5
1077B
  8
0
 62
     5
 10
161.251979
 20
125.12222
 30
0.0
 11
161.251979
 21
124.82222
 31
0.0
  0
LINE
  5
1077C
  8
0
 62
     5
 10
160.955673
 20
124.52222
 30
0.0
 11
161.251979
 21
124.82222
 31
0.0
  0
LINE
  5
1077D
  8
0
 62
     5
 10
161.556954
 20
129.02222
 30
0.0
 11
161.556954
 21
125.12222
 31
0.0
  0
ARC
  5
1077E
  8
0
 62
     5
 10
165.045253
 20
130.22222
 30
0.0
 40
0.2
 50
270.0
 51
0.0
  0
LINE
  5
1077F
  8
0
 62
     5
 10
160.745253
 20
132.533512
 30
0.0
 11
161.245253
 21
132.533512
 31
0.0
  0
ARC
  5
10780
  8
0
 62
     5
 10
161.445253
 20
132.22222
 30
0.0
 40
0.2
 50
180.0
 51
270.0
  0
ARC
  5
10781
  8
0
 62
     5
 10
170.045253
 20
132.22222
 30
0.0
 40
0.2
 50
270.0
 51
0.0
  0
ARC
  5
10782
  8
0
 62
     5
 10
165.945253
 20
132.22222
 30
0.0
 40
0.2
 50
180.0
 51
270.0
  0
LINE
  5
10783
  8
0
 62
     5
 10
165.245253
 20
132.02222
 30
0.0
 11
165.245253
 21
130.22222
 31
0.0
  0
LINE
  5
10784
  8
0
 62
     5
 10
170.045253
 20
132.02222
 30
0.0
 11
165.945253
 21
132.02222
 31
0.0
  0
LINE
  5
10785
  8
0
 62
     5
 10
160.745253
 20
138.483512
 30
0.0
 11
160.045253
 21
138.483512
 31
0.0
  0
LINE
  5
10786
  8
0
 62
     5
 10
158.745253
 20
142.390849
 30
0.0
 11
160.745253
 21
142.390849
 31
0.0
  0
LINE
  5
10787
  8
0
 62
     5
 10
158.245253
 20
142.424274
 30
0.0
 11
158.245253
 21
148.72222
 31
0.0
  0
POLYLINE
  5
10788
  8
0
 62
     5
 66
     1
 10
0.0
 20
0.0
 30
0.0
  0
VERTEX
  5
10CD0
  8
0
 62
     5
 10
158.245253
 20
142.889383
 30
0.0
  0
VERTEX
  5
10CD1
  8
0
 62
     5
 10
158.246324
 20
142.856778
 30
0.0
  0
VERTEX
  5
10CD2
  8
0
 62
     5
 10
158.249531
 20
142.824312
 30
0.0
  0
VERTEX
  5
10CD3
  8
0
 62
     5
 10
158.254861
 20
142.792124
 30
0.0
  0
VERTEX
  5
10CD4
  8
0
 62
     5
 10
158.26229
 20
142.760353
 30
0.0
  0
VERTEX
  5
10CD5
  8
0
 62
     5
 10
158.271788
 20
142.729135
 30
0.0
  0
VERTEX
  5
10CD6
  8
0
 62
     5
 10
158.283314
 20
142.698603
 30
0.0
  0
VERTEX
  5
10CD7
  8
0
 62
     5
 10
158.296817
 20
142.668887
 30
0.0
  0
VERTEX
  5
10CD8
  8
0
 62
     5
 10
158.312241
 20
142.640116
 30
0.0
  0
VERTEX
  5
10CD9
  8
0
 62
     5
 10
158.329519
 20
142.612413
 30
0.0
  0
VERTEX
  5
10CDA
  8
0
 62
     5
 10
158.348577
 20
142.585895
 30
0.0
  0
VERTEX
  5
10CDB
  8
0
 62
     5
 10
158.369333
 20
142.560677
 30
0.0
  0
VERTEX
  5
10CDC
  8
0
 62
     5
 10
158.3917
 20
142.536866
 30
0.0
  0
VERTEX
  5
10CDD
  8
0
 62
     5
 10
158.41558
 20
142.514565
 30
0.0
  0
VERTEX
  5
10CDE
  8
0
 62
     5
 10
158.440873
 20
142.49387
 30
0.0
  0
VERTEX
  5
10CDF
  8
0
 62
     5
 10
158.467468
 20
142.474867
 30
0.0
  0
VERTEX
  5
10CE0
  8
0
 62
     5
 10
158.495253
 20
142.45764
 30
0.0
  0
VERTEX
  5
10CE1
  8
0
 62
     5
 10
158.524109
 20
142.442262
 30
0.0
  0
VERTEX
  5
10CE2
  8
0
 62
     5
 10
158.553912
 20
142.428798
 30
0.0
  0
VERTEX
  5
10CE3
  8
0
 62
     5
 10
158.584534
 20
142.417306
 30
0.0
  0
VERTEX
  5
10CE4
  8
0
 62
     5
 10
158.615844
 20
142.407836
 30
0.0
  0
VERTEX
  5
10CE5
  8
0
 62
     5
 10
158.647708
 20
142.400428
 30
0.0
  0
VERTEX
  5
10CE6
  8
0
 62
     5
 10
158.67999
 20
142.395114
 30
0.0
  0
VERTEX
  5
10CE7
  8
0
 62
     5
 10
158.712552
 20
142.391917
 30
0.0
  0
VERTEX
  5
10CE8
  8
0
 62
     5
 10
158.745253
 20
142.390849
 30
0.0
  0
SEQEND
  5
10CE9
  8
0
 62
     5
  0
POLYLINE
  5
107A3
  8
0
 62
     5
 66
     1
 10
0.0
 20
0.0
 30
0.0
 70
     8
  0
VERTEX
  5
107A4
  8
0
 62
     5
 10
158.246
 20
142.401
 30
0.0
 70
    32
  0
VERTEX
  5
107A5
  8
0
 62
     5
 10
158.246
 20
142.401
 30
0.0
 70
    32
  0
VERTEX
  5
107A6
  8
0
 62
     5
 10
158.246
 20
142.402
 30
0.0
 70
    32
  0
VERTEX
  5
107A7
  8
0
 62
     5
 10
158.246
 20
142.402
 30
0.0
 70
    32
  0
VERTEX
  5
107A8
  8
0
 62
     5
 10
158.246
 20
142.402
 30
0.0
 70
    32
  0
VERTEX
  5
107A9
  8
0
 62
     5
 10
158.246
 20
142.402
 30
0.0
 70
    32
  0
VERTEX
  5
107AA
  8
0
 62
     5
 10
158.246
 20
142.402
 30
0.0
 70
    32
  0
VERTEX
  5
107AB
  8
0
 62
     5
 10
158.246
 20
142.402
 30
0.0
 70
    32
  0
VERTEX
  5
107AC
  8
0
 62
     5
 10
158.246
 20
142.402
 30
0.0
 70
    32
  0
VERTEX
  5
107AD
  8
0
 62
     5
 10
158.246
 20
142.403
 30
0.0
 70
    32
  0
VERTEX
  5
107AE
  8
0
 62
     5
 10
158.246
 20
142.403
 30
0.0
 70
    32
  0
VERTEX
  5
107AF
  8
0
 62
     5
 10
158.246
 20
142.403
 30
0.0
 70
    32
  0
VERTEX
  5
107B0
  8
0
 62
     5
 10
158.246
 20
142.403
 30
0.0
 70
    32
  0
VERTEX
  5
107B1
  8
0
 62
     5
 10
158.246
 20
142.403
 30
0.0
 70
    32
  0
VERTEX
  5
107B2
  8
0
 62
     5
 10
158.246
 20
142.403
 30
0.0
 70
    32
  0
VERTEX
  5
107B3
  8
0
 62
     5
 10
158.246
 20
142.403
 30
0.0
 70
    32
  0
VERTEX
  5
107B4
  8
0
 62
     5
 10
158.246
 20
142.404
 30
0.0
 70
    32
  0
VERTEX
  5
107B5
  8
0
 62
     5
 10
158.246
 20
142.404
 30
0.0
 70
    32
  0
VERTEX
  5
107B6
  8
0
 62
     5
 10
158.246
 20
142.404
 30
0.0
 70
    32
  0
VERTEX
  5
107B7
  8
0
 62
     5
 10
158.246
 20
142.404
 30
0.0
 70
    32
  0
VERTEX
  5
107B8
  8
0
 62
     5
 10
158.246
 20
142.404
 30
0.0
 70
    32
  0
VERTEX
  5
107B9
  8
0
 62
     5
 10
158.246
 20
142.404
 30
0.0
 70
    32
  0
VERTEX
  5
107BA
  8
0
 62
     5
 10
158.246
 20
142.404
 30
0.0
 70
    32
  0
VERTEX
  5
107BB
  8
0
 62
     5
 10
158.246
 20
142.405
 30
0.0
 70
    32
  0
VERTEX
  5
107BC
  8
0
 62
     5
 10
158.246
 20
142.405
 30
0.0
 70
    32
  0
VERTEX
  5
107BD
  8
0
 62
     5
 10
158.246
 20
142.405
 30
0.0
 70
    32
  0
VERTEX
  5
107BE
  8
0
 62
     5
 10
158.246
 20
142.405
 30
0.0
 70
    32
  0
VERTEX
  5
107BF
  8
0
 62
     5
 10
158.246
 20
142.405
 30
0.0
 70
    32
  0
VERTEX
  5
107C0
  8
0
 62
     5
 10
158.246
 20
142.405
 30
0.0
 70
    32
  0
VERTEX
  5
107C1
  8
0
 62
     5
 10
158.246
 20
142.405
 30
0.0
 70
    32
  0
VERTEX
  5
107C2
  8
0
 62
     5
 10
158.246
 20
142.406
 30
0.0
 70
    32
  0
VERTEX
  5
107C3
  8
0
 62
     5
 10
158.246
 20
142.406
 30
0.0
 70
    32
  0
VERTEX
  5
107C4
  8
0
 62
     5
 10
158.246
 20
142.406
 30
0.0
 70
    32
  0
VERTEX
  5
107C5
  8
0
 62
     5
 10
158.246
 20
142.406
 30
0.0
 70
    32
  0
VERTEX
  5
107C6
  8
0
 62
     5
 10
158.246
 20
142.406
 30
0.0
 70
    32
  0
VERTEX
  5
107C7
  8
0
 62
     5
 10
158.246
 20
142.406
 30
0.0
 70
    32
  0
VERTEX
  5
107C8
  8
0
 62
     5
 10
158.246
 20
142.407
 30
0.0
 70
    32
  0
VERTEX
  5
107C9
  8
0
 62
     5
 10
158.246
 20
142.407
 30
0.0
 70
    32
  0
VERTEX
  5
107CA
  8
0
 62
     5
 10
158.246
 20
142.407
 30
0.0
 70
    32
  0
VERTEX
  5
107CB
  8
0
 62
     5
 10
158.246
 20
142.407
 30
0.0
 70
    32
  0
VERTEX
  5
107CC
  8
0
 62
     5
 10
158.246
 20
142.407
 30
0.0
 70
    32
  0
VERTEX
  5
107CD
  8
0
 62
     5
 10
158.246
 20
142.407
 30
0.0
 70
    32
  0
VERTEX
  5
107CE
  8
0
 62
     5
 10
158.246
 20
142.407
 30
0.0
 70
    32
  0
VERTEX
  5
107CF
  8
0
 62
     5
 10
158.245
 20
142.408
 30
0.0
 70
    32
  0
VERTEX
  5
107D0
  8
0
 62
     5
 10
158.245
 20
142.408
 30
0.0
 70
    32
  0
VERTEX
  5
107D1
  8
0
 62
     5
 10
158.245
 20
142.408
 30
0.0
 70
    32
  0
VERTEX
  5
107D2
  8
0
 62
     5
 10
158.245
 20
142.408
 30
0.0
 70
    32
  0
VERTEX
  5
107D3
  8
0
 62
     5
 10
158.245
 20
142.408
 30
0.0
 70
    32
  0
VERTEX
  5
107D4
  8
0
 62
     5
 10
158.245
 20
142.408
 30
0.0
 70
    32
  0
VERTEX
  5
107D5
  8
0
 62
     5
 10
158.245
 20
142.408
 30
0.0
 70
    32
  0
VERTEX
  5
107D6
  8
0
 62
     5
 10
158.245
 20
142.409
 30
0.0
 70
    32
  0
VERTEX
  5
107D7
  8
0
 62
     5
 10
158.245
 20
142.409
 30
0.0
 70
    32
  0
VERTEX
  5
107D8
  8
0
 62
     5
 10
158.245
 20
142.409
 30
0.0
 70
    32
  0
VERTEX
  5
107D9
  8
0
 62
     5
 10
158.245
 20
142.409
 30
0.0
 70
    32
  0
VERTEX
  5
107DA
  8
0
 62
     5
 10
158.245
 20
142.409
 30
0.0
 70
    32
  0
VERTEX
  5
107DB
  8
0
 62
     5
 10
158.245
 20
142.409
 30
0.0
 70
    32
  0
VERTEX
  5
107DC
  8
0
 62
     5
 10
158.245
 20
142.409
 30
0.0
 70
    32
  0
VERTEX
  5
107DD
  8
0
 62
     5
 10
158.245
 20
142.41
 30
0.0
 70
    32
  0
VERTEX
  5
107DE
  8
0
 62
     5
 10
158.245
 20
142.41
 30
0.0
 70
    32
  0
VERTEX
  5
107DF
  8
0
 62
     5
 10
158.245
 20
142.41
 30
0.0
 70
    32
  0
VERTEX
  5
107E0
  8
0
 62
     5
 10
158.245
 20
142.41
 30
0.0
 70
    32
  0
VERTEX
  5
107E1
  8
0
 62
     5
 10
158.245
 20
142.41
 30
0.0
 70
    32
  0
VERTEX
  5
107E2
  8
0
 62
     5
 10
158.245
 20
142.41
 30
0.0
 70
    32
  0
VERTEX
  5
107E3
  8
0
 62
     5
 10
158.245
 20
142.41
 30
0.0
 70
    32
  0
VERTEX
  5
107E4
  8
0
 62
     5
 10
158.245
 20
142.411
 30
0.0
 70
    32
  0
VERTEX
  5
107E5
  8
0
 62
     5
 10
158.245
 20
142.411
 30
0.0
 70
    32
  0
VERTEX
  5
107E6
  8
0
 62
     5
 10
158.245
 20
142.411
 30
0.0
 70
    32
  0
VERTEX
  5
107E7
  8
0
 62
     5
 10
158.245
 20
142.411
 30
0.0
 70
    32
  0
VERTEX
  5
107E8
  8
0
 62
     5
 10
158.245
 20
142.411
 30
0.0
 70
    32
  0
VERTEX
  5
107E9
  8
0
 62
     5
 10
158.245
 20
142.411
 30
0.0
 70
    32
  0
VERTEX
  5
107EA
  8
0
 62
     5
 10
158.245
 20
142.411
 30
0.0
 70
    32
  0
VERTEX
  5
107EB
  8
0
 62
     5
 10
158.245
 20
142.412
 30
0.0
 70
    32
  0
VERTEX
  5
107EC
  8
0
 62
     5
 10
158.245
 20
142.412
 30
0.0
 70
    32
  0
VERTEX
  5
107ED
  8
0
 62
     5
 10
158.245
 20
142.412
 30
0.0
 70
    32
  0
VERTEX
  5
107EE
  8
0
 62
     5
 10
158.245
 20
142.412
 30
0.0
 70
    32
  0
VERTEX
  5
107EF
  8
0
 62
     5
 10
158.245
 20
142.412
 30
0.0
 70
    32
  0
VERTEX
  5
107F0
  8
0
 62
     5
 10
158.245
 20
142.412
 30
0.0
 70
    32
  0
VERTEX
  5
107F1
  8
0
 62
     5
 10
158.245
 20
142.412
 30
0.0
 70
    32
  0
VERTEX
  5
107F2
  8
0
 62
     5
 10
158.245
 20
142.413
 30
0.0
 70
    32
  0
VERTEX
  5
107F3
  8
0
 62
     5
 10
158.245
 20
142.413
 30
0.0
 70
    32
  0
VERTEX
  5
107F4
  8
0
 62
     5
 10
158.245
 20
142.413
 30
0.0
 70
    32
  0
VERTEX
  5
107F5
  8
0
 62
     5
 10
158.245
 20
142.413
 30
0.0
 70
    32
  0
VERTEX
  5
107F6
  8
0
 62
     5
 10
158.245
 20
142.413
 30
0.0
 70
    32
  0
VERTEX
  5
107F7
  8
0
 62
     5
 10
158.245
 20
142.413
 30
0.0
 70
    32
  0
VERTEX
  5
107F8
  8
0
 62
     5
 10
158.245
 20
142.413
 30
0.0
 70
    32
  0
VERTEX
  5
107F9
  8
0
 62
     5
 10
158.245
 20
142.414
 30
0.0
 70
    32
  0
VERTEX
  5
107FA
  8
0
 62
     5
 10
158.245
 20
142.414
 30
0.0
 70
    32
  0
VERTEX
  5
107FB
  8
0
 62
     5
 10
158.245
 20
142.414
 30
0.0
 70
    32
  0
VERTEX
  5
107FC
  8
0
 62
     5
 10
158.245
 20
142.414
 30
0.0
 70
    32
  0
VERTEX
  5
107FD
  8
0
 62
     5
 10
158.245
 20
142.414
 30
0.0
 70
    32
  0
VERTEX
  5
107FE
  8
0
 62
     5
 10
158.245
 20
142.414
 30
0.0
 70
    32
  0
VERTEX
  5
107FF
  8
0
 62
     5
 10
158.245
 20
142.414
 30
0.0
 70
    32
  0
VERTEX
  5
10800
  8
0
 62
     5
 10
158.245
 20
142.415
 30
0.0
 70
    32
  0
VERTEX
  5
10801
  8
0
 62
     5
 10
158.245
 20
142.415
 30
0.0
 70
    32
  0
VERTEX
  5
10802
  8
0
 62
     5
 10
158.245
 20
142.415
 30
0.0
 70
    32
  0
VERTEX
  5
10803
  8
0
 62
     5
 10
158.245
 20
142.415
 30
0.0
 70
    32
  0
VERTEX
  5
10804
  8
0
 62
     5
 10
158.245
 20
142.415
 30
0.0
 70
    32
  0
VERTEX
  5
10805
  8
0
 62
     5
 10
158.245
 20
142.415
 30
0.0
 70
    32
  0
VERTEX
  5
10806
  8
0
 62
     5
 10
158.245
 20
142.415
 30
0.0
 70
    32
  0
VERTEX
  5
10807
  8
0
 62
     5
 10
158.245
 20
142.416
 30
0.0
 70
    32
  0
VERTEX
  5
10808
  8
0
 62
     5
 10
158.245
 20
142.416
 30
0.0
 70
    32
  0
VERTEX
  5
10809
  8
0
 62
     5
 10
158.245
 20
142.416
 30
0.0
 70
    32
  0
VERTEX
  5
1080A
  8
0
 62
     5
 10
158.245
 20
142.416
 30
0.0
 70
    32
  0
VERTEX
  5
1080B
  8
0
 62
     5
 10
158.245
 20
142.416
 30
0.0
 70
    32
  0
VERTEX
  5
1080C
  8
0
 62
     5
 10
158.245
 20
142.416
 30
0.0
 70
    32
  0
VERTEX
  5
1080D
  8
0
 62
     5
 10
158.245
 20
142.416
 30
0.0
 70
    32
  0
VERTEX
  5
1080E
  8
0
 62
     5
 10
158.245
 20
142.417
 30
0.0
 70
    32
  0
VERTEX
  5
1080F
  8
0
 62
     5
 10
158.245
 20
142.417
 30
0.0
 70
    32
  0
VERTEX
  5
10810
  8
0
 62
     5
 10
158.245
 20
142.417
 30
0.0
 70
    32
  0
VERTEX
  5
10811
  8
0
 62
     5
 10
158.245
 20
142.417
 30
0.0
 70
    32
  0
VERTEX
  5
10812
  8
0
 62
     5
 10
158.245
 20
142.417
 30
0.0
 70
    32
  0
VERTEX
  5
10813
  8
0
 62
     5
 10
158.245
 20
142.417
 30
0.0
 70
    32
  0
VERTEX
  5
10814
  8
0
 62
     5
 10
158.245
 20
142.417
 30
0.0
 70
    32
  0
VERTEX
  5
10815
  8
0
 62
     5
 10
158.245
 20
142.418
 30
0.0
 70
    32
  0
VERTEX
  5
10816
  8
0
 62
     5
 10
158.245
 20
142.418
 30
0.0
 70
    32
  0
VERTEX
  5
10817
  8
0
 62
     5
 10
158.245
 20
142.418
 30
0.0
 70
    32
  0
VERTEX
  5
10818
  8
0
 62
     5
 10
158.245
 20
142.418
 30
0.0
 70
    32
  0
VERTEX
  5
10819
  8
0
 62
     5
 10
158.245
 20
142.418
 30
0.0
 70
    32
  0
VERTEX
  5
1081A
  8
0
 62
     5
 10
158.245
 20
142.418
 30
0.0
 70
    32
  0
VERTEX
  5
1081B
  8
0
 62
     5
 10
158.245
 20
142.418
 30
0.0
 70
    32
  0
VERTEX
  5
1081C
  8
0
 62
     5
 10
158.245
 20
142.419
 30
0.0
 70
    32
  0
VERTEX
  5
1081D
  8
0
 62
     5
 10
158.245
 20
142.419
 30
0.0
 70
    32
  0
VERTEX
  5
1081E
  8
0
 62
     5
 10
158.245
 20
142.419
 30
0.0
 70
    32
  0
VERTEX
  5
1081F
  8
0
 62
     5
 10
158.245
 20
142.419
 30
0.0
 70
    32
  0
VERTEX
  5
10820
  8
0
 62
     5
 10
158.245
 20
142.419
 30
0.0
 70
    32
  0
VERTEX
  5
10821
  8
0
 62
     5
 10
158.245
 20
142.419
 30
0.0
 70
    32
  0
VERTEX
  5
10822
  8
0
 62
     5
 10
158.245
 20
142.42
 30
0.0
 70
    32
  0
VERTEX
  5
10823
  8
0
 62
     5
 10
158.245
 20
142.42
 30
0.0
 70
    32
  0
VERTEX
  5
10824
  8
0
 62
     5
 10
158.245
 20
142.42
 30
0.0
 70
    32
  0
VERTEX
  5
10825
  8
0
 62
     5
 10
158.245
 20
142.42
 30
0.0
 70
    32
  0
VERTEX
  5
10826
  8
0
 62
     5
 10
158.245
 20
142.42
 30
0.0
 70
    32
  0
VERTEX
  5
10827
  8
0
 62
     5
 10
158.245
 20
142.42
 30
0.0
 70
    32
  0
VERTEX
  5
10828
  8
0
 62
     5
 10
158.245
 20
142.42
 30
0.0
 70
    32
  0
VERTEX
  5
10829
  8
0
 62
     5
 10
158.245
 20
142.421
 30
0.0
 70
    32
  0
VERTEX
  5
1082A
  8
0
 62
     5
 10
158.245
 20
142.421
 30
0.0
 70
    32
  0
VERTEX
  5
1082B
  8
0
 62
     5
 10
158.245
 20
142.421
 30
0.0
 70
    32
  0
VERTEX
  5
1082C
  8
0
 62
     5
 10
158.245
 20
142.421
 30
0.0
 70
    32
  0
VERTEX
  5
1082D
  8
0
 62
     5
 10
158.245
 20
142.421
 30
0.0
 70
    32
  0
VERTEX
  5
1082E
  8
0
 62
     5
 10
158.245
 20
142.421
 30
0.0
 70
    32
  0
VERTEX
  5
1082F
  8
0
 62
     5
 10
158.245
 20
142.421
 30
0.0
 70
    32
  0
VERTEX
  5
10830
  8
0
 62
     5
 10
158.245
 20
142.422
 30
0.0
 70
    32
  0
VERTEX
  5
10831
  8
0
 62
     5
 10
158.245
 20
142.422
 30
0.0
 70
    32
  0
VERTEX
  5
10832
  8
0
 62
     5
 10
158.245
 20
142.422
 30
0.0
 70
    32
  0
VERTEX
  5
10833
  8
0
 62
     5
 10
158.245
 20
142.422
 30
0.0
 70
    32
  0
VERTEX
  5
10834
  8
0
 62
     5
 10
158.245
 20
142.422
 30
0.0
 70
    32
  0
VERTEX
  5
10835
  8
0
 62
     5
 10
158.245
 20
142.422
 30
0.0
 70
    32
  0
VERTEX
  5
10836
  8
0
 62
     5
 10
158.245
 20
142.422
 30
0.0
 70
    32
  0
VERTEX
  5
10837
  8
0
 62
     5
 10
158.245
 20
142.423
 30
0.0
 70
    32
  0
VERTEX
  5
10838
  8
0
 62
     5
 10
158.245
 20
142.423
 30
0.0
 70
    32
  0
VERTEX
  5
10839
  8
0
 62
     5
 10
158.245
 20
142.423
 30
0.0
 70
    32
  0
VERTEX
  5
1083A
  8
0
 62
     5
 10
158.245
 20
142.423
 30
0.0
 70
    32
  0
VERTEX
  5
1083B
  8
0
 62
     5
 10
158.245
 20
142.423
 30
0.0
 70
    32
  0
VERTEX
  5
1083C
  8
0
 62
     5
 10
158.245
 20
142.423
 30
0.0
 70
    32
  0
VERTEX
  5
1083D
  8
0
 62
     5
 10
158.245
 20
142.423
 30
0.0
 70
    32
  0
VERTEX
  5
1083E
  8
0
 62
     5
 10
158.245
 20
142.424
 30
0.0
 70
    32
  0
VERTEX
  5
1083F
  8
0
 62
     5
 10
158.245
 20
142.424
 30
0.0
 70
    32
  0
VERTEX
  5
10840
  8
0
 62
     5
 10
158.245
 20
142.424
 30
0.0
 70
    32
  0
VERTEX
  5
10841
  8
0
 62
     5
 10
158.245
 20
142.424
 30
0.0
 70
    32
  0
VERTEX
  5
10842
  8
0
 62
     5
 10
158.245
 20
142.424
 30
0.0
 70
    32
  0
VERTEX
  5
10843
  8
0
 62
     5
 10
158.245
 20
142.424
 30
0.0
 70
    32
  0
SEQEND
  5
10844
  8
0
 62
     5
  0
LINE
  5
10845
  8
0
 62
     5
 10
158.380392
 20
137.333512
 30
0.0
 11
158.380392
 21
137.311601
 31
0.0
  0
ARC
  5
10846
  8
0
 62
     5
 10
160.045253
 20
136.349689
 30
0.0
 40
1.933824
 50
90.0
 51
149.419713
  0
LINE
  5
10847
  8
0
 62
     5
 10
158.2457
 20
142.401303
 30
0.0
 11
157.746147
 21
142.380776
 31
0.0
  0
ARC
  5
10848
  8
0
 62
     5
 10
157.745253
 20
148.72222
 30
0.0
 40
0.5
 50
0.0
 51
90.0
  0
LINE
  5
10849
  8
0
 62
     5
 10
161.245253
 20
148.92222
 30
0.0
 11
161.245253
 21
142.371626
 31
0.0
  0
LINE
  5
1084A
  8
0
 62
     5
 10
165.045253
 20
142.797095
 30
0.0
 11
165.045253
 21
148.674456
 31
0.0
  0
LINE
  5
1084B
  8
0
 62
     5
 10
165.745253
 20
142.797095
 30
0.0
 11
165.045253
 21
142.797095
 31
0.0
  0
LINE
  5
1084C
  8
0
 62
     5
 10
161.245253
 20
142.380776
 30
0.0
 11
165.745253
 21
142.380776
 31
0.0
  0
LINE
  5
1084D
  8
0
 62
     5
 10
163.294142
 20
143.876258
 30
0.0
 11
163.349613
 21
143.684592
 31
0.0
  0
LINE
  5
1084E
  8
0
 62
     5
 10
163.294142
 20
143.89757
 30
0.0
 11
163.294142
 21
143.876258
 31
0.0
  0
LINE
  5
1084F
  8
0
 62
     5
 10
164.306133
 20
142.976258
 30
0.0
 11
165.045253
 21
142.976258
 31
0.0
  0
LINE
  5
10850
  8
0
 62
     5
 10
160.745253
 20
138.533512
 30
0.0
 11
160.745253
 21
139.525555
 31
0.0
  0
POLYLINE
  5
10851
  8
0
 62
     5
 66
     1
 10
0.0
 20
0.0
 30
0.0
  0
VERTEX
  5
10CEA
  8
0
 62
     5
 10
161.245253
 20
142.889383
 30
0.0
  0
VERTEX
  5
10CEB
  8
0
 62
     5
 10
161.244183
 20
142.856778
 30
0.0
  0
VERTEX
  5
10CEC
  8
0
 62
     5
 10
161.240976
 20
142.824311
 30
0.0
  0
VERTEX
  5
10CED
  8
0
 62
     5
 10
161.235646
 20
142.792124
 30
0.0
  0
VERTEX
  5
10CEE
  8
0
 62
     5
 10
161.228216
 20
142.760353
 30
0.0
  0
VERTEX
  5
10CEF
  8
0
 62
     5
 10
161.218718
 20
142.729135
 30
0.0
  0
VERTEX
  5
10CF0
  8
0
 62
     5
 10
161.207193
 20
142.698602
 30
0.0
  0
VERTEX
  5
10CF1
  8
0
 62
     5
 10
161.19369
 20
142.668887
 30
0.0
  0
VERTEX
  5
10CF2
  8
0
 62
     5
 10
161.178266
 20
142.640116
 30
0.0
  0
VERTEX
  5
10CF3
  8
0
 62
     5
 10
161.160988
 20
142.612413
 30
0.0
  0
VERTEX
  5
10CF4
  8
0
 62
     5
 10
161.14193
 20
142.585895
 30
0.0
  0
VERTEX
  5
10CF5
  8
0
 62
     5
 10
161.121173
 20
142.560677
 30
0.0
  0
VERTEX
  5
10CF6
  8
0
 62
     5
 10
161.098807
 20
142.536866
 30
0.0
  0
VERTEX
  5
10CF7
  8
0
 62
     5
 10
161.074926
 20
142.514565
 30
0.0
  0
VERTEX
  5
10CF8
  8
0
 62
     5
 10
161.049634
 20
142.49387
 30
0.0
  0
VERTEX
  5
10CF9
  8
0
 62
     5
 10
161.023039
 20
142.474867
 30
0.0
  0
VERTEX
  5
10CFA
  8
0
 62
     5
 10
160.995253
 20
142.45764
 30
0.0
  0
VERTEX
  5
10CFB
  8
0
 62
     5
 10
160.966398
 20
142.442262
 30
0.0
  0
VERTEX
  5
10CFC
  8
0
 62
     5
 10
160.936595
 20
142.428798
 30
0.0
  0
VERTEX
  5
10CFD
  8
0
 62
     5
 10
160.905973
 20
142.417306
 30
0.0
  0
VERTEX
  5
10CFE
  8
0
 62
     5
 10
160.874663
 20
142.407836
 30
0.0
  0
VERTEX
  5
10CFF
  8
0
 62
     5
 10
160.842799
 20
142.400428
 30
0.0
  0
VERTEX
  5
10D00
  8
0
 62
     5
 10
160.810517
 20
142.395114
 30
0.0
  0
VERTEX
  5
10D01
  8
0
 62
     5
 10
160.777955
 20
142.391917
 30
0.0
  0
VERTEX
  5
10D02
  8
0
 62
     5
 10
160.745253
 20
142.390849
 30
0.0
  0
SEQEND
  5
10D03
  8
0
 62
     5
  0
LINE
  5
1086C
  8
0
 62
     5
 10
160.745253
 20
138.533512
 30
0.0
 11
161.245253
 21
138.533512
 31
0.0
  0
ARC
  5
1086D
  8
0
 62
     5
 10
160.745253
 20
139.02222
 30
0.0
 40
0.5
 50
0.0
 51
90.0
  0
POLYLINE
  5
1086E
  8
0
 62
     5
 66
     1
 10
0.0
 20
0.0
 30
0.0
 70
     8
  0
VERTEX
  5
1086F
  8
0
 62
     5
 10
161.545
 20
142.374
 30
0.0
 70
    32
  0
VERTEX
  5
10870
  8
0
 62
     5
 10
161.545
 20
142.374
 30
0.0
 70
    32
  0
VERTEX
  5
10871
  8
0
 62
     5
 10
161.544
 20
142.374
 30
0.0
 70
    32
  0
VERTEX
  5
10872
  8
0
 62
     5
 10
161.543
 20
142.374
 30
0.0
 70
    32
  0
VERTEX
  5
10873
  8
0
 62
     5
 10
161.543
 20
142.374
 30
0.0
 70
    32
  0
VERTEX
  5
10874
  8
0
 62
     5
 10
161.542
 20
142.374
 30
0.0
 70
    32
  0
VERTEX
  5
10875
  8
0
 62
     5
 10
161.541
 20
142.374
 30
0.0
 70
    32
  0
VERTEX
  5
10876
  8
0
 62
     5
 10
161.541
 20
142.374
 30
0.0
 70
    32
  0
VERTEX
  5
10877
  8
0
 62
     5
 10
161.54
 20
142.374
 30
0.0
 70
    32
  0
VERTEX
  5
10878
  8
0
 62
     5
 10
161.539
 20
142.374
 30
0.0
 70
    32
  0
VERTEX
  5
10879
  8
0
 62
     5
 10
161.539
 20
142.374
 30
0.0
 70
    32
  0
VERTEX
  5
1087A
  8
0
 62
     5
 10
161.538
 20
142.374
 30
0.0
 70
    32
  0
VERTEX
  5
1087B
  8
0
 62
     5
 10
161.537
 20
142.374
 30
0.0
 70
    32
  0
VERTEX
  5
1087C
  8
0
 62
     5
 10
161.537
 20
142.374
 30
0.0
 70
    32
  0
VERTEX
  5
1087D
  8
0
 62
     5
 10
161.536
 20
142.374
 30
0.0
 70
    32
  0
VERTEX
  5
1087E
  8
0
 62
     5
 10
161.535
 20
142.374
 30
0.0
 70
    32
  0
VERTEX
  5
1087F
  8
0
 62
     5
 10
161.535
 20
142.374
 30
0.0
 70
    32
  0
VERTEX
  5
10880
  8
0
 62
     5
 10
161.534
 20
142.374
 30
0.0
 70
    32
  0
VERTEX
  5
10881
  8
0
 62
     5
 10
161.533
 20
142.374
 30
0.0
 70
    32
  0
VERTEX
  5
10882
  8
0
 62
     5
 10
161.533
 20
142.374
 30
0.0
 70
    32
  0
VERTEX
  5
10883
  8
0
 62
     5
 10
161.532
 20
142.374
 30
0.0
 70
    32
  0
VERTEX
  5
10884
  8
0
 62
     5
 10
161.531
 20
142.374
 30
0.0
 70
    32
  0
VERTEX
  5
10885
  8
0
 62
     5
 10
161.531
 20
142.374
 30
0.0
 70
    32
  0
VERTEX
  5
10886
  8
0
 62
     5
 10
161.53
 20
142.374
 30
0.0
 70
    32
  0
VERTEX
  5
10887
  8
0
 62
     5
 10
161.529
 20
142.374
 30
0.0
 70
    32
  0
VERTEX
  5
10888
  8
0
 62
     5
 10
161.529
 20
142.374
 30
0.0
 70
    32
  0
VERTEX
  5
10889
  8
0
 62
     5
 10
161.528
 20
142.374
 30
0.0
 70
    32
  0
VERTEX
  5
1088A
  8
0
 62
     5
 10
161.527
 20
142.374
 30
0.0
 70
    32
  0
VERTEX
  5
1088B
  8
0
 62
     5
 10
161.527
 20
142.374
 30
0.0
 70
    32
  0
VERTEX
  5
1088C
  8
0
 62
     5
 10
161.526
 20
142.374
 30
0.0
 70
    32
  0
VERTEX
  5
1088D
  8
0
 62
     5
 10
161.525
 20
142.374
 30
0.0
 70
    32
  0
VERTEX
  5
1088E
  8
0
 62
     5
 10
161.524
 20
142.374
 30
0.0
 70
    32
  0
VERTEX
  5
1088F
  8
0
 62
     5
 10
161.524
 20
142.374
 30
0.0
 70
    32
  0
VERTEX
  5
10890
  8
0
 62
     5
 10
161.523
 20
142.374
 30
0.0
 70
    32
  0
VERTEX
  5
10891
  8
0
 62
     5
 10
161.522
 20
142.374
 30
0.0
 70
    32
  0
VERTEX
  5
10892
  8
0
 62
     5
 10
161.522
 20
142.374
 30
0.0
 70
    32
  0
VERTEX
  5
10893
  8
0
 62
     5
 10
161.521
 20
142.374
 30
0.0
 70
    32
  0
VERTEX
  5
10894
  8
0
 62
     5
 10
161.52
 20
142.374
 30
0.0
 70
    32
  0
VERTEX
  5
10895
  8
0
 62
     5
 10
161.52
 20
142.374
 30
0.0
 70
    32
  0
VERTEX
  5
10896
  8
0
 62
     5
 10
161.519
 20
142.374
 30
0.0
 70
    32
  0
VERTEX
  5
10897
  8
0
 62
     5
 10
161.518
 20
142.374
 30
0.0
 70
    32
  0
VERTEX
  5
10898
  8
0
 62
     5
 10
161.518
 20
142.374
 30
0.0
 70
    32
  0
VERTEX
  5
10899
  8
0
 62
     5
 10
161.517
 20
142.374
 30
0.0
 70
    32
  0
VERTEX
  5
1089A
  8
0
 62
     5
 10
161.516
 20
142.374
 30
0.0
 70
    32
  0
VERTEX
  5
1089B
  8
0
 62
     5
 10
161.516
 20
142.374
 30
0.0
 70
    32
  0
VERTEX
  5
1089C
  8
0
 62
     5
 10
161.515
 20
142.374
 30
0.0
 70
    32
  0
VERTEX
  5
1089D
  8
0
 62
     5
 10
161.514
 20
142.374
 30
0.0
 70
    32
  0
VERTEX
  5
1089E
  8
0
 62
     5
 10
161.514
 20
142.374
 30
0.0
 70
    32
  0
VERTEX
  5
1089F
  8
0
 62
     5
 10
161.513
 20
142.374
 30
0.0
 70
    32
  0
VERTEX
  5
108A0
  8
0
 62
     5
 10
161.512
 20
142.374
 30
0.0
 70
    32
  0
VERTEX
  5
108A1
  8
0
 62
     5
 10
161.512
 20
142.374
 30
0.0
 70
    32
  0
VERTEX
  5
108A2
  8
0
 62
     5
 10
161.511
 20
142.374
 30
0.0
 70
    32
  0
VERTEX
  5
108A3
  8
0
 62
     5
 10
161.51
 20
142.374
 30
0.0
 70
    32
  0
VERTEX
  5
108A4
  8
0
 62
     5
 10
161.51
 20
142.374
 30
0.0
 70
    32
  0
VERTEX
  5
108A5
  8
0
 62
     5
 10
161.509
 20
142.374
 30
0.0
 70
    32
  0
VERTEX
  5
108A6
  8
0
 62
     5
 10
161.508
 20
142.374
 30
0.0
 70
    32
  0
VERTEX
  5
108A7
  8
0
 62
     5
 10
161.508
 20
142.374
 30
0.0
 70
    32
  0
VERTEX
  5
108A8
  8
0
 62
     5
 10
161.507
 20
142.374
 30
0.0
 70
    32
  0
VERTEX
  5
108A9
  8
0
 62
     5
 10
161.506
 20
142.374
 30
0.0
 70
    32
  0
VERTEX
  5
108AA
  8
0
 62
     5
 10
161.506
 20
142.374
 30
0.0
 70
    32
  0
VERTEX
  5
108AB
  8
0
 62
     5
 10
161.505
 20
142.374
 30
0.0
 70
    32
  0
VERTEX
  5
108AC
  8
0
 62
     5
 10
161.504
 20
142.374
 30
0.0
 70
    32
  0
VERTEX
  5
108AD
  8
0
 62
     5
 10
161.504
 20
142.374
 30
0.0
 70
    32
  0
VERTEX
  5
108AE
  8
0
 62
     5
 10
161.503
 20
142.374
 30
0.0
 70
    32
  0
VERTEX
  5
108AF
  8
0
 62
     5
 10
161.502
 20
142.374
 30
0.0
 70
    32
  0
VERTEX
  5
108B0
  8
0
 62
     5
 10
161.502
 20
142.374
 30
0.0
 70
    32
  0
VERTEX
  5
108B1
  8
0
 62
     5
 10
161.501
 20
142.374
 30
0.0
 70
    32
  0
VERTEX
  5
108B2
  8
0
 62
     5
 10
161.5
 20
142.374
 30
0.0
 70
    32
  0
VERTEX
  5
108B3
  8
0
 62
     5
 10
161.5
 20
142.374
 30
0.0
 70
    32
  0
VERTEX
  5
108B4
  8
0
 62
     5
 10
161.499
 20
142.374
 30
0.0
 70
    32
  0
VERTEX
  5
108B5
  8
0
 62
     5
 10
161.498
 20
142.374
 30
0.0
 70
    32
  0
VERTEX
  5
108B6
  8
0
 62
     5
 10
161.498
 20
142.374
 30
0.0
 70
    32
  0
VERTEX
  5
108B7
  8
0
 62
     5
 10
161.497
 20
142.374
 30
0.0
 70
    32
  0
VERTEX
  5
108B8
  8
0
 62
     5
 10
161.496
 20
142.374
 30
0.0
 70
    32
  0
VERTEX
  5
108B9
  8
0
 62
     5
 10
161.496
 20
142.374
 30
0.0
 70
    32
  0
VERTEX
  5
108BA
  8
0
 62
     5
 10
161.495
 20
142.374
 30
0.0
 70
    32
  0
VERTEX
  5
108BB
  8
0
 62
     5
 10
161.494
 20
142.374
 30
0.0
 70
    32
  0
VERTEX
  5
108BC
  8
0
 62
     5
 10
161.494
 20
142.374
 30
0.0
 70
    32
  0
VERTEX
  5
108BD
  8
0
 62
     5
 10
161.493
 20
142.374
 30
0.0
 70
    32
  0
VERTEX
  5
108BE
  8
0
 62
     5
 10
161.492
 20
142.374
 30
0.0
 70
    32
  0
VERTEX
  5
108BF
  8
0
 62
     5
 10
161.492
 20
142.374
 30
0.0
 70
    32
  0
VERTEX
  5
108C0
  8
0
 62
     5
 10
161.491
 20
142.374
 30
0.0
 70
    32
  0
VERTEX
  5
108C1
  8
0
 62
     5
 10
161.49
 20
142.374
 30
0.0
 70
    32
  0
VERTEX
  5
108C2
  8
0
 62
     5
 10
161.49
 20
142.374
 30
0.0
 70
    32
  0
VERTEX
  5
108C3
  8
0
 62
     5
 10
161.489
 20
142.374
 30
0.0
 70
    32
  0
VERTEX
  5
108C4
  8
0
 62
     5
 10
161.488
 20
142.374
 30
0.0
 70
    32
  0
VERTEX
  5
108C5
  8
0
 62
     5
 10
161.488
 20
142.374
 30
0.0
 70
    32
  0
VERTEX
  5
108C6
  8
0
 62
     5
 10
161.487
 20
142.374
 30
0.0
 70
    32
  0
VERTEX
  5
108C7
  8
0
 62
     5
 10
161.486
 20
142.374
 30
0.0
 70
    32
  0
VERTEX
  5
108C8
  8
0
 62
     5
 10
161.486
 20
142.374
 30
0.0
 70
    32
  0
VERTEX
  5
108C9
  8
0
 62
     5
 10
161.485
 20
142.374
 30
0.0
 70
    32
  0
VERTEX
  5
108CA
  8
0
 62
     5
 10
161.484
 20
142.374
 30
0.0
 70
    32
  0
VERTEX
  5
108CB
  8
0
 62
     5
 10
161.484
 20
142.374
 30
0.0
 70
    32
  0
VERTEX
  5
108CC
  8
0
 62
     5
 10
161.483
 20
142.374
 30
0.0
 70
    32
  0
VERTEX
  5
108CD
  8
0
 62
     5
 10
161.482
 20
142.374
 30
0.0
 70
    32
  0
VERTEX
  5
108CE
  8
0
 62
     5
 10
161.482
 20
142.374
 30
0.0
 70
    32
  0
VERTEX
  5
108CF
  8
0
 62
     5
 10
161.481
 20
142.374
 30
0.0
 70
    32
  0
VERTEX
  5
108D0
  8
0
 62
     5
 10
161.48
 20
142.374
 30
0.0
 70
    32
  0
VERTEX
  5
108D1
  8
0
 62
     5
 10
161.48
 20
142.374
 30
0.0
 70
    32
  0
VERTEX
  5
108D2
  8
0
 62
     5
 10
161.479
 20
142.374
 30
0.0
 70
    32
  0
VERTEX
  5
108D3
  8
0
 62
     5
 10
161.478
 20
142.374
 30
0.0
 70
    32
  0
VERTEX
  5
108D4
  8
0
 62
     5
 10
161.478
 20
142.374
 30
0.0
 70
    32
  0
VERTEX
  5
108D5
  8
0
 62
     5
 10
161.477
 20
142.374
 30
0.0
 70
    32
  0
VERTEX
  5
108D6
  8
0
 62
     5
 10
161.476
 20
142.374
 30
0.0
 70
    32
  0
VERTEX
  5
108D7
  8
0
 62
     5
 10
161.476
 20
142.374
 30
0.0
 70
    32
  0
VERTEX
  5
108D8
  8
0
 62
     5
 10
161.475
 20
142.374
 30
0.0
 70
    32
  0
VERTEX
  5
108D9
  8
0
 62
     5
 10
161.474
 20
142.374
 30
0.0
 70
    32
  0
VERTEX
  5
108DA
  8
0
 62
     5
 10
161.474
 20
142.374
 30
0.0
 70
    32
  0
VERTEX
  5
108DB
  8
0
 62
     5
 10
161.473
 20
142.374
 30
0.0
 70
    32
  0
VERTEX
  5
108DC
  8
0
 62
     5
 10
161.472
 20
142.374
 30
0.0
 70
    32
  0
VERTEX
  5
108DD
  8
0
 62
     5
 10
161.472
 20
142.374
 30
0.0
 70
    32
  0
VERTEX
  5
108DE
  8
0
 62
     5
 10
161.471
 20
142.374
 30
0.0
 70
    32
  0
VERTEX
  5
108DF
  8
0
 62
     5
 10
161.47
 20
142.374
 30
0.0
 70
    32
  0
VERTEX
  5
108E0
  8
0
 62
     5
 10
161.47
 20
142.374
 30
0.0
 70
    32
  0
VERTEX
  5
108E1
  8
0
 62
     5
 10
161.469
 20
142.374
 30
0.0
 70
    32
  0
VERTEX
  5
108E2
  8
0
 62
     5
 10
161.468
 20
142.374
 30
0.0
 70
    32
  0
VERTEX
  5
108E3
  8
0
 62
     5
 10
161.468
 20
142.374
 30
0.0
 70
    32
  0
VERTEX
  5
108E4
  8
0
 62
     5
 10
161.467
 20
142.374
 30
0.0
 70
    32
  0
VERTEX
  5
108E5
  8
0
 62
     5
 10
161.466
 20
142.374
 30
0.0
 70
    32
  0
VERTEX
  5
108E6
  8
0
 62
     5
 10
161.466
 20
142.374
 30
0.0
 70
    32
  0
VERTEX
  5
108E7
  8
0
 62
     5
 10
161.465
 20
142.374
 30
0.0
 70
    32
  0
VERTEX
  5
108E8
  8
0
 62
     5
 10
161.464
 20
142.374
 30
0.0
 70
    32
  0
VERTEX
  5
108E9
  8
0
 62
     5
 10
161.464
 20
142.374
 30
0.0
 70
    32
  0
VERTEX
  5
108EA
  8
0
 62
     5
 10
161.463
 20
142.374
 30
0.0
 70
    32
  0
VERTEX
  5
108EB
  8
0
 62
     5
 10
161.462
 20
142.374
 30
0.0
 70
    32
  0
VERTEX
  5
108EC
  8
0
 62
     5
 10
161.462
 20
142.374
 30
0.0
 70
    32
  0
VERTEX
  5
108ED
  8
0
 62
     5
 10
161.461
 20
142.374
 30
0.0
 70
    32
  0
VERTEX
  5
108EE
  8
0
 62
     5
 10
161.46
 20
142.374
 30
0.0
 70
    32
  0
VERTEX
  5
108EF
  8
0
 62
     5
 10
161.46
 20
142.374
 30
0.0
 70
    32
  0
VERTEX
  5
108F0
  8
0
 62
     5
 10
161.459
 20
142.374
 30
0.0
 70
    32
  0
VERTEX
  5
108F1
  8
0
 62
     5
 10
161.458
 20
142.374
 30
0.0
 70
    32
  0
VERTEX
  5
108F2
  8
0
 62
     5
 10
161.458
 20
142.374
 30
0.0
 70
    32
  0
VERTEX
  5
108F3
  8
0
 62
     5
 10
161.457
 20
142.374
 30
0.0
 70
    32
  0
VERTEX
  5
108F4
  8
0
 62
     5
 10
161.456
 20
142.374
 30
0.0
 70
    32
  0
VERTEX
  5
108F5
  8
0
 62
     5
 10
161.456
 20
142.374
 30
0.0
 70
    32
  0
VERTEX
  5
108F6
  8
0
 62
     5
 10
161.455
 20
142.374
 30
0.0
 70
    32
  0
VERTEX
  5
108F7
  8
0
 62
     5
 10
161.454
 20
142.374
 30
0.0
 70
    32
  0
VERTEX
  5
108F8
  8
0
 62
     5
 10
161.454
 20
142.374
 30
0.0
 70
    32
  0
VERTEX
  5
108F9
  8
0
 62
     5
 10
161.453
 20
142.374
 30
0.0
 70
    32
  0
VERTEX
  5
108FA
  8
0
 62
     5
 10
161.452
 20
142.374
 30
0.0
 70
    32
  0
VERTEX
  5
108FB
  8
0
 62
     5
 10
161.452
 20
142.374
 30
0.0
 70
    32
  0
VERTEX
  5
108FC
  8
0
 62
     5
 10
161.451
 20
142.374
 30
0.0
 70
    32
  0
VERTEX
  5
108FD
  8
0
 62
     5
 10
161.45
 20
142.374
 30
0.0
 70
    32
  0
VERTEX
  5
108FE
  8
0
 62
     5
 10
161.45
 20
142.374
 30
0.0
 70
    32
  0
VERTEX
  5
108FF
  8
0
 62
     5
 10
161.449
 20
142.374
 30
0.0
 70
    32
  0
VERTEX
  5
10900
  8
0
 62
     5
 10
161.448
 20
142.374
 30
0.0
 70
    32
  0
VERTEX
  5
10901
  8
0
 62
     5
 10
161.447
 20
142.374
 30
0.0
 70
    32
  0
VERTEX
  5
10902
  8
0
 62
     5
 10
161.447
 20
142.374
 30
0.0
 70
    32
  0
VERTEX
  5
10903
  8
0
 62
     5
 10
161.446
 20
142.374
 30
0.0
 70
    32
  0
VERTEX
  5
10904
  8
0
 62
     5
 10
161.445
 20
142.374
 30
0.0
 70
    32
  0
VERTEX
  5
10905
  8
0
 62
     5
 10
161.445
 20
142.374
 30
0.0
 70
    32
  0
VERTEX
  5
10906
  8
0
 62
     5
 10
161.444
 20
142.374
 30
0.0
 70
    32
  0
VERTEX
  5
10907
  8
0
 62
     5
 10
161.443
 20
142.374
 30
0.0
 70
    32
  0
VERTEX
  5
10908
  8
0
 62
     5
 10
161.443
 20
142.374
 30
0.0
 70
    32
  0
VERTEX
  5
10909
  8
0
 62
     5
 10
161.442
 20
142.374
 30
0.0
 70
    32
  0
VERTEX
  5
1090A
  8
0
 62
     5
 10
161.441
 20
142.374
 30
0.0
 70
    32
  0
VERTEX
  5
1090B
  8
0
 62
     5
 10
161.441
 20
142.374
 30
0.0
 70
    32
  0
VERTEX
  5
1090C
  8
0
 62
     5
 10
161.44
 20
142.374
 30
0.0
 70
    32
  0
VERTEX
  5
1090D
  8
0
 62
     5
 10
161.439
 20
142.374
 30
0.0
 70
    32
  0
VERTEX
  5
1090E
  8
0
 62
     5
 10
161.439
 20
142.374
 30
0.0
 70
    32
  0
VERTEX
  5
1090F
  8
0
 62
     5
 10
161.438
 20
142.374
 30
0.0
 70
    32
  0
VERTEX
  5
10910
  8
0
 62
     5
 10
161.437
 20
142.374
 30
0.0
 70
    32
  0
VERTEX
  5
10911
  8
0
 62
     5
 10
161.437
 20
142.374
 30
0.0
 70
    32
  0
VERTEX
  5
10912
  8
0
 62
     5
 10
161.436
 20
142.374
 30
0.0
 70
    32
  0
VERTEX
  5
10913
  8
0
 62
     5
 10
161.435
 20
142.374
 30
0.0
 70
    32
  0
VERTEX
  5
10914
  8
0
 62
     5
 10
161.435
 20
142.374
 30
0.0
 70
    32
  0
VERTEX
  5
10915
  8
0
 62
     5
 10
161.434
 20
142.374
 30
0.0
 70
    32
  0
VERTEX
  5
10916
  8
0
 62
     5
 10
161.433
 20
142.374
 30
0.0
 70
    32
  0
VERTEX
  5
10917
  8
0
 62
     5
 10
161.433
 20
142.374
 30
0.0
 70
    32
  0
VERTEX
  5
10918
  8
0
 62
     5
 10
161.432
 20
142.374
 30
0.0
 70
    32
  0
VERTEX
  5
10919
  8
0
 62
     5
 10
161.431
 20
142.374
 30
0.0
 70
    32
  0
VERTEX
  5
1091A
  8
0
 62
     5
 10
161.431
 20
142.374
 30
0.0
 70
    32
  0
VERTEX
  5
1091B
  8
0
 62
     5
 10
161.43
 20
142.374
 30
0.0
 70
    32
  0
VERTEX
  5
1091C
  8
0
 62
     5
 10
161.429
 20
142.374
 30
0.0
 70
    32
  0
VERTEX
  5
1091D
  8
0
 62
     5
 10
161.429
 20
142.374
 30
0.0
 70
    32
  0
VERTEX
  5
1091E
  8
0
 62
     5
 10
161.428
 20
142.374
 30
0.0
 70
    32
  0
VERTEX
  5
1091F
  8
0
 62
     5
 10
161.427
 20
142.374
 30
0.0
 70
    32
  0
VERTEX
  5
10920
  8
0
 62
     5
 10
161.427
 20
142.374
 30
0.0
 70
    32
  0
VERTEX
  5
10921
  8
0
 62
     5
 10
161.426
 20
142.374
 30
0.0
 70
    32
  0
VERTEX
  5
10922
  8
0
 62
     5
 10
161.425
 20
142.374
 30
0.0
 70
    32
  0
VERTEX
  5
10923
  8
0
 62
     5
 10
161.425
 20
142.374
 30
0.0
 70
    32
  0
VERTEX
  5
10924
  8
0
 62
     5
 10
161.424
 20
142.374
 30
0.0
 70
    32
  0
VERTEX
  5
10925
  8
0
 62
     5
 10
161.423
 20
142.374
 30
0.0
 70
    32
  0
VERTEX
  5
10926
  8
0
 62
     5
 10
161.423
 20
142.374
 30
0.0
 70
    32
  0
VERTEX
  5
10927
  8
0
 62
     5
 10
161.422
 20
142.374
 30
0.0
 70
    32
  0
VERTEX
  5
10928
  8
0
 62
     5
 10
161.421
 20
142.374
 30
0.0
 70
    32
  0
VERTEX
  5
10929
  8
0
 62
     5
 10
161.421
 20
142.374
 30
0.0
 70
    32
  0
VERTEX
  5
1092A
  8
0
 62
     5
 10
161.42
 20
142.374
 30
0.0
 70
    32
  0
VERTEX
  5
1092B
  8
0
 62
     5
 10
161.419
 20
142.374
 30
0.0
 70
    32
  0
VERTEX
  5
1092C
  8
0
 62
     5
 10
161.419
 20
142.374
 30
0.0
 70
    32
  0
VERTEX
  5
1092D
  8
0
 62
     5
 10
161.418
 20
142.374
 30
0.0
 70
    32
  0
VERTEX
  5
1092E
  8
0
 62
     5
 10
161.417
 20
142.374
 30
0.0
 70
    32
  0
VERTEX
  5
1092F
  8
0
 62
     5
 10
161.417
 20
142.374
 30
0.0
 70
    32
  0
VERTEX
  5
10930
  8
0
 62
     5
 10
161.416
 20
142.374
 30
0.0
 70
    32
  0
VERTEX
  5
10931
  8
0
 62
     5
 10
161.415
 20
142.374
 30
0.0
 70
    32
  0
VERTEX
  5
10932
  8
0
 62
     5
 10
161.415
 20
142.374
 30
0.0
 70
    32
  0
VERTEX
  5
10933
  8
0
 62
     5
 10
161.414
 20
142.374
 30
0.0
 70
    32
  0
VERTEX
  5
10934
  8
0
 62
     5
 10
161.413
 20
142.374
 30
0.0
 70
    32
  0
VERTEX
  5
10935
  8
0
 62
     5
 10
161.413
 20
142.374
 30
0.0
 70
    32
  0
VERTEX
  5
10936
  8
0
 62
     5
 10
161.412
 20
142.374
 30
0.0
 70
    32
  0
VERTEX
  5
10937
  8
0
 62
     5
 10
161.411
 20
142.374
 30
0.0
 70
    32
  0
VERTEX
  5
10938
  8
0
 62
     5
 10
161.411
 20
142.374
 30
0.0
 70
    32
  0
VERTEX
  5
10939
  8
0
 62
     5
 10
161.41
 20
142.374
 30
0.0
 70
    32
  0
VERTEX
  5
1093A
  8
0
 62
     5
 10
161.409
 20
142.374
 30
0.0
 70
    32
  0
VERTEX
  5
1093B
  8
0
 62
     5
 10
161.409
 20
142.374
 30
0.0
 70
    32
  0
VERTEX
  5
1093C
  8
0
 62
     5
 10
161.408
 20
142.374
 30
0.0
 70
    32
  0
VERTEX
  5
1093D
  8
0
 62
     5
 10
161.407
 20
142.374
 30
0.0
 70
    32
  0
VERTEX
  5
1093E
  8
0
 62
     5
 10
161.407
 20
142.373
 30
0.0
 70
    32
  0
VERTEX
  5
1093F
  8
0
 62
     5
 10
161.406
 20
142.373
 30
0.0
 70
    32
  0
VERTEX
  5
10940
  8
0
 62
     5
 10
161.405
 20
142.373
 30
0.0
 70
    32
  0
VERTEX
  5
10941
  8
0
 62
     5
 10
161.405
 20
142.373
 30
0.0
 70
    32
  0
VERTEX
  5
10942
  8
0
 62
     5
 10
161.404
 20
142.373
 30
0.0
 70
    32
  0
VERTEX
  5
10943
  8
0
 62
     5
 10
161.403
 20
142.373
 30
0.0
 70
    32
  0
VERTEX
  5
10944
  8
0
 62
     5
 10
161.403
 20
142.373
 30
0.0
 70
    32
  0
VERTEX
  5
10945
  8
0
 62
     5
 10
161.402
 20
142.373
 30
0.0
 70
    32
  0
VERTEX
  5
10946
  8
0
 62
     5
 10
161.401
 20
142.373
 30
0.0
 70
    32
  0
VERTEX
  5
10947
  8
0
 62
     5
 10
161.401
 20
142.373
 30
0.0
 70
    32
  0
VERTEX
  5
10948
  8
0
 62
     5
 10
161.4
 20
142.373
 30
0.0
 70
    32
  0
VERTEX
  5
10949
  8
0
 62
     5
 10
161.399
 20
142.373
 30
0.0
 70
    32
  0
VERTEX
  5
1094A
  8
0
 62
     5
 10
161.399
 20
142.373
 30
0.0
 70
    32
  0
VERTEX
  5
1094B
  8
0
 62
     5
 10
161.398
 20
142.373
 30
0.0
 70
    32
  0
VERTEX
  5
1094C
  8
0
 62
     5
 10
161.397
 20
142.373
 30
0.0
 70
    32
  0
VERTEX
  5
1094D
  8
0
 62
     5
 10
161.397
 20
142.373
 30
0.0
 70
    32
  0
VERTEX
  5
1094E
  8
0
 62
     5
 10
161.396
 20
142.373
 30
0.0
 70
    32
  0
VERTEX
  5
1094F
  8
0
 62
     5
 10
161.395
 20
142.373
 30
0.0
 70
    32
  0
VERTEX
  5
10950
  8
0
 62
     5
 10
161.395
 20
142.373
 30
0.0
 70
    32
  0
VERTEX
  5
10951
  8
0
 62
     5
 10
161.394
 20
142.373
 30
0.0
 70
    32
  0
VERTEX
  5
10952
  8
0
 62
     5
 10
161.393
 20
142.373
 30
0.0
 70
    32
  0
VERTEX
  5
10953
  8
0
 62
     5
 10
161.393
 20
142.373
 30
0.0
 70
    32
  0
VERTEX
  5
10954
  8
0
 62
     5
 10
161.392
 20
142.373
 30
0.0
 70
    32
  0
VERTEX
  5
10955
  8
0
 62
     5
 10
161.391
 20
142.373
 30
0.0
 70
    32
  0
VERTEX
  5
10956
  8
0
 62
     5
 10
161.391
 20
142.373
 30
0.0
 70
    32
  0
VERTEX
  5
10957
  8
0
 62
     5
 10
161.39
 20
142.373
 30
0.0
 70
    32
  0
VERTEX
  5
10958
  8
0
 62
     5
 10
161.389
 20
142.373
 30
0.0
 70
    32
  0
VERTEX
  5
10959
  8
0
 62
     5
 10
161.389
 20
142.373
 30
0.0
 70
    32
  0
VERTEX
  5
1095A
  8
0
 62
     5
 10
161.388
 20
142.373
 30
0.0
 70
    32
  0
VERTEX
  5
1095B
  8
0
 62
     5
 10
161.387
 20
142.373
 30
0.0
 70
    32
  0
VERTEX
  5
1095C
  8
0
 62
     5
 10
161.387
 20
142.373
 30
0.0
 70
    32
  0
VERTEX
  5
1095D
  8
0
 62
     5
 10
161.386
 20
142.373
 30
0.0
 70
    32
  0
VERTEX
  5
1095E
  8
0
 62
     5
 10
161.385
 20
142.373
 30
0.0
 70
    32
  0
VERTEX
  5
1095F
  8
0
 62
     5
 10
161.385
 20
142.373
 30
0.0
 70
    32
  0
VERTEX
  5
10960
  8
0
 62
     5
 10
161.384
 20
142.373
 30
0.0
 70
    32
  0
VERTEX
  5
10961
  8
0
 62
     5
 10
161.383
 20
142.373
 30
0.0
 70
    32
  0
VERTEX
  5
10962
  8
0
 62
     5
 10
161.383
 20
142.373
 30
0.0
 70
    32
  0
VERTEX
  5
10963
  8
0
 62
     5
 10
161.382
 20
142.373
 30
0.0
 70
    32
  0
VERTEX
  5
10964
  8
0
 62
     5
 10
161.381
 20
142.373
 30
0.0
 70
    32
  0
VERTEX
  5
10965
  8
0
 62
     5
 10
161.381
 20
142.373
 30
0.0
 70
    32
  0
VERTEX
  5
10966
  8
0
 62
     5
 10
161.38
 20
142.373
 30
0.0
 70
    32
  0
VERTEX
  5
10967
  8
0
 62
     5
 10
161.379
 20
142.373
 30
0.0
 70
    32
  0
VERTEX
  5
10968
  8
0
 62
     5
 10
161.379
 20
142.373
 30
0.0
 70
    32
  0
VERTEX
  5
10969
  8
0
 62
     5
 10
161.378
 20
142.373
 30
0.0
 70
    32
  0
VERTEX
  5
1096A
  8
0
 62
     5
 10
161.377
 20
142.373
 30
0.0
 70
    32
  0
VERTEX
  5
1096B
  8
0
 62
     5
 10
161.377
 20
142.373
 30
0.0
 70
    32
  0
VERTEX
  5
1096C
  8
0
 62
     5
 10
161.376
 20
142.373
 30
0.0
 70
    32
  0
VERTEX
  5
1096D
  8
0
 62
     5
 10
161.375
 20
142.373
 30
0.0
 70
    32
  0
VERTEX
  5
1096E
  8
0
 62
     5
 10
161.375
 20
142.373
 30
0.0
 70
    32
  0
VERTEX
  5
1096F
  8
0
 62
     5
 10
161.374
 20
142.373
 30
0.0
 70
    32
  0
VERTEX
  5
10970
  8
0
 62
     5
 10
161.373
 20
142.373
 30
0.0
 70
    32
  0
VERTEX
  5
10971
  8
0
 62
     5
 10
161.372
 20
142.373
 30
0.0
 70
    32
  0
VERTEX
  5
10972
  8
0
 62
     5
 10
161.372
 20
142.373
 30
0.0
 70
    32
  0
VERTEX
  5
10973
  8
0
 62
     5
 10
161.371
 20
142.373
 30
0.0
 70
    32
  0
VERTEX
  5
10974
  8
0
 62
     5
 10
161.37
 20
142.373
 30
0.0
 70
    32
  0
VERTEX
  5
10975
  8
0
 62
     5
 10
161.37
 20
142.373
 30
0.0
 70
    32
  0
VERTEX
  5
10976
  8
0
 62
     5
 10
161.369
 20
142.373
 30
0.0
 70
    32
  0
VERTEX
  5
10977
  8
0
 62
     5
 10
161.368
 20
142.373
 30
0.0
 70
    32
  0
VERTEX
  5
10978
  8
0
 62
     5
 10
161.368
 20
142.373
 30
0.0
 70
    32
  0
VERTEX
  5
10979
  8
0
 62
     5
 10
161.367
 20
142.373
 30
0.0
 70
    32
  0
VERTEX
  5
1097A
  8
0
 62
     5
 10
161.366
 20
142.373
 30
0.0
 70
    32
  0
VERTEX
  5
1097B
  8
0
 62
     5
 10
161.366
 20
142.373
 30
0.0
 70
    32
  0
VERTEX
  5
1097C
  8
0
 62
     5
 10
161.365
 20
142.373
 30
0.0
 70
    32
  0
VERTEX
  5
1097D
  8
0
 62
     5
 10
161.364
 20
142.373
 30
0.0
 70
    32
  0
VERTEX
  5
1097E
  8
0
 62
     5
 10
161.364
 20
142.373
 30
0.0
 70
    32
  0
VERTEX
  5
1097F
  8
0
 62
     5
 10
161.363
 20
142.373
 30
0.0
 70
    32
  0
VERTEX
  5
10980
  8
0
 62
     5
 10
161.362
 20
142.373
 30
0.0
 70
    32
  0
VERTEX
  5
10981
  8
0
 62
     5
 10
161.362
 20
142.373
 30
0.0
 70
    32
  0
VERTEX
  5
10982
  8
0
 62
     5
 10
161.361
 20
142.373
 30
0.0
 70
    32
  0
VERTEX
  5
10983
  8
0
 62
     5
 10
161.36
 20
142.373
 30
0.0
 70
    32
  0
VERTEX
  5
10984
  8
0
 62
     5
 10
161.36
 20
142.373
 30
0.0
 70
    32
  0
VERTEX
  5
10985
  8
0
 62
     5
 10
161.359
 20
142.373
 30
0.0
 70
    32
  0
VERTEX
  5
10986
  8
0
 62
     5
 10
161.358
 20
142.373
 30
0.0
 70
    32
  0
VERTEX
  5
10987
  8
0
 62
     5
 10
161.358
 20
142.373
 30
0.0
 70
    32
  0
VERTEX
  5
10988
  8
0
 62
     5
 10
161.357
 20
142.373
 30
0.0
 70
    32
  0
VERTEX
  5
10989
  8
0
 62
     5
 10
161.356
 20
142.373
 30
0.0
 70
    32
  0
VERTEX
  5
1098A
  8
0
 62
     5
 10
161.356
 20
142.373
 30
0.0
 70
    32
  0
VERTEX
  5
1098B
  8
0
 62
     5
 10
161.355
 20
142.373
 30
0.0
 70
    32
  0
VERTEX
  5
1098C
  8
0
 62
     5
 10
161.354
 20
142.373
 30
0.0
 70
    32
  0
VERTEX
  5
1098D
  8
0
 62
     5
 10
161.354
 20
142.373
 30
0.0
 70
    32
  0
VERTEX
  5
1098E
  8
0
 62
     5
 10
161.353
 20
142.373
 30
0.0
 70
    32
  0
VERTEX
  5
1098F
  8
0
 62
     5
 10
161.352
 20
142.373
 30
0.0
 70
    32
  0
VERTEX
  5
10990
  8
0
 62
     5
 10
161.352
 20
142.373
 30
0.0
 70
    32
  0
VERTEX
  5
10991
  8
0
 62
     5
 10
161.351
 20
142.373
 30
0.0
 70
    32
  0
VERTEX
  5
10992
  8
0
 62
     5
 10
161.35
 20
142.373
 30
0.0
 70
    32
  0
VERTEX
  5
10993
  8
0
 62
     5
 10
161.35
 20
142.373
 30
0.0
 70
    32
  0
VERTEX
  5
10994
  8
0
 62
     5
 10
161.349
 20
142.373
 30
0.0
 70
    32
  0
VERTEX
  5
10995
  8
0
 62
     5
 10
161.348
 20
142.373
 30
0.0
 70
    32
  0
VERTEX
  5
10996
  8
0
 62
     5
 10
161.348
 20
142.373
 30
0.0
 70
    32
  0
VERTEX
  5
10997
  8
0
 62
     5
 10
161.347
 20
142.373
 30
0.0
 70
    32
  0
VERTEX
  5
10998
  8
0
 62
     5
 10
161.346
 20
142.373
 30
0.0
 70
    32
  0
VERTEX
  5
10999
  8
0
 62
     5
 10
161.346
 20
142.373
 30
0.0
 70
    32
  0
VERTEX
  5
1099A
  8
0
 62
     5
 10
161.345
 20
142.373
 30
0.0
 70
    32
  0
VERTEX
  5
1099B
  8
0
 62
     5
 10
161.344
 20
142.373
 30
0.0
 70
    32
  0
VERTEX
  5
1099C
  8
0
 62
     5
 10
161.344
 20
142.373
 30
0.0
 70
    32
  0
VERTEX
  5
1099D
  8
0
 62
     5
 10
161.343
 20
142.373
 30
0.0
 70
    32
  0
VERTEX
  5
1099E
  8
0
 62
     5
 10
161.342
 20
142.373
 30
0.0
 70
    32
  0
VERTEX
  5
1099F
  8
0
 62
     5
 10
161.342
 20
142.373
 30
0.0
 70
    32
  0
VERTEX
  5
109A0
  8
0
 62
     5
 10
161.341
 20
142.373
 30
0.0
 70
    32
  0
VERTEX
  5
109A1
  8
0
 62
     5
 10
161.34
 20
142.373
 30
0.0
 70
    32
  0
VERTEX
  5
109A2
  8
0
 62
     5
 10
161.34
 20
142.373
 30
0.0
 70
    32
  0
VERTEX
  5
109A3
  8
0
 62
     5
 10
161.339
 20
142.373
 30
0.0
 70
    32
  0
VERTEX
  5
109A4
  8
0
 62
     5
 10
161.338
 20
142.373
 30
0.0
 70
    32
  0
VERTEX
  5
109A5
  8
0
 62
     5
 10
161.338
 20
142.373
 30
0.0
 70
    32
  0
VERTEX
  5
109A6
  8
0
 62
     5
 10
161.337
 20
142.373
 30
0.0
 70
    32
  0
VERTEX
  5
109A7
  8
0
 62
     5
 10
161.336
 20
142.373
 30
0.0
 70
    32
  0
VERTEX
  5
109A8
  8
0
 62
     5
 10
161.336
 20
142.373
 30
0.0
 70
    32
  0
VERTEX
  5
109A9
  8
0
 62
     5
 10
161.335
 20
142.373
 30
0.0
 70
    32
  0
VERTEX
  5
109AA
  8
0
 62
     5
 10
161.334
 20
142.373
 30
0.0
 70
    32
  0
VERTEX
  5
109AB
  8
0
 62
     5
 10
161.334
 20
142.373
 30
0.0
 70
    32
  0
VERTEX
  5
109AC
  8
0
 62
     5
 10
161.333
 20
142.373
 30
0.0
 70
    32
  0
VERTEX
  5
109AD
  8
0
 62
     5
 10
161.332
 20
142.373
 30
0.0
 70
    32
  0
VERTEX
  5
109AE
  8
0
 62
     5
 10
161.332
 20
142.373
 30
0.0
 70
    32
  0
VERTEX
  5
109AF
  8
0
 62
     5
 10
161.331
 20
142.373
 30
0.0
 70
    32
  0
VERTEX
  5
109B0
  8
0
 62
     5
 10
161.33
 20
142.373
 30
0.0
 70
    32
  0
VERTEX
  5
109B1
  8
0
 62
     5
 10
161.33
 20
142.373
 30
0.0
 70
    32
  0
VERTEX
  5
109B2
  8
0
 62
     5
 10
161.329
 20
142.373
 30
0.0
 70
    32
  0
VERTEX
  5
109B3
  8
0
 62
     5
 10
161.328
 20
142.373
 30
0.0
 70
    32
  0
VERTEX
  5
109B4
  8
0
 62
     5
 10
161.328
 20
142.373
 30
0.0
 70
    32
  0
VERTEX
  5
109B5
  8
0
 62
     5
 10
161.327
 20
142.373
 30
0.0
 70
    32
  0
VERTEX
  5
109B6
  8
0
 62
     5
 10
161.326
 20
142.373
 30
0.0
 70
    32
  0
VERTEX
  5
109B7
  8
0
 62
     5
 10
161.326
 20
142.373
 30
0.0
 70
    32
  0
VERTEX
  5
109B8
  8
0
 62
     5
 10
161.325
 20
142.373
 30
0.0
 70
    32
  0
VERTEX
  5
109B9
  8
0
 62
     5
 10
161.324
 20
142.373
 30
0.0
 70
    32
  0
VERTEX
  5
109BA
  8
0
 62
     5
 10
161.324
 20
142.373
 30
0.0
 70
    32
  0
VERTEX
  5
109BB
  8
0
 62
     5
 10
161.323
 20
142.373
 30
0.0
 70
    32
  0
VERTEX
  5
109BC
  8
0
 62
     5
 10
161.322
 20
142.373
 30
0.0
 70
    32
  0
VERTEX
  5
109BD
  8
0
 62
     5
 10
161.322
 20
142.373
 30
0.0
 70
    32
  0
VERTEX
  5
109BE
  8
0
 62
     5
 10
161.321
 20
142.373
 30
0.0
 70
    32
  0
VERTEX
  5
109BF
  8
0
 62
     5
 10
161.32
 20
142.373
 30
0.0
 70
    32
  0
VERTEX
  5
109C0
  8
0
 62
     5
 10
161.32
 20
142.373
 30
0.0
 70
    32
  0
VERTEX
  5
109C1
  8
0
 62
     5
 10
161.319
 20
142.373
 30
0.0
 70
    32
  0
VERTEX
  5
109C2
  8
0
 62
     5
 10
161.318
 20
142.373
 30
0.0
 70
    32
  0
VERTEX
  5
109C3
  8
0
 62
     5
 10
161.318
 20
142.373
 30
0.0
 70
    32
  0
VERTEX
  5
109C4
  8
0
 62
     5
 10
161.317
 20
142.373
 30
0.0
 70
    32
  0
VERTEX
  5
109C5
  8
0
 62
     5
 10
161.316
 20
142.373
 30
0.0
 70
    32
  0
VERTEX
  5
109C6
  8
0
 62
     5
 10
161.316
 20
142.373
 30
0.0
 70
    32
  0
VERTEX
  5
109C7
  8
0
 62
     5
 10
161.315
 20
142.373
 30
0.0
 70
    32
  0
VERTEX
  5
109C8
  8
0
 62
     5
 10
161.314
 20
142.373
 30
0.0
 70
    32
  0
VERTEX
  5
109C9
  8
0
 62
     5
 10
161.314
 20
142.373
 30
0.0
 70
    32
  0
VERTEX
  5
109CA
  8
0
 62
     5
 10
161.313
 20
142.373
 30
0.0
 70
    32
  0
VERTEX
  5
109CB
  8
0
 62
     5
 10
161.312
 20
142.373
 30
0.0
 70
    32
  0
VERTEX
  5
109CC
  8
0
 62
     5
 10
161.312
 20
142.373
 30
0.0
 70
    32
  0
VERTEX
  5
109CD
  8
0
 62
     5
 10
161.311
 20
142.373
 30
0.0
 70
    32
  0
VERTEX
  5
109CE
  8
0
 62
     5
 10
161.31
 20
142.373
 30
0.0
 70
    32
  0
VERTEX
  5
109CF
  8
0
 62
     5
 10
161.31
 20
142.373
 30
0.0
 70
    32
  0
VERTEX
  5
109D0
  8
0
 62
     5
 10
161.309
 20
142.373
 30
0.0
 70
    32
  0
VERTEX
  5
109D1
  8
0
 62
     5
 10
161.308
 20
142.373
 30
0.0
 70
    32
  0
VERTEX
  5
109D2
  8
0
 62
     5
 10
161.308
 20
142.373
 30
0.0
 70
    32
  0
VERTEX
  5
109D3
  8
0
 62
     5
 10
161.307
 20
142.373
 30
0.0
 70
    32
  0
VERTEX
  5
109D4
  8
0
 62
     5
 10
161.306
 20
142.373
 30
0.0
 70
    32
  0
VERTEX
  5
109D5
  8
0
 62
     5
 10
161.306
 20
142.373
 30
0.0
 70
    32
  0
VERTEX
  5
109D6
  8
0
 62
     5
 10
161.305
 20
142.373
 30
0.0
 70
    32
  0
VERTEX
  5
109D7
  8
0
 62
     5
 10
161.304
 20
142.373
 30
0.0
 70
    32
  0
VERTEX
  5
109D8
  8
0
 62
     5
 10
161.304
 20
142.373
 30
0.0
 70
    32
  0
VERTEX
  5
109D9
  8
0
 62
     5
 10
161.303
 20
142.373
 30
0.0
 70
    32
  0
VERTEX
  5
109DA
  8
0
 62
     5
 10
161.302
 20
142.373
 30
0.0
 70
    32
  0
VERTEX
  5
109DB
  8
0
 62
     5
 10
161.302
 20
142.373
 30
0.0
 70
    32
  0
VERTEX
  5
109DC
  8
0
 62
     5
 10
161.301
 20
142.373
 30
0.0
 70
    32
  0
VERTEX
  5
109DD
  8
0
 62
     5
 10
161.3
 20
142.373
 30
0.0
 70
    32
  0
VERTEX
  5
109DE
  8
0
 62
     5
 10
161.3
 20
142.373
 30
0.0
 70
    32
  0
VERTEX
  5
109DF
  8
0
 62
     5
 10
161.299
 20
142.373
 30
0.0
 70
    32
  0
VERTEX
  5
109E0
  8
0
 62
     5
 10
161.298
 20
142.373
 30
0.0
 70
    32
  0
VERTEX
  5
109E1
  8
0
 62
     5
 10
161.298
 20
142.373
 30
0.0
 70
    32
  0
VERTEX
  5
109E2
  8
0
 62
     5
 10
161.297
 20
142.373
 30
0.0
 70
    32
  0
VERTEX
  5
109E3
  8
0
 62
     5
 10
161.296
 20
142.373
 30
0.0
 70
    32
  0
VERTEX
  5
109E4
  8
0
 62
     5
 10
161.295
 20
142.373
 30
0.0
 70
    32
  0
VERTEX
  5
109E5
  8
0
 62
     5
 10
161.295
 20
142.373
 30
0.0
 70
    32
  0
VERTEX
  5
109E6
  8
0
 62
     5
 10
161.294
 20
142.373
 30
0.0
 70
    32
  0
VERTEX
  5
109E7
  8
0
 62
     5
 10
161.293
 20
142.373
 30
0.0
 70
    32
  0
VERTEX
  5
109E8
  8
0
 62
     5
 10
161.293
 20
142.373
 30
0.0
 70
    32
  0
VERTEX
  5
109E9
  8
0
 62
     5
 10
161.292
 20
142.373
 30
0.0
 70
    32
  0
VERTEX
  5
109EA
  8
0
 62
     5
 10
161.291
 20
142.373
 30
0.0
 70
    32
  0
VERTEX
  5
109EB
  8
0
 62
     5
 10
161.291
 20
142.373
 30
0.0
 70
    32
  0
VERTEX
  5
109EC
  8
0
 62
     5
 10
161.29
 20
142.373
 30
0.0
 70
    32
  0
VERTEX
  5
109ED
  8
0
 62
     5
 10
161.289
 20
142.373
 30
0.0
 70
    32
  0
VERTEX
  5
109EE
  8
0
 62
     5
 10
161.289
 20
142.373
 30
0.0
 70
    32
  0
VERTEX
  5
109EF
  8
0
 62
     5
 10
161.288
 20
142.373
 30
0.0
 70
    32
  0
VERTEX
  5
109F0
  8
0
 62
     5
 10
161.287
 20
142.373
 30
0.0
 70
    32
  0
VERTEX
  5
109F1
  8
0
 62
     5
 10
161.287
 20
142.373
 30
0.0
 70
    32
  0
VERTEX
  5
109F2
  8
0
 62
     5
 10
161.286
 20
142.373
 30
0.0
 70
    32
  0
VERTEX
  5
109F3
  8
0
 62
     5
 10
161.285
 20
142.373
 30
0.0
 70
    32
  0
VERTEX
  5
109F4
  8
0
 62
     5
 10
161.285
 20
142.373
 30
0.0
 70
    32
  0
VERTEX
  5
109F5
  8
0
 62
     5
 10
161.284
 20
142.373
 30
0.0
 70
    32
  0
VERTEX
  5
109F6
  8
0
 62
     5
 10
161.283
 20
142.373
 30
0.0
 70
    32
  0
VERTEX
  5
109F7
  8
0
 62
     5
 10
161.283
 20
142.373
 30
0.0
 70
    32
  0
VERTEX
  5
109F8
  8
0
 62
     5
 10
161.282
 20
142.373
 30
0.0
 70
    32
  0
VERTEX
  5
109F9
  8
0
 62
     5
 10
161.281
 20
142.373
 30
0.0
 70
    32
  0
VERTEX
  5
109FA
  8
0
 62
     5
 10
161.281
 20
142.373
 30
0.0
 70
    32
  0
VERTEX
  5
109FB
  8
0
 62
     5
 10
161.28
 20
142.373
 30
0.0
 70
    32
  0
VERTEX
  5
109FC
  8
0
 62
     5
 10
161.279
 20
142.373
 30
0.0
 70
    32
  0
VERTEX
  5
109FD
  8
0
 62
     5
 10
161.279
 20
142.373
 30
0.0
 70
    32
  0
VERTEX
  5
109FE
  8
0
 62
     5
 10
161.278
 20
142.373
 30
0.0
 70
    32
  0
VERTEX
  5
109FF
  8
0
 62
     5
 10
161.277
 20
142.373
 30
0.0
 70
    32
  0
VERTEX
  5
10A00
  8
0
 62
     5
 10
161.277
 20
142.373
 30
0.0
 70
    32
  0
VERTEX
  5
10A01
  8
0
 62
     5
 10
161.276
 20
142.373
 30
0.0
 70
    32
  0
VERTEX
  5
10A02
  8
0
 62
     5
 10
161.275
 20
142.373
 30
0.0
 70
    32
  0
VERTEX
  5
10A03
  8
0
 62
     5
 10
161.275
 20
142.373
 30
0.0
 70
    32
  0
VERTEX
  5
10A04
  8
0
 62
     5
 10
161.274
 20
142.373
 30
0.0
 70
    32
  0
VERTEX
  5
10A05
  8
0
 62
     5
 10
161.273
 20
142.373
 30
0.0
 70
    32
  0
VERTEX
  5
10A06
  8
0
 62
     5
 10
161.273
 20
142.373
 30
0.0
 70
    32
  0
VERTEX
  5
10A07
  8
0
 62
     5
 10
161.272
 20
142.373
 30
0.0
 70
    32
  0
VERTEX
  5
10A08
  8
0
 62
     5
 10
161.271
 20
142.373
 30
0.0
 70
    32
  0
VERTEX
  5
10A09
  8
0
 62
     5
 10
161.271
 20
142.373
 30
0.0
 70
    32
  0
VERTEX
  5
10A0A
  8
0
 62
     5
 10
161.27
 20
142.373
 30
0.0
 70
    32
  0
VERTEX
  5
10A0B
  8
0
 62
     5
 10
161.269
 20
142.373
 30
0.0
 70
    32
  0
VERTEX
  5
10A0C
  8
0
 62
     5
 10
161.269
 20
142.373
 30
0.0
 70
    32
  0
VERTEX
  5
10A0D
  8
0
 62
     5
 10
161.268
 20
142.373
 30
0.0
 70
    32
  0
VERTEX
  5
10A0E
  8
0
 62
     5
 10
161.267
 20
142.373
 30
0.0
 70
    32
  0
VERTEX
  5
10A0F
  8
0
 62
     5
 10
161.267
 20
142.373
 30
0.0
 70
    32
  0
VERTEX
  5
10A10
  8
0
 62
     5
 10
161.266
 20
142.373
 30
0.0
 70
    32
  0
VERTEX
  5
10A11
  8
0
 62
     5
 10
161.265
 20
142.373
 30
0.0
 70
    32
  0
VERTEX
  5
10A12
  8
0
 62
     5
 10
161.265
 20
142.372
 30
0.0
 70
    32
  0
VERTEX
  5
10A13
  8
0
 62
     5
 10
161.264
 20
142.372
 30
0.0
 70
    32
  0
VERTEX
  5
10A14
  8
0
 62
     5
 10
161.263
 20
142.372
 30
0.0
 70
    32
  0
VERTEX
  5
10A15
  8
0
 62
     5
 10
161.263
 20
142.372
 30
0.0
 70
    32
  0
VERTEX
  5
10A16
  8
0
 62
     5
 10
161.262
 20
142.372
 30
0.0
 70
    32
  0
VERTEX
  5
10A17
  8
0
 62
     5
 10
161.261
 20
142.372
 30
0.0
 70
    32
  0
VERTEX
  5
10A18
  8
0
 62
     5
 10
161.261
 20
142.372
 30
0.0
 70
    32
  0
VERTEX
  5
10A19
  8
0
 62
     5
 10
161.26
 20
142.372
 30
0.0
 70
    32
  0
VERTEX
  5
10A1A
  8
0
 62
     5
 10
161.259
 20
142.372
 30
0.0
 70
    32
  0
VERTEX
  5
10A1B
  8
0
 62
     5
 10
161.259
 20
142.372
 30
0.0
 70
    32
  0
VERTEX
  5
10A1C
  8
0
 62
     5
 10
161.258
 20
142.372
 30
0.0
 70
    32
  0
VERTEX
  5
10A1D
  8
0
 62
     5
 10
161.257
 20
142.372
 30
0.0
 70
    32
  0
VERTEX
  5
10A1E
  8
0
 62
     5
 10
161.257
 20
142.372
 30
0.0
 70
    32
  0
VERTEX
  5
10A1F
  8
0
 62
     5
 10
161.256
 20
142.372
 30
0.0
 70
    32
  0
VERTEX
  5
10A20
  8
0
 62
     5
 10
161.255
 20
142.372
 30
0.0
 70
    32
  0
VERTEX
  5
10A21
  8
0
 62
     5
 10
161.255
 20
142.372
 30
0.0
 70
    32
  0
VERTEX
  5
10A22
  8
0
 62
     5
 10
161.254
 20
142.372
 30
0.0
 70
    32
  0
VERTEX
  5
10A23
  8
0
 62
     5
 10
161.253
 20
142.372
 30
0.0
 70
    32
  0
VERTEX
  5
10A24
  8
0
 62
     5
 10
161.253
 20
142.372
 30
0.0
 70
    32
  0
VERTEX
  5
10A25
  8
0
 62
     5
 10
161.252
 20
142.372
 30
0.0
 70
    32
  0
VERTEX
  5
10A26
  8
0
 62
     5
 10
161.251
 20
142.372
 30
0.0
 70
    32
  0
VERTEX
  5
10A27
  8
0
 62
     5
 10
161.251
 20
142.372
 30
0.0
 70
    32
  0
VERTEX
  5
10A28
  8
0
 62
     5
 10
161.25
 20
142.372
 30
0.0
 70
    32
  0
VERTEX
  5
10A29
  8
0
 62
     5
 10
161.249
 20
142.372
 30
0.0
 70
    32
  0
VERTEX
  5
10A2A
  8
0
 62
     5
 10
161.249
 20
142.372
 30
0.0
 70
    32
  0
VERTEX
  5
10A2B
  8
0
 62
     5
 10
161.248
 20
142.372
 30
0.0
 70
    32
  0
VERTEX
  5
10A2C
  8
0
 62
     5
 10
161.247
 20
142.372
 30
0.0
 70
    32
  0
VERTEX
  5
10A2D
  8
0
 62
     5
 10
161.247
 20
142.372
 30
0.0
 70
    32
  0
VERTEX
  5
10A2E
  8
0
 62
     5
 10
161.246
 20
142.372
 30
0.0
 70
    32
  0
SEQEND
  5
10A2F
  8
0
 62
     5
  0
POLYLINE
  5
10A30
  8
0
 62
     5
 66
     1
 10
0.0
 20
0.0
 30
0.0
 70
     8
  0
VERTEX
  5
10A31
  8
0
 62
     5
 10
161.246
 20
142.372
 30
0.0
 70
    32
  0
VERTEX
  5
10A32
  8
0
 62
     5
 10
161.246
 20
142.372
 30
0.0
 70
    32
  0
VERTEX
  5
10A33
  8
0
 62
     5
 10
161.246
 20
142.372
 30
0.0
 70
    32
  0
VERTEX
  5
10A34
  8
0
 62
     5
 10
161.246
 20
142.372
 30
0.0
 70
    32
  0
VERTEX
  5
10A35
  8
0
 62
     5
 10
161.246
 20
142.372
 30
0.0
 70
    32
  0
VERTEX
  5
10A36
  8
0
 62
     5
 10
161.246
 20
142.372
 30
0.0
 70
    32
  0
VERTEX
  5
10A37
  8
0
 62
     5
 10
161.246
 20
142.372
 30
0.0
 70
    32
  0
VERTEX
  5
10A38
  8
0
 62
     5
 10
161.246
 20
142.372
 30
0.0
 70
    32
  0
VERTEX
  5
10A39
  8
0
 62
     5
 10
161.246
 20
142.372
 30
0.0
 70
    32
  0
VERTEX
  5
10A3A
  8
0
 62
     5
 10
161.246
 20
142.372
 30
0.0
 70
    32
  0
VERTEX
  5
10A3B
  8
0
 62
     5
 10
161.246
 20
142.372
 30
0.0
 70
    32
  0
VERTEX
  5
10A3C
  8
0
 62
     5
 10
161.246
 20
142.372
 30
0.0
 70
    32
  0
VERTEX
  5
10A3D
  8
0
 62
     5
 10
161.246
 20
142.372
 30
0.0
 70
    32
  0
VERTEX
  5
10A3E
  8
0
 62
     5
 10
161.246
 20
142.372
 30
0.0
 70
    32
  0
VERTEX
  5
10A3F
  8
0
 62
     5
 10
161.246
 20
142.372
 30
0.0
 70
    32
  0
VERTEX
  5
10A40
  8
0
 62
     5
 10
161.246
 20
142.372
 30
0.0
 70
    32
  0
VERTEX
  5
10A41
  8
0
 62
     5
 10
161.246
 20
142.372
 30
0.0
 70
    32
  0
VERTEX
  5
10A42
  8
0
 62
     5
 10
161.246
 20
142.372
 30
0.0
 70
    32
  0
VERTEX
  5
10A43
  8
0
 62
     5
 10
161.246
 20
142.372
 30
0.0
 70
    32
  0
VERTEX
  5
10A44
  8
0
 62
     5
 10
161.246
 20
142.372
 30
0.0
 70
    32
  0
VERTEX
  5
10A45
  8
0
 62
     5
 10
161.246
 20
142.372
 30
0.0
 70
    32
  0
VERTEX
  5
10A46
  8
0
 62
     5
 10
161.246
 20
142.372
 30
0.0
 70
    32
  0
VERTEX
  5
10A47
  8
0
 62
     5
 10
161.246
 20
142.372
 30
0.0
 70
    32
  0
VERTEX
  5
10A48
  8
0
 62
     5
 10
161.246
 20
142.372
 30
0.0
 70
    32
  0
VERTEX
  5
10A49
  8
0
 62
     5
 10
161.246
 20
142.372
 30
0.0
 70
    32
  0
VERTEX
  5
10A4A
  8
0
 62
     5
 10
161.246
 20
142.372
 30
0.0
 70
    32
  0
VERTEX
  5
10A4B
  8
0
 62
     5
 10
161.246
 20
142.372
 30
0.0
 70
    32
  0
VERTEX
  5
10A4C
  8
0
 62
     5
 10
161.246
 20
142.372
 30
0.0
 70
    32
  0
VERTEX
  5
10A4D
  8
0
 62
     5
 10
161.246
 20
142.372
 30
0.0
 70
    32
  0
VERTEX
  5
10A4E
  8
0
 62
     5
 10
161.246
 20
142.372
 30
0.0
 70
    32
  0
VERTEX
  5
10A4F
  8
0
 62
     5
 10
161.246
 20
142.372
 30
0.0
 70
    32
  0
VERTEX
  5
10A50
  8
0
 62
     5
 10
161.246
 20
142.372
 30
0.0
 70
    32
  0
VERTEX
  5
10A51
  8
0
 62
     5
 10
161.246
 20
142.372
 30
0.0
 70
    32
  0
VERTEX
  5
10A52
  8
0
 62
     5
 10
161.246
 20
142.372
 30
0.0
 70
    32
  0
VERTEX
  5
10A53
  8
0
 62
     5
 10
161.246
 20
142.372
 30
0.0
 70
    32
  0
VERTEX
  5
10A54
  8
0
 62
     5
 10
161.246
 20
142.372
 30
0.0
 70
    32
  0
VERTEX
  5
10A55
  8
0
 62
     5
 10
161.246
 20
142.372
 30
0.0
 70
    32
  0
VERTEX
  5
10A56
  8
0
 62
     5
 10
161.246
 20
142.372
 30
0.0
 70
    32
  0
VERTEX
  5
10A57
  8
0
 62
     5
 10
161.246
 20
142.372
 30
0.0
 70
    32
  0
VERTEX
  5
10A58
  8
0
 62
     5
 10
161.246
 20
142.372
 30
0.0
 70
    32
  0
VERTEX
  5
10A59
  8
0
 62
     5
 10
161.246
 20
142.372
 30
0.0
 70
    32
  0
VERTEX
  5
10A5A
  8
0
 62
     5
 10
161.246
 20
142.372
 30
0.0
 70
    32
  0
VERTEX
  5
10A5B
  8
0
 62
     5
 10
161.246
 20
142.372
 30
0.0
 70
    32
  0
VERTEX
  5
10A5C
  8
0
 62
     5
 10
161.246
 20
142.372
 30
0.0
 70
    32
  0
VERTEX
  5
10A5D
  8
0
 62
     5
 10
161.246
 20
142.372
 30
0.0
 70
    32
  0
VERTEX
  5
10A5E
  8
0
 62
     5
 10
161.246
 20
142.372
 30
0.0
 70
    32
  0
VERTEX
  5
10A5F
  8
0
 62
     5
 10
161.246
 20
142.372
 30
0.0
 70
    32
  0
VERTEX
  5
10A60
  8
0
 62
     5
 10
161.246
 20
142.372
 30
0.0
 70
    32
  0
VERTEX
  5
10A61
  8
0
 62
     5
 10
161.246
 20
142.372
 30
0.0
 70
    32
  0
VERTEX
  5
10A62
  8
0
 62
     5
 10
161.246
 20
142.372
 30
0.0
 70
    32
  0
VERTEX
  5
10A63
  8
0
 62
     5
 10
161.246
 20
142.372
 30
0.0
 70
    32
  0
VERTEX
  5
10A64
  8
0
 62
     5
 10
161.246
 20
142.372
 30
0.0
 70
    32
  0
VERTEX
  5
10A65
  8
0
 62
     5
 10
161.246
 20
142.372
 30
0.0
 70
    32
  0
VERTEX
  5
10A66
  8
0
 62
     5
 10
161.246
 20
142.372
 30
0.0
 70
    32
  0
VERTEX
  5
10A67
  8
0
 62
     5
 10
161.246
 20
142.372
 30
0.0
 70
    32
  0
VERTEX
  5
10A68
  8
0
 62
     5
 10
161.246
 20
142.372
 30
0.0
 70
    32
  0
VERTEX
  5
10A69
  8
0
 62
     5
 10
161.246
 20
142.372
 30
0.0
 70
    32
  0
VERTEX
  5
10A6A
  8
0
 62
     5
 10
161.246
 20
142.372
 30
0.0
 70
    32
  0
VERTEX
  5
10A6B
  8
0
 62
     5
 10
161.246
 20
142.372
 30
0.0
 70
    32
  0
VERTEX
  5
10A6C
  8
0
 62
     5
 10
161.246
 20
142.372
 30
0.0
 70
    32
  0
VERTEX
  5
10A6D
  8
0
 62
     5
 10
161.246
 20
142.372
 30
0.0
 70
    32
  0
VERTEX
  5
10A6E
  8
0
 62
     5
 10
161.246
 20
142.372
 30
0.0
 70
    32
  0
VERTEX
  5
10A6F
  8
0
 62
     5
 10
161.246
 20
142.372
 30
0.0
 70
    32
  0
VERTEX
  5
10A70
  8
0
 62
     5
 10
161.246
 20
142.372
 30
0.0
 70
    32
  0
VERTEX
  5
10A71
  8
0
 62
     5
 10
161.246
 20
142.372
 30
0.0
 70
    32
  0
VERTEX
  5
10A72
  8
0
 62
     5
 10
161.246
 20
142.372
 30
0.0
 70
    32
  0
VERTEX
  5
10A73
  8
0
 62
     5
 10
161.246
 20
142.372
 30
0.0
 70
    32
  0
VERTEX
  5
10A74
  8
0
 62
     5
 10
161.246
 20
142.372
 30
0.0
 70
    32
  0
VERTEX
  5
10A75
  8
0
 62
     5
 10
161.246
 20
142.372
 30
0.0
 70
    32
  0
VERTEX
  5
10A76
  8
0
 62
     5
 10
161.246
 20
142.372
 30
0.0
 70
    32
  0
VERTEX
  5
10A77
  8
0
 62
     5
 10
161.246
 20
142.372
 30
0.0
 70
    32
  0
VERTEX
  5
10A78
  8
0
 62
     5
 10
161.246
 20
142.372
 30
0.0
 70
    32
  0
VERTEX
  5
10A79
  8
0
 62
     5
 10
161.246
 20
142.372
 30
0.0
 70
    32
  0
VERTEX
  5
10A7A
  8
0
 62
     5
 10
161.246
 20
142.372
 30
0.0
 70
    32
  0
VERTEX
  5
10A7B
  8
0
 62
     5
 10
161.246
 20
142.372
 30
0.0
 70
    32
  0
VERTEX
  5
10A7C
  8
0
 62
     5
 10
161.246
 20
142.372
 30
0.0
 70
    32
  0
VERTEX
  5
10A7D
  8
0
 62
     5
 10
161.246
 20
142.372
 30
0.0
 70
    32
  0
VERTEX
  5
10A7E
  8
0
 62
     5
 10
161.246
 20
142.372
 30
0.0
 70
    32
  0
VERTEX
  5
10A7F
  8
0
 62
     5
 10
161.246
 20
142.372
 30
0.0
 70
    32
  0
VERTEX
  5
10A80
  8
0
 62
     5
 10
161.246
 20
142.372
 30
0.0
 70
    32
  0
VERTEX
  5
10A81
  8
0
 62
     5
 10
161.246
 20
142.372
 30
0.0
 70
    32
  0
VERTEX
  5
10A82
  8
0
 62
     5
 10
161.246
 20
142.372
 30
0.0
 70
    32
  0
VERTEX
  5
10A83
  8
0
 62
     5
 10
161.246
 20
142.372
 30
0.0
 70
    32
  0
VERTEX
  5
10A84
  8
0
 62
     5
 10
161.246
 20
142.372
 30
0.0
 70
    32
  0
VERTEX
  5
10A85
  8
0
 62
     5
 10
161.246
 20
142.372
 30
0.0
 70
    32
  0
VERTEX
  5
10A86
  8
0
 62
     5
 10
161.245
 20
142.372
 30
0.0
 70
    32
  0
VERTEX
  5
10A87
  8
0
 62
     5
 10
161.245
 20
142.372
 30
0.0
 70
    32
  0
VERTEX
  5
10A88
  8
0
 62
     5
 10
161.245
 20
142.372
 30
0.0
 70
    32
  0
VERTEX
  5
10A89
  8
0
 62
     5
 10
161.245
 20
142.372
 30
0.0
 70
    32
  0
VERTEX
  5
10A8A
  8
0
 62
     5
 10
161.245
 20
142.372
 30
0.0
 70
    32
  0
VERTEX
  5
10A8B
  8
0
 62
     5
 10
161.245
 20
142.372
 30
0.0
 70
    32
  0
VERTEX
  5
10A8C
  8
0
 62
     5
 10
161.245
 20
142.372
 30
0.0
 70
    32
  0
VERTEX
  5
10A8D
  8
0
 62
     5
 10
161.245
 20
142.372
 30
0.0
 70
    32
  0
VERTEX
  5
10A8E
  8
0
 62
     5
 10
161.245
 20
142.372
 30
0.0
 70
    32
  0
VERTEX
  5
10A8F
  8
0
 62
     5
 10
161.245
 20
142.372
 30
0.0
 70
    32
  0
VERTEX
  5
10A90
  8
0
 62
     5
 10
161.245
 20
142.372
 30
0.0
 70
    32
  0
VERTEX
  5
10A91
  8
0
 62
     5
 10
161.245
 20
142.372
 30
0.0
 70
    32
  0
VERTEX
  5
10A92
  8
0
 62
     5
 10
161.245
 20
142.372
 30
0.0
 70
    32
  0
VERTEX
  5
10A93
  8
0
 62
     5
 10
161.245
 20
142.372
 30
0.0
 70
    32
  0
VERTEX
  5
10A94
  8
0
 62
     5
 10
161.245
 20
142.372
 30
0.0
 70
    32
  0
VERTEX
  5
10A95
  8
0
 62
     5
 10
161.245
 20
142.372
 30
0.0
 70
    32
  0
VERTEX
  5
10A96
  8
0
 62
     5
 10
161.245
 20
142.372
 30
0.0
 70
    32
  0
VERTEX
  5
10A97
  8
0
 62
     5
 10
161.245
 20
142.372
 30
0.0
 70
    32
  0
VERTEX
  5
10A98
  8
0
 62
     5
 10
161.245
 20
142.372
 30
0.0
 70
    32
  0
VERTEX
  5
10A99
  8
0
 62
     5
 10
161.245
 20
142.372
 30
0.0
 70
    32
  0
VERTEX
  5
10A9A
  8
0
 62
     5
 10
161.245
 20
142.372
 30
0.0
 70
    32
  0
VERTEX
  5
10A9B
  8
0
 62
     5
 10
161.245
 20
142.372
 30
0.0
 70
    32
  0
VERTEX
  5
10A9C
  8
0
 62
     5
 10
161.245
 20
142.372
 30
0.0
 70
    32
  0
VERTEX
  5
10A9D
  8
0
 62
     5
 10
161.245
 20
142.372
 30
0.0
 70
    32
  0
VERTEX
  5
10A9E
  8
0
 62
     5
 10
161.245
 20
142.372
 30
0.0
 70
    32
  0
VERTEX
  5
10A9F
  8
0
 62
     5
 10
161.245
 20
142.372
 30
0.0
 70
    32
  0
VERTEX
  5
10AA0
  8
0
 62
     5
 10
161.245
 20
142.372
 30
0.0
 70
    32
  0
VERTEX
  5
10AA1
  8
0
 62
     5
 10
161.245
 20
142.372
 30
0.0
 70
    32
  0
VERTEX
  5
10AA2
  8
0
 62
     5
 10
161.245
 20
142.372
 30
0.0
 70
    32
  0
VERTEX
  5
10AA3
  8
0
 62
     5
 10
161.245
 20
142.372
 30
0.0
 70
    32
  0
VERTEX
  5
10AA4
  8
0
 62
     5
 10
161.245
 20
142.372
 30
0.0
 70
    32
  0
VERTEX
  5
10AA5
  8
0
 62
     5
 10
161.245
 20
142.372
 30
0.0
 70
    32
  0
VERTEX
  5
10AA6
  8
0
 62
     5
 10
161.245
 20
142.372
 30
0.0
 70
    32
  0
VERTEX
  5
10AA7
  8
0
 62
     5
 10
161.245
 20
142.372
 30
0.0
 70
    32
  0
VERTEX
  5
10AA8
  8
0
 62
     5
 10
161.245
 20
142.372
 30
0.0
 70
    32
  0
VERTEX
  5
10AA9
  8
0
 62
     5
 10
161.245
 20
142.372
 30
0.0
 70
    32
  0
VERTEX
  5
10AAA
  8
0
 62
     5
 10
161.245
 20
142.372
 30
0.0
 70
    32
  0
VERTEX
  5
10AAB
  8
0
 62
     5
 10
161.245
 20
142.372
 30
0.0
 70
    32
  0
VERTEX
  5
10AAC
  8
0
 62
     5
 10
161.245
 20
142.372
 30
0.0
 70
    32
  0
VERTEX
  5
10AAD
  8
0
 62
     5
 10
161.245
 20
142.372
 30
0.0
 70
    32
  0
VERTEX
  5
10AAE
  8
0
 62
     5
 10
161.245
 20
142.372
 30
0.0
 70
    32
  0
VERTEX
  5
10AAF
  8
0
 62
     5
 10
161.245
 20
142.372
 30
0.0
 70
    32
  0
VERTEX
  5
10AB0
  8
0
 62
     5
 10
161.245
 20
142.372
 30
0.0
 70
    32
  0
SEQEND
  5
10AB1
  8
0
 62
     5
  0
ARC
  5
10AB2
  8
0
 62
     5
 10
164.306133
 20
143.976258
 30
0.0
 40
1.0
 50
196.957715
 51
269.999986
  0
POLYLINE
  5
10AB3
  8
0
 62
     5
 66
     1
 10
0.0
 20
0.0
 30
0.0
  0
VERTEX
  5
10D04
  8
0
 62
     5
 10
170.045253
 20
142.063545
 30
0.0
  0
VERTEX
  5
10D05
  8
0
 62
     5
 10
170.060945
 20
142.06416
 30
0.0
  0
VERTEX
  5
10D06
  8
0
 62
     5
 10
170.07654
 20
142.066002
 30
0.0
  0
VERTEX
  5
10D07
  8
0
 62
     5
 10
170.091942
 20
142.069059
 30
0.0
  0
VERTEX
  5
10D08
  8
0
 62
     5
 10
170.107057
 20
142.073313
 30
0.0
  0
VERTEX
  5
10D09
  8
0
 62
     5
 10
170.12179
 20
142.078737
 30
0.0
  0
VERTEX
  5
10D0A
  8
0
 62
     5
 10
170.136052
 20
142.085298
 30
0.0
  0
VERTEX
  5
10D0B
  8
0
 62
     5
 10
170.149753
 20
142.092956
 30
0.0
  0
VERTEX
  5
10D0C
  8
0
 62
     5
 10
170.16281
 20
142.101662
 30
0.0
  0
VERTEX
  5
10D0D
  8
0
 62
     5
 10
170.175143
 20
142.111364
 30
0.0
  0
VERTEX
  5
10D0E
  8
0
 62
     5
 10
170.186675
 20
142.122002
 30
0.0
  0
VERTEX
  5
10D0F
  8
0
 62
     5
 10
170.197335
 20
142.13351
 30
0.0
  0
VERTEX
  5
10D10
  8
0
 62
     5
 10
170.207057
 20
142.145817
 30
0.0
  0
VERTEX
  5
10D11
  8
0
 62
     5
 10
170.215781
 20
142.158847
 30
0.0
  0
VERTEX
  5
10D12
  8
0
 62
     5
 10
170.223455
 20
142.172521
 30
0.0
  0
VERTEX
  5
10D13
  8
0
 62
     5
 10
170.230029
 20
142.186752
 30
0.0
  0
VERTEX
  5
10D14
  8
0
 62
     5
 10
170.235465
 20
142.201455
 30
0.0
  0
VERTEX
  5
10D15
  8
0
 62
     5
 10
170.239727
 20
142.216538
 30
0.0
  0
VERTEX
  5
10D16
  8
0
 62
     5
 10
170.242791
 20
142.231909
 30
0.0
  0
VERTEX
  5
10D17
  8
0
 62
     5
 10
170.244637
 20
142.247471
 30
0.0
  0
VERTEX
  5
10D18
  8
0
 62
     5
 10
170.245253
 20
142.263131
 30
0.0
  0
SEQEND
  5
10D19
  8
0
 62
     5
  0
LINE
  5
10ACA
  8
0
 62
     5
 10
165.745253
 20
142.063545
 30
0.0
 11
170.045253
 21
142.063545
 31
0.0
  0
LINE
  5
10ACB
  8
0
 62
     5
 10
165.745253
 20
148.676258
 30
0.0
 11
165.045253
 21
148.676258
 31
0.0
  0
LINE
  5
10ACC
  8
0
 62
     5
 10
165.745253
 20
149.22222
 30
0.0
 11
161.545253
 21
149.22222
 31
0.0
  0
LINE
  5
10ACD
  8
0
 62
     5
 10
163.294142
 20
147.576258
 30
0.0
 11
163.294142
 21
147.554946
 31
0.0
  0
LINE
  5
10ACE
  8
0
 62
     5
 10
163.294142
 20
146.006258
 30
0.0
 11
163.294142
 21
145.446258
 31
0.0
  0
LINE
  5
10ACF
  8
0
 62
     5
 10
163.294142
 20
147.576258
 30
0.0
 11
163.349613
 21
147.767924
 31
0.0
  0
LINE
  5
10AD0
  8
0
 62
     5
 10
163.294142
 20
145.446258
 30
0.0
 11
163.166879
 21
145.446258
 31
0.0
  0
LINE
  5
10AD1
  8
0
 62
     5
 10
163.166879
 20
146.006258
 30
0.0
 11
163.294142
 21
146.006258
 31
0.0
  0
LINE
  5
10AD2
  8
0
 62
     5
 10
164.306133
 20
148.476258
 30
0.0
 11
165.045253
 21
148.476258
 31
0.0
  0
ARC
  5
10AD3
  8
0
 62
     5
 10
164.306133
 20
147.476258
 30
0.0
 40
1.0
 50
90.000014
 51
163.042285
  0
ARC
  5
10AD4
  8
0
 62
     5
 10
161.545253
 20
148.92222
 30
0.0
 40
0.3
 50
90.0
 51
180.0
  0
LINE
  5
10AD5
  8
0
 62
     5
 10
160.745253
 20
174.52222
 30
0.0
 11
142.745253
 21
174.52222
 31
0.0
  0
ARC
  5
10AD6
  8
0
 62
     5
 10
142.745253
 20
173.52222
 30
0.0
 40
1.0
 50
90.0
 51
180.0
  0
LINE
  5
10AD7
  8
0
 62
     5
 10
160.745253
 20
175.389018
 30
0.0
 11
160.045253
 21
175.389018
 31
0.0
  0
LINE
  5
10AD8
  8
0
 62
     5
 10
158.13669
 20
178.685951
 30
0.0
 11
158.13669
 21
179.38425
 31
0.0
  0
LINE
  5
10AD9
  8
0
 62
     5
 10
158.380392
 20
180.118182
 30
0.0
 11
158.380392
 21
180.096271
 31
0.0
  0
LINE
  5
10ADA
  8
0
 62
     5
 10
158.160686
 20
178.598182
 30
0.0
 11
158.380392
 21
178.598182
 31
0.0
  0
LINE
  5
10ADB
  8
0
 62
     5
 10
158.13669
 20
177.950412
 30
0.0
 11
158.13669
 21
177.252114
 31
0.0
  0
LINE
  5
10ADC
  8
0
 62
     5
 10
158.380392
 20
176.540093
 30
0.0
 11
158.380392
 21
176.518182
 31
0.0
  0
LINE
  5
10ADD
  8
0
 62
     5
 10
158.380392
 20
178.038182
 30
0.0
 11
158.160686
 21
178.038182
 31
0.0
  0
ARC
  5
10ADE
  8
0
 62
     5
 10
160.045253
 20
177.502005
 30
0.0
 40
1.933824
 50
210.580287
 51
270.0
  0
LINE
  5
10ADF
  8
0
 62
     5
 10
158.380392
 20
178.598182
 30
0.0
 11
158.380392
 21
178.038182
 31
0.0
  0
LINE
  5
10AE0
  8
0
 62
     5
 10
160.745253
 20
175.318182
 30
0.0
 11
161.245253
 21
175.318182
 31
0.0
  0
ARC
  5
10AE1
  8
0
 62
     5
 10
160.745253
 20
175.02222
 30
0.0
 40
0.5
 50
270.0
 51
0.0
  0
ARC
  5
10AE2
  8
0
 62
     5
 10
93.588905
 20
187.52222
 30
0.0
 40
4.5
 50
0.0
 51
90.0
  0
ARC
  5
10AE3
  8
CENTER
 10
68.088905
 20
162.02222
 30
0.0
 40
35.0
 50
36.254023
 51
54.381034
  0
CIRCLE
  5
10AE4
  8
0
 62
     5
 10
92.837642
 20
186.770957
 30
0.0
 40
2.9
  0
ARC
  5
10AE5
  8
0
 62
     5
 10
68.088905
 20
-197.23235
 30
0.0
 40
380.266164
 50
85.574357
 51
86.312428
  0
ARC
  5
10AE6
  8
0
 62
     5
 10
68.088905
 20
-197.23235
 30
0.0
 40
380.0
 50
85.611601
 51
86.312428
  0
ARC
  5
10AE7
  8
0
 62
     5
 10
89.588905
 20
181.966199
 30
0.0
 40
1.0
 50
0.0
 51
55.93541
  0
LINE
  5
10AE8
  8
0
 62
     5
 10
98.088905
 20
187.52222
 30
0.0
 11
98.088905
 21
181.581589
 31
0.0
  0
LINE
  5
10AE9
  8
0
 62
     5
 10
142.745253
 20
185.02222
 30
0.0
 11
157.746147
 21
185.02222
 31
0.0
  0
LINE
  5
10AEA
  8
0
 62
     5
 10
141.745253
 20
181.966199
 30
0.0
 11
161.245253
 21
181.966199
 31
0.0
  0
LINE
  5
10AEB
  8
0
 62
     5
 10
142.745253
 20
192.02222
 30
0.0
 11
165.745253
 21
192.02222
 31
0.0
  0
ARC
  5
10AEC
  8
0
 62
     5
 10
142.745253
 20
184.02222
 30
0.0
 40
1.0
 50
90.0
 51
180.0
  0
ARC
  5
10AED
  8
0
 62
     5
 10
142.745253
 20
191.02222
 30
0.0
 40
1.0
 50
90.0
 51
180.0
  0
LINE
  5
10AEE
  8
0
 62
     5
 10
160.745253
 20
181.268182
 30
0.0
 11
160.045253
 21
181.268182
 31
0.0
  0
LINE
  5
10AEF
  8
0
 62
     5
 10
158.245253
 20
185.52222
 30
0.0
 11
158.245253
 21
191.52222
 31
0.0
  0
POLYLINE
  5
10AF0
  8
0
 62
     5
 66
     1
 10
0.0
 20
0.0
 30
0.0
 70
     8
  0
VERTEX
  5
10AF1
  8
0
 62
     5
 10
158.246
 20
185.517
 30
0.0
 70
    32
  0
VERTEX
  5
10AF2
  8
0
 62
     5
 10
158.246
 20
185.517
 30
0.0
 70
    32
  0
VERTEX
  5
10AF3
  8
0
 62
     5
 10
158.246
 20
185.517
 30
0.0
 70
    32
  0
VERTEX
  5
10AF4
  8
0
 62
     5
 10
158.246
 20
185.517
 30
0.0
 70
    32
  0
VERTEX
  5
10AF5
  8
0
 62
     5
 10
158.246
 20
185.517
 30
0.0
 70
    32
  0
VERTEX
  5
10AF6
  8
0
 62
     5
 10
158.246
 20
185.517
 30
0.0
 70
    32
  0
VERTEX
  5
10AF7
  8
0
 62
     5
 10
158.246
 20
185.517
 30
0.0
 70
    32
  0
VERTEX
  5
10AF8
  8
0
 62
     5
 10
158.246
 20
185.517
 30
0.0
 70
    32
  0
VERTEX
  5
10AF9
  8
0
 62
     5
 10
158.246
 20
185.517
 30
0.0
 70
    32
  0
VERTEX
  5
10AFA
  8
0
 62
     5
 10
158.246
 20
185.517
 30
0.0
 70
    32
  0
VERTEX
  5
10AFB
  8
0
 62
     5
 10
158.246
 20
185.518
 30
0.0
 70
    32
  0
VERTEX
  5
10AFC
  8
0
 62
     5
 10
158.246
 20
185.518
 30
0.0
 70
    32
  0
VERTEX
  5
10AFD
  8
0
 62
     5
 10
158.246
 20
185.518
 30
0.0
 70
    32
  0
VERTEX
  5
10AFE
  8
0
 62
     5
 10
158.246
 20
185.518
 30
0.0
 70
    32
  0
VERTEX
  5
10AFF
  8
0
 62
     5
 10
158.246
 20
185.518
 30
0.0
 70
    32
  0
VERTEX
  5
10B00
  8
0
 62
     5
 10
158.246
 20
185.518
 30
0.0
 70
    32
  0
VERTEX
  5
10B01
  8
0
 62
     5
 10
158.246
 20
185.518
 30
0.0
 70
    32
  0
VERTEX
  5
10B02
  8
0
 62
     5
 10
158.246
 20
185.518
 30
0.0
 70
    32
  0
VERTEX
  5
10B03
  8
0
 62
     5
 10
158.246
 20
185.518
 30
0.0
 70
    32
  0
VERTEX
  5
10B04
  8
0
 62
     5
 10
158.246
 20
185.518
 30
0.0
 70
    32
  0
VERTEX
  5
10B05
  8
0
 62
     5
 10
158.246
 20
185.518
 30
0.0
 70
    32
  0
VERTEX
  5
10B06
  8
0
 62
     5
 10
158.246
 20
185.518
 30
0.0
 70
    32
  0
VERTEX
  5
10B07
  8
0
 62
     5
 10
158.246
 20
185.518
 30
0.0
 70
    32
  0
VERTEX
  5
10B08
  8
0
 62
     5
 10
158.246
 20
185.518
 30
0.0
 70
    32
  0
VERTEX
  5
10B09
  8
0
 62
     5
 10
158.246
 20
185.518
 30
0.0
 70
    32
  0
VERTEX
  5
10B0A
  8
0
 62
     5
 10
158.246
 20
185.518
 30
0.0
 70
    32
  0
VERTEX
  5
10B0B
  8
0
 62
     5
 10
158.246
 20
185.518
 30
0.0
 70
    32
  0
VERTEX
  5
10B0C
  8
0
 62
     5
 10
158.246
 20
185.518
 30
0.0
 70
    32
  0
VERTEX
  5
10B0D
  8
0
 62
     5
 10
158.246
 20
185.518
 30
0.0
 70
    32
  0
VERTEX
  5
10B0E
  8
0
 62
     5
 10
158.246
 20
185.518
 30
0.0
 70
    32
  0
VERTEX
  5
10B0F
  8
0
 62
     5
 10
158.246
 20
185.518
 30
0.0
 70
    32
  0
VERTEX
  5
10B10
  8
0
 62
     5
 10
158.246
 20
185.518
 30
0.0
 70
    32
  0
VERTEX
  5
10B11
  8
0
 62
     5
 10
158.246
 20
185.518
 30
0.0
 70
    32
  0
VERTEX
  5
10B12
  8
0
 62
     5
 10
158.246
 20
185.518
 30
0.0
 70
    32
  0
VERTEX
  5
10B13
  8
0
 62
     5
 10
158.246
 20
185.518
 30
0.0
 70
    32
  0
VERTEX
  5
10B14
  8
0
 62
     5
 10
158.246
 20
185.518
 30
0.0
 70
    32
  0
VERTEX
  5
10B15
  8
0
 62
     5
 10
158.246
 20
185.518
 30
0.0
 70
    32
  0
VERTEX
  5
10B16
  8
0
 62
     5
 10
158.246
 20
185.518
 30
0.0
 70
    32
  0
VERTEX
  5
10B17
  8
0
 62
     5
 10
158.246
 20
185.518
 30
0.0
 70
    32
  0
VERTEX
  5
10B18
  8
0
 62
     5
 10
158.246
 20
185.518
 30
0.0
 70
    32
  0
VERTEX
  5
10B19
  8
0
 62
     5
 10
158.246
 20
185.518
 30
0.0
 70
    32
  0
VERTEX
  5
10B1A
  8
0
 62
     5
 10
158.246
 20
185.518
 30
0.0
 70
    32
  0
VERTEX
  5
10B1B
  8
0
 62
     5
 10
158.246
 20
185.519
 30
0.0
 70
    32
  0
VERTEX
  5
10B1C
  8
0
 62
     5
 10
158.245
 20
185.519
 30
0.0
 70
    32
  0
VERTEX
  5
10B1D
  8
0
 62
     5
 10
158.245
 20
185.519
 30
0.0
 70
    32
  0
VERTEX
  5
10B1E
  8
0
 62
     5
 10
158.245
 20
185.519
 30
0.0
 70
    32
  0
VERTEX
  5
10B1F
  8
0
 62
     5
 10
158.245
 20
185.519
 30
0.0
 70
    32
  0
VERTEX
  5
10B20
  8
0
 62
     5
 10
158.245
 20
185.519
 30
0.0
 70
    32
  0
VERTEX
  5
10B21
  8
0
 62
     5
 10
158.245
 20
185.519
 30
0.0
 70
    32
  0
VERTEX
  5
10B22
  8
0
 62
     5
 10
158.245
 20
185.519
 30
0.0
 70
    32
  0
VERTEX
  5
10B23
  8
0
 62
     5
 10
158.245
 20
185.519
 30
0.0
 70
    32
  0
VERTEX
  5
10B24
  8
0
 62
     5
 10
158.245
 20
185.519
 30
0.0
 70
    32
  0
VERTEX
  5
10B25
  8
0
 62
     5
 10
158.245
 20
185.519
 30
0.0
 70
    32
  0
VERTEX
  5
10B26
  8
0
 62
     5
 10
158.245
 20
185.519
 30
0.0
 70
    32
  0
VERTEX
  5
10B27
  8
0
 62
     5
 10
158.245
 20
185.519
 30
0.0
 70
    32
  0
VERTEX
  5
10B28
  8
0
 62
     5
 10
158.245
 20
185.519
 30
0.0
 70
    32
  0
VERTEX
  5
10B29
  8
0
 62
     5
 10
158.245
 20
185.519
 30
0.0
 70
    32
  0
VERTEX
  5
10B2A
  8
0
 62
     5
 10
158.245
 20
185.519
 30
0.0
 70
    32
  0
VERTEX
  5
10B2B
  8
0
 62
     5
 10
158.245
 20
185.519
 30
0.0
 70
    32
  0
VERTEX
  5
10B2C
  8
0
 62
     5
 10
158.245
 20
185.519
 30
0.0
 70
    32
  0
VERTEX
  5
10B2D
  8
0
 62
     5
 10
158.245
 20
185.519
 30
0.0
 70
    32
  0
VERTEX
  5
10B2E
  8
0
 62
     5
 10
158.245
 20
185.519
 30
0.0
 70
    32
  0
VERTEX
  5
10B2F
  8
0
 62
     5
 10
158.245
 20
185.519
 30
0.0
 70
    32
  0
VERTEX
  5
10B30
  8
0
 62
     5
 10
158.245
 20
185.519
 30
0.0
 70
    32
  0
VERTEX
  5
10B31
  8
0
 62
     5
 10
158.245
 20
185.519
 30
0.0
 70
    32
  0
VERTEX
  5
10B32
  8
0
 62
     5
 10
158.245
 20
185.519
 30
0.0
 70
    32
  0
VERTEX
  5
10B33
  8
0
 62
     5
 10
158.245
 20
185.519
 30
0.0
 70
    32
  0
VERTEX
  5
10B34
  8
0
 62
     5
 10
158.245
 20
185.519
 30
0.0
 70
    32
  0
VERTEX
  5
10B35
  8
0
 62
     5
 10
158.245
 20
185.519
 30
0.0
 70
    32
  0
VERTEX
  5
10B36
  8
0
 62
     5
 10
158.245
 20
185.519
 30
0.0
 70
    32
  0
VERTEX
  5
10B37
  8
0
 62
     5
 10
158.245
 20
185.519
 30
0.0
 70
    32
  0
VERTEX
  5
10B38
  8
0
 62
     5
 10
158.245
 20
185.519
 30
0.0
 70
    32
  0
VERTEX
  5
10B39
  8
0
 62
     5
 10
158.245
 20
185.519
 30
0.0
 70
    32
  0
VERTEX
  5
10B3A
  8
0
 62
     5
 10
158.245
 20
185.519
 30
0.0
 70
    32
  0
VERTEX
  5
10B3B
  8
0
 62
     5
 10
158.245
 20
185.52
 30
0.0
 70
    32
  0
VERTEX
  5
10B3C
  8
0
 62
     5
 10
158.245
 20
185.52
 30
0.0
 70
    32
  0
VERTEX
  5
10B3D
  8
0
 62
     5
 10
158.245
 20
185.52
 30
0.0
 70
    32
  0
VERTEX
  5
10B3E
  8
0
 62
     5
 10
158.245
 20
185.52
 30
0.0
 70
    32
  0
VERTEX
  5
10B3F
  8
0
 62
     5
 10
158.245
 20
185.52
 30
0.0
 70
    32
  0
VERTEX
  5
10B40
  8
0
 62
     5
 10
158.245
 20
185.52
 30
0.0
 70
    32
  0
VERTEX
  5
10B41
  8
0
 62
     5
 10
158.245
 20
185.52
 30
0.0
 70
    32
  0
VERTEX
  5
10B42
  8
0
 62
     5
 10
158.245
 20
185.52
 30
0.0
 70
    32
  0
VERTEX
  5
10B43
  8
0
 62
     5
 10
158.245
 20
185.52
 30
0.0
 70
    32
  0
VERTEX
  5
10B44
  8
0
 62
     5
 10
158.245
 20
185.52
 30
0.0
 70
    32
  0
VERTEX
  5
10B45
  8
0
 62
     5
 10
158.245
 20
185.52
 30
0.0
 70
    32
  0
VERTEX
  5
10B46
  8
0
 62
     5
 10
158.245
 20
185.52
 30
0.0
 70
    32
  0
VERTEX
  5
10B47
  8
0
 62
     5
 10
158.245
 20
185.52
 30
0.0
 70
    32
  0
VERTEX
  5
10B48
  8
0
 62
     5
 10
158.245
 20
185.52
 30
0.0
 70
    32
  0
VERTEX
  5
10B49
  8
0
 62
     5
 10
158.245
 20
185.52
 30
0.0
 70
    32
  0
VERTEX
  5
10B4A
  8
0
 62
     5
 10
158.245
 20
185.52
 30
0.0
 70
    32
  0
VERTEX
  5
10B4B
  8
0
 62
     5
 10
158.245
 20
185.52
 30
0.0
 70
    32
  0
VERTEX
  5
10B4C
  8
0
 62
     5
 10
158.245
 20
185.52
 30
0.0
 70
    32
  0
VERTEX
  5
10B4D
  8
0
 62
     5
 10
158.245
 20
185.52
 30
0.0
 70
    32
  0
VERTEX
  5
10B4E
  8
0
 62
     5
 10
158.245
 20
185.52
 30
0.0
 70
    32
  0
VERTEX
  5
10B4F
  8
0
 62
     5
 10
158.245
 20
185.52
 30
0.0
 70
    32
  0
VERTEX
  5
10B50
  8
0
 62
     5
 10
158.245
 20
185.52
 30
0.0
 70
    32
  0
VERTEX
  5
10B51
  8
0
 62
     5
 10
158.245
 20
185.52
 30
0.0
 70
    32
  0
VERTEX
  5
10B52
  8
0
 62
     5
 10
158.245
 20
185.52
 30
0.0
 70
    32
  0
VERTEX
  5
10B53
  8
0
 62
     5
 10
158.245
 20
185.52
 30
0.0
 70
    32
  0
VERTEX
  5
10B54
  8
0
 62
     5
 10
158.245
 20
185.52
 30
0.0
 70
    32
  0
VERTEX
  5
10B55
  8
0
 62
     5
 10
158.245
 20
185.52
 30
0.0
 70
    32
  0
VERTEX
  5
10B56
  8
0
 62
     5
 10
158.245
 20
185.52
 30
0.0
 70
    32
  0
VERTEX
  5
10B57
  8
0
 62
     5
 10
158.245
 20
185.52
 30
0.0
 70
    32
  0
VERTEX
  5
10B58
  8
0
 62
     5
 10
158.245
 20
185.52
 30
0.0
 70
    32
  0
VERTEX
  5
10B59
  8
0
 62
     5
 10
158.245
 20
185.52
 30
0.0
 70
    32
  0
VERTEX
  5
10B5A
  8
0
 62
     5
 10
158.245
 20
185.521
 30
0.0
 70
    32
  0
VERTEX
  5
10B5B
  8
0
 62
     5
 10
158.245
 20
185.521
 30
0.0
 70
    32
  0
VERTEX
  5
10B5C
  8
0
 62
     5
 10
158.245
 20
185.521
 30
0.0
 70
    32
  0
VERTEX
  5
10B5D
  8
0
 62
     5
 10
158.245
 20
185.521
 30
0.0
 70
    32
  0
VERTEX
  5
10B5E
  8
0
 62
     5
 10
158.245
 20
185.521
 30
0.0
 70
    32
  0
VERTEX
  5
10B5F
  8
0
 62
     5
 10
158.245
 20
185.521
 30
0.0
 70
    32
  0
VERTEX
  5
10B60
  8
0
 62
     5
 10
158.245
 20
185.521
 30
0.0
 70
    32
  0
VERTEX
  5
10B61
  8
0
 62
     5
 10
158.245
 20
185.521
 30
0.0
 70
    32
  0
VERTEX
  5
10B62
  8
0
 62
     5
 10
158.245
 20
185.521
 30
0.0
 70
    32
  0
VERTEX
  5
10B63
  8
0
 62
     5
 10
158.245
 20
185.521
 30
0.0
 70
    32
  0
VERTEX
  5
10B64
  8
0
 62
     5
 10
158.245
 20
185.521
 30
0.0
 70
    32
  0
VERTEX
  5
10B65
  8
0
 62
     5
 10
158.245
 20
185.521
 30
0.0
 70
    32
  0
VERTEX
  5
10B66
  8
0
 62
     5
 10
158.245
 20
185.521
 30
0.0
 70
    32
  0
VERTEX
  5
10B67
  8
0
 62
     5
 10
158.245
 20
185.521
 30
0.0
 70
    32
  0
VERTEX
  5
10B68
  8
0
 62
     5
 10
158.245
 20
185.521
 30
0.0
 70
    32
  0
VERTEX
  5
10B69
  8
0
 62
     5
 10
158.245
 20
185.521
 30
0.0
 70
    32
  0
VERTEX
  5
10B6A
  8
0
 62
     5
 10
158.245
 20
185.521
 30
0.0
 70
    32
  0
VERTEX
  5
10B6B
  8
0
 62
     5
 10
158.245
 20
185.521
 30
0.0
 70
    32
  0
VERTEX
  5
10B6C
  8
0
 62
     5
 10
158.245
 20
185.521
 30
0.0
 70
    32
  0
VERTEX
  5
10B6D
  8
0
 62
     5
 10
158.245
 20
185.521
 30
0.0
 70
    32
  0
VERTEX
  5
10B6E
  8
0
 62
     5
 10
158.245
 20
185.521
 30
0.0
 70
    32
  0
VERTEX
  5
10B6F
  8
0
 62
     5
 10
158.245
 20
185.521
 30
0.0
 70
    32
  0
VERTEX
  5
10B70
  8
0
 62
     5
 10
158.245
 20
185.521
 30
0.0
 70
    32
  0
VERTEX
  5
10B71
  8
0
 62
     5
 10
158.245
 20
185.521
 30
0.0
 70
    32
  0
VERTEX
  5
10B72
  8
0
 62
     5
 10
158.245
 20
185.521
 30
0.0
 70
    32
  0
VERTEX
  5
10B73
  8
0
 62
     5
 10
158.245
 20
185.521
 30
0.0
 70
    32
  0
VERTEX
  5
10B74
  8
0
 62
     5
 10
158.245
 20
185.521
 30
0.0
 70
    32
  0
VERTEX
  5
10B75
  8
0
 62
     5
 10
158.245
 20
185.521
 30
0.0
 70
    32
  0
VERTEX
  5
10B76
  8
0
 62
     5
 10
158.245
 20
185.521
 30
0.0
 70
    32
  0
VERTEX
  5
10B77
  8
0
 62
     5
 10
158.245
 20
185.521
 30
0.0
 70
    32
  0
VERTEX
  5
10B78
  8
0
 62
     5
 10
158.245
 20
185.521
 30
0.0
 70
    32
  0
VERTEX
  5
10B79
  8
0
 62
     5
 10
158.245
 20
185.521
 30
0.0
 70
    32
  0
VERTEX
  5
10B7A
  8
0
 62
     5
 10
158.245
 20
185.522
 30
0.0
 70
    32
  0
VERTEX
  5
10B7B
  8
0
 62
     5
 10
158.245
 20
185.522
 30
0.0
 70
    32
  0
VERTEX
  5
10B7C
  8
0
 62
     5
 10
158.245
 20
185.522
 30
0.0
 70
    32
  0
VERTEX
  5
10B7D
  8
0
 62
     5
 10
158.245
 20
185.522
 30
0.0
 70
    32
  0
VERTEX
  5
10B7E
  8
0
 62
     5
 10
158.245
 20
185.522
 30
0.0
 70
    32
  0
VERTEX
  5
10B7F
  8
0
 62
     5
 10
158.245
 20
185.522
 30
0.0
 70
    32
  0
VERTEX
  5
10B80
  8
0
 62
     5
 10
158.245
 20
185.522
 30
0.0
 70
    32
  0
VERTEX
  5
10B81
  8
0
 62
     5
 10
158.245
 20
185.522
 30
0.0
 70
    32
  0
VERTEX
  5
10B82
  8
0
 62
     5
 10
158.245
 20
185.522
 30
0.0
 70
    32
  0
VERTEX
  5
10B83
  8
0
 62
     5
 10
158.245
 20
185.522
 30
0.0
 70
    32
  0
VERTEX
  5
10B84
  8
0
 62
     5
 10
158.245
 20
185.522
 30
0.0
 70
    32
  0
VERTEX
  5
10B85
  8
0
 62
     5
 10
158.245
 20
185.522
 30
0.0
 70
    32
  0
VERTEX
  5
10B86
  8
0
 62
     5
 10
158.245
 20
185.522
 30
0.0
 70
    32
  0
VERTEX
  5
10B87
  8
0
 62
     5
 10
158.245
 20
185.522
 30
0.0
 70
    32
  0
VERTEX
  5
10B88
  8
0
 62
     5
 10
158.245
 20
185.522
 30
0.0
 70
    32
  0
VERTEX
  5
10B89
  8
0
 62
     5
 10
158.245
 20
185.522
 30
0.0
 70
    32
  0
VERTEX
  5
10B8A
  8
0
 62
     5
 10
158.245
 20
185.522
 30
0.0
 70
    32
  0
VERTEX
  5
10B8B
  8
0
 62
     5
 10
158.245
 20
185.522
 30
0.0
 70
    32
  0
VERTEX
  5
10B8C
  8
0
 62
     5
 10
158.245
 20
185.522
 30
0.0
 70
    32
  0
VERTEX
  5
10B8D
  8
0
 62
     5
 10
158.245
 20
185.522
 30
0.0
 70
    32
  0
VERTEX
  5
10B8E
  8
0
 62
     5
 10
158.245
 20
185.522
 30
0.0
 70
    32
  0
VERTEX
  5
10B8F
  8
0
 62
     5
 10
158.245
 20
185.522
 30
0.0
 70
    32
  0
VERTEX
  5
10B90
  8
0
 62
     5
 10
158.245
 20
185.522
 30
0.0
 70
    32
  0
SEQEND
  5
10B91
  8
0
 62
     5
  0
ARC
  5
10B92
  8
0
 62
     5
 10
157.745253
 20
185.52222
 30
0.0
 40
0.5
 50
270.0
 51
0.0
  0
ARC
  5
10B93
  8
0
 62
     5
 10
158.745253
 20
191.52222
 30
0.0
 40
0.5
 50
90.0
 51
180.0
  0
LINE
  5
10B94
  8
0
 62
     5
 10
163.294142
 20
188.790928
 30
0.0
 11
163.294142
 21
188.230928
 31
0.0
  0
LINE
  5
10B95
  8
0
 62
     5
 10
161.245253
 20
185.322188
 30
0.0
 11
161.245253
 21
191.52222
 31
0.0
  0
LINE
  5
10B96
  8
0
 62
     5
 10
165.045253
 20
185.581764
 30
0.0
 11
165.045253
 21
191.459126
 31
0.0
  0
LINE
  5
10B97
  8
0
 62
     5
 10
165.745253
 20
185.581764
 30
0.0
 11
165.045253
 21
185.581764
 31
0.0
  0
LINE
  5
10B98
  8
0
 62
     5
 10
161.545253
 20
185.02222
 30
0.0
 11
165.245253
 21
185.02222
 31
0.0
  0
LINE
  5
10B99
  8
0
 62
     5
 10
165.245253
 20
181.980895
 30
0.0
 11
161.445253
 21
181.980895
 31
0.0
  0
LINE
  5
10B9A
  8
0
 62
     5
 10
163.294142
 20
186.68224
 30
0.0
 11
163.294142
 21
186.660928
 31
0.0
  0
LINE
  5
10B9B
  8
0
 62
     5
 10
163.294142
 20
186.660928
 30
0.0
 11
163.349613
 21
186.469262
 31
0.0
  0
LINE
  5
10B9C
  8
0
 62
     5
 10
164.306133
 20
185.760928
 30
0.0
 11
165.045253
 21
185.760928
 31
0.0
  0
LINE
  5
10B9D
  8
0
 62
     5
 10
163.294142
 20
188.230928
 30
0.0
 11
163.166879
 21
188.230928
 31
0.0
  0
ARC
  5
10B9E
  8
0
 62
     5
 10
164.306133
 20
186.760928
 30
0.0
 40
1.0
 50
196.957715
 51
269.999986
  0
ARC
  5
10B9F
  8
0
 62
     5
 10
161.545253
 20
185.32222
 30
0.0
 40
0.3
 50
180.0
 51
270.0
  0
LINE
  5
10BA0
  8
0
 62
     5
 10
160.745253
 20
181.318182
 30
0.0
 11
161.245253
 21
181.318182
 31
0.0
  0
POLYLINE
  5
10BA1
  8
0
 62
     5
 66
     1
 10
0.0
 20
0.0
 30
0.0
  0
VERTEX
  5
10D1A
  8
0
 62
     5
 10
170.045253
 20
181.980895
 30
0.0
  0
VERTEX
  5
10D1B
  8
0
 62
     5
 10
170.060945
 20
181.98028
 30
0.0
  0
VERTEX
  5
10D1C
  8
0
 62
     5
 10
170.07654
 20
181.978438
 30
0.0
  0
VERTEX
  5
10D1D
  8
0
 62
     5
 10
170.091942
 20
181.975381
 30
0.0
  0
VERTEX
  5
10D1E
  8
0
 62
     5
 10
170.107057
 20
181.971127
 30
0.0
  0
VERTEX
  5
10D1F
  8
0
 62
     5
 10
170.12179
 20
181.965703
 30
0.0
  0
VERTEX
  5
10D20
  8
0
 62
     5
 10
170.136052
 20
181.959142
 30
0.0
  0
VERTEX
  5
10D21
  8
0
 62
     5
 10
170.149753
 20
181.951484
 30
0.0
  0
VERTEX
  5
10D22
  8
0
 62
     5
 10
170.16281
 20
181.942778
 30
0.0
  0
VERTEX
  5
10D23
  8
0
 62
     5
 10
170.175143
 20
181.933076
 30
0.0
  0
VERTEX
  5
10D24
  8
0
 62
     5
 10
170.186675
 20
181.922438
 30
0.0
  0
VERTEX
  5
10D25
  8
0
 62
     5
 10
170.197335
 20
181.91093
 30
0.0
  0
VERTEX
  5
10D26
  8
0
 62
     5
 10
170.207057
 20
181.898623
 30
0.0
  0
VERTEX
  5
10D27
  8
0
 62
     5
 10
170.215781
 20
181.885593
 30
0.0
  0
VERTEX
  5
10D28
  8
0
 62
     5
 10
170.223455
 20
181.871919
 30
0.0
  0
VERTEX
  5
10D29
  8
0
 62
     5
 10
170.230029
 20
181.857688
 30
0.0
  0
VERTEX
  5
10D2A
  8
0
 62
     5
 10
170.235465
 20
181.842985
 30
0.0
  0
VERTEX
  5
10D2B
  8
0
 62
     5
 10
170.239727
 20
181.827902
 30
0.0
  0
VERTEX
  5
10D2C
  8
0
 62
     5
 10
170.242791
 20
181.812531
 30
0.0
  0
VERTEX
  5
10D2D
  8
0
 62
     5
 10
170.244637
 20
181.796969
 30
0.0
  0
VERTEX
  5
10D2E
  8
0
 62
     5
 10
170.245253
 20
181.781309
 30
0.0
  0
SEQEND
  5
10D2F
  8
0
 62
     5
  0
POLYLINE
  5
10BB8
  8
0
 62
     5
 66
     1
 10
0.0
 20
0.0
 30
0.0
  0
VERTEX
  5
10D30
  8
0
 62
     5
 10
165.945253
 20
181.980895
 30
0.0
  0
VERTEX
  5
10D31
  8
0
 62
     5
 10
165.929562
 20
181.98028
 30
0.0
  0
VERTEX
  5
10D32
  8
0
 62
     5
 10
165.913967
 20
181.978438
 30
0.0
  0
VERTEX
  5
10D33
  8
0
 62
     5
 10
165.898564
 20
181.975381
 30
0.0
  0
VERTEX
  5
10D34
  8
0
 62
     5
 10
165.88345
 20
181.971127
 30
0.0
  0
VERTEX
  5
10D35
  8
0
 62
     5
 10
165.868717
 20
181.965703
 30
0.0
  0
VERTEX
  5
10D36
  8
0
 62
     5
 10
165.854455
 20
181.959142
 30
0.0
  0
VERTEX
  5
10D37
  8
0
 62
     5
 10
165.840754
 20
181.951484
 30
0.0
  0
VERTEX
  5
10D38
  8
0
 62
     5
 10
165.827696
 20
181.942778
 30
0.0
  0
VERTEX
  5
10D39
  8
0
 62
     5
 10
165.815364
 20
181.933076
 30
0.0
  0
VERTEX
  5
10D3A
  8
0
 62
     5
 10
165.803832
 20
181.922438
 30
0.0
  0
VERTEX
  5
10D3B
  8
0
 62
     5
 10
165.793172
 20
181.91093
 30
0.0
  0
VERTEX
  5
10D3C
  8
0
 62
     5
 10
165.78345
 20
181.898623
 30
0.0
  0
VERTEX
  5
10D3D
  8
0
 62
     5
 10
165.774725
 20
181.885593
 30
0.0
  0
VERTEX
  5
10D3E
  8
0
 62
     5
 10
165.767052
 20
181.871919
 30
0.0
  0
VERTEX
  5
10D3F
  8
0
 62
     5
 10
165.760478
 20
181.857688
 30
0.0
  0
VERTEX
  5
10D40
  8
0
 62
     5
 10
165.755042
 20
181.842985
 30
0.0
  0
VERTEX
  5
10D41
  8
0
 62
     5
 10
165.750779
 20
181.827902
 30
0.0
  0
VERTEX
  5
10D42
  8
0
 62
     5
 10
165.747716
 20
181.812531
 30
0.0
  0
VERTEX
  5
10D43
  8
0
 62
     5
 10
165.74587
 20
181.796969
 30
0.0
  0
VERTEX
  5
10D44
  8
0
 62
     5
 10
165.745253
 20
181.781309
 30
0.0
  0
SEQEND
  5
10D45
  8
0
 62
     5
  0
LINE
  5
10BCF
  8
0
 62
     5
 10
165.745253
 20
181.908831
 30
0.0
 11
165.245253
 21
181.908831
 31
0.0
  0
LINE
  5
10BD0
  8
0
 62
     5
 10
165.745253
 20
181.909961
 30
0.0
 11
165.245253
 21
181.909961
 31
0.0
  0
LINE
  5
10BD1
  8
0
 62
     5
 10
165.945253
 20
181.980895
 30
0.0
 11
170.045253
 21
181.980895
 31
0.0
  0
LINE
  5
10BD2
  8
0
 62
     5
 10
165.245253
 20
181.908831
 30
0.0
 11
165.245253
 21
185.581764
 31
0.0
  0
LINE
  5
10BD3
  8
0
 62
     5
 10
165.745253
 20
191.460928
 30
0.0
 11
165.045253
 21
191.460928
 31
0.0
  0
LINE
  5
10BD4
  8
0
 62
     5
 10
163.294142
 20
190.360928
 30
0.0
 11
163.349613
 21
190.552594
 31
0.0
  0
LINE
  5
10BD5
  8
0
 62
     5
 10
163.294142
 20
190.360928
 30
0.0
 11
163.294142
 21
190.339616
 31
0.0
  0
LINE
  5
10BD6
  8
0
 62
     5
 10
164.306133
 20
191.260928
 30
0.0
 11
165.045253
 21
191.260928
 31
0.0
  0
ARC
  5
10BD7
  8
0
 62
     5
 10
164.306133
 20
190.260928
 30
0.0
 40
1.0
 50
90.000014
 51
163.042285
  0
ARC
  5
10BD8
  8
0
 62
     5
 10
160.745253
 20
191.52222
 30
0.0
 40
0.5
 50
0.0
 51
90.0
  0
LINE
  5
10BD9
  8
0
 62
     5
 10
163.166879
 20
188.790928
 30
0.0
 11
163.294142
 21
188.790928
 31
0.0
  0
ARC
  5
10BDA
  8
0
 62
     5
 10
170.045253
 20
191.82222
 30
0.0
 40
0.2
 50
0.0
 51
90.0
  0
LINE
  5
10BDB
  8
0
 62
     5
 10
165.245253
 20
192.02222
 30
0.0
 11
165.245253
 21
191.460928
 31
0.0
  0
LINE
  5
10BDC
  8
0
 62
     5
 10
165.745253
 20
192.02222
 30
0.0
 11
165.745253
 21
191.830578
 31
0.0
  0
ARC
  5
10BDD
  8
0
 62
     5
 10
165.945253
 20
191.82222
 30
0.0
 40
0.2
 50
90.0
 51
180.0
  0
LINE
  5
10BDE
  8
0
 62
     5
 10
165.945253
 20
192.02222
 30
0.0
 11
170.045253
 21
192.02222
 31
0.0
  0
LINE
  5
10BDF
  8
0
 62
     5
 10
231.245253
 20
132.02222
 30
0.0
 11
231.245253
 21
192.02222
 31
0.0
  0
LINE
  5
10BE0
  8
0
 62
     5
 10
240.245253
 20
192.02222
 30
0.0
 11
240.245253
 21
132.02222
 31
0.0
  0
LINE
  5
10BE1
  8
0
 62
     5
 10
243.045253
 20
187.02222
 30
0.0
 11
243.045253
 21
137.02222
 31
0.0
  0
LINE
  5
10BE2
  8
0
 62
     5
 10
243.245253
 20
186.82222
 30
0.0
 11
243.245253
 21
137.22222
 31
0.0
  0
LINE
  5
10BE3
  8
HIDDEN
 10
198.013777
 20
124.72222
 30
0.0
 11
213.821638
 21
124.72222
 31
0.0
  0
LINE
  5
10BE4
  8
0
 62
     5
 10
231.245253
 20
132.02222
 30
0.0
 11
189.043072
 21
131.838077
 31
0.0
  0
LINE
  5
10BE5
  8
HIDDEN
 10
194.04252
 20
128.021454
 30
0.0
 11
187.998956
 21
128.021454
 31
0.0
  0
LINE
  5
10BE6
  8
0
 62
     5
 10
175.511954
 20
123.22222
 30
0.0
 11
182.578553
 21
123.22222
 31
0.0
  0
LINE
  5
10BE7
  8
0
 62
     5
 10
188.045253
 20
128.62222
 30
0.0
 11
170.895253
 21
128.62222
 31
0.0
  0
LINE
  5
10BE8
  8
0
 62
     5
 10
170.897435
 20
132.011811
 30
0.0
 11
188.222707
 21
132.014799
 31
0.0
  0
LINE
  5
10BE9
  8
0
 62
     5
 10
170.395253
 20
131.75671
 30
0.0
 11
170.395253
 21
129.12222
 31
0.0
  0
LINE
  5
10BEA
  8
0
 62
     5
 10
175.511954
 20
123.22222
 30
0.0
 11
175.342252
 21
128.62222
 31
0.0
  0
LINE
  5
10BEB
  8
HIDDEN
 10
171.045253
 20
126.62222
 30
0.0
 11
171.045253
 21
127.72222
 31
0.0
  0
ARC
  5
10BEC
  8
HIDDEN
 10
171.545253
 20
126.62222
 30
0.0
 40
0.5
 50
180.0
 51
270.0
  0
LINE
  5
10BED
  8
HIDDEN
 10
171.545253
 20
126.12222
 30
0.0
 11
172.695253
 21
126.12222
 31
0.0
  0
LINE
  5
10BEE
  8
0
 62
     5
 10
176.129365
 20
128.62222
 30
0.0
 11
176.199658
 21
123.22222
 31
0.0
  0
LINE
  5
10BEF
  8
0
 62
     5
 10
188.545253
 20
131.405001
 30
0.0
 11
188.545253
 21
129.12222
 31
0.0
  0
LINE
  5
10BF0
  8
0
 62
     5
 10
181.890849
 20
123.22222
 30
0.0
 11
181.961141
 21
128.62222
 31
0.0
  0
LINE
  5
10BF1
  8
0
 62
     5
 10
182.748255
 20
128.62222
 30
0.0
 11
182.578553
 21
123.22222
 31
0.0
  0
ARC
  5
10BF2
  8
0
 62
     5
 10
188.045253
 20
129.12222
 30
0.0
 40
0.5
 50
270.0
 51
0.0
  0
ARC
  5
10BF3
  8
0
 62
     5
 10
189.045253
 20
131.338082
 30
0.0
 40
0.5
 50
90.25
 51
180.0
  0
LINE
  5
10BF4
  8
HIDDEN
 10
197.747041
 20
125.86115
 30
0.0
 11
194.04252
 21
128.021454
 31
0.0
  0
LINE
  5
10BF5
  8
0
 62
     5
 10
233.245253
 20
142.462851
 30
0.0
 11
231.245253
 21
142.462851
 31
0.0
  0
LINE
  5
10BF6
  8
0
 62
     5
 10
240.245253
 20
132.02222
 30
0.0
 11
231.245253
 21
132.02222
 31
0.0
  0
LINE
  5
10BF7
  8
0
 62
     5
 10
233.245253
 20
132.02222
 30
0.0
 11
233.245253
 21
142.462851
 31
0.0
  0
LINE
  5
10BF8
  8
0
 62
     5
 10
240.445253
 20
137.02222
 30
0.0
 11
243.045253
 21
137.02222
 31
0.0
  0
ARC
  5
10BF9
  8
0
 62
     5
 10
240.445253
 20
136.82222
 30
0.0
 40
0.2
 50
90.0
 51
180.0
  0
LINE
  5
10BFA
  8
0
 62
     5
 10
243.045253
 20
137.02222
 30
0.0
 11
243.245253
 21
137.22222
 31
0.0
  0
ARC
  5
10BFB
  8
0
 62
     5
 10
243.645253
 20
154.62222
 30
0.0
 40
0.4
 50
90.0
 51
180.0
  0
ARC
  5
10BFC
  8
0
 62
     5
 10
243.645253
 20
169.42222
 30
0.0
 40
0.4
 50
180.0
 51
270.0
  0
LINE
  5
10BFD
  8
0
 62
     5
 10
240.245253
 20
192.02222
 30
0.0
 11
231.245253
 21
192.02222
 31
0.0
  0
LINE
  5
10BFE
  8
0
 62
     5
 10
233.245253
 20
181.581589
 30
0.0
 11
231.245253
 21
181.581589
 31
0.0
  0
LINE
  5
10BFF
  8
0
 62
     5
 10
240.445253
 20
187.02222
 30
0.0
 11
243.045253
 21
187.02222
 31
0.0
  0
LINE
  5
10C00
  8
0
 62
     5
 10
233.245253
 20
181.581589
 30
0.0
 11
233.245253
 21
192.02222
 31
0.0
  0
ARC
  5
10C01
  8
0
 62
     5
 10
240.445253
 20
187.22222
 30
0.0
 40
0.2
 50
180.0
 51
270.0
  0
LINE
  5
10C02
  8
0
 62
     5
 10
243.045253
 20
187.02222
 30
0.0
 11
243.245253
 21
186.82222
 31
0.0
  0
LINE
  5
10C03
  8
HIDDEN
 10
359.543418
 20
123.02222
 30
0.0
 11
359.543418
 21
120.410595
 31
0.0
  0
LINE
  5
10C04
  8
HIDDEN
 10
345.623612
 20
126.12222
 30
0.0
 11
345.623612
 21
118.92222
 31
0.0
  0
LINE
  5
10C05
  8
HIDDEN
 10
326.723612
 20
126.12222
 30
0.0
 11
326.723612
 21
118.92222
 31
0.0
  0
LINE
  5
10C06
  8
CENTER
 10
352.073612
 20
133.593017
 30
0.0
 11
352.073612
 21
114.355592
 31
0.0
  0
LINE
  5
10C07
  8
CENTER
 10
336.173612
 20
133.593017
 30
0.0
 11
336.173612
 21
111.278901
 31
0.0
  0
LINE
  5
10C08
  8
CENTER
 10
342.073612
 20
198.659912
 30
0.0
 11
342.073612
 21
113.878221
 31
0.0
  0
LINE
  5
10C09
  8
HIDDEN
 10
330.723612
 20
114.92222
 30
0.0
 11
341.623612
 21
114.92222
 31
0.0
  0
ARC
  5
10C0A
  8
HIDDEN
 10
330.724944
 20
118.923553
 30
0.0
 40
4.001333
 50
180.019082
 51
269.980918
  0
LINE
  5
10C0B
  8
HIDDEN
 10
355.609172
 20
116.022222
 30
0.0
 11
347.83852
 21
116.02222
 31
0.0
  0
ARC
  5
10C0C
  8
HIDDEN
 10
341.623612
 20
118.92222
 30
0.0
 40
4.0
 50
270.0
 51
360.0
  0
ARC
  5
10C0D
  8
HIDDEN
 10
355.273946
 20
120.280501
 30
0.0
 40
4.271453
 50
274.501232
 51
1.74531
  0
LINE
  5
10C0E
  8
0
 62
     5
 10
323.19286
 20
192.288384
 30
0.0
 11
360.954364
 21
192.288384
 31
0.0
  0
LINE
  5
10C0F
  8
CENTER
 10
307.730711
 20
162.02222
 30
0.0
 11
376.416513
 21
162.02222
 31
0.0
  0
LINE
  5
10C10
  8
0
 62
     5
 10
339.683
 20
128.92222
 30
0.0
 11
332.664224
 21
128.92222
 31
0.0
  0
LINE
  5
10C11
  8
0
 62
     5
 10
328.815312
 20
123.22222
 30
0.0
 11
343.531912
 21
123.22222
 31
0.0
  0
LINE
  5
10C12
  8
0
 62
     5
 10
322.75092
 20
128.62222
 30
0.0
 11
349.514243
 21
128.62222
 31
0.0
  0
LINE
  5
10C13
  8
0
 62
     5
 10
316.573612
 20
132.02222
 30
0.0
 11
367.573612
 21
132.02222
 31
0.0
  0
LINE
  5
10C14
  8
0
 62
     5
 10
367.573612
 20
192.02222
 30
0.0
 11
316.573612
 21
192.02222
 31
0.0
  0
CIRCLE
  5
10C15
  8
0
 62
     5
 10
342.073612
 20
162.02222
 30
0.0
 40
8.5
  0
CIRCLE
  5
10C16
  8
0
 62
     5
 10
342.073612
 20
162.02222
 30
0.0
 40
25.0
  0
LINE
  5
10C17
  8
CENTER
 10
323.37113
 20
180.724702
 30
0.0
 11
311.630019
 21
192.465813
 31
0.0
  0
LINE
  5
10C18
  8
0
 62
     5
 10
312.073612
 20
187.52222
 30
0.0
 11
312.073612
 21
136.52222
 31
0.0
  0
LINE
  5
10C19
  8
0
 62
     5
 10
269.845253
 20
169.02222
 30
0.0
 11
269.845253
 21
155.02222
 31
0.0
  0
LINE
  5
10C1A
  8
0
 62
     5
 10
270.245253
 20
168.622217
 30
0.0
 11
270.245253
 21
155.422223
 31
0.0
  0
LINE
  5
10C1B
  8
0
 62
     5
 10
269.845253
 20
155.02222
 30
0.0
 11
270.245253
 21
155.42222
 31
0.0
  0
LINE
  5
10C1C
  8
0
 62
     5
 10
269.845253
 20
169.02222
 30
0.0
 11
270.245253
 21
168.62222
 31
0.0
  0
LINE
  5
10C1D
  8
0
 62
     5
 10
311.807447
 20
143.141468
 30
0.0
 11
311.807447
 21
180.902972
 31
0.0
  0
ARC
  5
10C1E
  8
CENTER
 10
342.073612
 20
162.02222
 30
0.0
 40
35.0
 50
216.254023
 51
234.381034
  0
LINE
  5
10C1F
  8
CENTER
 10
323.37113
 20
143.319738
 30
0.0
 11
311.630019
 21
131.578627
 31
0.0
  0
ARC
  5
10C20
  8
0
 62
     5
 10
316.573612
 20
136.52222
 30
0.0
 40
4.5
 50
180.0
 51
270.0
  0
CIRCLE
  5
10C21
  8
0
 62
     5
 10
317.324875
 20
137.273483
 30
0.0
 40
2.9
  0
ARC
  5
10C22
  8
HIDDEN
 10
324.423612
 20
126.62222
 30
0.0
 40
0.5
 50
180.0
 51
270.0
  0
LINE
  5
10C23
  8
0
 62
     5
 10
322.251126
 20
132.02222
 30
0.0
 11
322.25092
 21
129.12222
 31
0.0
  0
LINE
  5
10C24
  8
HIDDEN
 10
323.923612
 20
127.72222
 30
0.0
 11
323.923612
 21
126.62222
 31
0.0
  0
LINE
  5
10C25
  8
0
 62
     5
 10
322.250925
 20
132.011811
 30
0.0
 11
322.25092
 21
132.011566
 31
0.0
  0
LINE
  5
10C26
  8
HIDDEN
 10
324.423612
 20
126.12222
 30
0.0
 11
326.723612
 21
126.12222
 31
0.0
  0
LINE
  5
10C27
  8
0
 62
     5
 10
328.815312
 20
123.22222
 30
0.0
 11
328.64561
 21
128.62222
 31
0.0
  0
LINE
  5
10C28
  8
0
 62
     5
 10
332.673612
 20
128.82222
 30
0.0
 11
332.673612
 21
128.92222
 31
0.0
  0
ARC
  5
10C29
  8
0
 62
     5
 10
332.473612
 20
128.82222
 30
0.0
 40
0.2
 50
270.0
 51
0.0
  0
LINE
  5
10C2A
  8
0
 62
     5
 10
329.432724
 20
128.62222
 30
0.0
 11
329.503017
 21
123.22222
 31
0.0
  0
CIRCLE
  5
10C2B
  8
0
 62
     5
 10
315.584904
 20
145.726258
 30
0.0
 40
1.25
  0
ARC
  5
10C2C
  8
CENTER
 10
342.073612
 20
162.02222
 30
0.0
 40
35.0
 50
126.254023
 51
144.381034
  0
ARC
  5
10C2D
  8
0
 62
     5
 10
316.573612
 20
187.52222
 30
0.0
 40
4.5
 50
90.0
 51
180.0
  0
CIRCLE
  5
10C2E
  8
0
 62
     5
 10
317.324875
 20
186.770957
 30
0.0
 40
2.9
  0
CIRCLE
  5
10C2F
  8
0
 62
     5
 10
325.77765
 20
188.510928
 30
0.0
 40
1.25
  0
LINE
  5
10C30
  8
CENTER
 10
360.776094
 20
180.724702
 30
0.0
 11
372.517205
 21
192.465813
 31
0.0
  0
LINE
  5
10C31
  8
0
 62
     5
 10
372.073612
 20
136.52222
 30
0.0
 11
372.073612
 21
187.52222
 31
0.0
  0
LINE
  5
10C32
  8
0
 62
     5
 10
372.339776
 20
180.902972
 30
0.0
 11
372.339776
 21
143.141468
 31
0.0
  0
LINE
  5
10C33
  8
0
 62
     5
 10
348.708412
 20
127.82222
 30
0.0
 11
357.597607
 21
127.82222
 31
0.0
  0
LINE
  5
10C34
  8
0
 62
     5
 10
358.735903
 20
124.52222
 30
0.0
 11
343.572766
 21
124.52222
 31
0.0
  0
LINE
  5
10C35
  8
0
 62
     5
 10
350.004141
 20
129.02222
 30
0.0
 11
364.263442
 21
129.02222
 31
0.0
  0
LINE
  5
10C36
  8
0
 62
     5
 10
350.014243
 20
130.02222
 30
0.0
 11
365.573612
 21
130.02222
 31
0.0
  0
LINE
  5
10C37
  8
0
 62
     5
 10
350.512099
 20
131.758892
 30
0.0
 11
360.954364
 21
131.756056
 31
0.0
  0
LINE
  5
10C38
  8
0
 62
     5
 10
343.591622
 20
125.12222
 30
0.0
 11
347.523186
 21
125.12222
 31
0.0
  0
LINE
  5
10C39
  8
0
 62
     5
 10
343.701613
 20
128.62222
 30
0.0
 11
343.531912
 21
123.22222
 31
0.0
  0
LINE
  5
10C3A
  8
0
 62
     5
 10
339.673612
 20
128.82222
 30
0.0
 11
339.673612
 21
128.92222
 31
0.0
  0
ARC
  5
10C3B
  8
0
 62
     5
 10
339.873612
 20
128.82222
 30
0.0
 40
0.2
 50
180.0
 51
270.0
  0
LINE
  5
10C3C
  8
0
 62
     5
 10
342.844207
 20
123.22222
 30
0.0
 11
342.9145
 21
128.62222
 31
0.0
  0
LINE
  5
10C3D
  8
0
 62
     5
 10
350.014243
 20
131.258887
 30
0.0
 11
350.014243
 21
129.12222
 31
0.0
  0
ARC
  5
10C3E
  8
0
 62
     5
 10
349.514243
 20
129.12222
 30
0.0
 40
0.5
 50
270.0
 51
0.0
  0
LINE
  5
10C3F
  8
HIDDEN
 10
345.623612
 20
126.12222
 30
0.0
 11
347.923612
 21
126.12222
 31
0.0
  0
LINE
  5
10C40
  8
HIDDEN
 10
348.423612
 20
127.72222
 30
0.0
 11
348.423612
 21
126.62222
 31
0.0
  0
ARC
  5
10C41
  8
HIDDEN
 10
347.923612
 20
126.62222
 30
0.0
 40
0.5
 50
270.0
 51
0.0
  0
LINE
  5
10C42
  8
0
 62
     5
 10
348.661482
 20
124.52222
 30
0.0
 11
348.708412
 21
124.82222
 31
0.0
  0
LINE
  5
10C43
  8
0
 62
     5
 10
347.523186
 20
125.12222
 30
0.0
 11
347.523186
 21
124.82222
 31
0.0
  0
LINE
  5
10C44
  8
0
 62
     5
 10
347.476256
 20
124.52222
 30
0.0
 11
347.523186
 21
124.82222
 31
0.0
  0
LINE
  5
10C45
  8
0
 62
     5
 10
347.523186
 20
124.82222
 30
0.0
 11
348.708412
 21
124.82222
 31
0.0
  0
LINE
  5
10C46
  8
0
 62
     5
 10
348.708412
 20
124.82222
 30
0.0
 11
348.708412
 21
127.82222
 31
0.0
  0
LINE
  5
10C47
  8
0
 62
     5
 10
351.514243
 20
131.758901
 30
0.0
 11
351.512099
 21
131.758892
 31
0.0
  0
ARC
  5
10C48
  8
CENTER
 10
342.073612
 20
162.02222
 30
0.0
 40
35.0
 50
306.254023
 51
324.381034
  0
LINE
  5
10C49
  8
CENTER
 10
360.776094
 20
143.319738
 30
0.0
 11
372.517205
 21
131.578627
 31
0.0
  0
CIRCLE
  5
10C4A
  8
0
 62
     5
 10
366.822349
 20
137.273483
 30
0.0
 40
2.9
  0
LINE
  5
10C4B
  8
HIDDEN
 10
364.263447
 20
124.52222
 30
0.0
 11
364.263447
 21
130.02222
 31
0.0
  0
LINE
  5
10C4C
  8
0
 62
     5
 10
364.263447
 20
129.02222
 30
0.0
 11
364.263447
 21
130.02222
 31
0.0
  0
LINE
  5
10C4D
  8
HIDDEN
 10
359.543418
 20
123.02222
 30
0.0
 11
362.763485
 21
123.02222
 31
0.0
  0
LINE
  5
10C4E
  8
0
 62
     5
 10
361.562166
 20
124.52222
 30
0.0
 11
358.735903
 21
124.52222
 31
0.0
  0
LINE
  5
10C4F
  8
0
 62
     5
 10
358.782833
 20
125.12222
 30
0.0
 11
362.163398
 21
125.12222
 31
0.0
  0
LINE
  5
10C50
  8
0
 62
     5
 10
357.597607
 20
124.82222
 30
0.0
 11
358.782833
 21
124.82222
 31
0.0
  0
LINE
  5
10C51
  8
0
 62
     5
 10
358.782833
 20
124.82222
 30
0.0
 11
358.782833
 21
125.12222
 31
0.0
  0
LINE
  5
10C52
  8
0
 62
     5
 10
357.597607
 20
124.82222
 30
0.0
 11
357.550677
 21
124.52222
 31
0.0
  0
LINE
  5
10C53
  8
0
 62
     5
 10
358.782833
 20
124.82222
 30
0.0
 11
358.735903
 21
124.52222
 31
0.0
  0
LINE
  5
10C54
  8
0
 62
     5
 10
357.237808
 20
124.52222
 30
0.0
 11
357.237808
 21
127.82222
 31
0.0
  0
LINE
  5
10C55
  8
0
 62
     5
 10
357.597607
 20
127.82222
 30
0.0
 11
357.597607
 21
124.82222
 31
0.0
  0
ARC
  5
10C56
  8
HIDDEN
 10
362.763447
 20
124.52222
 30
0.0
 40
1.5
 50
270.0
 51
0.0
  0
LINE
  5
10C57
  8
0
 62
     5
 10
361.858473
 20
125.12222
 30
0.0
 11
361.858473
 21
124.82222
 31
0.0
  0
LINE
  5
10C58
  8
0
 62
     5
 10
361.562166
 20
124.52222
 30
0.0
 11
361.858473
 21
124.82222
 31
0.0
  0
LINE
  5
10C59
  8
0
 62
     5
 10
362.163447
 20
129.02222
 30
0.0
 11
362.163447
 21
125.12222
 31
0.0
  0
CIRCLE
  5
10C5A
  8
0
 62
     5
 10
358.369574
 20
135.533512
 30
0.0
 40
1.25
  0
ARC
  5
10C5B
  8
0
 62
     5
 10
367.573612
 20
136.52222
 30
0.0
 40
4.5
 50
270.0
 51
0.0
  0
ARC
  5
10C5C
  8
0
 62
     5
 10
365.573612
 20
130.22222
 30
0.0
 40
0.2
 50
270.0
 51
0.0
  0
LINE
  5
10C5D
  8
0
 62
     5
 10
365.773612
 20
132.02222
 30
0.0
 11
365.773612
 21
130.22222
 31
0.0
  0
CIRCLE
  5
10C5E
  8
0
 62
     5
 10
342.073612
 20
162.02222
 30
0.0
 40
7.0
  0
CIRCLE
  5
10C5F
  8
0
 62
     5
 10
368.56232
 20
178.318182
 30
0.0
 40
1.25
  0
ARC
  5
10C60
  8
CENTER
 10
342.073612
 20
162.02222
 30
0.0
 40
35.0
 50
36.254023
 51
54.381034
  0
CIRCLE
  5
10C61
  8
0
 62
     5
 10
366.822349
 20
186.770957
 30
0.0
 40
2.9
  0
LINE
  5
10C62
  8
0
 62
     5
 10
364.413999
 20
185.156368
 30
0.0
 11
364.415109
 21
185.157518
 31
0.0
  0
ARC
  5
10C63
  8
0
 62
     5
 10
367.573612
 20
187.52222
 30
0.0
 40
4.5
 50
0.0
 51
90.0
  0
LINE
  5
10C64
  8
CENTER
 10
103.385594
 20
162.02222
 30
0.0
 11
32.792216
 21
162.02222
 31
0.0
  0
POLYLINE
  5
10C65
  8
HIDDEN
 66
     1
 10
0.0
 20
0.0
 30
0.0
 70
     2
  0
VERTEX
  5
10C66
  8
HIDDEN
 10
52.1834
 20
120.414
 30
0.0
 42
0.029759
  0
VERTEX
  5
10C67
  8
HIDDEN
 10
52.444711
 20
119.272793
 30
0.0
 42
0.04126
 70
     1
  0
VERTEX
  5
10C68
  8
HIDDEN
 10
52.748
 20
118.484
 30
0.0
 42
0.008944
  0
VERTEX
  5
10C69
  8
HIDDEN
 10
53.26625
 20
117.457234
 30
0.0
 42
0.044117
 70
     1
  0
VERTEX
  5
10C6A
  8
HIDDEN
 10
53.393
 20
117.261
 30
0.0
 42
0.036517
  0
VERTEX
  5
10C6B
  8
HIDDEN
 10
53.653346
 20
116.972807
 30
0.0
 42
0.042435
 70
     1
  0
VERTEX
  5
10C6C
  8
HIDDEN
 10
53.9137
 20
116.763
 30
0.0
 42
0.038324
  0
VERTEX
  5
10C6D
  8
HIDDEN
 10
54.079943
 20
116.668505
 30
0.0
 42
0.009372
 70
     1
  0
VERTEX
  5
10C6E
  8
HIDDEN
 10
54.7925
 20
116.349
 30
0.0
 42
0.04417
  0
VERTEX
  5
10C6F
  8
HIDDEN
 10
55.371855
 20
116.160544
 30
0.0
 42
0.032027
 70
     1
  0
VERTEX
  5
10C70
  8
HIDDEN
 10
56.2003
 20
116.025
 30
0.0
  0
SEQEND
  5
10C71
  8
HIDDEN
  0
POLYLINE
  5
10C72
  8
HIDDEN
 66
     1
 10
0.0
 20
0.0
 30
0.0
 70
     2
  0
VERTEX
  5
10C73
  8
HIDDEN
 10
66.2094
 20
121.499
 30
0.0
 42
-0.015503
  0
VERTEX
  5
10C74
  8
HIDDEN
 10
66.171397
 20
120.517044
 30
0.0
 42
-0.022695
 70
     1
  0
VERTEX
  5
10C75
  8
HIDDEN
 10
66.0943
 20
119.85
 30
0.0
 42
-0.002332
  0
VERTEX
  5
10C76
  8
HIDDEN
 10
65.951858
 20
118.995166
 30
0.0
 42
-0.013561
 70
     1
  0
VERTEX
  5
10C77
  8
HIDDEN
 10
65.9227
 20
118.849
 30
0.0
 42
-0.028519
  0
VERTEX
  5
10C78
  8
HIDDEN
 10
65.786146
 20
118.375975
 30
0.0
 42
-0.028423
 70
     1
  0
VERTEX
  5
10C79
  8
HIDDEN
 10
65.5961
 20
117.92
 30
0.0
 42
-0.026101
  0
VERTEX
  5
10C7A
  8
HIDDEN
 10
65.430079
 20
117.61891
 30
0.0
 42
-0.027243
 70
     1
  0
VERTEX
  5
10C7B
  8
HIDDEN
 10
65.2412
 20
117.349
 30
0.0
 42
-0.029603
  0
VERTEX
  5
10C7C
  8
HIDDEN
 10
65.019894
 20
117.098825
 30
0.0
 42
-0.028227
 70
     1
  0
VERTEX
  5
10C7D
  8
HIDDEN
 10
64.7591
 20
116.865
 30
0.0
 42
-0.030127
  0
VERTEX
  5
10C7E
  8
HIDDEN
 10
64.416737
 20
116.623543
 30
0.0
 42
-0.028822
 70
     1
  0
VERTEX
  5
10C7F
  8
HIDDEN
 10
64.0317
 20
116.415
 30
0.0
 42
-0.019502
  0
VERTEX
  5
10C80
  8
HIDDEN
 10
63.634554
 20
116.247202
 30
0.0
 42
-0.030579
 70
     1
  0
VERTEX
  5
10C81
  8
HIDDEN
 10
63.3717
 20
116.166
 30
0.0
 42
-0.017216
  0
VERTEX
  5
10C82
  8
HIDDEN
 10
63.163015
 20
116.122816
 30
0.0
 42
-0.007455
 70
     1
  0
VERTEX
  5
10C83
  8
HIDDEN
 10
62.6769
 20
116.047
 30
0.0
 42
-0.019703
  0
VERTEX
  5
10C84
  8
HIDDEN
 10
62.565972
 20
116.035825
 30
0.0
 42
-0.009067
 70
     1
  0
VERTEX
  5
10C85
  8
HIDDEN
 10
62.323997
 20
116.025445
 30
0.0
  0
SEQEND
  5
10C86
  8
HIDDEN
  0
ARC
  5
10C87
  8
HIDDEN
 10
169.772177
 20
128.007886
 30
0.0
 40
1.614115
 50
67.302851
 51
90.077284
  0
ARC
  5
10C88
  8
HIDDEN
 10
169.785555
 20
117.620224
 30
0.0
 40
1.595515
 50
271.093358
 51
306.339178
  0
ARC
  5
10C89
  8
HIDDEN
 10
173.305192
 20
118.326629
 30
0.0
 40
1.103639
 50
270.249618
 51
300.119279
  0
ARC
  5
10C8A
  8
HIDDEN
 10
347.841823
 20
119.983427
 30
0.0
 40
3.961208
 50
240.229911
 51
269.952222
  0
ARC
  5
10C8B
  8
0
 62
     5
 10
323.190966
 20
191.294686
 30
0.0
 40
0.9937
 50
89.890824
 51
132.933359
  0
ARC
  5
10C8C
  8
0
 62
     5
 10
360.953643
 20
191.286363
 30
0.0
 40
1.002022
 50
47.254217
 51
89.958782
  0
ARC
  5
10C8D
  8
0
 62
     5
 10
371.331755
 20
180.899953
 30
0.0
 40
1.008025
 50
0.171607
 51
42.612432
  0
ARC
  5
10C8E
  8
0
 62
     5
 10
371.34032
 20
143.140695
 30
0.0
 40
0.999457
 50
317.196692
 51
0.044297
  0
ARC
  5
10C8F
  8
0
 62
     5
 10
312.804074
 20
180.903578
 30
0.0
 40
0.996626
 50
137.132968
 51
180.034827
  0
ARC
  5
10C90
  8
0
 62
     5
 10
312.802675
 20
143.139874
 30
0.0
 40
0.995229
 50
179.908239
 51
222.898697
  0
ARC
  5
10C91
  8
0
 62
     5
 10
322.750366
 20
129.121666
 30
0.0
 40
0.499446
 50
179.936449
 51
270.063551
  0
ARC
  5
10C92
  8
0
 62
     5
 10
360.953587
 20
132.759438
 30
0.0
 40
1.003383
 50
270.044376
 51
312.715371
  0
ARC
  5
10C93
  8
0
 62
     5
 10
350.514073
 20
131.259537
 30
0.0
 40
0.499359
 50
90.226529
 51
171.656202
  0
ARC
  5
10C94
  8
0
 62
     5
 10
350.658017
 20
131.244981
 30
0.0
 40
0.643924
 50
172.23341
 51
178.762602
  0
ARC
  5
10C95
  8
0
 62
     5
 10
167.915853
 20
188.995331
 30
0.0
 40
4.813243
 50
163.782241
 51
178.194269
  0
ARC
  5
10C96
  8
0
 62
     5
 10
164.914256
 20
189.278005
 30
0.0
 40
1.813993
 50
184.141452
 51
195.575685
  0
ARC
  5
10C97
  8
0
 62
     5
 10
167.921183
 20
188.02787
 30
0.0
 40
4.818737
 50
181.865551
 51
196.215428
  0
ARC
  5
10C98
  8
0
 62
     5
 10
164.808219
 20
187.763463
 30
0.0
 40
1.70661
 50
164.102691
 51
176.387289
  0
ARC
  5
10C99
  8
0
 62
     5
 10
168.002427
 20
146.196416
 30
0.0
 40
4.900362
 50
163.905006
 51
178.016797
  0
ARC
  5
10C9A
  8
0
 62
     5
 10
164.888496
 20
146.487587
 30
0.0
 40
1.787636
 50
183.900013
 51
195.619899
  0
ARC
  5
10C9B
  8
0
 62
     5
 10
167.936213
 20
145.245637
 30
0.0
 40
4.83385
 50
181.892525
 51
196.193402
  0
ARC
  5
10C9C
  8
0
 62
     5
 10
164.808951
 20
144.978767
 30
0.0
 40
1.707322
 50
164.108545
 51
176.398999
  0
ARC
  5
10C9D
  8
0
 62
     5
 10
160.508106
 20
178.970308
 30
0.0
 40
2.407273
 50
152.112707
 51
180.673769
  0
ARC
  5
10C9E
  8
0
 62
     5
 10
159.462594
 20
179.001278
 30
0.0
 40
1.362884
 50
182.49286
 51
197.203566
  0
ARC
  5
10C9F
  8
0
 62
     5
 10
160.318802
 20
177.601263
 30
0.0
 40
2.209868
 50
189.090573
 51
208.698216
  0
ARC
  5
10CA0
  8
0
 62
     5
 10
159.586306
 20
177.601263
 30
0.0
 40
1.49107
 50
162.960945
 51
193.542128
  0
ARC
  5
10CA1
  8
0
 62
     5
 10
160.508188
 20
136.18561
 30
0.0
 40
2.407358
 50
152.113026
 51
180.680953
  0
ARC
  5
10CA2
  8
0
 62
     5
 10
159.463169
 20
136.216766
 30
0.0
 40
1.363479
 50
182.512285
 51
197.20273
  0
ARC
  5
10CA3
  8
0
 62
     5
 10
160.508182
 20
134.881412
 30
0.0
 40
2.407351
 50
179.319583
 51
207.886998
  0
ARC
  5
10CA4
  8
0
 62
     5
 10
159.463126
 20
134.85027
 30
0.0
 40
1.363435
 50
162.797207
 51
177.489167
  0
LINE
  5
10CA5
  8
0
 62
     5
 10
188.244
 20
132.009
 30
0.0
 11
188.639
 21
131.779
 31
0.0
  0
ARC
  5
10CA6
  8
0
 62
     5
 10
188.225656
 20
131.983635
 30
0.0
 40
0.031303
 50
54.124377
 51
95.405728
  0
ARC
  5
10CA7
  8
0
 62
     5
 10
189.463478
 20
131.373587
 30
0.0
 40
0.918762
 50
153.815728
 51
178.040594
  0
ARC
  5
10CA8
  8
0
 62
     5
 10
161.445068
 20
181.78108
 30
0.0
 40
0.199815
 50
89.946971
 51
179.93428
  0
ARC
  5
10CA9
  8
0
 62
     5
 10
86.96843
 20
191.287068
 30
0.0
 40
1.001317
 50
4.495871
 51
89.929773
  0
ARC
  5
10CAA
  8
0
 62
     5
 10
97.353753
 20
180.901745
 30
0.0
 40
1.001317
 50
0.070227
 51
85.504129
  0
POLYLINE
  5
10CAB
  8
0
 62
     5
 66
     1
 10
0.0
 20
0.0
 30
0.0
  0
VERTEX
  5
10D46
  8
0
 62
     5
 10
49.208153
 20
192.288384
 30
0.0
  0
VERTEX
  5
10D47
  8
0
 62
     5
 10
48.529536
 20
192.02222
 30
0.0
  0
VERTEX
  5
10D48
  8
0
 62
     5
 10
48.211144
 20
191.365558
 30
0.0
  0
SEQEND
  5
10D49
  8
0
 62
     5
  0
ARC
  5
10CB0
  8
0
 62
     5
 10
38.824057
 20
180.901745
 30
0.0
 40
1.001317
 50
94.495871
 51
179.929773
  0
ARC
  5
10CB1
  8
0
 62
     5
 10
38.824057
 20
143.142695
 30
0.0
 40
1.001317
 50
180.070227
 51
265.504129
  0
ARC
  5
10CB2
  8
0
 62
     5
 10
97.353753
 20
143.142695
 30
0.0
 40
1.001317
 50
274.495871
 51
359.929773
  0
ARC
  5
10CB3
  8
0
 62
     5
 10
87.411448
 20
129.122369
 30
0.0
 40
0.500149
 50
270.017048
 51
359.982952
  0
ARC
  5
10CB4
  8
0
 62
     5
 10
170.904889
 20
131.946773
 30
0.0
 40
0.065464
 50
96.537739
 51
142.813725
  0
ARC
  5
10CB5
  8
0
 62
     5
 10
171.299843
 20
131.664102
 30
0.0
 40
0.551129
 50
144.219121
 51
170.160102
  0
ENDSEC
  0
EOF
