  0
SECTION
  2
HEADER
  9
$ACADVER
  1
AC1009
  9
$INSBASE
 10
0.0
 20
0.0
 30
0.0
  9
$EXTMIN
 10
-377.533186
 20
-165.0
 30
0.0
  9
$EXTMAX
 10
382.499991
 20
203.297656
 30
0.0
  9
$LIMMIN
 10
0.0
 20
0.0
  9
$LIMMAX
 10
12.0
 20
9.0
  9
$ORTHOMODE
 70
     1
  9
$REGENMODE
 70
     1
  9
$FILLMODE
 70
     1
  9
$QTEXTMODE
 70
     0
  9
$MIRRTEXT
 70
     1
  9
$DRAGMODE
 70
     2
  9
$LTSCALE
 40
1.0
  9
$OSMODE
 70
    37
  9
$ATTMODE
 70
     1
  9
$TEXTSIZE
 40
2.8
  9
$TRACEWID
 40
0.05
  9
$TEXTSTYLE
  7
STANDARD
  9
$CLAYER
  8
0
  9
$CELTYPE
  6
CONTINUOUS
  9
$CECOLOR
 62
   256
  9
$DIMSCALE
 40
1.0
  9
$DIMASZ
 40
1.931852
  9
$DIMEXO
 40
1.0
  9
$DIMDLI
 40
0.38
  9
$DIMRND
 40
0.0
  9
$DIMDLE
 40
0.0
  9
$DIMEXE
 40
2.0
  9
$DIMTP
 40
0.0
  9
$DIMTM
 40
0.0
  9
$DIMTXT
 40
2.0
  9
$DIMCEN
 40
0.09
  9
$DIMTSZ
 40
0.0
  9
$DIMTOL
 70
     0
  9
$DIMLIM
 70
     0
  9
$DIMTIH
 70
     1
  9
$DIMTOH
 70
     1
  9
$DIMSE1
 70
     0
  9
$DIMSE2
 70
     0
  9
$DIMTAD
 70
     1
  9
$DIMZIN
 70
     0
  9
$DIMBLK
  1

  9
$DIMASO
 70
     1
  9
$DIMSHO
 70
     1
  9
$DIMPOST
  1

  9
$DIMAPOST
  1

  9
$DIMALT
 70
     0
  9
$DIMALTD
 70
     2
  9
$DIMALTF
 40
25.4
  9
$DIMLFAC
 40
1.0
  9
$DIMTOFL
 70
     0
  9
$DIMTVP
 40
0.0
  9
$DIMTIX
 70
     0
  9
$DIMSOXD
 70
     0
  9
$DIMSAH
 70
     0
  9
$DIMBLK1
  1

  9
$DIMBLK2
  1

  9
$DIMSTYLE
  2
STANDARD
  9
$DIMCLRD
 70
     0
  9
$DIMCLRE
 70
     0
  9
$DIMCLRT
 70
     0
  9
$DIMTFAC
 40
0.625
  9
$DIMGAP
 40
2.0
  9
$LUNITS
 70
     2
  9
$LUPREC
 70
     3
  9
$SKETCHINC
 40
0.1
  9
$FILLETRAD
 40
0.0
  9
$AUNITS
 70
     0
  9
$AUPREC
 70
     0
  9
$MENU
  1
.
  9
$ELEVATION
 40
0.0
  9
$PELEVATION
 40
0.0
  9
$THICKNESS
 40
0.0
  9
$LIMCHECK
 70
     0
  9
$BLIPMODE
 70
     0
  9
$CHAMFERA
 40
0.0
  9
$CHAMFERB
 40
0.0
  9
$SKPOLY
 70
     0
  9
$TDCREATE
 40
2450836.691279
  9
$TDUPDATE
 40
2450836.691279
  9
$TDINDWG
 40
0.0
  9
$TDUSRTIMER
 40
0.0
  9
$USRTIMER
 70
     1
  9
$ANGBASE
 50
0.0
  9
$ANGDIR
 70
     0
  9
$PDMODE
 70
     0
  9
$PDSIZE
 40
0.0
  9
$PLINEWID
 40
0.0
  9
$COORDS
 70
     1
  9
$SPLFRAME
 70
     0
  9
$SPLINETYPE
 70
     6
  9
$SPLINESEGS
 70
     8
  9
$ATTDIA
 70
     0
  9
$ATTREQ
 70
     1
  9
$HANDLING
 70
     1
  9
$HANDSEED
  5
807
  9
$SURFTAB1
 70
     6
  9
$SURFTAB2
 70
     6
  9
$SURFTYPE
 70
     6
  9
$SURFU
 70
     6
  9
$SURFV
 70
     6
  9
$UCSNAME
  2

  9
$UCSORG
 10
0.0
 20
0.0
 30
0.0
  9
$UCSXDIR
 10
1.0
 20
0.0
 30
0.0
  9
$UCSYDIR
 10
0.0
 20
1.0
 30
0.0
  9
$PUCSNAME
  2

  9
$PUCSORG
 10
0.0
 20
0.0
 30
0.0
  9
$PUCSXDIR
 10
1.0
 20
0.0
 30
0.0
  9
$PUCSYDIR
 10
0.0
 20
1.0
 30
0.0
  9
$USERI1
 70
     0
  9
$USERI2
 70
     0
  9
$USERI3
 70
     0
  9
$USERI4
 70
     0
  9
$USERI5
 70
     0
  9
$USERR1
 40
0.0
  9
$USERR2
 40
0.0
  9
$USERR3
 40
0.0
  9
$USERR4
 40
0.0
  9
$USERR5
 40
0.0
  9
$WORLDVIEW
 70
     1
  9
$SHADEDGE
 70
     3
  9
$SHADEDIF
 70
    70
  9
$TILEMODE
 70
     1
  9
$MAXACTVP
 70
    48
  9
$PLIMCHECK
 70
     0
  9
$PEXTMIN
 10
1.000000E+020
 20
1.000000E+020
 30
1.000000E+020
  9
$PEXTMAX
 10
-1.000000E+020
 20
-1.000000E+020
 30
-1.000000E+020
  9
$PLIMMIN
 10
0.0
 20
0.0
  9
$PLIMMAX
 10
12.0
 20
9.0
  9
$UNITMODE
 70
     0
  9
$VISRETAIN
 70
     1
  9
$PLINEGEN
 70
     0
  9
$PSLTSCALE
 70
     1
  0
ENDSEC
  0
SECTION
  2
TABLES
  0
TABLE
  2
VPORT
 70
     2
  0
VPORT
  2
*ACTIVE
 70
     0
 10
0.0
 20
0.0
 11
1.0
 21
1.0
 12
12.377508
 22
24.292916
 13
0.0
 23
0.0
 14
1.0
 24
1.0
 15
0.0
 25
0.0
 16
0.0
 26
0.0
 36
1.0
 17
0.0
 27
0.0
 37
0.0
 40
705.52784
 41
1.743346
 42
50.0
 43
0.0
 44
0.0
 50
0.0
 51
0.0
 71
     0
 72
   100
 73
     1
 74
     1
 75
     0
 76
     0
 77
     0
 78
     0
  0
ENDTAB
  0
TABLE
  2
LTYPE
 70
     5
  0
LTYPE
  2
CONTINUOUS
 70
     0
  3
Solid line
 72
    65
 73
     0
 40
0.0
  0
LTYPE
  2
DASHED
 70
     0
  3
-- -- -- -- -- -- -- -- -- -- -- -- -- -- --
 72
    65
 73
     2
 40
0.75
 49
0.5
 49
-0.25
  0
LTYPE
  2
DASHDOT
 70
     0
  3
__ . __ . __ . __ . __ . __ . __ . __ . __ . __
 72
    65
 73
     4
 40
1.0
 49
0.5
 49
-0.25
 49
0.0
 49
-0.25
  0
LTYPE
  2
DIVIDE
 70
     0
  3
__ . . __ . . __ . . __ . . __ . . __ . . __
 72
    65
 73
     6
 40
1.25
 49
0.5
 49
-0.25
 49
0.0
 49
-0.25
 49
0.0
 49
-0.25
  0
LTYPE
  2
CENTER
 70
     0
  3
____ _ ____ _ ____ _ ____ _ ____ _ ____ _ ____
 72
    65
 73
     4
 40
17.5
 49
13.0
 49
-1.5
 49
1.5
 49
-1.5
  0
ENDTAB
  0
TABLE
  2
LAYER
 70
     5
  0
LAYER
  2
0
 70
     0
 62
     3
  6
CONTINUOUS
  0
LAYER
  2
1
 70
     0
 62
     3
  6
CONTINUOUS
  0
LAYER
  2
DEFPOINTS
 70
     0
 62
     7
  6
CONTINUOUS
  0
ENDTAB
  0
TABLE
  2
STYLE
 70
     5
  0
STYLE
  2
STANDARD
 70
     0
 40
0.0
 41
1.0
 50
0.0
 71
     0
 42
0.2
  3
txt
  4

  0
STYLE
  2
STANDARD1
 70
     0
 40
0.0
 41
1.0
 50
0.0
 71
     0
 42
2.8
  3
MONOTXT
  4
BIGFONT
  0
STYLE
  2
STANDARD2
 70
     4
 40
0.0
 41
1.0
 50
0.0
 71
     0
 42
2.8
  3
MONOTXT
  4
BIGFONT
  0
STYLE
  2
STANDARD3
 70
     0
 40
0.0
 41
1.0
 50
0.0
 71
     0
 42
2.8
  3
MONOTXT
  4

  0
STYLE
  2
STANDARD4
 70
     4
 40
0.0
 41
1.0
 50
0.0
 71
     0
 42
2.8
  3
MONOTXT
  4

  0
ENDTAB
  0
TABLE
  2
VIEW
 70
     0
  0
ENDTAB
  0
TABLE
  2
UCS
 70
     0
  0
ENDTAB
  0
TABLE
  2
APPID
 70
     1
  0
APPID
  2
ACAD
 70
     0
  0
ENDTAB
  0
TABLE
  2
DIMSTYLE
 70
     1
  0
DIMSTYLE
  2
STANDARD
 70
     0
  3

  4

  5

  6

  7

 40
1.0
 41
0.18
 42
0.0625
 43
0.38
 44
0.18
 45
0.0
 46
0.0
 47
0.0
 48
0.0
140
0.18
141
0.09
142
0.0
143
25.4
144
1.0
145
0.0
146
1.0
147
0.09
 71
     0
 72
     0
 73
     1
 74
     1
 75
     0
 76
     0
 77
     0
 78
     0
170
     0
171
     2
172
     0
173
     0
174
     0
175
     0
176
     0
177
     0
178
     0
  0
ENDTAB
  0
ENDSEC
  0
SECTION
  2
BLOCKS
  0
BLOCK
  8
0
  2
$MODEL_SPACE
 70
     0
 10
0.0
 20
0.0
 30
0.0
  3
$MODEL_SPACE
  1

  0
ENDBLK
  5
7FF
  8
0
  0
BLOCK
 67
     1
  8
0
  2
$PAPER_SPACE
 70
     0
 10
0.0
 20
0.0
 30
0.0
  3
$PAPER_SPACE
  1

  0
ENDBLK
  5
7FD
 67
     1
  8
0
  0
BLOCK
  8
0
  2
SYM1
 70
     0
 10
0.0
 20
0.0
 30
0.0
  3
SYM1
  1

  0
LINE
  5
2D
  8
0
  6
CONTINUOUS
 62
     2
 10
3.419239
 20
4.5
 30
0.0
 11
5.459619
 21
6.540381
 31
0.0
  0
LINE
  5
2E
  8
0
  6
CONTINUOUS
 62
     2
 10
1.580761
 20
4.5
 30
0.0
 11
-0.459619
 21
6.540381
 31
0.0
  0
LINE
  5
2F
  8
0
  6
CONTINUOUS
 62
     2
 10
1.85
 20
6.069239
 30
0.0
 11
0.459619
 21
7.459619
 31
0.0
  0
LINE
  5
30
  8
0
  6
CONTINUOUS
 62
     2
 10
3.15
 20
6.069239
 30
0.0
 11
3.15
 21
9.0
 31
0.0
  0
LINE
  5
31
  8
0
  6
CONTINUOUS
 62
     2
 10
1.85
 20
6.069239
 30
0.0
 11
1.85
 21
9.0
 31
0.0
  0
LINE
  5
32
  8
0
  6
CONTINUOUS
 62
     2
 10
3.15
 20
6.069239
 30
0.0
 11
4.540381
 21
7.459619
 31
0.0
  0
LINE
  5
33
  8
0
  6
CONTINUOUS
 62
     2
 10
5.459619
 20
2.459619
 30
0.0
 11
4.540381
 21
1.540381
 31
0.0
  0
LINE
  5
34
  8
0
  6
CONTINUOUS
 62
     2
 10
-0.459619
 20
6.540381
 30
0.0
 11
0.459619
 21
7.459619
 31
0.0
  0
LINE
  5
35
  8
0
  6
CONTINUOUS
 62
     2
 10
0.459619
 20
1.540381
 30
0.0
 11
-0.459619
 21
2.459619
 31
0.0
  0
LINE
  5
36
  8
0
  6
CONTINUOUS
 62
     2
 10
5.459619
 20
6.540381
 30
0.0
 11
4.540381
 21
7.459619
 31
0.0
  0
LINE
  5
37
  8
0
  6
CONTINUOUS
 62
     2
 10
1.85
 20
0.0
 30
0.0
 11
1.85
 21
2.930761
 31
0.0
  0
LINE
  5
38
  8
0
  6
CONTINUOUS
 62
     2
 10
3.15
 20
0.0
 30
0.0
 11
3.15
 21
2.930761
 31
0.0
  0
LINE
  5
39
  8
0
  6
CONTINUOUS
 62
     2
 10
0.459619
 20
1.540381
 30
0.0
 11
1.85
 21
2.930761
 31
0.0
  0
LINE
  5
3A
  8
0
  6
CONTINUOUS
 62
     2
 10
-0.459619
 20
2.459619
 30
0.0
 11
1.580761
 21
4.5
 31
0.0
  0
LINE
  5
3B
  8
0
  6
CONTINUOUS
 62
     2
 10
4.540381
 20
1.540381
 30
0.0
 11
3.15
 21
2.930761
 31
0.0
  0
LINE
  5
3C
  8
0
  6
CONTINUOUS
 62
     2
 10
5.459619
 20
2.459619
 30
0.0
 11
3.419239
 21
4.5
 31
0.0
  0
LINE
  5
3D
  8
0
  6
CONTINUOUS
 62
     2
 10
1.85
 20
9.0
 30
0.0
 11
3.15
 21
9.0
 31
0.0
  0
LINE
  5
3E
  8
0
  6
CONTINUOUS
 62
     2
 10
1.85
 20
0.0
 30
0.0
 11
3.15
 21
0.0
 31
0.0
  0
ENDBLK
  5
3F
  8
0
  0
BLOCK
  8
0
  2
SYM2
 70
     0
 10
0.0
 20
0.0
 30
0.0
  3
SYM2
  1

  0
LINE
  5
42
  8
0
  6
CONTINUOUS
 62
     2
 10
3.150001
 20
0.0
 30
0.0
 11
1.85
 21
0.0
 31
0.0
  0
LINE
  5
43
  8
0
  6
CONTINUOUS
 62
     2
 10
1.85
 20
9.0
 30
0.0
 11
3.150001
 21
9.0
 31
0.0
  0
LINE
  5
44
  8
0
  6
CONTINUOUS
 62
     2
 10
1.85
 20
0.0
 30
0.0
 11
1.85
 21
7.7
 31
0.0
  0
LINE
  5
45
  8
0
  6
CONTINUOUS
 62
     2
 10
3.150001
 20
0.0
 30
0.0
 11
3.150001
 21
9.0
 31
0.0
  0
LINE
  5
46
  8
0
  6
CONTINUOUS
 62
     2
 10
1.85
 20
7.7
 30
0.0
 11
1.2
 21
7.7
 31
0.0
  0
LINE
  5
47
  8
0
  6
CONTINUOUS
 62
     2
 10
1.2
 20
7.7
 30
0.0
 11
1.85
 21
9.0
 31
0.0
  0
ENDBLK
  5
48
  8
0
  0
BLOCK
  8
0
  2
*D2
 70
     1
 10
0.0
 20
0.0
 30
0.0
  3
*D2
  1

  0
TEXT
  5
4B
  8
0
  6
CONTINUOUS
 62
     4
 10
60.966234
 20
2.959993
 30
0.0
 40
3.2
  1
ѓУ‚R‚T‚€‚U
 50
90.000005
 41
0.583333
  7
STANDARD1
  0
LINE
  5
4C
  8
0
  6
CONTINUOUS
 62
     4
 10
47.500008
 20
16.25
 30
0.0
 11
63.966232
 21
16.25
 31
0.0
  0
LINE
  5
4D
  8
0
  6
CONTINUOUS
 62
     4
 10
47.500008
 20
-1.25
 30
0.0
 11
63.966232
 21
-1.25
 31
0.0
  0
LINE
  5
4E
  8
0
  6
CONTINUOUS
 62
     4
 10
61.966232
 20
16.25
 30
0.0
 11
61.966232
 21
-1.25
 31
0.0
  0
LINE
  5
4F
  8
0
  6
CONTINUOUS
 62
     4
 10
61.966232
 20
16.25
 30
0.0
 11
62.48387
 21
14.318148
 31
0.0
  0
LINE
  5
50
  8
0
  6
CONTINUOUS
 62
     4
 10
61.966232
 20
16.25
 30
0.0
 11
61.448594
 21
14.318148
 31
0.0
  0
LINE
  5
51
  8
0
  6
CONTINUOUS
 62
     4
 10
61.966232
 20
-1.25
 30
0.0
 11
61.448594
 21
0.681852
 31
0.0
  0
LINE
  5
52
  8
0
  6
CONTINUOUS
 62
     4
 10
61.966232
 20
-1.25
 30
0.0
 11
62.48387
 21
0.681852
 31
0.0
  0
POINT
  5
54
  8
DEFPOINTS
  6
BYBLOCK
 10
46.500008
 20
-1.25
 30
0.0
  0
POINT
  5
55
  8
DEFPOINTS
  6
BYBLOCK
 10
46.500008
 20
16.25
 30
0.0
  0
POINT
  5
56
  8
DEFPOINTS
  6
BYBLOCK
 10
61.966232
 20
16.25
 30
0.0
  0
ENDBLK
  5
57
  8
0
  0
BLOCK
  8
0
  2
*D3
 70
     1
 10
0.0
 20
0.0
 30
0.0
  3
*D3
  1

  0
TEXT
  5
5A
  8
0
  6
CONTINUOUS
 62
     4
 10
18.658159
 20
75.898505
 30
0.0
 40
3.2
  1
4
 50
0.000003
 41
0.7
  7
STANDARD1
  0
LINE
  5
5B
  8
0
  6
CONTINUOUS
 62
     4
 10
14.000009
 20
63.5
 30
0.0
 11
14.000009
 21
76.898506
 31
0.0
  0
LINE
  5
5C
  8
0
  6
CONTINUOUS
 62
     4
 10
16.000008
 20
58.5
 30
0.0
 11
16.000008
 21
76.898506
 31
0.0
  0
LINE
  5
5D
  8
0
  6
CONTINUOUS
 62
     4
 10
9.000009
 20
74.898506
 30
0.0
 11
21.000008
 21
74.898506
 31
0.0
  0
LINE
  5
5E
  8
0
  6
CONTINUOUS
 62
     4
 10
14.000009
 20
74.898506
 30
0.0
 11
12.068157
 21
75.416144
 31
0.0
  0
LINE
  5
5F
  8
0
  6
CONTINUOUS
 62
     4
 10
14.000009
 20
74.898506
 30
0.0
 11
12.068157
 21
74.380868
 31
0.0
  0
LINE
  5
60
  8
0
  6
CONTINUOUS
 62
     4
 10
16.000008
 20
74.898506
 30
0.0
 11
17.931859
 21
74.380868
 31
0.0
  0
LINE
  5
61
  8
0
  6
CONTINUOUS
 62
     4
 10
16.000008
 20
74.898506
 30
0.0
 11
17.931859
 21
75.416144
 31
0.0
  0
POINT
  5
62
  8
DEFPOINTS
  6
BYBLOCK
 10
16.000008
 20
57.5
 30
0.0
  0
POINT
  5
63
  8
DEFPOINTS
  6
BYBLOCK
 10
14.000009
 20
62.5
 30
0.0
  0
POINT
  5
64
  8
DEFPOINTS
  6
BYBLOCK
 10
14.000009
 20
74.898506
 30
0.0
  0
ENDBLK
  5
65
  8
0
  0
BLOCK
  8
0
  2
*D4
 70
     1
 10
0.0
 20
0.0
 30
0.0
  3
*D4
  1

  0
TEXT
  5
68
  8
0
  6
CONTINUOUS
 62
     4
 10
112.107488
 20
45.514495
 30
0.0
 40
3.2
  1
ѓУ
 50
300.963758
 41
0.583333
  7
STANDARD1
  0
TEXT
  5
69
  8
0
  6
CONTINUOUS
 62
     4
 10
113.259962
 20
43.593711
 30
0.0
 40
3.2
  1
250
 50
300.963758
 41
0.7
  7
STANDARD1
  0
LINE
  5
6A
  8
0
  6
CONTINUOUS
 62
     4
 10
165.905991
 20
-46.093307
 30
0.0
 11
101.594017
 21
61.093307
 31
0.0
  0
LINE
  5
6B
  8
0
  6
CONTINUOUS
 62
     4
 10
165.905991
 20
-46.093307
 30
0.0
 11
164.46819
 21
-44.703081
 31
0.0
  0
LINE
  5
6C
  8
0
  6
CONTINUOUS
 62
     4
 10
165.905991
 20
-46.093307
 30
0.0
 11
165.355932
 21
-44.170436
 31
0.0
  0
LINE
  5
6D
  8
0
  6
CONTINUOUS
 62
     4
 10
101.594017
 20
61.093307
 30
0.0
 11
103.031818
 21
59.703081
 31
0.0
  0
LINE
  5
6E
  8
0
  6
CONTINUOUS
 62
     4
 10
101.594017
 20
61.093307
 30
0.0
 11
102.144076
 21
59.170436
 31
0.0
  0
POINT
  5
6F
  8
DEFPOINTS
  6
BYBLOCK
 10
165.905991
 20
-46.093307
 30
0.0
  0
POINT
  5
70
  8
DEFPOINTS
  6
BYBLOCK
 10
101.594017
 20
61.093307
 30
0.0
  0
ENDBLK
  5
71
  8
0
  0
BLOCK
  8
0
  2
*D5
 70
     1
 10
0.0
 20
0.0
 30
0.0
  3
*D5
  1

  0
TEXT
  5
74
  8
0
  6
CONTINUOUS
 62
     4
 10
-53.499998
 20
-17.254999
 30
0.0
 40
3.2
  1
81.5
 50
90.000005
 41
0.7
  7
STANDARD1
  0
LINE
  5
75
  8
0
  6
CONTINUOUS
 62
     4
 10
-51.0
 20
7.5
 30
0.0
 11
-54.5
 21
7.5
 31
0.0
  0
LINE
  5
76
  8
0
  6
CONTINUOUS
 62
     4
 10
-43.14999
 20
-33.049999
 30
0.0
 11
-54.5
 21
-33.049999
 31
0.0
  0
LINE
  5
77
  8
0
  6
CONTINUOUS
 62
     4
 10
-52.5
 20
7.5
 30
0.0
 11
-52.5
 21
-33.049999
 31
0.0
  0
LINE
  5
78
  8
0
  6
CONTINUOUS
 62
     4
 10
-52.5
 20
7.5
 30
0.0
 11
-51.982362
 21
5.568148
 31
0.0
  0
LINE
  5
79
  8
0
  6
CONTINUOUS
 62
     4
 10
-52.5
 20
7.5
 30
0.0
 11
-53.017638
 21
5.568148
 31
0.0
  0
LINE
  5
7A
  8
0
  6
CONTINUOUS
 62
     4
 10
-52.5
 20
-33.049999
 30
0.0
 11
-53.017638
 21
-31.118148
 31
0.0
  0
LINE
  5
7B
  8
0
  6
CONTINUOUS
 62
     4
 10
-52.5
 20
-33.049999
 30
0.0
 11
-51.982362
 21
-31.118148
 31
0.0
  0
POINT
  5
7C
  8
DEFPOINTS
  6
BYBLOCK
 10
-42.14999
 20
-33.049999
 30
0.0
  0
POINT
  5
7D
  8
DEFPOINTS
  6
BYBLOCK
 10
-50.0
 20
7.5
 30
0.0
  0
POINT
  5
7E
  8
DEFPOINTS
  6
BYBLOCK
 10
-52.5
 20
7.5
 30
0.0
  0
ENDBLK
  5
7F
  8
0
  0
BLOCK
  8
0
  2
*D6
 70
     1
 10
0.0
 20
0.0
 30
0.0
  3
*D6
  1

  0
TEXT
  5
82
  8
0
  6
CONTINUOUS
 62
     4
 10
-44.604992
 20
-46.500002
 30
0.0
 40
3.2
  1
19.5
 50
0.000003
 41
0.7
  7
STANDARD1
  0
LINE
  5
83
  8
0
  6
CONTINUOUS
 62
     4
 10
-35.249992
 20
-37.421375
 30
0.0
 11
-35.249992
 21
-49.5
 31
0.0
  0
LINE
  5
84
  8
0
  6
CONTINUOUS
 62
     4
 10
-44.999992
 20
-22.5
 30
0.0
 11
-44.999992
 21
-49.5
 31
0.0
  0
LINE
  5
85
  8
0
  6
CONTINUOUS
 62
     4
 10
-35.249992
 20
-47.5
 30
0.0
 11
-44.999992
 21
-47.5
 31
0.0
  0
LINE
  5
86
  8
0
  6
CONTINUOUS
 62
     4
 10
-35.249992
 20
-47.5
 30
0.0
 11
-37.181844
 21
-48.017638
 31
0.0
  0
LINE
  5
87
  8
0
  6
CONTINUOUS
 62
     4
 10
-35.249992
 20
-47.5
 30
0.0
 11
-37.181844
 21
-46.982362
 31
0.0
  0
LINE
  5
88
  8
0
  6
CONTINUOUS
 62
     4
 10
-44.999992
 20
-47.5
 30
0.0
 11
-43.068141
 21
-46.982362
 31
0.0
  0
LINE
  5
89
  8
0
  6
CONTINUOUS
 62
     4
 10
-44.999992
 20
-47.5
 30
0.0
 11
-43.068141
 21
-48.017638
 31
0.0
  0
POINT
  5
8A
  8
DEFPOINTS
  6
BYBLOCK
 10
-44.999992
 20
-21.5
 30
0.0
  0
POINT
  5
8B
  8
DEFPOINTS
  6
BYBLOCK
 10
-35.249992
 20
-36.421375
 30
0.0
  0
POINT
  5
8C
  8
DEFPOINTS
  6
BYBLOCK
 10
-35.249992
 20
-47.5
 30
0.0
  0
ENDBLK
  5
8D
  8
0
  0
BLOCK
  8
0
  2
*D7
 70
     1
 10
0.0
 20
0.0
 30
0.0
  3
*D7
  1

  0
TEXT
  5
90
  8
0
  6
CONTINUOUS
 62
     4
 10
6.25
 20
-54.000002
 30
0.0
 40
3.2
  1
KL
 50
0.000003
 41
0.7
  7
STANDARD1
  0
LINE
  5
91
  8
0
  6
CONTINUOUS
 62
     4
 10
14.000009
 20
-48.5
 30
0.0
 11
14.000009
 21
-57.0
 31
0.0
  0
LINE
  5
92
  8
0
  6
CONTINUOUS
 62
     4
 10
-7.0
 20
-56.5
 30
0.0
 11
-7.0
 21
-53.0
 31
0.0
  0
LINE
  5
93
  8
0
  6
CONTINUOUS
 62
     4
 10
14.000009
 20
-55.0
 30
0.0
 11
-7.0
 21
-55.0
 31
0.0
  0
LINE
  5
94
  8
0
  6
CONTINUOUS
 62
     4
 10
14.000009
 20
-55.0
 30
0.0
 11
12.068157
 21
-55.517638
 31
0.0
  0
LINE
  5
95
  8
0
  6
CONTINUOUS
 62
     4
 10
14.000009
 20
-55.0
 30
0.0
 11
12.068157
 21
-54.482362
 31
0.0
  0
LINE
  5
96
  8
0
  6
CONTINUOUS
 62
     4
 10
-7.0
 20
-55.0
 30
0.0
 11
-5.068148
 21
-54.482362
 31
0.0
  0
LINE
  5
97
  8
0
  6
CONTINUOUS
 62
     4
 10
-7.0
 20
-55.0
 30
0.0
 11
-5.068148
 21
-55.517638
 31
0.0
  0
POINT
  5
98
  8
DEFPOINTS
  6
BYBLOCK
 10
-7.0
 20
-57.5
 30
0.0
  0
POINT
  5
99
  8
DEFPOINTS
  6
BYBLOCK
 10
14.000009
 20
-47.5
 30
0.0
  0
POINT
  5
9A
  8
DEFPOINTS
  6
BYBLOCK
 10
14.000009
 20
-55.0
 30
0.0
  0
ENDBLK
  5
9B
  8
0
  0
BLOCK
  8
0
  2
*D8
 70
     1
 10
0.0
 20
0.0
 30
0.0
  3
*D8
  1

  0
TEXT
  5
9E
  8
0
  6
CONTINUOUS
 62
     4
 10
145.104283
 20
-28.691758
 30
0.0
 40
3.2
  1
45%%d%%d
 50
22.499998
 41
0.65625
  7
STANDARD1
  0
LINE
  5
9F
  8
0
  6
CONTINUOUS
 62
     4
 10
170.42775
 20
-29.17775
 30
0.0
 11
159.864182
 21
-18.614182
 31
0.0
  0
ARC
  5
A0
  8
0
  6
CONTINUOUS
 62
     4
 10
133.75
 20
7.5
 30
0.0
 40
38.93103
 50
270.0
 51
315.000002
  0
LINE
  5
A1
  8
0
  6
CONTINUOUS
 62
     4
 10
133.75
 20
-31.43103
 30
0.0
 11
135.681852
 21
-30.913392
 31
0.0
  0
LINE
  5
A2
  8
0
  6
CONTINUOUS
 62
     4
 10
133.75
 20
-31.43103
 30
0.0
 11
135.681852
 21
-31.948668
 31
0.0
  0
LINE
  5
A3
  8
0
  6
CONTINUOUS
 62
     4
 10
161.278397
 20
-20.028395
 30
0.0
 11
160.278397
 21
-21.760446
 31
0.0
  0
LINE
  5
A4
  8
0
  6
CONTINUOUS
 62
     4
 10
161.278397
 20
-20.028395
 30
0.0
 11
159.546346
 21
-21.028395
 31
0.0
  0
POINT
  5
A5
  8
DEFPOINTS
  6
BYBLOCK
 10
0.0
 20
0.0
 30
0.0
  0
POINT
  5
A6
  8
DEFPOINTS
  6
BYBLOCK
 10
133.75
 20
7.5
 30
0.0
  0
POINT
  5
A7
  8
DEFPOINTS
  6
BYBLOCK
 10
133.75
 20
-31.43103
 30
0.0
  0
POINT
  5
A8
  8
DEFPOINTS
  6
BYBLOCK
 10
171.134857
 20
-29.884857
 30
0.0
  0
POINT
  5
A9
  8
DEFPOINTS
  6
BYBLOCK
 10
297.296522
 20
-56.935164
 30
0.0
  0
ENDBLK
  5
AA
  8
0
  0
BLOCK
  8
0
  2
*D9
 70
     1
 10
0.0
 20
0.0
 30
0.0
  3
*D9
  1

  0
TEXT
  5
AD
  8
0
  6
CONTINUOUS
 62
     4
 10
105.624998
 20
72.931979
 30
0.0
 40
3.2
  1
37.5%%d%%d
 50
18.749999
 41
0.673077
  7
STANDARD1
  0
LINE
  5
AE
  8
0
  6
CONTINUOUS
 62
     4
 10
133.75
 20
65.633789
 30
0.0
 11
133.75
 21
79.5
 31
0.0
  0
LINE
  5
AF
  8
0
  6
CONTINUOUS
 62
     4
 10
92.962069
 20
60.655871
 30
0.0
 11
89.919174
 21
64.621437
 31
0.0
  0
ARC
  5
B0
  8
0
  6
CONTINUOUS
 62
     4
 10
133.75
 20
7.5
 30
0.0
 40
70.0
 50
90.0
 51
127.500003
  0
LINE
  5
B1
  8
0
  6
CONTINUOUS
 62
     4
 10
133.75
 20
77.5
 30
0.0
 11
131.818148
 21
76.982362
 31
0.0
  0
LINE
  5
B2
  8
0
  6
CONTINUOUS
 62
     4
 10
133.75
 20
77.5
 30
0.0
 11
131.818148
 21
78.017638
 31
0.0
  0
LINE
  5
B3
  8
0
  6
CONTINUOUS
 62
     4
 10
91.136696
 20
63.034733
 30
0.0
 11
92.354219
 21
64.62144
 31
0.0
  0
LINE
  5
B4
  8
0
  6
CONTINUOUS
 62
     4
 10
91.136696
 20
63.034733
 30
0.0
 11
92.984455
 21
63.8001
 31
0.0
  0
POINT
  5
B5
  8
DEFPOINTS
  6
BYBLOCK
 10
0.0
 20
0.0
 30
0.0
  0
POINT
  5
B6
  8
DEFPOINTS
  6
BYBLOCK
 10
133.75
 20
7.5
 30
0.0
  0
POINT
  5
B7
  8
DEFPOINTS
  6
BYBLOCK
 10
133.75
 20
64.633789
 30
0.0
  0
POINT
  5
B8
  8
DEFPOINTS
  6
BYBLOCK
 10
93.570831
 20
59.862518
 30
0.0
  0
POINT
  5
B9
  8
DEFPOINTS
  6
BYBLOCK
 10
222.498471
 20
147.570217
 30
0.0
  0
ENDBLK
  5
BA
  8
0
  0
BLOCK
  8
0
  2
*D10
 70
     1
 10
0.0
 20
0.0
 30
0.0
  3
*D10
  1

  0
TEXT
  5
BD
  8
0
  6
CONTINUOUS
 62
     4
 10
-39.604992
 20
75.999998
 30
0.0
 40
3.2
  1
39.5
 50
0.000003
 41
0.7
  7
STANDARD1
  0
LINE
  5
BE
  8
0
  6
CONTINUOUS
 62
     4
 10
-25.249992
 20
52.5
 30
0.0
 11
-25.249992
 21
77.0
 31
0.0
  0
LINE
  5
BF
  8
0
  6
CONTINUOUS
 62
     4
 10
-44.999992
 20
23.5
 30
0.0
 11
-44.999992
 21
77.0
 31
0.0
  0
LINE
  5
C0
  8
0
  6
CONTINUOUS
 62
     4
 10
-25.249992
 20
75.0
 30
0.0
 11
-44.999992
 21
75.0
 31
0.0
  0
LINE
  5
C1
  8
0
  6
CONTINUOUS
 62
     4
 10
-25.249992
 20
75.0
 30
0.0
 11
-27.181844
 21
74.482362
 31
0.0
  0
LINE
  5
C2
  8
0
  6
CONTINUOUS
 62
     4
 10
-25.249992
 20
75.0
 30
0.0
 11
-27.181844
 21
75.517638
 31
0.0
  0
LINE
  5
C3
  8
0
  6
CONTINUOUS
 62
     4
 10
-44.999992
 20
75.0
 30
0.0
 11
-43.068141
 21
75.517638
 31
0.0
  0
LINE
  5
C4
  8
0
  6
CONTINUOUS
 62
     4
 10
-44.999992
 20
75.0
 30
0.0
 11
-43.068141
 21
74.482362
 31
0.0
  0
POINT
  5
C5
  8
DEFPOINTS
  6
BYBLOCK
 10
-44.999992
 20
22.5
 30
0.0
  0
POINT
  5
C6
  8
DEFPOINTS
  6
BYBLOCK
 10
-25.249992
 20
51.5
 30
0.0
  0
POINT
  5
C7
  8
DEFPOINTS
  6
BYBLOCK
 10
-25.249992
 20
75.0
 30
0.0
  0
ENDBLK
  5
C8
  8
0
  0
BLOCK
  8
0
  2
*D11
 70
     1
 10
0.0
 20
0.0
 30
0.0
  3
*D11
  1

  0
TEXT
  5
CB
  8
0
  6
CONTINUOUS
 62
     4
 10
7.760008
 20
75.898505
 30
0.0
 40
3.2
  1
16
 50
0.000003
 41
0.7
  7
STANDARD1
  0
LINE
  5
CC
  8
0
  6
CONTINUOUS
 62
     4
 10
14.000009
 20
63.5
 30
0.0
 11
14.000009
 21
76.898506
 31
0.0
  0
LINE
  5
CD
  8
0
  6
CONTINUOUS
 62
     4
 10
6.000009
 20
63.5
 30
0.0
 11
6.000009
 21
76.898506
 31
0.0
  0
LINE
  5
CE
  8
0
  6
CONTINUOUS
 62
     4
 10
14.000009
 20
74.898506
 30
0.0
 11
6.000009
 21
74.898506
 31
0.0
  0
LINE
  5
CF
  8
0
  6
CONTINUOUS
 62
     4
 10
14.000009
 20
74.898506
 30
0.0
 11
12.068157
 21
74.380868
 31
0.0
  0
LINE
  5
D0
  8
0
  6
CONTINUOUS
 62
     4
 10
14.000009
 20
74.898506
 30
0.0
 11
12.068157
 21
75.416144
 31
0.0
  0
LINE
  5
D1
  8
0
  6
CONTINUOUS
 62
     4
 10
6.000009
 20
74.898506
 30
0.0
 11
7.93186
 21
75.416144
 31
0.0
  0
LINE
  5
D2
  8
0
  6
CONTINUOUS
 62
     4
 10
6.000009
 20
74.898506
 30
0.0
 11
7.93186
 21
74.380868
 31
0.0
  0
POINT
  5
D3
  8
DEFPOINTS
  6
BYBLOCK
 10
6.000009
 20
62.5
 30
0.0
  0
POINT
  5
D4
  8
DEFPOINTS
  6
BYBLOCK
 10
14.000009
 20
62.5
 30
0.0
  0
POINT
  5
D5
  8
DEFPOINTS
  6
BYBLOCK
 10
14.000009
 20
74.898506
 30
0.0
  0
ENDBLK
  5
D6
  8
0
  0
BLOCK
  8
0
  2
*D12
 70
     1
 10
0.0
 20
0.0
 30
0.0
  3
*D12
  1

  0
TEXT
  5
D9
  8
0
  6
CONTINUOUS
 62
     4
 10
-16.619991
 20
80.999998
 30
0.0
 40
3.2
  1
L
 50
0.000003
 41
0.7
  7
STANDARD1
  0
LINE
  5
DA
  8
0
  6
CONTINUOUS
 62
     4
 10
14.000009
 20
63.5
 30
0.0
 11
14.000009
 21
82.0
 31
0.0
  0
LINE
  5
DB
  8
0
  6
CONTINUOUS
 62
     4
 10
-44.999992
 20
23.5
 30
0.0
 11
-44.999992
 21
82.0
 31
0.0
  0
LINE
  5
DC
  8
0
  6
CONTINUOUS
 62
     4
 10
14.000009
 20
80.0
 30
0.0
 11
-44.999992
 21
80.0
 31
0.0
  0
LINE
  5
DD
  8
0
  6
CONTINUOUS
 62
     4
 10
14.000009
 20
80.0
 30
0.0
 11
12.068157
 21
79.482362
 31
0.0
  0
LINE
  5
DE
  8
0
  6
CONTINUOUS
 62
     4
 10
14.000009
 20
80.0
 30
0.0
 11
12.068157
 21
80.517638
 31
0.0
  0
LINE
  5
DF
  8
0
  6
CONTINUOUS
 62
     4
 10
-44.999992
 20
80.0
 30
0.0
 11
-43.068141
 21
80.517638
 31
0.0
  0
LINE
  5
E0
  8
0
  6
CONTINUOUS
 62
     4
 10
-44.999992
 20
80.0
 30
0.0
 11
-43.068141
 21
79.482362
 31
0.0
  0
POINT
  5
E1
  8
DEFPOINTS
  6
BYBLOCK
 10
-44.999992
 20
22.5
 30
0.0
  0
POINT
  5
E2
  8
DEFPOINTS
  6
BYBLOCK
 10
14.000009
 20
62.5
 30
0.0
  0
POINT
  5
E3
  8
DEFPOINTS
  6
BYBLOCK
 10
14.000009
 20
80.0
 30
0.0
  0
ENDBLK
  5
E4
  8
0
  0
BLOCK
  8
0
  2
SYM14
 70
     0
 10
0.0
 20
0.0
 30
0.0
  3
SYM14
  1

  0
LINE
  5
E7
  8
0
  6
CONTINUOUS
 62
     2
 10
2.699999
 20
9.0
 30
0.0
 11
-0.000001
 21
3.0
 31
0.0
  0
LINE
  5
E8
  8
0
  6
CONTINUOUS
 62
     2
 10
1.3
 20
3.0
 30
0.0
 11
2.699997
 21
6.111109
 31
0.0
  0
LINE
  5
E9
  8
0
  6
CONTINUOUS
 62
     2
 10
1.3
 20
3.0
 30
0.0
 11
2.7
 21
3.0
 31
0.0
  0
LINE
  5
EA
  8
0
  6
CONTINUOUS
 62
     2
 10
0.0
 20
1.7
 30
0.0
 11
2.7
 21
1.7
 31
0.0
  0
LINE
  5
EB
  8
0
  6
CONTINUOUS
 62
     2
 10
2.7
 20
6.111109
 30
0.0
 11
2.7
 21
3.0
 31
0.0
  0
LINE
  5
EC
  8
0
  6
CONTINUOUS
 62
     2
 10
4.0
 20
9.0
 30
0.0
 11
4.0
 21
3.0
 31
0.0
  0
LINE
  5
ED
  8
0
  6
CONTINUOUS
 62
     2
 10
5.0
 20
1.7
 30
0.0
 11
5.0
 21
3.0
 31
0.0
  0
LINE
  5
EE
  8
0
  6
CONTINUOUS
 62
     2
 10
0.0
 20
1.7
 30
0.0
 11
0.0
 21
3.0
 31
0.0
  0
LINE
  5
EF
  8
0
  6
CONTINUOUS
 62
     2
 10
2.7
 20
9.0
 30
0.0
 11
4.0
 21
9.0
 31
0.0
  0
LINE
  5
F0
  8
0
  6
CONTINUOUS
 62
     2
 10
4.0
 20
0.0
 30
0.0
 11
2.7
 21
0.0
 31
0.0
  0
LINE
  5
F1
  8
0
  6
CONTINUOUS
 62
     2
 10
2.7
 20
0.0
 30
0.0
 11
2.7
 21
1.7
 31
0.0
  0
LINE
  5
F2
  8
0
  6
CONTINUOUS
 62
     2
 10
4.0
 20
0.0
 30
0.0
 11
4.0
 21
1.7
 31
0.0
  0
LINE
  5
F3
  8
0
  6
CONTINUOUS
 62
     2
 10
5.0
 20
1.7
 30
0.0
 11
4.0
 21
1.7
 31
0.0
  0
LINE
  5
F4
  8
0
  6
CONTINUOUS
 62
     2
 10
5.0
 20
3.0
 30
0.0
 11
4.0
 21
3.0
 31
0.0
  0
ENDBLK
  5
F5
  8
0
  0
BLOCK
  8
1
  2
SYM15
 70
     0
 10
0.0
 20
0.0
 30
0.0
  3
SYM15
  1

  0
ARC
  5
F8
  8
1
  6
CONTINUOUS
 62
     2
 10
2.5
 20
6.5
 30
0.0
 40
2.5
 50
61.314554
 51
298.685484
  0
LINE
  5
F9
  8
1
  6
CONTINUOUS
 62
     2
 10
1.3
 20
2.5
 30
0.0
 11
0.0
 21
2.5
 31
0.0
  0
LINE
  5
FA
  8
1
  6
CONTINUOUS
 62
     2
 10
3.7
 20
4.306828
 30
0.0
 11
3.7
 21
2.5
 31
0.0
  0
LINE
  5
FB
  8
1
  6
CONTINUOUS
 62
     2
 10
5.0
 20
6.5
 30
0.0
 11
5.0
 21
2.5
 31
0.0
  0
ARC
  5
FC
  8
1
  6
CONTINUOUS
 62
     2
 10
2.5
 20
2.5
 30
0.0
 40
2.5
 50
180.000019
 51
359.999928
  0
ARC
  5
FD
  8
1
  6
CONTINUOUS
 62
     2
 10
2.5
 20
2.5
 30
0.0
 40
1.2
 50
180.000019
 51
0.000037
  0
ARC
  5
FE
  8
1
  6
CONTINUOUS
 62
     2
 10
2.5
 20
6.5
 30
0.0
 40
2.5
 50
0.0
 51
61.314554
  0
CIRCLE
  5
FF
  8
1
  6
CONTINUOUS
 62
     2
 10
2.5
 20
6.5
 30
0.0
 40
1.2
  0
ENDBLK
  5
100
  8
1
  0
BLOCK
  8
1
  2
*D15
 70
     1
 10
0.0
 20
0.0
 30
0.0
  3
*D15
  1

  0
TEXT
  5
103
  8
1
  6
CONTINUOUS
 62
     4
 10
131.509995
 20
-80.250002
 30
0.0
 40
3.2
  1
47
 50
0.000003
 41
0.7
  7
STANDARD1
  0
LINE
  5
104
  8
1
  6
CONTINUOUS
 62
     4
 10
122.0
 20
-62.5
 30
0.0
 11
122.0
 21
-83.25
 31
0.0
  0
LINE
  5
105
  8
1
  6
CONTINUOUS
 62
     4
 10
145.5
 20
-62.5
 30
0.0
 11
145.5
 21
-83.25
 31
0.0
  0
LINE
  5
106
  8
1
  6
CONTINUOUS
 62
     4
 10
122.0
 20
-81.25
 30
0.0
 11
145.5
 21
-81.25
 31
0.0
  0
LINE
  5
107
  8
1
  6
CONTINUOUS
 62
     4
 10
122.0
 20
-81.25
 30
0.0
 11
123.931852
 21
-80.732362
 31
0.0
  0
LINE
  5
108
  8
1
  6
CONTINUOUS
 62
     4
 10
122.0
 20
-81.25
 30
0.0
 11
123.931852
 21
-81.767638
 31
0.0
  0
LINE
  5
109
  8
1
  6
CONTINUOUS
 62
     4
 10
145.5
 20
-81.25
 30
0.0
 11
143.568148
 21
-81.767638
 31
0.0
  0
LINE
  5
10A
  8
1
  6
CONTINUOUS
 62
     4
 10
145.5
 20
-81.25
 30
0.0
 11
143.568148
 21
-80.732362
 31
0.0
  0
POINT
  5
10B
  8
DEFPOINTS
  6
BYBLOCK
 10
145.5
 20
-61.5
 30
0.0
  0
POINT
  5
10C
  8
DEFPOINTS
  6
BYBLOCK
 10
122.0
 20
-61.5
 30
0.0
  0
POINT
  5
10D
  8
DEFPOINTS
  6
BYBLOCK
 10
122.0
 20
-81.25
 30
0.0
  0
ENDBLK
  5
10E
  8
1
  0
BLOCK
  8
1
  2
*D16
 70
     1
 10
0.0
 20
0.0
 30
0.0
  3
*D16
  1

  0
TEXT
  5
111
  8
1
  6
CONTINUOUS
 62
     4
 10
158.494983
 20
25.474826
 30
0.0
 40
3.2
  1
ѓУ
 50
34.121066
 41
0.583333
  7
STANDARD1
  0
TEXT
  5
112
  8
1
  6
CONTINUOUS
 62
     4
 10
160.349368
 20
26.73134
 30
0.0
 40
3.2
  1
235
 50
34.121066
 41
0.7
  7
STANDARD1
  0
LINE
  5
113
  8
1
  6
CONTINUOUS
 62
     4
 10
85.113571
 20
-25.45542
 30
0.0
 11
182.386429
 21
40.455421
 31
0.0
  0
LINE
  5
114
  8
1
  6
CONTINUOUS
 62
     4
 10
85.113571
 20
-25.45542
 30
0.0
 11
86.422497
 21
-23.943231
 31
0.0
  0
LINE
  5
115
  8
1
  6
CONTINUOUS
 62
     4
 10
85.113571
 20
-25.45542
 30
0.0
 11
87.003228
 21
-24.800289
 31
0.0
  0
LINE
  5
116
  8
1
  6
CONTINUOUS
 62
     4
 10
182.386429
 20
40.455421
 30
0.0
 11
181.077503
 21
38.943233
 31
0.0
  0
LINE
  5
117
  8
1
  6
CONTINUOUS
 62
     4
 10
182.386429
 20
40.455421
 30
0.0
 11
180.496772
 21
39.800291
 31
0.0
  0
POINT
  5
118
  8
DEFPOINTS
  6
BYBLOCK
 10
85.113571
 20
-25.45542
 30
0.0
  0
POINT
  5
119
  8
DEFPOINTS
  6
BYBLOCK
 10
182.386429
 20
40.455421
 30
0.0
  0
ENDBLK
  5
11A
  8
1
  0
BLOCK
  8
1
  2
*D17
 70
     1
 10
0.0
 20
0.0
 30
0.0
  3
*D17
  1

  0
TEXT
  5
11D
  8
1
  6
CONTINUOUS
 62
     4
 10
163.511108
 20
-10.3003
 30
0.0
 40
3.2
  1
ѓУ
 50
327.463645
 41
0.583333
  7
STANDARD1
  0
TEXT
  5
11E
  8
1
  6
CONTINUOUS
 62
     4
 10
165.399535
 20
-11.50505
 30
0.0
 40
3.2
  1
270
 50
327.463645
 41
0.7
  7
STANDARD1
  0
LINE
  5
11F
  8
1
  6
CONTINUOUS
 62
     4
 10
76.844093
 20
43.803822
 30
0.0
 11
190.655899
 21
-28.803822
 31
0.0
  0
LINE
  5
120
  8
1
  6
CONTINUOUS
 62
     4
 10
76.844093
 20
43.803822
 30
0.0
 11
78.751145
 21
43.2012
 31
0.0
  0
LINE
  5
121
  8
1
  6
CONTINUOUS
 62
     4
 10
76.844093
 20
43.803822
 30
0.0
 11
78.194338
 21
42.32841
 31
0.0
  0
LINE
  5
122
  8
1
  6
CONTINUOUS
 62
     4
 10
190.655899
 20
-28.803822
 30
0.0
 11
188.748847
 21
-28.2012
 31
0.0
  0
LINE
  5
123
  8
1
  6
CONTINUOUS
 62
     4
 10
190.655899
 20
-28.803822
 30
0.0
 11
189.305654
 21
-27.32841
 31
0.0
  0
POINT
  5
124
  8
DEFPOINTS
  6
BYBLOCK
 10
76.844093
 20
43.803822
 30
0.0
  0
POINT
  5
125
  8
DEFPOINTS
  6
BYBLOCK
 10
190.655899
 20
-28.803822
 30
0.0
  0
ENDBLK
  5
126
  8
1
  0
BLOCK
  8
1
  2
*D18
 70
     1
 10
0.0
 20
0.0
 30
0.0
  3
*D18
  1

  0
TEXT
  5
129
  8
1
  6
CONTINUOUS
 62
     4
 10
29.493448
 20
49.028899
 30
0.0
 40
3.2
  1
60
 50
0.000003
 41
0.7
  7
STANDARD1
  0
LINE
  5
12A
  8
1
  6
CONTINUOUS
 62
     4
 10
46.500008
 20
17.25
 30
0.0
 11
46.500008
 21
50.0289
 31
0.0
  0
LINE
  5
12B
  8
1
  6
CONTINUOUS
 62
     4
 10
16.500008
 20
18.5
 30
0.0
 11
16.500008
 21
50.0289
 31
0.0
  0
LINE
  5
12C
  8
1
  6
CONTINUOUS
 62
     4
 10
46.500008
 20
48.0289
 30
0.0
 11
16.500008
 21
48.0289
 31
0.0
  0
LINE
  5
12D
  8
1
  6
CONTINUOUS
 62
     4
 10
46.500008
 20
48.0289
 30
0.0
 11
44.568156
 21
47.511262
 31
0.0
  0
LINE
  5
12E
  8
1
  6
CONTINUOUS
 62
     4
 10
46.500008
 20
48.0289
 30
0.0
 11
44.568156
 21
48.546538
 31
0.0
  0
LINE
  5
12F
  8
1
  6
CONTINUOUS
 62
     4
 10
16.500008
 20
48.0289
 30
0.0
 11
18.431859
 21
48.546538
 31
0.0
  0
LINE
  5
130
  8
1
  6
CONTINUOUS
 62
     4
 10
16.500008
 20
48.0289
 30
0.0
 11
18.431859
 21
47.511262
 31
0.0
  0
POINT
  5
131
  8
DEFPOINTS
  6
BYBLOCK
 10
16.500008
 20
17.5
 30
0.0
  0
POINT
  5
132
  8
DEFPOINTS
  6
BYBLOCK
 10
46.500008
 20
16.25
 30
0.0
  0
POINT
  5
133
  8
DEFPOINTS
  6
BYBLOCK
 10
46.500008
 20
48.0289
 30
0.0
  0
ENDBLK
  5
134
  8
1
  0
BLOCK
  8
1
  2
*D19
 70
     1
 10
0.0
 20
0.0
 30
0.0
  3
*D19
  1

  0
TEXT
  5
137
  8
1
  6
CONTINUOUS
 62
     4
 10
28.744278
 20
80.999998
 30
0.0
 40
3.2
  1
65
 50
0.000003
 41
0.7
  7
STANDARD1
  0
LINE
  5
138
  8
1
  6
CONTINUOUS
 62
     4
 10
46.500008
 20
17.25
 30
0.0
 11
46.500008
 21
82.0
 31
0.0
  0
LINE
  5
139
  8
1
  6
CONTINUOUS
 62
     4
 10
14.000009
 20
63.5
 30
0.0
 11
14.000009
 21
82.0
 31
0.0
  0
LINE
  5
13A
  8
1
  6
CONTINUOUS
 62
     4
 10
46.500008
 20
80.0
 30
0.0
 11
14.000009
 21
80.0
 31
0.0
  0
LINE
  5
13B
  8
1
  6
CONTINUOUS
 62
     4
 10
46.500008
 20
80.0
 30
0.0
 11
44.568156
 21
79.482362
 31
0.0
  0
LINE
  5
13C
  8
1
  6
CONTINUOUS
 62
     4
 10
46.500008
 20
80.0
 30
0.0
 11
44.568156
 21
80.517638
 31
0.0
  0
LINE
  5
13D
  8
1
  6
CONTINUOUS
 62
     4
 10
14.000009
 20
80.0
 30
0.0
 11
15.93186
 21
80.517638
 31
0.0
  0
LINE
  5
13E
  8
1
  6
CONTINUOUS
 62
     4
 10
14.000009
 20
80.0
 30
0.0
 11
15.93186
 21
79.482362
 31
0.0
  0
POINT
  5
13F
  8
DEFPOINTS
  6
BYBLOCK
 10
14.000009
 20
62.5
 30
0.0
  0
POINT
  5
140
  8
DEFPOINTS
  6
BYBLOCK
 10
46.500008
 20
16.25
 30
0.0
  0
POINT
  5
141
  8
DEFPOINTS
  6
BYBLOCK
 10
46.500008
 20
80.0
 30
0.0
  0
ENDBLK
  5
142
  8
1
  0
BLOCK
  8
1
  2
*D20
 70
     1
 10
0.0
 20
0.0
 30
0.0
  3
*D20
  1

  0
TEXT
  5
145
  8
1
  6
CONTINUOUS
 62
     4
 10
196.563211
 20
-41.043213
 30
0.0
 40
3.2
  1
164
 50
90.000005
 41
0.7
  7
STANDARD1
  0
LINE
  5
146
  8
1
  6
CONTINUOUS
 62
     4
 10
143.849838
 20
-74.189995
 30
0.0
 11
199.563217
 21
-74.189995
 31
0.0
  0
LINE
  5
147
  8
1
  6
CONTINUOUS
 62
     4
 10
197.563217
 20
7.5
 30
0.0
 11
197.563217
 21
-74.189995
 31
0.0
  0
LINE
  5
148
  8
1
  6
CONTINUOUS
 62
     4
 10
197.563217
 20
7.5
 30
0.0
 11
198.080855
 21
5.568148
 31
0.0
  0
LINE
  5
149
  8
1
  6
CONTINUOUS
 62
     4
 10
197.563217
 20
7.5
 30
0.0
 11
197.045579
 21
5.568148
 31
0.0
  0
LINE
  5
14A
  8
1
  6
CONTINUOUS
 62
     4
 10
197.563217
 20
-74.189995
 30
0.0
 11
197.045579
 21
-72.258143
 31
0.0
  0
LINE
  5
14B
  8
1
  6
CONTINUOUS
 62
     4
 10
197.563217
 20
-74.189995
 30
0.0
 11
198.080855
 21
-72.258143
 31
0.0
  0
POINT
  5
14C
  8
DEFPOINTS
  6
BYBLOCK
 10
142.849838
 20
-74.189995
 30
0.0
  0
POINT
  5
14D
  8
DEFPOINTS
  6
BYBLOCK
 10
213.817764
 20
7.5
 30
0.0
  0
POINT
  5
14E
  8
DEFPOINTS
  6
BYBLOCK
 10
197.563217
 20
7.5
 30
0.0
  0
ENDBLK
  5
14F
  8
1
  0
BLOCK
  8
1
  2
*D21
 70
     1
 10
0.0
 20
0.0
 30
0.0
  3
*D21
  1

  0
TEXT
  5
152
  8
1
  6
CONTINUOUS
 62
     4
 10
129.138947
 20
83.571005
 30
0.0
 40
3.2
  1
Ѓ ‚Q‚Q‚O
 50
0.000003
 41
0.583333
  7
STANDARD1
  0
LINE
  5
153
  8
1
  6
CONTINUOUS
 62
     4
 10
188.749985
 20
47.631191
 30
0.0
 11
188.749985
 21
84.5
 31
0.0
  0
LINE
  5
154
  8
1
  6
CONTINUOUS
 62
     4
 10
78.75
 20
47.631191
 30
0.0
 11
78.75
 21
84.5
 31
0.0
  0
LINE
  5
155
  8
1
  6
CONTINUOUS
 62
     4
 10
188.749985
 20
82.5
 30
0.0
 11
78.75
 21
82.5
 31
0.0
  0
LINE
  5
156
  8
1
  6
CONTINUOUS
 62
     4
 10
188.749985
 20
82.5
 30
0.0
 11
186.818133
 21
81.982362
 31
0.0
  0
LINE
  5
157
  8
1
  6
CONTINUOUS
 62
     4
 10
188.749985
 20
82.5
 30
0.0
 11
186.818133
 21
83.017638
 31
0.0
  0
LINE
  5
158
  8
1
  6
CONTINUOUS
 62
     4
 10
78.75
 20
82.5
 30
0.0
 11
80.681852
 21
83.017638
 31
0.0
  0
LINE
  5
159
  8
1
  6
CONTINUOUS
 62
     4
 10
78.75
 20
82.5
 30
0.0
 11
80.681852
 21
81.982362
 31
0.0
  0
POINT
  5
15A
  8
DEFPOINTS
  6
BYBLOCK
 10
78.75
 20
46.631191
 30
0.0
  0
POINT
  5
15B
  8
DEFPOINTS
  6
BYBLOCK
 10
188.749985
 20
46.631191
 30
0.0
  0
POINT
  5
15C
  8
DEFPOINTS
  6
BYBLOCK
 10
188.749985
 20
82.5
 30
0.0
  0
ENDBLK
  5
15D
  8
1
  0
BLOCK
  8
1
  2
*D22
 70
     1
 10
0.0
 20
0.0
 30
0.0
  3
*D22
  1

  0
TEXT
  5
160
  8
1
  6
CONTINUOUS
 62
     4
 10
53.249223
 20
37.207798
 30
0.0
 40
3.2
  1
ѓУ
 50
90.000005
 41
0.583333
  7
STANDARD1
  0
TEXT
  5
161
  8
1
  6
CONTINUOUS
 62
     4
 10
53.249223
 20
39.4478
 30
0.0
 40
3.2
  1
200
 50
90.000005
 41
0.7
  7
STANDARD1
  0
TEXT
  5
162
  8
1
  6
CONTINUOUS
 62
     4
 10
51.399223
 20
46.667797
 30
0.0
 40
2.0
  1
Ѓ@0
 50
90.000005
 41
0.636364
  7
STANDARD1
  0
TEXT
  5
163
  8
1
  6
CONTINUOUS
 62
     4
 10
53.899223
 20
46.667797
 30
0.0
 40
2.0
  1
-0.046
 50
90.000005
 41
0.7
  7
STANDARD1
  0
LINE
  5
164
  8
1
  6
CONTINUOUS
 62
     4
 10
16.500009
 20
57.5
 30
0.0
 11
56.899223
 21
57.5
 31
0.0
  0
LINE
  5
165
  8
1
  6
CONTINUOUS
 62
     4
 10
54.899223
 20
35.6078
 30
0.0
 11
54.899223
 21
57.5
 31
0.0
  0
LINE
  5
166
  8
1
  6
CONTINUOUS
 62
     4
 10
54.899223
 20
57.5
 30
0.0
 11
55.416861
 21
55.568148
 31
0.0
  0
LINE
  5
167
  8
1
  6
CONTINUOUS
 62
     4
 10
54.899223
 20
57.5
 30
0.0
 11
54.381585
 21
55.568148
 31
0.0
  0
POINT
  5
168
  8
DEFPOINTS
  6
BYBLOCK
 10
15.500009
 20
57.5
 30
0.0
  0
POINT
  5
169
  8
DEFPOINTS
  6
BYBLOCK
 10
54.899223
 20
35.6078
 30
0.0
  0
POINT
  5
16A
  8
DEFPOINTS
  6
BYBLOCK
 10
54.899223
 20
35.6078
 30
0.0
  0
ENDBLK
  5
16B
  8
1
  0
BLOCK
  8
1
  2
SYM24
 70
     0
 10
0.0
 20
0.0
 30
0.0
  3
SYM24
  1

  0
ARC
  5
16E
  8
1
  6
CONTINUOUS
 62
     2
 10
2.5
 20
2.5
 30
0.0
 40
2.5
 50
180.000019
 51
110.051433
  0
ARC
  5
16F
  8
1
  6
CONTINUOUS
 62
     2
 10
2.5
 20
2.5
 30
0.0
 40
1.2
 50
183.559312
 51
90.0
  0
LINE
  5
170
  8
1
  6
CONTINUOUS
 62
     2
 10
0.168649
 20
3.699999
 30
0.0
 11
2.5
 21
3.699999
 31
0.0
  0
LINE
  5
171
  8
1
  6
CONTINUOUS
 62
     2
 10
2.043599
 20
7.699999
 30
0.0
 11
1.64284
 21
4.848463
 31
0.0
  0
LINE
  5
172
  8
1
  6
CONTINUOUS
 62
     2
 10
0.168649
 20
3.699999
 30
0.0
 11
0.913518
 21
8.999999
 31
0.0
  0
LINE
  5
173
  8
1
  6
CONTINUOUS
 62
     2
 10
5.0
 20
7.7
 30
0.0
 11
5.0
 21
9.0
 31
0.0
  0
LINE
  5
174
  8
1
  6
CONTINUOUS
 62
     2
 10
2.043599
 20
7.699998
 30
0.0
 11
5.0
 21
7.699998
 31
0.0
  0
LINE
  5
175
  8
1
  6
CONTINUOUS
 62
     2
 10
0.913518
 20
8.999999
 30
0.0
 11
5.0
 21
8.999999
 31
0.0
  0
LINE
  5
176
  8
1
  6
CONTINUOUS
 62
     2
 10
0.0
 20
2.5
 30
0.0
 11
1.3
 21
2.5
 31
0.0
  0
ENDBLK
  5
177
  8
1
  0
BLOCK
  8
1
  2
*X24
 70
     1
 10
0.0
 20
0.0
 30
0.0
  3
*X24
  1

  0
LINE
  5
17A
  8
1
  6
CONTINUOUS
 62
     4
 10
34.398879
 20
-106.698022
 30
0.0
 11
35.998813
 21
-106.698022
 31
0.0
  0
LINE
  5
17B
  8
1
  6
CONTINUOUS
 62
     4
 10
34.342212
 20
-106.598022
 30
0.0
 11
35.938813
 21
-106.598022
 31
0.0
  0
LINE
  5
17C
  8
1
  6
CONTINUOUS
 62
     4
 10
34.285546
 20
-106.498022
 30
0.0
 11
35.878813
 21
-106.498022
 31
0.0
  0
LINE
  5
17D
  8
1
  6
CONTINUOUS
 62
     4
 10
34.228879
 20
-106.398022
 30
0.0
 11
35.818813
 21
-106.398022
 31
0.0
  0
LINE
  5
17E
  8
1
  6
CONTINUOUS
 62
     4
 10
34.172212
 20
-106.298022
 30
0.0
 11
35.758813
 21
-106.298022
 31
0.0
  0
LINE
  5
17F
  8
1
  6
CONTINUOUS
 62
     4
 10
34.115546
 20
-106.198022
 30
0.0
 11
35.698813
 21
-106.198022
 31
0.0
  0
LINE
  5
180
  8
1
  6
CONTINUOUS
 62
     4
 10
34.058879
 20
-106.098022
 30
0.0
 11
35.638813
 21
-106.098022
 31
0.0
  0
LINE
  5
181
  8
1
  6
CONTINUOUS
 62
     4
 10
34.002212
 20
-105.998022
 30
0.0
 11
35.578813
 21
-105.998022
 31
0.0
  0
LINE
  5
182
  8
1
  6
CONTINUOUS
 62
     4
 10
33.945546
 20
-105.898022
 30
0.0
 11
35.518813
 21
-105.898022
 31
0.0
  0
LINE
  5
183
  8
1
  6
CONTINUOUS
 62
     4
 10
33.888879
 20
-105.798022
 30
0.0
 11
35.458813
 21
-105.798022
 31
0.0
  0
LINE
  5
184
  8
1
  6
CONTINUOUS
 62
     4
 10
33.832212
 20
-105.698022
 30
0.0
 11
35.398813
 21
-105.698022
 31
0.0
  0
LINE
  5
185
  8
1
  6
CONTINUOUS
 62
     4
 10
33.775546
 20
-105.598022
 30
0.0
 11
35.338813
 21
-105.598022
 31
0.0
  0
LINE
  5
186
  8
1
  6
CONTINUOUS
 62
     4
 10
33.718879
 20
-105.498022
 30
0.0
 11
35.278813
 21
-105.498022
 31
0.0
  0
LINE
  5
187
  8
1
  6
CONTINUOUS
 62
     4
 10
33.662212
 20
-105.398022
 30
0.0
 11
35.218813
 21
-105.398022
 31
0.0
  0
LINE
  5
188
  8
1
  6
CONTINUOUS
 62
     4
 10
33.605546
 20
-105.298022
 30
0.0
 11
35.158813
 21
-105.298022
 31
0.0
  0
ENDBLK
  5
189
  8
1
  0
BLOCK
  8
1
  2
*X25
 70
     1
 10
0.0
 20
0.0
 30
0.0
  3
*X25
  1

  0
LINE
  5
18C
  8
1
  6
CONTINUOUS
 62
     4
 10
33.541412
 20
-102.297647
 30
0.0
 11
33.652078
 21
-102.297647
 31
0.0
  0
LINE
  5
18D
  8
1
  6
CONTINUOUS
 62
     4
 10
33.481412
 20
-102.397647
 30
0.0
 11
33.705412
 21
-102.397647
 31
0.0
  0
LINE
  5
18E
  8
1
  6
CONTINUOUS
 62
     4
 10
33.421412
 20
-102.497647
 30
0.0
 11
33.758745
 21
-102.497647
 31
0.0
  0
LINE
  5
18F
  8
1
  6
CONTINUOUS
 62
     4
 10
33.361412
 20
-102.597647
 30
0.0
 11
33.812078
 21
-102.597647
 31
0.0
  0
LINE
  5
190
  8
1
  6
CONTINUOUS
 62
     4
 10
33.301412
 20
-102.697647
 30
0.0
 11
33.865412
 21
-102.697647
 31
0.0
  0
LINE
  5
191
  8
1
  6
CONTINUOUS
 62
     4
 10
33.241412
 20
-102.797647
 30
0.0
 11
33.918745
 21
-102.797647
 31
0.0
  0
LINE
  5
192
  8
1
  6
CONTINUOUS
 62
     4
 10
33.181412
 20
-102.897647
 30
0.0
 11
33.972078
 21
-102.897647
 31
0.0
  0
LINE
  5
193
  8
1
  6
CONTINUOUS
 62
     4
 10
33.121412
 20
-102.997647
 30
0.0
 11
34.025412
 21
-102.997647
 31
0.0
  0
LINE
  5
194
  8
1
  6
CONTINUOUS
 62
     4
 10
33.061412
 20
-103.097647
 30
0.0
 11
34.078745
 21
-103.097647
 31
0.0
  0
LINE
  5
195
  8
1
  6
CONTINUOUS
 62
     4
 10
33.001412
 20
-103.197647
 30
0.0
 11
34.132078
 21
-103.197647
 31
0.0
  0
LINE
  5
196
  8
1
  6
CONTINUOUS
 62
     4
 10
32.941412
 20
-103.297647
 30
0.0
 11
34.185412
 21
-103.297647
 31
0.0
  0
LINE
  5
197
  8
1
  6
CONTINUOUS
 62
     4
 10
32.881412
 20
-103.397647
 30
0.0
 11
34.238745
 21
-103.397647
 31
0.0
  0
LINE
  5
198
  8
1
  6
CONTINUOUS
 62
     4
 10
32.821412
 20
-103.497647
 30
0.0
 11
34.292078
 21
-103.497647
 31
0.0
  0
LINE
  5
199
  8
1
  6
CONTINUOUS
 62
     4
 10
32.761412
 20
-103.597647
 30
0.0
 11
34.345412
 21
-103.597647
 31
0.0
  0
LINE
  5
19A
  8
1
  6
CONTINUOUS
 62
     4
 10
32.701412
 20
-103.697647
 30
0.0
 11
34.398745
 21
-103.697647
 31
0.0
  0
LINE
  5
19B
  8
1
  6
CONTINUOUS
 62
     4
 10
32.755333
 20
-103.797647
 30
0.0
 11
34.344667
 21
-103.797647
 31
0.0
  0
LINE
  5
19C
  8
1
  6
CONTINUOUS
 62
     4
 10
32.812
 20
-103.897647
 30
0.0
 11
34.288
 21
-103.897647
 31
0.0
  0
LINE
  5
19D
  8
1
  6
CONTINUOUS
 62
     4
 10
32.868667
 20
-103.997647
 30
0.0
 11
34.231333
 21
-103.997647
 31
0.0
  0
LINE
  5
19E
  8
1
  6
CONTINUOUS
 62
     4
 10
32.925333
 20
-104.097647
 30
0.0
 11
34.174667
 21
-104.097647
 31
0.0
  0
LINE
  5
19F
  8
1
  6
CONTINUOUS
 62
     4
 10
32.982
 20
-104.197647
 30
0.0
 11
34.118
 21
-104.197647
 31
0.0
  0
LINE
  5
1A0
  8
1
  6
CONTINUOUS
 62
     4
 10
33.038667
 20
-104.297647
 30
0.0
 11
34.061333
 21
-104.297647
 31
0.0
  0
LINE
  5
1A1
  8
1
  6
CONTINUOUS
 62
     4
 10
33.095333
 20
-104.397647
 30
0.0
 11
34.004667
 21
-104.397647
 31
0.0
  0
LINE
  5
1A2
  8
1
  6
CONTINUOUS
 62
     4
 10
33.152
 20
-104.497647
 30
0.0
 11
33.948
 21
-104.497647
 31
0.0
  0
LINE
  5
1A3
  8
1
  6
CONTINUOUS
 62
     4
 10
33.208667
 20
-104.597647
 30
0.0
 11
33.891333
 21
-104.597647
 31
0.0
  0
LINE
  5
1A4
  8
1
  6
CONTINUOUS
 62
     4
 10
33.265333
 20
-104.697647
 30
0.0
 11
33.834667
 21
-104.697647
 31
0.0
  0
LINE
  5
1A5
  8
1
  6
CONTINUOUS
 62
     4
 10
33.322
 20
-104.797647
 30
0.0
 11
33.778
 21
-104.797647
 31
0.0
  0
LINE
  5
1A6
  8
1
  6
CONTINUOUS
 62
     4
 10
33.378667
 20
-104.897647
 30
0.0
 11
33.721333
 21
-104.897647
 31
0.0
  0
LINE
  5
1A7
  8
1
  6
CONTINUOUS
 62
     4
 10
33.435333
 20
-104.997647
 30
0.0
 11
33.664667
 21
-104.997647
 31
0.0
  0
LINE
  5
1A8
  8
1
  6
CONTINUOUS
 62
     4
 10
33.492
 20
-105.097647
 30
0.0
 11
33.608
 21
-105.097647
 31
0.0
  0
LINE
  5
1A9
  8
1
  6
CONTINUOUS
 62
     4
 10
33.548667
 20
-105.197647
 30
0.0
 11
33.551333
 21
-105.197647
 31
0.0
  0
ENDBLK
  5
1AA
  8
1
  0
BLOCK
  8
1
  2
*X26
 70
     1
 10
0.0
 20
0.0
 30
0.0
  3
*X26
  1

  0
LINE
  5
1AD
  8
1
  6
CONTINUOUS
 62
     4
 10
31.001217
 20
-106.697972
 30
0.0
 11
32.701149
 21
-106.697972
 31
0.0
  0
LINE
  5
1AE
  8
1
  6
CONTINUOUS
 62
     4
 10
31.061217
 20
-106.597972
 30
0.0
 11
32.757816
 21
-106.597972
 31
0.0
  0
LINE
  5
1AF
  8
1
  6
CONTINUOUS
 62
     4
 10
31.121217
 20
-106.497972
 30
0.0
 11
32.814483
 21
-106.497972
 31
0.0
  0
LINE
  5
1B0
  8
1
  6
CONTINUOUS
 62
     4
 10
31.181217
 20
-106.397972
 30
0.0
 11
32.871149
 21
-106.397972
 31
0.0
  0
LINE
  5
1B1
  8
1
  6
CONTINUOUS
 62
     4
 10
31.241217
 20
-106.297972
 30
0.0
 11
32.927816
 21
-106.297972
 31
0.0
  0
LINE
  5
1B2
  8
1
  6
CONTINUOUS
 62
     4
 10
31.301217
 20
-106.197972
 30
0.0
 11
32.984483
 21
-106.197972
 31
0.0
  0
LINE
  5
1B3
  8
1
  6
CONTINUOUS
 62
     4
 10
31.361217
 20
-106.097972
 30
0.0
 11
33.041149
 21
-106.097972
 31
0.0
  0
LINE
  5
1B4
  8
1
  6
CONTINUOUS
 62
     4
 10
31.421217
 20
-105.997972
 30
0.0
 11
33.097816
 21
-105.997972
 31
0.0
  0
LINE
  5
1B5
  8
1
  6
CONTINUOUS
 62
     4
 10
31.481217
 20
-105.897972
 30
0.0
 11
33.154483
 21
-105.897972
 31
0.0
  0
LINE
  5
1B6
  8
1
  6
CONTINUOUS
 62
     4
 10
31.541217
 20
-105.797972
 30
0.0
 11
33.211149
 21
-105.797972
 31
0.0
  0
LINE
  5
1B7
  8
1
  6
CONTINUOUS
 62
     4
 10
31.601217
 20
-105.697972
 30
0.0
 11
33.267816
 21
-105.697972
 31
0.0
  0
LINE
  5
1B8
  8
1
  6
CONTINUOUS
 62
     4
 10
31.661217
 20
-105.597972
 30
0.0
 11
33.324483
 21
-105.597972
 31
0.0
  0
LINE
  5
1B9
  8
1
  6
CONTINUOUS
 62
     4
 10
31.721217
 20
-105.497972
 30
0.0
 11
33.381149
 21
-105.497972
 31
0.0
  0
LINE
  5
1BA
  8
1
  6
CONTINUOUS
 62
     4
 10
31.781217
 20
-105.397972
 30
0.0
 11
33.437816
 21
-105.397972
 31
0.0
  0
LINE
  5
1BB
  8
1
  6
CONTINUOUS
 62
     4
 10
31.841217
 20
-105.297972
 30
0.0
 11
33.494483
 21
-105.297972
 31
0.0
  0
ENDBLK
  5
1BC
  8
1
  0
BLOCK
  8
1
  2
SYM28
 70
     0
 10
0.0
 20
0.0
 30
0.0
  3
SYM28
  1

  0
LINE
  5
1BF
  8
1
  6
CONTINUOUS
 62
     2
 10
1.300001
 20
1.300002
 30
0.0
 11
5.0
 21
7.700008
 31
0.0
  0
LINE
  5
1C0
  8
1
  6
CONTINUOUS
 62
     2
 10
0.0
 20
1.3
 30
0.0
 11
3.7
 21
7.699999
 31
0.0
  0
LINE
  5
1C1
  8
1
  6
CONTINUOUS
 62
     2
 10
5.0
 20
9.0
 30
0.0
 11
5.0
 21
7.7
 31
0.0
  0
LINE
  5
1C2
  8
1
  6
CONTINUOUS
 62
     2
 10
0.0
 20
9.0
 30
0.0
 11
0.0
 21
7.7
 31
0.0
  0
LINE
  5
1C3
  8
1
  6
CONTINUOUS
 62
     2
 10
1.3
 20
1.3
 30
0.0
 11
5.0
 21
1.3
 31
0.0
  0
LINE
  5
1C4
  8
1
  6
CONTINUOUS
 62
     2
 10
5.0
 20
9.0
 30
0.0
 11
0.0
 21
9.0
 31
0.0
  0
LINE
  5
1C5
  8
1
  6
CONTINUOUS
 62
     2
 10
5.0
 20
0.0
 30
0.0
 11
0.0
 21
0.0
 31
0.0
  0
LINE
  5
1C6
  8
1
  6
CONTINUOUS
 62
     2
 10
0.0
 20
0.0
 30
0.0
 11
0.0
 21
1.3
 31
0.0
  0
LINE
  5
1C7
  8
1
  6
CONTINUOUS
 62
     2
 10
5.0
 20
0.0
 30
0.0
 11
5.0
 21
1.3
 31
0.0
  0
LINE
  5
1C8
  8
1
  6
CONTINUOUS
 62
     2
 10
3.7
 20
7.7
 30
0.0
 11
0.0
 21
7.7
 31
0.0
  0
ENDBLK
  5
1C9
  8
1
  0
BLOCK
  8
1
  2
SYM29
 70
     0
 10
0.0
 20
0.0
 30
0.0
  3
SYM29
  1

  0
ARC
  5
1CC
  8
1
  6
CONTINUOUS
 62
     2
 10
2.5
 20
6.5
 30
0.0
 40
2.5
 50
0.0
 51
180.000019
  0
ARC
  5
1CD
  8
1
  6
CONTINUOUS
 62
     2
 10
2.5
 20
2.5
 30
0.0
 40
2.5
 50
53.130061
 51
118.685465
  0
ARC
  5
1CE
  8
1
  6
CONTINUOUS
 62
     2
 10
2.5
 20
2.5
 30
0.0
 40
2.5
 50
180.000019
 51
53.130003
  0
LINE
  5
1CF
  8
1
  6
CONTINUOUS
 62
     2
 10
3.7
 20
6.5
 30
0.0
 11
5.0
 21
6.5
 31
0.0
  0
LINE
  5
1D0
  8
1
  6
CONTINUOUS
 62
     2
 10
0.0
 20
2.5
 30
0.0
 11
0.0
 21
6.5
 31
0.0
  0
ARC
  5
1D1
  8
1
  6
CONTINUOUS
 62
     2
 10
2.5
 20
6.5
 30
0.0
 40
1.2
 50
0.0
 51
180.000019
  0
CIRCLE
  5
1D2
  8
1
  6
CONTINUOUS
 62
     2
 10
2.5
 20
2.5
 30
0.0
 40
1.2
  0
LINE
  5
1D3
  8
1
  6
CONTINUOUS
 62
     2
 10
1.3
 20
6.5
 30
0.0
 11
1.3
 21
4.693172
 31
0.0
  0
ENDBLK
  5
1D4
  8
1
  0
BLOCK
  8
0
  2
*D29
 70
     1
 10
0.0
 20
0.0
 30
0.0
  3
*D29
  1

  0
LINE
  5
62D
  8
0
  6
BYBLOCK
 62
     0
 10
27.000009
 20
107.5
 30
0.0
 11
106.798438
 21
107.5
 31
0.0
  0
LINE
  5
62E
  8
0
  6
BYBLOCK
 62
     0
 10
103.798438
 20
63.715599
 30
0.0
 11
102.798438
 21
63.715599
 31
0.0
  0
LINE
  5
62F
  8
0
  6
BYBLOCK
 62
     0
 10
104.798438
 20
105.568148
 30
0.0
 11
104.798438
 21
88.6078
 31
0.0
  0
LINE
  5
630
  8
0
  6
BYBLOCK
 62
     0
 10
104.798438
 20
65.647451
 30
0.0
 11
104.798438
 21
82.6078
 31
0.0
  0
SOLID
  5
631
  8
0
  6
BYBLOCK
 62
     0
 10
104.476463
 20
105.568148
 30
0.0
 11
105.120413
 21
105.568148
 31
0.0
 12
104.798438
 22
107.5
 32
0.0
 13
104.798438
 23
107.5
 33
0.0
  0
SOLID
  5
632
  8
0
  6
BYBLOCK
 62
     0
 10
104.476463
 20
65.647451
 30
0.0
 11
105.120413
 21
65.647451
 31
0.0
 12
104.798438
 22
63.715599
 32
0.0
 13
104.798438
 23
63.715599
 33
0.0
  0
TEXT
  5
633
  8
0
  6
BYBLOCK
 62
     0
 10
98.798438
 20
84.6078
 30
0.0
 40
2.0
  1
43.7844
  0
POINT
  5
634
  8
DEFPOINTS
  6
BYBLOCK
 62
     0
 10
26.000009
 20
107.5
 30
0.0
  0
POINT
  5
635
  8
DEFPOINTS
  6
BYBLOCK
 62
     0
 10
104.798438
 20
63.715599
 30
0.0
  0
POINT
  5
636
  8
DEFPOINTS
  6
BYBLOCK
 62
     0
 10
104.798438
 20
63.715599
 30
0.0
  0
ENDBLK
  5
637
  8
0
  0
BLOCK
  8
0
  2
*D30
 70
     1
 10
0.0
 20
0.0
 30
0.0
  3
*D30
  1

  0
LINE
  5
622
  8
0
  6
BYBLOCK
 62
     0
 10
23.000009
 20
118.5
 30
0.0
 11
23.000009
 21
159.7
 31
0.0
  0
LINE
  5
623
  8
0
  6
BYBLOCK
 62
     0
 10
88.000007
 20
26.0
 30
0.0
 11
88.000007
 21
159.7
 31
0.0
  0
LINE
  5
624
  8
0
  6
BYBLOCK
 62
     0
 10
24.93186
 20
157.7
 30
0.0
 11
86.068155
 21
157.7
 31
0.0
  0
SOLID
  5
625
  8
0
  6
BYBLOCK
 62
     0
 10
24.93186
 20
158.021976
 30
0.0
 11
24.93186
 21
157.378025
 31
0.0
 12
23.000009
 22
157.7
 32
0.0
 13
23.000009
 23
157.7
 33
0.0
  0
SOLID
  5
626
  8
0
  6
BYBLOCK
 62
     0
 10
86.068155
 20
158.021976
 30
0.0
 11
86.068155
 21
157.378025
 31
0.0
 12
88.000007
 22
157.7
 32
0.0
 13
88.000007
 23
157.7
 33
0.0
  0
TEXT
  5
627
  8
0
  6
BYBLOCK
 62
     0
 10
51.635214
 20
159.7
 30
0.0
 40
2.0
  1
65.0000
  0
POINT
  5
628
  8
DEFPOINTS
  6
BYBLOCK
 62
     0
 10
23.000009
 20
117.5
 30
0.0
  0
POINT
  5
629
  8
DEFPOINTS
  6
BYBLOCK
 62
     0
 10
88.000007
 20
25.0
 30
0.0
  0
POINT
  5
62A
  8
DEFPOINTS
  6
BYBLOCK
 62
     0
 10
88.000007
 20
157.7
 30
0.0
  0
ENDBLK
  5
62B
  8
0
  0
BLOCK
  8
0
  2
*D31
 70
     1
 10
0.0
 20
0.0
 30
0.0
  3
*D31
  1

  0
LINE
  5
617
  8
0
  6
BYBLOCK
 62
     0
 10
28.000007
 20
28.5
 30
0.0
 11
28.000007
 21
95.757801
 31
0.0
  0
LINE
  5
618
  8
0
  6
BYBLOCK
 62
     0
 10
88.000007
 20
26.0
 30
0.0
 11
88.000007
 21
95.757801
 31
0.0
  0
LINE
  5
619
  8
0
  6
BYBLOCK
 62
     0
 10
29.931858
 20
93.757801
 30
0.0
 11
86.068155
 21
93.757801
 31
0.0
  0
SOLID
  5
61A
  8
0
  6
BYBLOCK
 62
     0
 10
29.931858
 20
94.079776
 30
0.0
 11
29.931858
 21
93.435825
 31
0.0
 12
28.000007
 22
93.757801
 32
0.0
 13
28.000007
 23
93.757801
 33
0.0
  0
SOLID
  5
61B
  8
0
  6
BYBLOCK
 62
     0
 10
86.068155
 20
94.079776
 30
0.0
 11
86.068155
 21
93.435825
 31
0.0
 12
88.000007
 22
93.757801
 32
0.0
 13
88.000007
 23
93.757801
 33
0.0
  0
TEXT
  5
61C
  8
0
  6
BYBLOCK
 62
     0
 10
53.300221
 20
95.757801
 30
0.0
 40
2.0
  1
60.0000
  0
POINT
  5
61D
  8
DEFPOINTS
  6
BYBLOCK
 62
     0
 10
28.000007
 20
27.5
 30
0.0
  0
POINT
  5
61E
  8
DEFPOINTS
  6
BYBLOCK
 62
     0
 10
88.000007
 20
25.0
 30
0.0
  0
POINT
  5
61F
  8
DEFPOINTS
  6
BYBLOCK
 62
     0
 10
88.000007
 20
93.757801
 30
0.0
  0
ENDBLK
  5
620
  8
0
  0
BLOCK
  8
0
  2
*D32
 70
     1
 10
0.0
 20
0.0
 30
0.0
  3
*D32
  1

  0
LINE
  5
639
  8
0
  6
BYBLOCK
 62
     0
 10
-90.299989
 20
-73.599998
 30
0.0
 11
-117.200009
 21
-73.599998
 31
0.0
  0
LINE
  5
63A
  8
0
  6
BYBLOCK
 62
     0
 10
-106.000009
 20
7.5
 30
0.0
 11
-117.200009
 21
7.5
 31
0.0
  0
LINE
  5
63B
  8
0
  6
BYBLOCK
 62
     0
 10
-115.200009
 20
-71.668147
 30
0.0
 11
-115.200009
 21
-36.05
 31
0.0
  0
LINE
  5
63C
  8
0
  6
BYBLOCK
 62
     0
 10
-115.200009
 20
5.568148
 30
0.0
 11
-115.200009
 21
-30.05
 31
0.0
  0
SOLID
  5
63D
  8
0
  6
BYBLOCK
 62
     0
 10
-115.521984
 20
-71.668147
 30
0.0
 11
-114.878033
 21
-71.668147
 31
0.0
 12
-115.200009
 22
-73.599998
 32
0.0
 13
-115.200009
 23
-73.599998
 33
0.0
  0
SOLID
  5
63E
  8
0
  6
BYBLOCK
 62
     0
 10
-115.521984
 20
5.568148
 30
0.0
 11
-114.878033
 21
5.568148
 31
0.0
 12
-115.200009
 22
7.5
 32
0.0
 13
-115.200009
 23
7.5
 33
0.0
  0
TEXT
  5
63F
  8
0
  6
BYBLOCK
 62
     0
 10
-120.033342
 20
-34.05
 30
0.0
 40
2.0
  1
81.1000
  0
POINT
  5
640
  8
DEFPOINTS
  6
BYBLOCK
 62
     0
 10
-89.299989
 20
-73.599998
 30
0.0
  0
POINT
  5
641
  8
DEFPOINTS
  6
BYBLOCK
 62
     0
 10
-105.000009
 20
7.5
 30
0.0
  0
POINT
  5
642
  8
DEFPOINTS
  6
BYBLOCK
 62
     0
 10
-115.200009
 20
7.5
 30
0.0
  0
ENDBLK
  5
643
  8
0
  0
BLOCK
  8
0
  2
*D33
 70
     1
 10
0.0
 20
0.0
 30
0.0
  3
*D33
  1

  0
LINE
  5
645
  8
0
  6
BYBLOCK
 62
     0
 10
-94.999993
 20
-51.5
 30
0.0
 11
-94.999993
 21
-99.3
 31
0.0
  0
LINE
  5
646
  8
0
  6
BYBLOCK
 62
     0
 10
-75.499993
 20
-81.342751
 30
0.0
 11
-75.499993
 21
-99.3
 31
0.0
  0
LINE
  5
647
  8
0
  6
BYBLOCK
 62
     0
 10
-93.068142
 20
-97.3
 30
0.0
 11
-77.431845
 21
-97.3
 31
0.0
  0
SOLID
  5
648
  8
0
  6
BYBLOCK
 62
     0
 10
-93.068142
 20
-96.978025
 30
0.0
 11
-93.068142
 21
-97.621975
 31
0.0
 12
-94.999993
 22
-97.3
 32
0.0
 13
-94.999993
 23
-97.3
 33
0.0
  0
SOLID
  5
649
  8
0
  6
BYBLOCK
 62
     0
 10
-77.431845
 20
-96.978025
 30
0.0
 11
-77.431845
 21
-97.621975
 31
0.0
 12
-75.499993
 22
-97.3
 32
0.0
 13
-75.499993
 23
-97.3
 33
0.0
  0
TEXT
  5
64A
  8
0
  6
BYBLOCK
 62
     0
 10
-90.41666
 20
-95.3
 30
0.0
 40
2.0
  1
19.5000
  0
POINT
  5
64B
  8
DEFPOINTS
  6
BYBLOCK
 62
     0
 10
-94.999993
 20
-50.5
 30
0.0
  0
POINT
  5
64C
  8
DEFPOINTS
  6
BYBLOCK
 62
     0
 10
-75.499993
 20
-80.342751
 30
0.0
  0
POINT
  5
64D
  8
DEFPOINTS
  6
BYBLOCK
 62
     0
 10
-75.499993
 20
-97.3
 30
0.0
  0
ENDBLK
  5
64E
  8
0
  0
BLOCK
  8
0
  2
*D34
 70
     1
 10
0.0
 20
0.0
 30
0.0
  3
*D34
  1

  0
LINE
  5
650
  8
0
  6
BYBLOCK
 62
     0
 10
-19.000009
 20
-121.5
 30
0.0
 11
-19.000009
 21
-110.3
 31
0.0
  0
LINE
  5
651
  8
0
  6
BYBLOCK
 62
     0
 10
23.000009
 20
-103.5
 30
0.0
 11
23.000009
 21
-114.3
 31
0.0
  0
LINE
  5
652
  8
0
  6
BYBLOCK
 62
     0
 10
-17.068157
 20
-112.3
 30
0.0
 11
21.068157
 21
-112.3
 31
0.0
  0
SOLID
  5
653
  8
0
  6
BYBLOCK
 62
     0
 10
-17.068157
 20
-111.978024
 30
0.0
 11
-17.068157
 21
-112.621975
 31
0.0
 12
-19.000009
 22
-112.3
 32
0.0
 13
-19.000009
 23
-112.3
 33
0.0
  0
SOLID
  5
654
  8
0
  6
BYBLOCK
 62
     0
 10
21.068157
 20
-111.978024
 30
0.0
 11
21.068157
 21
-112.621975
 31
0.0
 12
23.000009
 22
-112.3
 32
0.0
 13
23.000009
 23
-112.3
 33
0.0
  0
TEXT
  5
655
  8
0
  6
BYBLOCK
 62
     0
 10
6.646658
 20
-110.3
 30
0.0
 40
2.0
  1
42.0000
  0
POINT
  5
656
  8
DEFPOINTS
  6
BYBLOCK
 62
     0
 10
-19.000009
 20
-122.5
 30
0.0
  0
POINT
  5
657
  8
DEFPOINTS
  6
BYBLOCK
 62
     0
 10
23.000009
 20
-102.5
 30
0.0
  0
POINT
  5
658
  8
DEFPOINTS
  6
BYBLOCK
 62
     0
 10
23.000009
 20
-112.3
 30
0.0
  0
ENDBLK
  5
659
  8
0
  0
BLOCK
  8
0
  2
*D35
 70
     1
 10
0.0
 20
0.0
 30
0.0
  3
*D35
  1

  0
LINE
  5
666
  8
0
  6
BYBLOCK
 62
     0
 10
-94.999993
 20
38.5
 30
0.0
 11
-94.999993
 21
159.7
 31
0.0
  0
LINE
  5
667
  8
0
  6
BYBLOCK
 62
     0
 10
23.000009
 20
118.5
 30
0.0
 11
23.000009
 21
159.7
 31
0.0
  0
LINE
  5
668
  8
0
  6
BYBLOCK
 62
     0
 10
-93.068142
 20
157.7
 30
0.0
 11
21.068157
 21
157.7
 31
0.0
  0
SOLID
  5
669
  8
0
  6
BYBLOCK
 62
     0
 10
-93.068142
 20
158.021975
 30
0.0
 11
-93.068142
 21
157.378025
 31
0.0
 12
-94.999993
 22
157.7
 32
0.0
 13
-94.999993
 23
157.7
 33
0.0
  0
SOLID
  5
66A
  8
0
  6
BYBLOCK
 62
     0
 10
21.068157
 20
158.021975
 30
0.0
 11
21.068157
 21
157.378025
 31
0.0
 12
23.000009
 22
157.7
 32
0.0
 13
23.000009
 23
157.7
 33
0.0
  0
TEXT
  5
66B
  8
0
  6
BYBLOCK
 62
     0
 10
-41.666658
 20
159.7
 30
0.0
 40
2.0
  1
118.0000
  0
POINT
  5
66C
  8
DEFPOINTS
  6
BYBLOCK
 62
     0
 10
-94.999993
 20
37.5
 30
0.0
  0
POINT
  5
66D
  8
DEFPOINTS
  6
BYBLOCK
 62
     0
 10
23.000009
 20
117.5
 30
0.0
  0
POINT
  5
66E
  8
DEFPOINTS
  6
BYBLOCK
 62
     0
 10
23.000009
 20
157.7
 30
0.0
  0
ENDBLK
  5
66F
  8
0
  0
BLOCK
  8
0
  2
*D36
 70
     1
 10
0.0
 20
0.0
 30
0.0
  3
*D36
  1

  0
LINE
  5
65B
  8
0
  6
BYBLOCK
 62
     0
 10
-94.999993
 20
38.5
 30
0.0
 11
-94.999993
 21
149.7
 31
0.0
  0
LINE
  5
65C
  8
0
  6
BYBLOCK
 62
     0
 10
-55.499993
 20
96.5
 30
0.0
 11
-55.499993
 21
149.7
 31
0.0
  0
LINE
  5
65D
  8
0
  6
BYBLOCK
 62
     0
 10
-93.068142
 20
147.7
 30
0.0
 11
-57.431845
 21
147.7
 31
0.0
  0
SOLID
  5
65E
  8
0
  6
BYBLOCK
 62
     0
 10
-93.068142
 20
148.021975
 30
0.0
 11
-93.068142
 21
147.378025
 31
0.0
 12
-94.999993
 22
147.7
 32
0.0
 13
-94.999993
 23
147.7
 33
0.0
  0
SOLID
  5
65F
  8
0
  6
BYBLOCK
 62
     0
 10
-57.431845
 20
148.021975
 30
0.0
 11
-57.431845
 21
147.378025
 31
0.0
 12
-55.499993
 22
147.7
 32
0.0
 13
-55.499993
 23
147.7
 33
0.0
  0
TEXT
  5
660
  8
0
  6
BYBLOCK
 62
     0
 10
-80.749993
 20
149.7
 30
0.0
 40
2.0
  1
39.5000
  0
POINT
  5
661
  8
DEFPOINTS
  6
BYBLOCK
 62
     0
 10
-94.999993
 20
37.5
 30
0.0
  0
POINT
  5
662
  8
DEFPOINTS
  6
BYBLOCK
 62
     0
 10
-55.499993
 20
95.5
 30
0.0
  0
POINT
  5
663
  8
DEFPOINTS
  6
BYBLOCK
 62
     0
 10
-55.499993
 20
147.7
 30
0.0
  0
ENDBLK
  5
664
  8
0
  0
BLOCK
  8
0
  2
*D37
 70
     1
 10
0.0
 20
0.0
 30
0.0
  3
*D37
  1

  0
LINE
  5
67D
  8
0
  6
BYBLOCK
 62
     0
 10
7.000009
 20
118.5
 30
0.0
 11
7.000009
 21
149.497012
 31
0.0
  0
LINE
  5
67E
  8
0
  6
BYBLOCK
 62
     0
 10
23.000009
 20
118.5
 30
0.0
 11
23.000009
 21
149.497012
 31
0.0
  0
LINE
  5
67F
  8
0
  6
BYBLOCK
 62
     0
 10
8.93186
 20
147.497012
 30
0.0
 11
21.068157
 21
147.497012
 31
0.0
  0
SOLID
  5
680
  8
0
  6
BYBLOCK
 62
     0
 10
8.93186
 20
147.818988
 30
0.0
 11
8.93186
 21
147.175037
 31
0.0
 12
7.000009
 22
147.497012
 32
0.0
 13
7.000009
 23
147.497012
 33
0.0
  0
SOLID
  5
681
  8
0
  6
BYBLOCK
 62
     0
 10
21.068157
 20
147.818988
 30
0.0
 11
21.068157
 21
147.175037
 31
0.0
 12
23.000009
 22
147.497012
 32
0.0
 13
23.000009
 23
147.497012
 33
0.0
  0
TEXT
  5
682
  8
0
  6
BYBLOCK
 62
     0
 10
10.000009
 20
149.497012
 30
0.0
 40
2.0
  1
16.0000
  0
POINT
  5
683
  8
DEFPOINTS
  6
BYBLOCK
 62
     0
 10
7.000009
 20
117.5
 30
0.0
  0
POINT
  5
684
  8
DEFPOINTS
  6
BYBLOCK
 62
     0
 10
23.000009
 20
117.5
 30
0.0
  0
POINT
  5
685
  8
DEFPOINTS
  6
BYBLOCK
 62
     0
 10
23.000009
 20
147.497012
 30
0.0
  0
ENDBLK
  5
686
  8
0
  0
BLOCK
  8
0
  2
*D38
 70
     1
 10
0.0
 20
0.0
 30
0.0
  3
*D38
  1

  0
LINE
  5
671
  8
0
  6
BYBLOCK
 62
     0
 10
27.000007
 20
108.5
 30
0.0
 11
27.000007
 21
149.497012
 31
0.0
  0
LINE
  5
672
  8
0
  6
BYBLOCK
 62
     0
 10
23.000009
 20
118.5
 30
0.0
 11
23.000009
 21
149.497012
 31
0.0
  0
LINE
  5
673
  8
0
  6
BYBLOCK
 62
     0
 10
21.068157
 20
147.497012
 30
0.0
 11
19.136305
 21
147.497012
 31
0.0
  0
LINE
  5
674
  8
0
  6
BYBLOCK
 62
     0
 10
28.931858
 20
147.497012
 30
0.0
 11
43.530377
 21
147.497012
 31
0.0
  0
SOLID
  5
675
  8
0
  6
BYBLOCK
 62
     0
 10
21.068157
 20
147.818988
 30
0.0
 11
21.068157
 21
147.175037
 31
0.0
 12
23.000009
 22
147.497012
 32
0.0
 13
23.000009
 23
147.497012
 33
0.0
  0
SOLID
  5
676
  8
0
  6
BYBLOCK
 62
     0
 10
28.931858
 20
147.818988
 30
0.0
 11
28.931858
 21
147.175037
 31
0.0
 12
27.000007
 22
147.497012
 32
0.0
 13
27.000007
 23
147.497012
 33
0.0
  0
TEXT
  5
677
  8
0
  6
BYBLOCK
 62
     0
 10
32.86371
 20
149.497012
 30
0.0
 40
2.0
  1
4.0000
  0
POINT
  5
678
  8
DEFPOINTS
  6
BYBLOCK
 62
     0
 10
27.000007
 20
107.5
 30
0.0
  0
POINT
  5
679
  8
DEFPOINTS
  6
BYBLOCK
 62
     0
 10
23.000009
 20
117.5
 30
0.0
  0
POINT
  5
67A
  8
DEFPOINTS
  6
BYBLOCK
 62
     0
 10
23.000009
 20
147.497012
 30
0.0
  0
ENDBLK
  5
67B
  8
0
  0
BLOCK
  8
0
  2
*D39
 70
     1
 10
0.0
 20
0.0
 30
0.0
  3
*D39
  1

  0
LINE
  5
6A4
  8
0
  6
BYBLOCK
 62
     0
 10
323.560467
 20
-30.221838
 30
0.0
 11
321.628615
 21
-30.221838
 31
0.0
  0
LINE
  5
6A5
  8
0
  6
BYBLOCK
 62
     0
 10
321.628615
 20
-30.221838
 30
0.0
 11
374.683141
 21
-64.068627
 31
0.0
  0
TEXT
  5
6A6
  8
0
  6
BYBLOCK
 62
     0
 10
325.560467
 20
-31.221838
 30
0.0
 40
2.0
  1
%%c270.0000
  0
SOLID
  5
6A7
  8
0
  6
BYBLOCK
 62
     0
 10
374.856311
 20
-63.797185
 30
0.0
 11
374.509972
 21
-64.340068
 31
0.0
 12
376.31179
 22
-65.107643
 32
0.0
 13
376.31179
 23
-65.107643
 33
0.0
  0
POINT
  5
6A8
  8
DEFPOINTS
  6
BYBLOCK
 62
     0
 10
376.31179
 20
-65.107643
 30
0.0
  0
POINT
  5
6A9
  8
DEFPOINTS
  6
BYBLOCK
 62
     0
 10
148.688178
 20
80.107643
 30
0.0
  0
ENDBLK
  5
6AA
  8
0
  0
BLOCK
  8
0
  2
*D40
 70
     1
 10
0.0
 20
0.0
 30
0.0
  3
*D40
  1

  0
LINE
  5
69C
  8
0
  6
BYBLOCK
 62
     0
 10
324.95076
 20
51.12484
 30
0.0
 11
326.882612
 21
51.12484
 31
0.0
  0
LINE
  5
69D
  8
0
  6
BYBLOCK
 62
     0
 10
326.882612
 20
51.12484
 30
0.0
 11
358.173558
 21
72.327184
 31
0.0
  0
TEXT
  5
69E
  8
0
  6
BYBLOCK
 62
     0
 10
308.284094
 20
50.12484
 30
0.0
 40
2.0
  1
%%c235.0000
  0
SOLID
  5
69F
  8
0
  6
BYBLOCK
 62
     0
 10
357.992948
 20
72.593732
 30
0.0
 11
358.354168
 21
72.060635
 31
0.0
 12
359.772849
 22
73.410843
 32
0.0
 13
359.772849
 23
73.410843
 33
0.0
  0
POINT
  5
6A0
  8
DEFPOINTS
  6
BYBLOCK
 62
     0
 10
359.772849
 20
73.410843
 30
0.0
  0
POINT
  5
6A1
  8
DEFPOINTS
  6
BYBLOCK
 62
     0
 10
165.227134
 20
-58.410839
 30
0.0
  0
ENDBLK
  5
6A2
  8
0
  0
BLOCK
  8
0
  2
*D41
 70
     1
 10
0.0
 20
0.0
 30
0.0
  3
*D41
  1

  0
LINE
  5
694
  8
0
  6
BYBLOCK
 62
     0
 10
222.436503
 20
77.492242
 30
0.0
 11
220.504651
 21
77.492242
 31
0.0
  0
LINE
  5
695
  8
0
  6
BYBLOCK
 62
     0
 10
220.504651
 20
77.492242
 30
0.0
 11
199.181955
 21
113.030066
 31
0.0
  0
TEXT
  5
696
  8
0
  6
BYBLOCK
 62
     0
 10
224.436503
 20
76.492242
 30
0.0
 40
2.0
  1
%%c250.0000
  0
SOLID
  5
697
  8
0
  6
BYBLOCK
 62
     0
 10
199.458047
 20
113.195721
 30
0.0
 11
198.905864
 21
112.864411
 31
0.0
 12
198.188026
 22
114.686615
 32
0.0
 13
198.188026
 23
114.686615
 33
0.0
  0
POINT
  5
698
  8
DEFPOINTS
  6
BYBLOCK
 62
     0
 10
198.188026
 20
114.686615
 30
0.0
  0
POINT
  5
699
  8
DEFPOINTS
  6
BYBLOCK
 62
     0
 10
326.811973
 20
-99.686615
 30
0.0
  0
ENDBLK
  5
69A
  8
0
  0
BLOCK
  8
0
  2
*D42
 70
     1
 10
0.0
 20
0.0
 30
0.0
  3
*D42
  1

  0
LINE
  5
688
  8
0
  6
BYBLOCK
 62
     0
 10
89.000007
 20
-10.0
 30
0.0
 11
120.932456
 21
-10.0
 31
0.0
  0
LINE
  5
689
  8
0
  6
BYBLOCK
 62
     0
 10
89.000007
 20
25.0
 30
0.0
 11
120.932456
 21
25.0
 31
0.0
  0
LINE
  5
68A
  8
0
  6
BYBLOCK
 62
     0
 10
118.932456
 20
-8.068148
 30
0.0
 11
118.932456
 21
4.5
 31
0.0
  0
LINE
  5
68B
  8
0
  6
BYBLOCK
 62
     0
 10
118.932456
 20
23.068148
 30
0.0
 11
118.932456
 21
10.5
 31
0.0
  0
SOLID
  5
68C
  8
0
  6
BYBLOCK
 62
     0
 10
118.610481
 20
-8.068148
 30
0.0
 11
119.254431
 21
-8.068148
 31
0.0
 12
118.932456
 22
-10.0
 32
0.0
 13
118.932456
 23
-10.0
 33
0.0
  0
SOLID
  5
68D
  8
0
  6
BYBLOCK
 62
     0
 10
118.610481
 20
23.068148
 30
0.0
 11
119.254431
 21
23.068148
 31
0.0
 12
118.932456
 22
25.0
 32
0.0
 13
118.932456
 23
25.0
 33
0.0
  0
TEXT
  5
68E
  8
0
  6
BYBLOCK
 62
     0
 10
113.599123
 20
6.5
 30
0.0
 40
2.0
  1
35.0000
  0
POINT
  5
68F
  8
DEFPOINTS
  6
BYBLOCK
 62
     0
 10
88.000007
 20
-10.0
 30
0.0
  0
POINT
  5
690
  8
DEFPOINTS
  6
BYBLOCK
 62
     0
 10
88.000007
 20
25.0
 30
0.0
  0
POINT
  5
691
  8
DEFPOINTS
  6
BYBLOCK
 62
     0
 10
118.932456
 20
25.0
 30
0.0
  0
ENDBLK
  5
692
  8
0
  0
BLOCK
  8
0
  2
*D43
 70
     1
 10
0.0
 20
0.0
 30
0.0
  3
*D43
  1

  0
LINE
  5
6AC
  8
0
  6
BYBLOCK
 62
     0
 10
285.999991
 20
-131.5
 30
0.0
 11
285.999991
 21
-166.8
 31
0.0
  0
LINE
  5
6AD
  8
0
  6
BYBLOCK
 62
     0
 10
238.999991
 20
-131.5
 30
0.0
 11
238.999991
 21
-166.8
 31
0.0
  0
LINE
  5
6AE
  8
0
  6
BYBLOCK
 62
     0
 10
284.06814
 20
-164.8
 30
0.0
 11
240.931843
 21
-164.8
 31
0.0
  0
SOLID
  5
6AF
  8
0
  6
BYBLOCK
 62
     0
 10
284.06814
 20
-164.478025
 30
0.0
 11
284.06814
 21
-165.121975
 31
0.0
 12
285.999991
 22
-164.8
 32
0.0
 13
285.999991
 23
-164.8
 33
0.0
  0
SOLID
  5
6B0
  8
0
  6
BYBLOCK
 62
     0
 10
240.931843
 20
-164.478025
 30
0.0
 11
240.931843
 21
-165.121975
 31
0.0
 12
238.999991
 22
-164.8
 32
0.0
 13
238.999991
 23
-164.8
 33
0.0
  0
TEXT
  5
6B1
  8
0
  6
BYBLOCK
 62
     0
 10
257.166658
 20
-162.8
 30
0.0
 40
2.0
  1
47.0000
  0
POINT
  5
6B2
  8
DEFPOINTS
  6
BYBLOCK
 62
     0
 10
285.999991
 20
-130.5
 30
0.0
  0
POINT
  5
6B3
  8
DEFPOINTS
  6
BYBLOCK
 62
     0
 10
238.999991
 20
-130.5
 30
0.0
  0
POINT
  5
6B4
  8
DEFPOINTS
  6
BYBLOCK
 62
     0
 10
238.999991
 20
-164.8
 30
0.0
  0
ENDBLK
  5
6B5
  8
0
  0
BLOCK
  8
0
  2
*D44
 70
     1
 10
0.0
 20
0.0
 30
0.0
  3
*D44
  1

  0
LINE
  5
6B7
  8
0
  6
BYBLOCK
 62
     0
 10
152.499991
 20
86.762383
 30
0.0
 11
152.499991
 21
164.842014
 31
0.0
  0
LINE
  5
6B8
  8
0
  6
BYBLOCK
 62
     0
 10
372.499961
 20
86.762383
 30
0.0
 11
372.499961
 21
164.842014
 31
0.0
  0
LINE
  5
6B9
  8
0
  6
BYBLOCK
 62
     0
 10
154.431843
 20
162.842014
 30
0.0
 11
370.568109
 21
162.842014
 31
0.0
  0
SOLID
  5
6BA
  8
0
  6
BYBLOCK
 62
     0
 10
154.431843
 20
163.163989
 30
0.0
 11
154.431843
 21
162.520039
 31
0.0
 12
152.499991
 22
162.842014
 32
0.0
 13
152.499991
 23
162.842014
 33
0.0
  0
SOLID
  5
6BB
  8
0
  6
BYBLOCK
 62
     0
 10
370.568109
 20
163.163989
 30
0.0
 11
370.568109
 21
162.520039
 31
0.0
 12
372.499961
 22
162.842014
 32
0.0
 13
372.499961
 23
162.842014
 33
0.0
  0
TEXT
  5
6BC
  8
0
  6
BYBLOCK
 62
     0
 10
256.071218
 20
164.842014
 30
0.0
 40
2.0
  1
220.0000
  0
POINT
  5
6BD
  8
DEFPOINTS
  6
BYBLOCK
 62
     0
 10
152.499991
 20
85.762383
 30
0.0
  0
POINT
  5
6BE
  8
DEFPOINTS
  6
BYBLOCK
 62
     0
 10
372.499961
 20
85.762383
 30
0.0
  0
POINT
  5
6BF
  8
DEFPOINTS
  6
BYBLOCK
 62
     0
 10
372.499961
 20
162.842014
 30
0.0
  0
ENDBLK
  5
6C0
  8
0
  0
BLOCK
  8
0
  2
*D45
 70
     1
 10
0.0
 20
0.0
 30
0.0
  3
*D45
  1

  0
LINE
  5
6C3
  8
0
  6
BYBLOCK
 62
     0
 10
28.000009
 20
107.5
 30
0.0
 11
109.20063
 21
107.5
 31
0.0
  0
LINE
  5
6C4
  8
0
  6
BYBLOCK
 62
     0
 10
28.000009
 20
-92.5
 30
0.0
 11
109.20063
 21
-92.5
 31
0.0
  0
LINE
  5
6C5
  8
0
  6
BYBLOCK
 62
     0
 10
107.20063
 20
105.568148
 30
0.0
 11
107.20063
 21
10.5
 31
0.0
  0
LINE
  5
6C6
  8
0
  6
BYBLOCK
 62
     0
 10
107.20063
 20
-90.568148
 30
0.0
 11
107.20063
 21
4.5
 31
0.0
  0
SOLID
  5
6C7
  8
0
  6
BYBLOCK
 62
     0
 10
106.878654
 20
105.568148
 30
0.0
 11
107.522605
 21
105.568148
 31
0.0
 12
107.20063
 22
107.5
 32
0.0
 13
107.20063
 23
107.5
 33
0.0
  0
SOLID
  5
6C8
  8
0
  6
BYBLOCK
 62
     0
 10
106.878654
 20
-90.568148
 30
0.0
 11
107.522605
 21
-90.568148
 31
0.0
 12
107.20063
 22
-92.5
 32
0.0
 13
107.20063
 23
-92.5
 33
0.0
  0
TEXT
  5
6C9
  8
0
  6
BYBLOCK
 62
     0
 10
101.20063
 20
6.5
 30
0.0
 40
2.0
  1
200.0000
  0
POINT
  5
6CA
  8
DEFPOINTS
  6
BYBLOCK
 62
     0
 10
27.000009
 20
107.5
 30
0.0
  0
POINT
  5
6CB
  8
DEFPOINTS
  6
BYBLOCK
 62
     0
 10
27.000009
 20
-92.5
 30
0.0
  0
POINT
  5
6CC
  8
DEFPOINTS
  6
BYBLOCK
 62
     0
 10
107.20063
 20
-92.5
 30
0.0
  0
ENDBLK
  5
6CD
  8
0
  0
BLOCK
  8
0
  2
*D46
 70
     1
 10
0.0
 20
0.0
 30
0.0
  3
*D46
  1

  0
LINE
  5
6D2
  8
0
  6
BYBLOCK
 62
     0
 10
382.499991
 20
6.5
 30
0.0
 11
382.499991
 21
-157.88
 31
0.0
  0
LINE
  5
6D3
  8
0
  6
BYBLOCK
 62
     0
 10
382.499991
 20
6.5
 30
0.0
 11
382.499991
 21
-157.88
 31
0.0
  0
LINE
  5
6D4
  8
0
  6
BYBLOCK
 62
     0
 10
380.56814
 20
-155.88
 30
0.0
 11
378.636288
 21
-155.88
 31
0.0
  0
LINE
  5
6D5
  8
0
  6
BYBLOCK
 62
     0
 10
384.431843
 20
-155.88
 30
0.0
 11
398.697028
 21
-155.88
 31
0.0
  0
SOLID
  5
6D6
  8
0
  6
BYBLOCK
 62
     0
 10
380.56814
 20
-155.558025
 30
0.0
 11
380.56814
 21
-156.201975
 31
0.0
 12
382.499991
 22
-155.88
 32
0.0
 13
382.499991
 23
-155.88
 33
0.0
  0
SOLID
  5
6D7
  8
0
  6
BYBLOCK
 62
     0
 10
384.431843
 20
-155.558025
 30
0.0
 11
384.431843
 21
-156.201975
 31
0.0
 12
382.499991
 22
-155.88
 32
0.0
 13
382.499991
 23
-155.88
 33
0.0
  0
TEXT
  5
6D8
  8
0
  6
BYBLOCK
 62
     0
 10
388.363695
 20
-153.88
 30
0.0
 40
2.0
  1
0.0000
  0
POINT
  5
6D9
  8
DEFPOINTS
  6
BYBLOCK
 62
     0
 10
382.499991
 20
7.5
 30
0.0
  0
POINT
  5
6DA
  8
DEFPOINTS
  6
BYBLOCK
 62
     0
 10
382.499991
 20
7.5
 30
0.0
  0
POINT
  5
6DB
  8
DEFPOINTS
  6
BYBLOCK
 62
     0
 10
382.499991
 20
-155.88
 30
0.0
  0
ENDBLK
  5
6DC
  8
0
  0
BLOCK
  8
0
  2
*D47
 70
     1
 10
0.0
 20
0.0
 30
0.0
  3
*D47
  1

  0
LINE
  5
6E0
  8
0
  6
BYBLOCK
 62
     0
 10
383.499991
 20
7.5
 30
0.0
 11
419.936847
 21
7.5
 31
0.0
  0
LINE
  5
6E1
  8
0
  6
BYBLOCK
 62
     0
 10
281.699679
 20
-155.88
 30
0.0
 11
419.936847
 21
-155.88
 31
0.0
  0
LINE
  5
6E2
  8
0
  6
BYBLOCK
 62
     0
 10
417.936847
 20
5.568148
 30
0.0
 11
417.936847
 21
-71.19
 31
0.0
  0
LINE
  5
6E3
  8
0
  6
BYBLOCK
 62
     0
 10
417.936847
 20
-153.948148
 30
0.0
 11
417.936847
 21
-77.19
 31
0.0
  0
SOLID
  5
6E4
  8
0
  6
BYBLOCK
 62
     0
 10
417.614872
 20
5.568148
 30
0.0
 11
418.258822
 21
5.568148
 31
0.0
 12
417.936847
 22
7.5
 32
0.0
 13
417.936847
 23
7.5
 33
0.0
  0
SOLID
  5
6E5
  8
0
  6
BYBLOCK
 62
     0
 10
417.614872
 20
-153.948148
 30
0.0
 11
418.258822
 21
-153.948148
 31
0.0
 12
417.936847
 22
-155.88
 32
0.0
 13
417.936847
 23
-155.88
 33
0.0
  0
TEXT
  5
6E6
  8
0
  6
BYBLOCK
 62
     0
 10
411.603514
 20
-75.19
 30
0.0
 40
2.0
  1
163.3800
  0
POINT
  5
6E7
  8
DEFPOINTS
  6
BYBLOCK
 62
     0
 10
382.499991
 20
7.5
 30
0.0
  0
POINT
  5
6E8
  8
DEFPOINTS
  6
BYBLOCK
 62
     0
 10
280.699679
 20
-155.88
 30
0.0
  0
POINT
  5
6E9
  8
DEFPOINTS
  6
BYBLOCK
 62
     0
 10
417.936847
 20
-155.88
 30
0.0
  0
ENDBLK
  5
6EA
  8
0
  0
BLOCK
  8
0
  2
*D48
 70
     1
 10
0.0
 20
0.0
 30
0.0
  3
*D48
  1

  0
LINE
  5
6EE
  8
0
  6
BYBLOCK
 62
     0
 10
-106.000009
 20
7.5
 30
0.0
 11
-122.342595
 21
7.5
 31
0.0
  0
LINE
  5
6EF
  8
0
  6
BYBLOCK
 62
     0
 10
-76.499991
 20
-73.6
 30
0.0
 11
-122.342595
 21
-73.6
 31
0.0
  0
LINE
  5
6F0
  8
0
  6
BYBLOCK
 62
     0
 10
-120.342595
 20
5.568148
 30
0.0
 11
-120.342595
 21
-30.05
 31
0.0
  0
LINE
  5
6F1
  8
0
  6
BYBLOCK
 62
     0
 10
-120.342595
 20
-71.668148
 30
0.0
 11
-120.342595
 21
-36.05
 31
0.0
  0
SOLID
  5
6F2
  8
0
  6
BYBLOCK
 62
     0
 10
-120.664571
 20
5.568148
 30
0.0
 11
-120.02062
 21
5.568148
 31
0.0
 12
-120.342595
 22
7.5
 32
0.0
 13
-120.342595
 23
7.5
 33
0.0
  0
SOLID
  5
6F3
  8
0
  6
BYBLOCK
 62
     0
 10
-120.664571
 20
-71.668148
 30
0.0
 11
-120.02062
 21
-71.668148
 31
0.0
 12
-120.342595
 22
-73.6
 32
0.0
 13
-120.342595
 23
-73.6
 33
0.0
  0
TEXT
  5
6F4
  8
0
  6
BYBLOCK
 62
     0
 10
-125.175929
 20
-34.05
 30
0.0
 40
2.0
  1
81.1000
  0
POINT
  5
6F5
  8
DEFPOINTS
  6
BYBLOCK
 62
     0
 10
-105.000009
 20
7.5
 30
0.0
  0
POINT
  5
6F6
  8
DEFPOINTS
  6
BYBLOCK
 62
     0
 10
-75.499991
 20
-73.6
 30
0.0
  0
POINT
  5
6F7
  8
DEFPOINTS
  6
BYBLOCK
 62
     0
 10
-120.342595
 20
-73.6
 30
0.0
  0
ENDBLK
  5
6F8
  8
0
  0
BLOCK
  8
0
  2
*D49
 70
     1
 10
0.0
 20
0.0
 30
0.0
  3
*D49
  1

  0
LINE
  5
6FD
  8
0
  6
BYBLOCK
 62
     0
 10
23.000009
 20
118.5
 30
0.0
 11
23.000009
 21
142.66172
 31
0.0
  0
LINE
  5
6FE
  8
0
  6
BYBLOCK
 62
     0
 10
-94.999991
 20
8.5
 30
0.0
 11
-94.999991
 21
142.66172
 31
0.0
  0
LINE
  5
6FF
  8
0
  6
BYBLOCK
 62
     0
 10
21.068157
 20
140.66172
 30
0.0
 11
-93.06814
 21
140.66172
 31
0.0
  0
SOLID
  5
700
  8
0
  6
BYBLOCK
 62
     0
 10
21.068157
 20
140.983695
 30
0.0
 11
21.068157
 21
140.339744
 31
0.0
 12
23.000009
 22
140.66172
 32
0.0
 13
23.000009
 23
140.66172
 33
0.0
  0
SOLID
  5
701
  8
0
  6
BYBLOCK
 62
     0
 10
-93.06814
 20
140.983695
 30
0.0
 11
-93.06814
 21
140.339744
 31
0.0
 12
-94.999991
 22
140.66172
 32
0.0
 13
-94.999991
 23
140.66172
 33
0.0
  0
TEXT
  5
702
  8
0
  6
BYBLOCK
 62
     0
 10
-41.666658
 20
142.66172
 30
0.0
 40
2.0
  1
118.0000
  0
POINT
  5
703
  8
DEFPOINTS
  6
BYBLOCK
 62
     0
 10
23.000009
 20
117.5
 30
0.0
  0
POINT
  5
704
  8
DEFPOINTS
  6
BYBLOCK
 62
     0
 10
-94.999991
 20
7.5
 30
0.0
  0
POINT
  5
705
  8
DEFPOINTS
  6
BYBLOCK
 62
     0
 10
-94.999991
 20
140.66172
 30
0.0
  0
ENDBLK
  5
706
  8
0
  0
BLOCK
  8
0
  2
*D50
 70
     1
 10
0.0
 20
0.0
 30
0.0
  3
*D50
  1

  0
LINE
  5
70A
  8
0
  6
BYBLOCK
 62
     0
 10
23.000009
 20
-103.5
 30
0.0
 11
23.000009
 21
-120.137936
 31
0.0
  0
LINE
  5
70B
  8
0
  6
BYBLOCK
 62
     0
 10
-19.000009
 20
-121.5
 30
0.0
 11
-19.000009
 21
-116.137936
 31
0.0
  0
LINE
  5
70C
  8
0
  6
BYBLOCK
 62
     0
 10
21.068157
 20
-118.137936
 30
0.0
 11
-17.068157
 21
-118.137936
 31
0.0
  0
SOLID
  5
70D
  8
0
  6
BYBLOCK
 62
     0
 10
21.068157
 20
-117.81596
 30
0.0
 11
21.068157
 21
-118.459911
 31
0.0
 12
23.000009
 22
-118.137936
 32
0.0
 13
23.000009
 23
-118.137936
 33
0.0
  0
SOLID
  5
70E
  8
0
  6
BYBLOCK
 62
     0
 10
-17.068157
 20
-117.81596
 30
0.0
 11
-17.068157
 21
-118.459911
 31
0.0
 12
-19.000009
 22
-118.137936
 32
0.0
 13
-19.000009
 23
-118.137936
 33
0.0
  0
TEXT
  5
70F
  8
0
  6
BYBLOCK
 62
     0
 10
-3.333333
 20
-116.137936
 30
0.0
 40
2.0
  1
42.0000
  0
POINT
  5
710
  8
DEFPOINTS
  6
BYBLOCK
 62
     0
 10
23.000009
 20
-102.5
 30
0.0
  0
POINT
  5
711
  8
DEFPOINTS
  6
BYBLOCK
 62
     0
 10
-19.000009
 20
-122.5
 30
0.0
  0
POINT
  5
712
  8
DEFPOINTS
  6
BYBLOCK
 62
     0
 10
-19.000009
 20
-118.137936
 30
0.0
  0
ENDBLK
  5
713
  8
0
  0
BLOCK
  8
0
  2
*D51
 70
     1
 10
0.0
 20
0.0
 30
0.0
  3
*D51
  1

  0
LINE
  5
717
  8
0
  6
BYBLOCK
 62
     0
 10
23.000009
 20
116.5
 30
0.0
 11
23.000009
 21
17.412851
 31
0.0
  0
LINE
  5
718
  8
0
  6
BYBLOCK
 62
     0
 10
-94.999991
 20
8.5
 30
0.0
 11
-94.999991
 21
21.412851
 31
0.0
  0
LINE
  5
719
  8
0
  6
BYBLOCK
 62
     0
 10
21.068157
 20
19.412851
 30
0.0
 11
-93.06814
 21
19.412851
 31
0.0
  0
SOLID
  5
71A
  8
0
  6
BYBLOCK
 62
     0
 10
21.068157
 20
19.734827
 30
0.0
 11
21.068157
 21
19.090876
 31
0.0
 12
23.000009
 22
19.412851
 32
0.0
 13
23.000009
 23
19.412851
 33
0.0
  0
SOLID
  5
71B
  8
0
  6
BYBLOCK
 62
     0
 10
-93.06814
 20
19.734827
 30
0.0
 11
-93.06814
 21
19.090876
 31
0.0
 12
-94.999991
 22
19.412851
 32
0.0
 13
-94.999991
 23
19.412851
 33
0.0
  0
TEXT
  5
71C
  8
0
  6
BYBLOCK
 62
     0
 10
-41.666658
 20
21.412851
 30
0.0
 40
2.0
  1
118.0000
  0
POINT
  5
71D
  8
DEFPOINTS
  6
BYBLOCK
 62
     0
 10
23.000009
 20
117.5
 30
0.0
  0
POINT
  5
71E
  8
DEFPOINTS
  6
BYBLOCK
 62
     0
 10
-94.999991
 20
7.5
 30
0.0
  0
POINT
  5
71F
  8
DEFPOINTS
  6
BYBLOCK
 62
     0
 10
-94.999991
 20
19.412851
 30
0.0
  0
ENDBLK
  5
720
  8
0
  0
BLOCK
  8
0
  2
*D52
 70
     1
 10
0.0
 20
0.0
 30
0.0
  3
*D52
  1

  0
LINE
  5
725
  8
0
  6
BYBLOCK
 62
     0
 10
23.000009
 20
-103.5
 30
0.0
 11
23.000009
 21
-169.825147
 31
0.0
  0
LINE
  5
726
  8
0
  6
BYBLOCK
 62
     0
 10
-19.500009
 20
-123.5
 30
0.0
 11
-19.500009
 21
-169.825147
 31
0.0
  0
LINE
  5
727
  8
0
  6
BYBLOCK
 62
     0
 10
21.068157
 20
-167.825147
 30
0.0
 11
-17.568157
 21
-167.825147
 31
0.0
  0
SOLID
  5
728
  8
0
  6
BYBLOCK
 62
     0
 10
21.068157
 20
-167.503172
 30
0.0
 11
21.068157
 21
-168.147123
 31
0.0
 12
23.000009
 22
-167.825147
 32
0.0
 13
23.000009
 23
-167.825147
 33
0.0
  0
SOLID
  5
729
  8
0
  6
BYBLOCK
 62
     0
 10
-17.568157
 20
-167.503172
 30
0.0
 11
-17.568157
 21
-168.147123
 31
0.0
 12
-19.500009
 22
-167.825147
 32
0.0
 13
-19.500009
 23
-167.825147
 33
0.0
  0
TEXT
  5
72A
  8
0
  6
BYBLOCK
 62
     0
 10
-3.75
 20
-165.825147
 30
0.0
 40
2.0
  1
42.5000
  0
POINT
  5
72B
  8
DEFPOINTS
  6
BYBLOCK
 62
     0
 10
23.000009
 20
-102.5
 30
0.0
  0
POINT
  5
72C
  8
DEFPOINTS
  6
BYBLOCK
 62
     0
 10
-19.500009
 20
-122.5
 30
0.0
  0
POINT
  5
72D
  8
DEFPOINTS
  6
BYBLOCK
 62
     0
 10
-19.500009
 20
-167.825147
 30
0.0
  0
ENDBLK
  5
72E
  8
0
  0
BLOCK
  8
0
  2
A$C18A6108F
 70
     0
 10
0.0
 20
0.0
 30
0.0
  3
A$C18A6108F
  1

  0
LINE
  5
799
  8
0
  6
CENTER
 62
     6
 10
0.0
 20
0.0
 30
0.0
 11
201.57297
 21
0.0
 31
0.0
  0
ENDBLK
  5
79B
  8
0
  0
ENDSEC
  0
SECTION
  2
ENTITIES
  0
CIRCLE
  5
1D5
  8
0
  6
CONTINUOUS
 62
     3
 10
262.499991
 20
7.5
 30
0.0
 40
96.0
  0
CIRCLE
  5
1D6
  8
0
  6
CONTINUOUS
 62
     3
 10
262.499991
 20
7.5
 30
0.0
 40
58.0
  0
LINE
  5
1DC
  8
0
  6
CONTINUOUS
 62
     3
 10
27.000009
 20
-92.5
 30
0.0
 11
27.000009
 21
107.5
 31
0.0
  0
ARC
  5
1E3
  8
0
  6
CENTER
 62
     4
 10
262.499991
 20
7.5
 30
0.0
 40
112.0
 50
54.225592
 51
65.79793
  0
CIRCLE
  5
1E4
  8
0
  6
CONTINUOUS
 62
     3
 10
318.499991
 20
104.494845
 30
0.0
 40
5.0
  0
CIRCLE
  5
1E5
  8
0
  6
CONTINUOUS
 62
     4
 10
318.499991
 20
104.494845
 30
0.0
 40
4.25
  0
LINE
  5
1E6
  8
0
  6
CENTER
 62
     4
 10
313.486261
 20
95.810809
 30
0.0
 11
323.41831
 21
113.013622
 31
0.0
  0
ARC
  5
1E7
  8
0
  6
CENTER
 62
     4
 10
262.499991
 20
7.5
 30
0.0
 40
112.0
 50
324.225592
 51
335.79793
  0
CIRCLE
  5
1E8
  8
0
  6
CONTINUOUS
 62
     3
 10
359.494837
 20
-48.5
 30
0.0
 40
5.0
  0
CIRCLE
  5
1E9
  8
0
  6
CONTINUOUS
 62
     4
 10
359.494837
 20
-48.5
 30
0.0
 40
4.25
  0
LINE
  5
1EA
  8
0
  6
CENTER
 62
     4
 10
350.810801
 20
-43.486269
 30
0.0
 11
368.013614
 21
-53.418318
 31
0.0
  0
ARC
  5
1EB
  8
0
  6
CENTER
 62
     4
 10
262.499991
 20
7.5
 30
0.0
 40
112.0
 50
234.225592
 51
245.79793
  0
CIRCLE
  5
1EC
  8
0
  6
CONTINUOUS
 62
     3
 10
206.499991
 20
-89.494845
 30
0.0
 40
5.0
  0
CIRCLE
  5
1ED
  8
0
  6
CONTINUOUS
 62
     4
 10
206.499991
 20
-89.494845
 30
0.0
 40
4.25
  0
LINE
  5
1EE
  8
0
  6
CENTER
 62
     4
 10
211.513722
 20
-80.810809
 30
0.0
 11
201.581673
 21
-98.013622
 31
0.0
  0
CIRCLE
  5
1EF
  8
0
  6
CONTINUOUS
 62
     4
 10
165.505146
 20
63.5
 30
0.0
 40
4.25
  0
CIRCLE
  5
1F0
  8
0
  6
CONTINUOUS
 62
     3
 10
165.505146
 20
63.5
 30
0.0
 40
5.0
  0
LINE
  5
1F1
  8
0
  6
CONTINUOUS
 62
     3
 10
-282.500009
 20
-78.999899
 30
0.0
 11
-282.500009
 21
-102.5
 31
0.0
  0
ARC
  5
1F2
  8
0
  6
CONTINUOUS
 62
     3
 10
-234.500009
 20
-78.999899
 30
0.0
 40
2.0
 50
0.0
 51
90.0
  0
LINE
  5
1F3
  8
0
  6
CONTINUOUS
 62
     3
 10
-232.500009
 20
-78.999899
 30
0.0
 11
-232.500009
 21
-102.5
 31
0.0
  0
LINE
  5
1F4
  8
0
  6
CONTINUOUS
 62
     3
 10
-257.500009
 20
-76.999899
 30
0.0
 11
-234.500009
 21
-76.999899
 31
0.0
  0
LINE
  5
1F5
  8
0
  6
CONTINUOUS
 62
     3
 10
-280.500009
 20
-76.999899
 30
0.0
 11
-257.500009
 21
-76.999899
 31
0.0
  0
ARC
  5
1F6
  8
0
  6
CONTINUOUS
 62
     3
 10
-280.500009
 20
-78.999899
 30
0.0
 40
2.0
 50
90.0
 51
180.0
  0
LINE
  5
1F7
  8
0
  6
CONTINUOUS
 62
     4
 10
-57.999991
 20
-58.1
 30
0.0
 11
-55.499991
 21
-58.1
 31
0.0
  0
LINE
  5
1F8
  8
0
  6
CONTINUOUS
 62
     4
 10
-57.999991
 20
-54.7
 30
0.0
 11
-57.999991
 21
-58.1
 31
0.0
  0
LINE
  5
1F9
  8
0
  6
CONTINUOUS
 62
     4
 10
-60.699991
 20
-56.9
 30
0.0
 11
-57.999991
 21
-56.9
 31
0.0
  0
LINE
  5
1FA
  8
0
  6
DASHDOT
 62
     4
 10
-65.42793
 20
-89.494845
 30
0.0
 11
-52.360515
 21
-89.494845
 31
0.0
  0
LINE
  5
1FB
  8
0
  6
CONTINUOUS
 62
     3
 10
-67.999991
 20
-81.494845
 30
0.0
 11
-67.999991
 21
-97.494845
 31
0.0
  0
LINE
  5
1FC
  8
0
  6
CONTINUOUS
 62
     3
 10
-57.999991
 20
-98.694845
 30
0.0
 11
-55.499991
 21
-98.694845
 31
0.0
  0
LINE
  5
1FD
  8
0
  6
CONTINUOUS
 62
     3
 10
-57.999991
 20
-80.294845
 30
0.0
 11
-57.999991
 21
-98.694845
 31
0.0
  0
LINE
  5
1FE
  8
0
  6
CONTINUOUS
 62
     3
 10
-57.999991
 20
-80.294845
 30
0.0
 11
-55.499991
 21
-80.294845
 31
0.0
  0
LINE
  5
1FF
  8
0
  6
CONTINUOUS
 62
     3
 10
-67.999991
 20
-81.494845
 30
0.0
 11
-57.999991
 21
-81.494845
 31
0.0
  0
LINE
  5
200
  8
0
  6
CONTINUOUS
 62
     3
 10
-67.999991
 20
-97.494845
 30
0.0
 11
-57.999991
 21
-97.494845
 31
0.0
  0
LINE
  5
201
  8
0
  6
CENTER
 62
     4
 10
-75.000009
 20
-89.494845
 30
0.0
 11
-51.757819
 21
-89.494845
 31
0.0
  0
LINE
  5
202
  8
0
  6
CONTINUOUS
 62
     3
 10
-67.999991
 20
71.5
 30
0.0
 11
-67.999991
 21
55.5
 31
0.0
  0
LINE
  5
203
  8
0
  6
CONTINUOUS
 62
     3
 10
-57.999991
 20
54.3
 30
0.0
 11
-55.499991
 21
54.3
 31
0.0
  0
LINE
  5
204
  8
0
  6
CONTINUOUS
 62
     3
 10
-57.999991
 20
72.7
 30
0.0
 11
-57.999991
 21
54.3
 31
0.0
  0
LINE
  5
205
  8
0
  6
CONTINUOUS
 62
     3
 10
-57.999991
 20
72.7
 30
0.0
 11
-55.499991
 21
72.7
 31
0.0
  0
LINE
  5
206
  8
0
  6
CONTINUOUS
 62
     3
 10
-67.999991
 20
71.5
 30
0.0
 11
-57.999991
 21
71.5
 31
0.0
  0
LINE
  5
207
  8
0
  6
CONTINUOUS
 62
     3
 10
-67.999991
 20
55.5
 30
0.0
 11
-57.999991
 21
55.5
 31
0.0
  0
LINE
  5
208
  8
0
  6
CENTER
 62
     4
 10
-75.000009
 20
63.5
 30
0.0
 11
-51.757819
 21
63.5
 31
0.0
  0
LINE
  5
209
  8
0
  6
CONTINUOUS
 62
     3
 10
-67.999991
 20
112.494845
 30
0.0
 11
-67.999991
 21
96.494845
 31
0.0
  0
LINE
  5
20A
  8
0
  6
CONTINUOUS
 62
     3
 10
-57.999991
 20
95.294845
 30
0.0
 11
-55.499991
 21
95.294845
 31
0.0
  0
LINE
  5
20B
  8
0
  6
CONTINUOUS
 62
     3
 10
-57.999991
 20
113.694845
 30
0.0
 11
-57.999991
 21
95.294845
 31
0.0
  0
LINE
  5
20C
  8
0
  6
CONTINUOUS
 62
     3
 10
-57.999991
 20
113.694845
 30
0.0
 11
-55.499991
 21
113.694845
 31
0.0
  0
LINE
  5
20D
  8
0
  6
CONTINUOUS
 62
     3
 10
-67.999991
 20
112.494845
 30
0.0
 11
-57.999991
 21
112.494845
 31
0.0
  0
LINE
  5
20E
  8
0
  6
CONTINUOUS
 62
     3
 10
-67.999991
 20
96.494845
 30
0.0
 11
-57.999991
 21
96.494845
 31
0.0
  0
ARC
  5
20F
  8
0
  6
CENTER
 62
     4
 10
-256.000009
 20
4.901924
 30
0.0
 40
115.0
 50
114.537532
 51
125.088017
  0
LINE
  5
210
  8
0
  6
CONTINUOUS
 62
     3
 10
-310.035907
 20
104.494845
 30
0.0
 11
-311.767958
 21
107.494845
 31
0.0
  0
LINE
  5
211
  8
0
  6
CONTINUOUS
 62
     3
 10
-316.96411
 20
104.494845
 30
0.0
 11
-315.232059
 21
101.494845
 31
0.0
  0
LINE
  5
212
  8
0
  6
CONTINUOUS
 62
     3
 10
-311.767958
 20
107.494845
 30
0.0
 11
-315.232059
 21
107.494845
 31
0.0
  0
LINE
  5
213
  8
0
  6
CONTINUOUS
 62
     3
 10
-315.232059
 20
101.494845
 30
0.0
 11
-311.767958
 21
101.494845
 31
0.0
  0
LINE
  5
214
  8
0
  6
CONTINUOUS
 62
     3
 10
-315.232059
 20
107.494845
 30
0.0
 11
-316.96411
 21
104.494845
 31
0.0
  0
LINE
  5
215
  8
0
  6
CONTINUOUS
 62
     3
 10
-311.767958
 20
101.494845
 30
0.0
 11
-310.035907
 21
104.494845
 31
0.0
  0
LINE
  5
216
  8
0
  6
CENTER
 62
     4
 10
-308.486278
 20
95.810809
 30
0.0
 11
-318.418327
 21
113.013622
 31
0.0
  0
CIRCLE
  5
217
  8
0
  6
CONTINUOUS
 62
     3
 10
-313.452302
 20
104.412216
 30
0.0
 40
8.0
  0
CIRCLE
  5
218
  8
0
  6
CONTINUOUS
 62
     3
 10
-313.452302
 20
104.412216
 30
0.0
 40
9.2
  0
ARC
  5
219
  8
0
  6
CENTER
 62
     4
 10
-260.098085
 20
6.0
 30
0.0
 40
115.0
 50
24.537532
 51
35.088017
  0
LINE
  5
21A
  8
0
  6
CONTINUOUS
 62
     3
 10
-160.505163
 20
60.035898
 30
0.0
 11
-157.505163
 21
61.767949
 31
0.0
  0
LINE
  5
21B
  8
0
  6
CONTINUOUS
 62
     3
 10
-160.505163
 20
66.964102
 30
0.0
 11
-163.505163
 21
65.232051
 31
0.0
  0
LINE
  5
21C
  8
0
  6
CONTINUOUS
 62
     3
 10
-157.505163
 20
61.767949
 30
0.0
 11
-157.505163
 21
65.232051
 31
0.0
  0
LINE
  5
21D
  8
0
  6
CONTINUOUS
 62
     3
 10
-163.505163
 20
65.232051
 30
0.0
 11
-163.505163
 21
61.767949
 31
0.0
  0
LINE
  5
21E
  8
0
  6
CONTINUOUS
 62
     3
 10
-157.505163
 20
65.232051
 30
0.0
 11
-160.505163
 21
66.964102
 31
0.0
  0
LINE
  5
21F
  8
0
  6
CONTINUOUS
 62
     3
 10
-163.505163
 20
61.767949
 30
0.0
 11
-160.505163
 21
60.035898
 31
0.0
  0
LINE
  5
220
  8
0
  6
CENTER
 62
     4
 10
-169.189199
 20
58.486269
 30
0.0
 11
-151.986386
 21
68.418318
 31
0.0
  0
CIRCLE
  5
221
  8
0
  6
CONTINUOUS
 62
     3
 10
-160.587793
 20
63.452294
 30
0.0
 40
8.0
  0
CIRCLE
  5
222
  8
0
  6
CONTINUOUS
 62
     3
 10
-160.587793
 20
63.452294
 30
0.0
 40
9.2
  0
ARC
  5
223
  8
0
  6
DASHDOT
 62
     4
 10
-259.000009
 20
10.098076
 30
0.0
 40
115.0
 50
294.537532
 51
305.088017
  0
LINE
  5
224
  8
0
  6
CONTINUOUS
 62
     3
 10
-204.96411
 20
-89.494845
 30
0.0
 11
-203.232059
 21
-92.494845
 31
0.0
  0
LINE
  5
225
  8
0
  6
CONTINUOUS
 62
     3
 10
-198.035907
 20
-89.494845
 30
0.0
 11
-199.767958
 21
-86.494845
 31
0.0
  0
LINE
  5
226
  8
0
  6
CONTINUOUS
 62
     3
 10
-203.232059
 20
-92.494845
 30
0.0
 11
-199.767958
 21
-92.494845
 31
0.0
  0
LINE
  5
227
  8
0
  6
CONTINUOUS
 62
     3
 10
-199.767958
 20
-86.494845
 30
0.0
 11
-203.232059
 21
-86.494845
 31
0.0
  0
LINE
  5
228
  8
0
  6
CONTINUOUS
 62
     3
 10
-199.767958
 20
-92.494845
 30
0.0
 11
-198.035907
 21
-89.494845
 31
0.0
  0
LINE
  5
229
  8
0
  6
CONTINUOUS
 62
     3
 10
-203.232059
 20
-86.494845
 30
0.0
 11
-204.96411
 21
-89.494845
 31
0.0
  0
LINE
  5
22A
  8
0
  6
DASHDOT
 62
     4
 10
-206.513739
 20
-80.810809
 30
0.0
 11
-196.58169
 21
-98.013622
 31
0.0
  0
CIRCLE
  5
22B
  8
0
  6
CONTINUOUS
 62
     3
 10
-201.547715
 20
-89.412216
 30
0.0
 40
8.0
  0
CIRCLE
  5
22C
  8
0
  6
CONTINUOUS
 62
     3
 10
-201.547715
 20
-89.412216
 30
0.0
 40
9.2
  0
ARC
  5
22D
  8
0
  6
DASHDOT
 62
     4
 10
-254.901932
 20
9.0
 30
0.0
 40
115.0
 50
204.537532
 51
215.088017
  0
LINE
  5
22E
  8
0
  6
CONTINUOUS
 62
     3
 10
-354.494854
 20
-45.035898
 30
0.0
 11
-357.494854
 21
-46.767949
 31
0.0
  0
LINE
  5
22F
  8
0
  6
CONTINUOUS
 62
     3
 10
-354.494854
 20
-51.964102
 30
0.0
 11
-351.494854
 21
-50.232051
 31
0.0
  0
LINE
  5
230
  8
0
  6
CONTINUOUS
 62
     3
 10
-357.494854
 20
-46.767949
 30
0.0
 11
-357.494854
 21
-50.232051
 31
0.0
  0
LINE
  5
231
  8
0
  6
CONTINUOUS
 62
     3
 10
-351.494854
 20
-50.232051
 30
0.0
 11
-351.494854
 21
-46.767949
 31
0.0
  0
LINE
  5
232
  8
0
  6
CONTINUOUS
 62
     3
 10
-357.494854
 20
-50.232051
 30
0.0
 11
-354.494854
 21
-51.964102
 31
0.0
  0
LINE
  5
233
  8
0
  6
CONTINUOUS
 62
     3
 10
-351.494854
 20
-46.767949
 30
0.0
 11
-354.494854
 21
-45.035898
 31
0.0
  0
LINE
  5
234
  8
0
  6
DASHDOT
 62
     4
 10
-345.810818
 20
-43.486269
 30
0.0
 11
-363.013631
 21
-53.418318
 31
0.0
  0
CIRCLE
  5
235
  8
0
  6
CONTINUOUS
 62
     3
 10
-354.412224
 20
-48.452294
 30
0.0
 40
9.2
  0
CIRCLE
  5
236
  8
0
  6
CONTINUOUS
 62
     3
 10
-354.412224
 20
-48.452294
 30
0.0
 40
8.0
  0
ARC
  5
237
  8
0
  6
CENTER
 62
     4
 10
262.499991
 20
7.5
 30
0.0
 40
112.0
 50
144.225592
 51
155.79793
  0
LINE
  5
238
  8
0
  6
CENTER
 62
     4
 10
174.189182
 20
58.486269
 30
0.0
 11
156.986369
 21
68.418318
 31
0.0
  0
LINE
  5
239
  8
0
  6
CONTINUOUS
 62
     3
 10
23.000009
 20
-70.762379
 30
0.0
 11
7.000009
 21
-70.762379
 31
0.0
  0
LINE
  5
23A
  8
0
  6
CONTINUOUS
 62
     3
 10
23.000009
 20
85.762379
 30
0.0
 11
7.000009
 21
85.762379
 31
0.0
  0
ARC
  5
24F
  8
0
  6
CONTINUOUS
 62
     3
 10
239.999991
 20
-130.5
 30
0.0
 40
1.0
 50
180.0
 51
270.0
  0
ARC
  5
250
  8
0
  6
CONTINUOUS
 62
     3
 10
284.999991
 20
-130.5
 30
0.0
 40
1.0
 50
270.0
 51
0.0
  0
LINE
  5
251
  8
0
  6
CONTINUOUS
 62
     3
 10
238.999991
 20
-130.5
 30
0.0
 11
238.999991
 21
-102.5
 31
0.0
  0
LINE
  5
252
  8
0
  6
CONTINUOUS
 62
     3
 10
285.999991
 20
-130.5
 30
0.0
 11
285.999991
 21
-102.5
 31
0.0
  0
CIRCLE
  5
257
  8
0
  6
CONTINUOUS
 62
     4
 10
338.59517
 20
-91.669168
 30
0.0
 40
4.0
  0
CIRCLE
  5
258
  8
0
  6
CONTINUOUS
 62
     4
 10
338.59517
 20
-91.669168
 30
0.0
 40
3.35
  0
ARC
  5
259
  8
0
  6
CENTER
 62
     4
 10
262.499991
 20
7.5
 30
0.0
 40
125.0
 50
303.690068
 51
310.971736
  0
LINE
  5
25A
  8
0
  6
CENTER
 62
     4
 10
333.115394
 20
-84.527785
 30
0.0
 11
342.858336
 21
-97.225033
 31
0.0
  0
CIRCLE
  5
25B
  8
0
  6
CONTINUOUS
 62
     4
 10
186.404813
 20
106.669168
 30
0.0
 40
3.35
  0
CIRCLE
  5
25C
  8
0
  6
CONTINUOUS
 62
     4
 10
186.404813
 20
106.669168
 30
0.0
 40
4.0
  0
ARC
  5
25D
  8
0
  6
CENTER
 62
     4
 10
262.499991
 20
7.5
 30
0.0
 40
125.0
 50
123.690068
 51
130.971736
  0
LINE
  5
25E
  8
0
  6
CENTER
 62
     4
 10
191.884589
 20
99.527785
 30
0.0
 11
182.141647
 21
112.225033
 31
0.0
  0
ARC
  5
25F
  8
0
  6
CENTER
 62
     4
 10
-257.500009
 20
7.5
 30
0.0
 40
125.0
 50
49.028264
 51
56.309932
  0
LINE
  5
260
  8
0
  6
CENTER
 62
     4
 10
-186.884606
 20
99.527785
 30
0.0
 11
-177.141664
 21
112.225033
 31
0.0
  0
CIRCLE
  5
261
  8
0
  6
CONTINUOUS
 62
     4
 10
-333.595187
 20
-91.669168
 30
0.0
 40
3.35
  0
CIRCLE
  5
262
  8
0
  6
CONTINUOUS
 62
     4
 10
-333.595187
 20
-91.669168
 30
0.0
 40
4.0
  0
CIRCLE
  5
263
  8
0
  6
CONTINUOUS
 62
     4
 10
-181.40483
 20
106.669168
 30
0.0
 40
4.0
  0
CIRCLE
  5
264
  8
0
  6
CONTINUOUS
 62
     4
 10
-181.40483
 20
106.669168
 30
0.0
 40
3.35
  0
LINE
  5
265
  8
0
  6
DASHDOT
 62
     4
 10
-328.115411
 20
-84.527785
 30
0.0
 11
-337.858353
 21
-97.225033
 31
0.0
  0
ARC
  5
266
  8
0
  6
DASHDOT
 62
     4
 10
-257.500009
 20
7.5
 30
0.0
 40
125.0
 50
229.028264
 51
236.309932
  0
LINE
  5
26A
  8
0
  6
CONTINUOUS
 62
     3
 10
-60.699991
 20
-73.0
 30
0.0
 11
-61.699991
 21
-74.0
 31
0.0
  0
LINE
  5
26C
  8
0
  6
CENTER
 62
     4
 10
-70.369958
 20
37.113352
 30
0.0
 11
-60.930572
 21
37.113352
 31
0.0
  0
LINE
  5
26D
  8
0
  6
CENTER
 62
     4
 10
-69.299489
 20
-27.684427
 30
0.0
 11
-61.488565
 21
-27.684427
 31
0.0
  0
LINE
  5
26E
  8
0
  6
CONTINUOUS
 62
     3
 10
-67.499991
 20
-30.934427
 30
0.0
 11
-67.499991
 21
-27.159225
 31
0.0
  0
LINE
  5
26F
  8
0
  6
CONTINUOUS
 62
     3
 10
-63.499991
 20
-31.534427
 30
0.0
 11
-63.499991
 21
-27.159225
 31
0.0
  0
LINE
  5
270
  8
0
  6
CONTINUOUS
 62
     3
 10
-63.499991
 20
-30.934427
 30
0.0
 11
-67.499991
 21
-30.934427
 31
0.0
  0
LINE
  5
271
  8
0
  6
CONTINUOUS
 62
     3
 10
-63.499991
 20
-31.534427
 30
0.0
 11
-62.499991
 21
-31.534427
 31
0.0
  0
LINE
  5
272
  8
0
  6
CONTINUOUS
 62
     3
 10
-67.499991
 20
36.480386
 30
0.0
 11
-67.499991
 21
40.363352
 31
0.0
  0
LINE
  5
273
  8
0
  6
CONTINUOUS
 62
     3
 10
-63.499991
 20
36.480386
 30
0.0
 11
-63.499991
 21
40.963352
 31
0.0
  0
LINE
  5
274
  8
0
  6
CONTINUOUS
 62
     3
 10
-67.499991
 20
40.363352
 30
0.0
 11
-63.499991
 21
40.363352
 31
0.0
  0
LINE
  5
275
  8
0
  6
CONTINUOUS
 62
     3
 10
-62.499991
 20
40.963352
 30
0.0
 11
-63.499991
 21
40.963352
 31
0.0
  0
LINE
  5
276
  8
0
  6
CONTINUOUS
 62
     3
 10
-61.699991
 20
-74.0
 30
0.0
 11
-61.699991
 21
-57.7
 31
0.0
  0
LINE
  5
277
  8
0
  6
CONTINUOUS
 62
     3
 10
-60.699991
 20
-73.0
 30
0.0
 11
-60.699991
 21
-54.7
 31
0.0
  0
LINE
  5
278
  8
0
  6
CONTINUOUS
 62
     3
 10
-55.999991
 20
-51.5
 30
0.0
 11
-55.999991
 21
-35.0
 31
0.0
  0
LINE
  5
279
  8
0
  6
CONTINUOUS
 62
     3
 10
-62.499991
 20
-35.0
 30
0.0
 11
-55.499991
 21
-35.0
 31
0.0
  0
LINE
  5
27A
  8
0
  6
CONTINUOUS
 62
     3
 10
-94.999991
 20
-50.5
 30
0.0
 11
-55.999991
 21
-50.5
 31
0.0
  0
LINE
  5
27B
  8
0
  6
CONTINUOUS
 62
     3
 10
-90.299991
 20
-57.7
 30
0.0
 11
-60.699991
 21
-57.7
 31
0.0
  0
LINE
  5
27C
  8
0
  6
CONTINUOUS
 62
     3
 10
-94.549991
 20
-54.7
 30
0.0
 11
-94.549991
 21
-50.5
 31
0.0
  0
LINE
  5
27D
  8
0
  6
CONTINUOUS
 62
     3
 10
-56.449991
 20
-54.7
 30
0.0
 11
-56.449991
 21
-51.5
 31
0.0
  0
LINE
  5
27E
  8
0
  6
CONTINUOUS
 62
     3
 10
-94.549991
 20
-51.5
 30
0.0
 11
-55.999991
 21
-51.5
 31
0.0
  0
LINE
  5
27F
  8
0
  6
CONTINUOUS
 62
     3
 10
-94.549991
 20
-54.7
 30
0.0
 11
-56.449991
 21
-54.7
 31
0.0
  0
LINE
  5
280
  8
0
  6
CONTINUOUS
 62
     3
 10
-89.299991
 20
-74.0
 30
0.0
 11
-89.299991
 21
-57.7
 31
0.0
  0
LINE
  5
281
  8
0
  6
CONTINUOUS
 62
     3
 10
-90.299991
 20
-73.0
 30
0.0
 11
-60.699991
 21
-73.0
 31
0.0
  0
LINE
  5
282
  8
0
  6
CONTINUOUS
 62
     3
 10
-90.299991
 20
-73.0
 30
0.0
 11
-89.299991
 21
-74.0
 31
0.0
  0
LINE
  5
283
  8
0
  6
CONTINUOUS
 62
     3
 10
-90.299991
 20
-73.0
 30
0.0
 11
-90.299991
 21
-54.7
 31
0.0
  0
LINE
  5
284
  8
0
  6
CONTINUOUS
 62
     3
 10
-68.499991
 20
-35.0
 30
0.0
 11
-62.499991
 21
-35.0
 31
0.0
  0
LINE
  5
285
  8
0
  6
CENTER
 62
     4
 10
-75.499991
 20
-80.342752
 30
0.0
 11
-75.499991
 21
-47.04081
 31
0.0
  0
LINE
  5
286
  8
0
  6
CONTINUOUS
 62
     3
 10
-94.999991
 20
-25.98497
 30
0.0
 11
-93.499991
 21
-26.847388
 31
0.0
  0
LINE
  5
287
  8
0
  6
CONTINUOUS
 62
     3
 10
-93.499991
 20
-26.847388
 30
0.0
 11
-68.499991
 21
-26.847388
 31
0.0
  0
LINE
  5
288
  8
0
  6
CONTINUOUS
 62
     3
 10
-68.499991
 20
-20.00347
 30
0.0
 11
-55.499991
 21
-20.00347
 31
0.0
  0
LINE
  5
289
  8
0
  6
CONTINUOUS
 62
     3
 10
-68.499991
 20
-27.159225
 30
0.0
 11
-62.499991
 21
-27.159225
 31
0.0
  0
LINE
  5
28A
  8
0
  6
CONTINUOUS
 62
     3
 10
-68.499991
 20
-33.523186
 30
0.0
 11
-62.499991
 21
-33.523186
 31
0.0
  0
LINE
  5
28B
  8
0
  6
CONTINUOUS
 62
     3
 10
-62.499991
 20
-35.0
 30
0.0
 11
-62.499991
 21
50.0
 31
0.0
  0
LINE
  5
28C
  8
0
  6
CONTINUOUS
 62
     3
 10
-94.999991
 20
-50.5
 30
0.0
 11
-94.999991
 21
37.5
 31
0.0
  0
LINE
  5
28D
  8
0
  6
CONTINUOUS
 62
     3
 10
-68.499991
 20
47.5
 30
0.0
 11
-68.499991
 21
50.0
 31
0.0
  0
LINE
  5
28E
  8
0
  6
CONTINUOUS
 62
     3
 10
-68.499991
 20
-35.0
 30
0.0
 11
-68.499991
 21
50.0
 31
0.0
  0
ARC
  5
28F
  8
0
  6
CONTINUOUS
 62
     3
 10
-64.999991
 20
37.5
 30
0.0
 40
30.0
 50
163.606197
 51
180.0
  0
LINE
  5
290
  8
0
  6
CONTINUOUS
 62
     3
 10
-92.855882
 20
46.684284
 30
0.0
 11
-68.499991
 21
47.53481
 31
0.0
  0
ARC
  5
291
  8
0
  6
CONTINUOUS
 62
     3
 10
-92.820982
 20
45.684893
 30
0.0
 40
1.0
 50
92.0
 51
163.606197
  0
LINE
  5
292
  8
0
  6
CONTINUOUS
 62
     3
 10
-93.499991
 20
-50.5
 30
0.0
 11
-93.499991
 21
37.5
 31
0.0
  0
LINE
  5
293
  8
0
  6
CONTINUOUS
 62
     3
 10
-93.499991
 20
-50.5
 30
0.0
 11
-93.499991
 21
46.419023
 31
0.0
  0
LINE
  5
294
  8
0
  6
CONTINUOUS
 62
     3
 10
-68.499991
 20
35.003673
 30
0.0
 11
-55.499991
 21
35.003673
 31
0.0
  0
LINE
  5
295
  8
0
  6
CONTINUOUS
 62
     3
 10
-68.499991
 20
36.480386
 30
0.0
 11
-62.499991
 21
36.480386
 31
0.0
  0
LINE
  5
296
  8
0
  6
CONTINUOUS
 62
     3
 10
-68.499991
 20
42.844347
 30
0.0
 11
-62.499991
 21
42.844347
 31
0.0
  0
LINE
  5
297
  8
0
  6
CONTINUOUS
 62
     3
 10
-55.499991
 20
30.5
 30
0.0
 11
-55.499991
 21
95.5
 31
0.0
  0
LINE
  5
298
  8
0
  6
CONTINUOUS
 62
     3
 10
-68.499991
 20
50.0
 30
0.0
 11
-55.499991
 21
50.0
 31
0.0
  0
LINE
  5
299
  8
0
  6
CONTINUOUS
 62
     3
 10
-55.499991
 20
-57.5
 30
0.0
 11
-55.499991
 21
72.5
 31
0.0
  0
LINE
  5
29A
  8
0
  6
CONTINUOUS
 62
     3
 10
-55.499991
 20
-57.5
 30
0.0
 11
-55.499991
 21
72.5
 31
0.0
  0
LINE
  5
29B
  8
0
  6
CONTINUOUS
 62
     3
 10
7.000009
 20
-102.5
 30
0.0
 11
7.000009
 21
117.5
 31
0.0
  0
LINE
  5
29C
  8
0
  6
CONTINUOUS
 62
     3
 10
-44.999991
 20
-102.5
 30
0.0
 11
-44.999991
 21
117.5
 31
0.0
  0
ARC
  5
29E
  8
0
  6
CONTINUOUS
 62
     3
 10
-42.000009
 20
-130.5
 30
0.0
 40
1.0
 50
180.0
 51
270.0
  0
ARC
  5
29F
  8
0
  6
CONTINUOUS
 62
     3
 10
2.999991
 20
-130.5
 30
0.0
 40
1.0
 50
270.0
 51
0.0
  0
LINE
  5
2A0
  8
0
  6
CONTINUOUS
 62
     3
 10
3.999991
 20
-130.5
 30
0.0
 11
3.999991
 21
-102.5
 31
0.0
  0
ARC
  5
2A2
  8
0
  6
CENTER
 62
     4
 10
-257.500009
 20
7.597883
 30
0.0
 40
46.0
 50
35.51609
 51
44.041327
  0
LINE
  5
2A3
  8
0
  6
CENTER
 62
     4
 10
-225.969915
 20
33.956991
 30
0.0
 11
-219.834045
 21
39.105598
 31
0.0
  0
LINE
  5
2A5
  8
0
  6
CONTINUOUS
 62
     3
 10
-224.701677
 20
-24.61331
 30
0.0
 11
-222.155763
 21
-27.159225
 31
0.0
  0
LINE
  5
2A6
  8
0
  6
CONTINUOUS
 62
     3
 10
-225.386597
 20
40.298432
 30
0.0
 11
-222.840683
 21
42.844347
 31
0.0
  0
LINE
  5
2A7
  8
0
  6
CONTINUOUS
 62
     3
 10
-219.022636
 20
33.934471
 30
0.0
 11
-216.476722
 21
36.480386
 31
0.0
  0
ARC
  5
2A8
  8
0
  6
CONTINUOUS
 62
     3
 10
-222.204616
 20
37.116452
 30
0.0
 40
4.5
 50
135.0
 51
315.0
  0
LINE
  5
2A9
  8
0
  6
CONTINUOUS
 62
     3
 10
-215.000009
 20
-20.00347
 30
0.0
 11
-215.000009
 21
35.003673
 31
0.0
  0
LINE
  5
2AA
  8
0
  6
CONTINUOUS
 62
     3
 10
-226.759868
 20
-28.909172
 30
0.0
 11
-226.31158
 21
-27.236139
 31
0.0
  0
LINE
  5
2AB
  8
0
  6
CONTINUOUS
 62
     3
 10
-220.544727
 20
37.56164
 30
0.0
 11
-221.769472
 21
38.786385
 31
0.0
  0
LINE
  5
2AC
  8
0
  6
CONTINUOUS
 62
     3
 10
-221.769472
 20
38.786385
 30
0.0
 11
-223.442505
 21
38.338097
 31
0.0
  0
LINE
  5
2AD
  8
0
  6
CONTINUOUS
 62
     3
 10
-223.442505
 20
38.338097
 30
0.0
 11
-223.890792
 21
36.665065
 31
0.0
  0
LINE
  5
2AE
  8
0
  6
CONTINUOUS
 62
     3
 10
-223.890792
 20
36.665065
 30
0.0
 11
-222.666048
 21
35.44032
 31
0.0
  0
LINE
  5
2AF
  8
0
  6
CONTINUOUS
 62
     3
 10
-222.666048
 20
35.44032
 30
0.0
 11
-220.993015
 21
35.888607
 31
0.0
  0
CIRCLE
  5
2B0
  8
0
  6
CONTINUOUS
 62
     3
 10
-222.21776
 20
37.113352
 30
0.0
 40
3.25
  0
CIRCLE
  5
2B1
  8
0
  6
CONTINUOUS
 62
     3
 10
-222.21776
 20
37.113352
 30
0.0
 40
3.85
  0
LINE
  5
2B2
  8
0
  6
CONTINUOUS
 62
     3
 10
-220.993015
 20
35.888607
 30
0.0
 11
-220.544727
 21
37.56164
 31
0.0
  0
LINE
  5
2B3
  8
0
  6
CENTER
 62
     4
 10
-272.200009
 20
-40.293344
 30
0.0
 11
-272.200009
 21
-35.101341
 31
0.0
  0
LINE
  5
2B4
  8
0
  6
CENTER
 62
     4
 10
-274.730854
 20
-38.009348
 30
0.0
 11
-270.018318
 21
-38.009348
 31
0.0
  0
LINE
  5
2B5
  8
0
  6
CENTER
 62
     4
 10
-242.800009
 20
-40.293344
 30
0.0
 11
-242.800009
 21
-35.293128
 31
0.0
  0
LINE
  5
2B6
  8
0
  6
CENTER
 62
     4
 10
-245.387482
 20
-38.009348
 30
0.0
 11
-240.48316
 21
-38.009348
 31
0.0
  0
LINE
  5
2B7
  8
0
  6
CONTINUOUS
 62
     3
 10
-276.550009
 20
-54.309348
 30
0.0
 11
-276.550009
 21
-50.509348
 31
0.0
  0
LINE
  5
2B8
  8
0
  6
CONTINUOUS
 62
     3
 10
-238.450009
 20
-54.309348
 30
0.0
 11
-238.450009
 21
-50.509348
 31
0.0
  0
LINE
  5
2B9
  8
0
  6
CONTINUOUS
 62
     3
 10
-272.300009
 20
-72.609348
 30
0.0
 11
-272.300009
 21
-54.309348
 31
0.0
  0
LINE
  5
2BA
  8
0
  6
CONTINUOUS
 62
     3
 10
-242.700009
 20
-72.609348
 30
0.0
 11
-242.700009
 21
-54.309348
 31
0.0
  0
LINE
  5
2BB
  8
0
  6
CONTINUOUS
 62
     3
 10
-243.700009
 20
-73.609348
 30
0.0
 11
-243.700009
 21
-57.309348
 31
0.0
  0
LINE
  5
2BC
  8
0
  6
CONTINUOUS
 62
     3
 10
-271.300009
 20
-73.609348
 30
0.0
 11
-271.300009
 21
-57.309348
 31
0.0
  0
LINE
  5
2BD
  8
0
  6
CONTINUOUS
 62
     3
 10
-272.300009
 20
-57.309348
 30
0.0
 11
-242.700009
 21
-57.309348
 31
0.0
  0
LINE
  5
2BE
  8
0
  6
CONTINUOUS
 62
     3
 10
-271.300009
 20
-73.609348
 30
0.0
 11
-243.700009
 21
-73.609348
 31
0.0
  0
LINE
  5
2BF
  8
0
  6
CONTINUOUS
 62
     3
 10
-272.300009
 20
-72.609348
 30
0.0
 11
-271.300009
 21
-73.609348
 31
0.0
  0
LINE
  5
2C0
  8
0
  6
CONTINUOUS
 62
     3
 10
-243.700009
 20
-73.609348
 30
0.0
 11
-242.700009
 21
-72.609348
 31
0.0
  0
LINE
  5
2C1
  8
0
  6
CONTINUOUS
 62
     3
 10
-272.300009
 20
-72.609348
 30
0.0
 11
-271.300009
 21
-72.609348
 31
0.0
  0
LINE
  5
2C2
  8
0
  6
CONTINUOUS
 62
     3
 10
-271.300009
 20
-72.609348
 30
0.0
 11
-242.700009
 21
-72.609348
 31
0.0
  0
LINE
  5
2C3
  8
0
  6
CONTINUOUS
 62
     3
 10
-276.500009
 20
-54.309348
 30
0.0
 11
-238.500009
 21
-54.309348
 31
0.0
  0
LINE
  5
2C4
  8
0
  6
CONTINUOUS
 62
     3
 10
-276.500009
 20
-51.509348
 30
0.0
 11
-238.500009
 21
-51.509348
 31
0.0
  0
LINE
  5
2C6
  8
0
  6
CENTER
 62
     4
 10
-290.250858
 20
-19.990574
 30
0.0
 11
-295.156708
 21
-24.107071
 31
0.0
  0
ARC
  5
2C8
  8
0
  6
CENTER
 62
     4
 10
-257.500009
 20
7.597883
 30
0.0
 40
46.0
 50
125.462396
 51
134.054062
  0
LINE
  5
2C9
  8
0
  6
CENTER
 62
     4
 10
-283.956898
 20
39.030195
 30
0.0
 11
-289.105505
 21
45.166065
 31
0.0
  0
ARC
  5
2CA
  8
0
  6
CENTER
 62
     4
 10
-257.59779
 20
7.500101
 30
0.0
 40
46.0
 50
215.462396
 51
224.054062
  0
LINE
  5
2CB
  8
0
  6
CENTER
 62
     4
 10
-229.980778
 20
-25.286591
 30
0.0
 11
-225.807471
 21
-30.260144
 31
0.0
  0
LINE
  5
2CC
  8
0
  6
CONTINUOUS
 62
     3
 10
-230.690806
 20
50.009551
 30
0.0
 11
-230.671907
 21
49.990652
 31
0.0
  0
ARC
  5
2CD
  8
0
  6
CONTINUOUS
 62
     3
 10
-287.116359
 20
42.795493
 30
0.0
 40
4.5
 50
225.0
 51
45.0
  0
LINE
  5
2CE
  8
0
  6
CONTINUOUS
 62
     3
 10
-283.934379
 20
45.977474
 30
0.0
 11
-286.480293
 21
48.523388
 31
0.0
  0
LINE
  5
2CF
  8
0
  6
CONTINUOUS
 62
     3
 10
-290.29834
 20
39.613513
 30
0.0
 11
-292.844254
 21
42.159427
 31
0.0
  0
LINE
  5
2D0
  8
0
  6
CONTINUOUS
 62
     3
 10
-289.61342
 20
-25.29823
 30
0.0
 11
-292.159334
 21
-27.844144
 31
0.0
  0
LINE
  5
2D1
  8
0
  6
CONTINUOUS
 62
     3
 10
-295.977381
 20
-18.934269
 30
0.0
 11
-298.523296
 21
-21.480183
 31
0.0
  0
ARC
  5
2D2
  8
0
  6
CONTINUOUS
 62
     3
 10
-292.795401
 20
-22.116249
 30
0.0
 40
4.5
 50
315.0
 51
135.0
  0
LINE
  5
2D3
  8
0
  6
CONTINUOUS
 62
     3
 10
-231.065638
 20
-30.977271
 30
0.0
 11
-228.519724
 21
-33.523186
 31
0.0
  0
ARC
  5
2D4
  8
0
  6
CONTINUOUS
 62
     3
 10
-227.883658
 20
-27.795291
 30
0.0
 40
4.5
 50
45.0
 51
225.0
  0
LINE
  5
2D5
  8
0
  6
CONTINUOUS
 62
     3
 10
-285.013029
 20
49.990652
 30
0.0
 11
-229.986988
 21
49.990652
 31
0.0
  0
LINE
  5
2D6
  8
0
  6
CONTINUOUS
 62
     3
 10
-300.000009
 20
35.003673
 30
0.0
 11
-285.013029
 21
49.990652
 31
0.0
  0
LINE
  5
2D7
  8
0
  6
CONTINUOUS
 62
     3
 10
-230.005887
 20
-35.009348
 30
0.0
 11
-215.000009
 21
-20.00347
 31
0.0
  0
LINE
  5
2D8
  8
0
  6
CONTINUOUS
 62
     3
 10
-229.986988
 20
49.990652
 30
0.0
 11
-215.000009
 21
35.003673
 31
0.0
  0
LINE
  5
2D9
  8
0
  6
CONTINUOUS
 62
     3
 10
-300.000009
 20
-20.00347
 30
0.0
 11
-292.159334
 21
-27.844144
 31
0.0
  0
LINE
  5
2DA
  8
0
  6
CONTINUOUS
 62
     3
 10
-292.159334
 20
-27.844144
 30
0.0
 11
-284.99413
 21
-35.009348
 31
0.0
  0
LINE
  5
2DB
  8
0
  6
CONTINUOUS
 62
     3
 10
-300.000009
 20
-20.00347
 30
0.0
 11
-300.000009
 21
35.003673
 31
0.0
  0
LINE
  5
2DC
  8
0
  6
CONTINUOUS
 62
     3
 10
-278.000009
 20
-50.509348
 30
0.0
 11
-237.000009
 21
-50.509348
 31
0.0
  0
LINE
  5
2DD
  8
0
  6
CONTINUOUS
 62
     3
 10
-237.000009
 20
-50.509348
 30
0.0
 11
-237.000009
 21
-35.009348
 31
0.0
  0
LINE
  5
2DE
  8
0
  6
CONTINUOUS
 62
     3
 10
-238.500009
 20
-50.509348
 30
0.0
 11
-238.500009
 21
-35.009348
 31
0.0
  0
LINE
  5
2DF
  8
0
  6
CONTINUOUS
 62
     3
 10
-276.500009
 20
-50.509348
 30
0.0
 11
-276.500009
 21
-35.009348
 31
0.0
  0
LINE
  5
2E0
  8
0
  6
CONTINUOUS
 62
     3
 10
-278.000009
 20
-50.509348
 30
0.0
 11
-278.000009
 21
-35.009348
 31
0.0
  0
LINE
  5
2E1
  8
0
  6
CONTINUOUS
 62
     3
 10
-278.000009
 20
-35.009348
 30
0.0
 11
-278.000009
 21
-26.847388
 31
0.0
  0
LINE
  5
2E2
  8
0
  6
CONTINUOUS
 62
     3
 10
-237.000009
 20
-35.009348
 30
0.0
 11
-237.000009
 21
-26.847388
 31
0.0
  0
ARC
  5
2E3
  8
0
  6
CONTINUOUS
 62
     3
 10
-257.500009
 20
7.500101
 30
0.0
 40
40.0
 50
300.830497
 51
239.169503
  0
ARC
  5
2E4
  8
0
  6
CONTINUOUS
 62
     3
 10
-257.500009
 20
7.500101
 30
0.0
 40
38.5
 50
299.571315
 51
240.428685
  0
LINE
  5
2E5
  8
0
  6
CONTINUOUS
 62
     3
 10
-238.500009
 20
-35.009348
 30
0.0
 11
-238.500009
 21
-25.98497
 31
0.0
  0
LINE
  5
2E6
  8
0
  6
CONTINUOUS
 62
     3
 10
-276.500009
 20
-35.009348
 30
0.0
 11
-276.500009
 21
-25.98497
 31
0.0
  0
LINE
  5
2E7
  8
0
  6
CONTINUOUS
 62
     3
 10
-238.500009
 20
-50.509348
 30
0.0
 11
-238.500009
 21
-35.009348
 31
0.0
  0
LINE
  5
2E8
  8
0
  6
CONTINUOUS
 62
     3
 10
-276.500009
 20
-50.509348
 30
0.0
 11
-276.500009
 21
-35.009348
 31
0.0
  0
LINE
  5
2E9
  8
0
  6
CONTINUOUS
 62
     3
 10
-237.000009
 20
-35.009348
 30
0.0
 11
-230.005887
 21
-35.009348
 31
0.0
  0
LINE
  5
2EA
  8
0
  6
CONTINUOUS
 62
     3
 10
-284.99413
 20
-35.009348
 30
0.0
 11
-278.000009
 21
-35.009348
 31
0.0
  0
ARC
  5
2EB
  8
0
  6
CENTER
 62
     4
 10
-257.500009
 20
7.597883
 30
0.0
 40
46.0
 50
305.697212
 51
314.103517
  0
CIRCLE
  5
2EC
  8
0
  6
CONTINUOUS
 62
     3
 10
-272.200009
 20
-38.009348
 30
0.0
 40
2.0
  0
CIRCLE
  5
2ED
  8
0
  6
CONTINUOUS
 62
     3
 10
-242.800009
 20
-38.009348
 30
0.0
 40
2.0
  0
LINE
  5
2EF
  8
0
  6
CONTINUOUS
 62
     3
 10
-226.31158
 20
-27.236139
 30
0.0
 11
-227.536325
 21
-26.011395
 31
0.0
  0
LINE
  5
2F0
  8
0
  6
CONTINUOUS
 62
     3
 10
-227.536325
 20
-26.011395
 30
0.0
 11
-229.209358
 21
-26.459682
 31
0.0
  0
LINE
  5
2F1
  8
0
  6
CONTINUOUS
 62
     3
 10
-229.209358
 20
-26.459682
 30
0.0
 11
-229.657645
 21
-28.132715
 31
0.0
  0
LINE
  5
2F2
  8
0
  6
CONTINUOUS
 62
     3
 10
-229.657645
 20
-28.132715
 30
0.0
 11
-228.4329
 21
-29.35746
 31
0.0
  0
LINE
  5
2F3
  8
0
  6
CONTINUOUS
 62
     3
 10
-228.4329
 20
-29.35746
 30
0.0
 11
-226.759868
 21
-28.909172
 31
0.0
  0
CIRCLE
  5
2F4
  8
0
  6
CONTINUOUS
 62
     3
 10
-227.984613
 20
-27.684427
 30
0.0
 40
3.25
  0
CIRCLE
  5
2F5
  8
0
  6
CONTINUOUS
 62
     3
 10
-227.984613
 20
-27.684427
 30
0.0
 40
3.85
  0
LINE
  5
2F6
  8
0
  6
CONTINUOUS
 62
     3
 10
-291.117707
 20
-21.6735
 30
0.0
 11
-292.342452
 21
-20.448755
 31
0.0
  0
LINE
  5
2F7
  8
0
  6
CONTINUOUS
 62
     3
 10
-292.342452
 20
-20.448755
 30
0.0
 11
-294.015485
 21
-20.897043
 31
0.0
  0
LINE
  5
2F8
  8
0
  6
CONTINUOUS
 62
     3
 10
-294.015485
 20
-20.897043
 30
0.0
 11
-294.463772
 21
-22.570075
 31
0.0
  0
LINE
  5
2F9
  8
0
  6
CONTINUOUS
 62
     3
 10
-294.463772
 20
-22.570075
 30
0.0
 11
-293.239027
 21
-23.79482
 31
0.0
  0
LINE
  5
2FA
  8
0
  6
CONTINUOUS
 62
     3
 10
-293.239027
 20
-23.79482
 30
0.0
 11
-291.565995
 21
-23.346533
 31
0.0
  0
CIRCLE
  5
2FB
  8
0
  6
CONTINUOUS
 62
     3
 10
-292.79074
 20
-22.121788
 30
0.0
 40
3.25
  0
CIRCLE
  5
2FC
  8
0
  6
CONTINUOUS
 62
     3
 10
-292.79074
 20
-22.121788
 30
0.0
 40
3.85
  0
LINE
  5
2FD
  8
0
  6
CONTINUOUS
 62
     3
 10
-291.565995
 20
-23.346533
 30
0.0
 11
-291.117707
 21
-21.6735
 31
0.0
  0
LINE
  5
2FE
  8
0
  6
CONTINUOUS
 62
     3
 10
-285.447974
 20
43.23987
 30
0.0
 11
-286.672719
 21
44.464615
 31
0.0
  0
LINE
  5
2FF
  8
0
  6
CONTINUOUS
 62
     3
 10
-286.672719
 20
44.464615
 30
0.0
 11
-288.345751
 21
44.016327
 31
0.0
  0
LINE
  5
300
  8
0
  6
CONTINUOUS
 62
     3
 10
-288.345751
 20
44.016327
 30
0.0
 11
-288.794039
 21
42.343295
 31
0.0
  0
LINE
  5
301
  8
0
  6
CONTINUOUS
 62
     3
 10
-288.794039
 20
42.343295
 30
0.0
 11
-287.569294
 21
41.11855
 31
0.0
  0
LINE
  5
302
  8
0
  6
CONTINUOUS
 62
     3
 10
-287.569294
 20
41.11855
 30
0.0
 11
-285.896262
 21
41.566838
 31
0.0
  0
CIRCLE
  5
303
  8
0
  6
CONTINUOUS
 62
     3
 10
-287.121006
 20
42.791582
 30
0.0
 40
3.25
  0
CIRCLE
  5
304
  8
0
  6
CONTINUOUS
 62
     3
 10
-287.121006
 20
42.791582
 30
0.0
 40
3.85
  0
LINE
  5
305
  8
0
  6
CONTINUOUS
 62
     3
 10
-285.896262
 20
41.566838
 30
0.0
 11
-285.447974
 21
43.23987
 31
0.0
  0
LINE
  5
306
  8
0
  6
DASHDOT
 62
     4
 10
-257.500009
 20
-55.129647
 30
0.0
 11
-257.500009
 21
-69.487133
 31
0.0
  0
LINE
  5
30F
  8
0
  6
CONTINUOUS
 62
     3
 10
284.699679
 20
-135.25
 30
0.0
 11
284.699679
 21
-131.5
 31
0.0
  0
LINE
  5
310
  8
0
  6
CONTINUOUS
 62
     3
 10
281.549679
 20
-153.88
 30
0.0
 11
281.549679
 21
-135.25
 31
0.0
  0
LINE
  5
311
  8
0
  6
CONTINUOUS
 62
     3
 10
280.699679
 20
-155.88
 30
0.0
 11
280.699679
 21
-140.0
 31
0.0
  0
LINE
  5
312
  8
0
  6
CONTINUOUS
 62
     3
 10
239.999991
 20
-131.5
 30
0.0
 11
284.999991
 21
-131.5
 31
0.0
  0
LINE
  5
313
  8
0
  6
CONTINUOUS
 62
     3
 10
240.299679
 20
-135.25
 30
0.0
 11
284.699679
 21
-135.25
 31
0.0
  0
LINE
  5
314
  8
0
  6
CONTINUOUS
 62
     3
 10
240.299679
 20
-135.25
 30
0.0
 11
240.299679
 21
-131.5
 31
0.0
  0
LINE
  5
315
  8
0
  6
CONTINUOUS
 62
     3
 10
240.299679
 20
-132.5
 30
0.0
 11
284.699679
 21
-132.5
 31
0.0
  0
LINE
  5
316
  8
0
  6
CONTINUOUS
 62
     3
 10
244.299679
 20
-155.88
 30
0.0
 11
280.699679
 21
-155.88
 31
0.0
  0
LINE
  5
317
  8
0
  6
CONTINUOUS
 62
     3
 10
244.299679
 20
-155.88
 30
0.0
 11
244.299679
 21
-140.0
 31
0.0
  0
LINE
  5
318
  8
0
  6
CONTINUOUS
 62
     3
 10
243.449679
 20
-140.0
 30
0.0
 11
281.549679
 21
-140.0
 31
0.0
  0
LINE
  5
319
  8
0
  6
CONTINUOUS
 62
     3
 10
243.449679
 20
-153.88
 30
0.0
 11
243.449679
 21
-135.25
 31
0.0
  0
LINE
  5
31A
  8
0
  6
CONTINUOUS
 62
     3
 10
243.449679
 20
-153.88
 30
0.0
 11
281.549679
 21
-153.88
 31
0.0
  0
LINE
  5
31B
  8
0
  6
CONTINUOUS
 62
     3
 10
-235.300389
 20
-135.25
 30
0.0
 11
-235.300389
 21
-131.5
 31
0.0
  0
LINE
  5
31C
  8
0
  6
CONTINUOUS
 62
     3
 10
-238.450389
 20
-153.88
 30
0.0
 11
-238.450389
 21
-135.25
 31
0.0
  0
LINE
  5
31D
  8
0
  6
CONTINUOUS
 62
     3
 10
-239.300389
 20
-155.88
 30
0.0
 11
-239.300389
 21
-140.0
 31
0.0
  0
LINE
  5
31E
  8
0
  6
CONTINUOUS
 62
     3
 10
-279.700389
 20
-135.25
 30
0.0
 11
-235.300389
 21
-135.25
 31
0.0
  0
LINE
  5
31F
  8
0
  6
CONTINUOUS
 62
     3
 10
-279.700389
 20
-135.25
 30
0.0
 11
-279.700389
 21
-131.5
 31
0.0
  0
LINE
  5
320
  8
0
  6
CONTINUOUS
 62
     3
 10
-279.700389
 20
-132.5
 30
0.0
 11
-235.300389
 21
-132.5
 31
0.0
  0
LINE
  5
321
  8
0
  6
CONTINUOUS
 62
     3
 10
-275.700389
 20
-155.88
 30
0.0
 11
-239.300389
 21
-155.88
 31
0.0
  0
LINE
  5
322
  8
0
  6
CONTINUOUS
 62
     3
 10
-275.700389
 20
-155.88
 30
0.0
 11
-275.700389
 21
-140.0
 31
0.0
  0
LINE
  5
323
  8
0
  6
CONTINUOUS
 62
     3
 10
-276.550389
 20
-140.0
 30
0.0
 11
-238.450389
 21
-140.0
 31
0.0
  0
LINE
  5
324
  8
0
  6
CONTINUOUS
 62
     3
 10
-276.550389
 20
-153.88
 30
0.0
 11
-276.550389
 21
-135.25
 31
0.0
  0
LINE
  5
325
  8
0
  6
CONTINUOUS
 62
     3
 10
-276.550389
 20
-153.88
 30
0.0
 11
-238.450389
 21
-153.88
 31
0.0
  0
LINE
  5
326
  8
0
  6
CONTINUOUS
 62
     3
 10
-38.550009
 20
-153.88
 30
0.0
 11
-0.450009
 21
-153.88
 31
0.0
  0
LINE
  5
327
  8
0
  6
CONTINUOUS
 62
     3
 10
-38.550009
 20
-153.88
 30
0.0
 11
-38.550009
 21
-135.25
 31
0.0
  0
LINE
  5
328
  8
0
  6
CONTINUOUS
 62
     3
 10
-0.450009
 20
-153.88
 30
0.0
 11
-0.450009
 21
-135.25
 31
0.0
  0
LINE
  5
329
  8
0
  6
CONTINUOUS
 62
     3
 10
-37.700009
 20
-155.88
 30
0.0
 11
-37.700009
 21
-140.0
 31
0.0
  0
LINE
  5
32A
  8
0
  6
CONTINUOUS
 62
     3
 10
-1.300009
 20
-155.88
 30
0.0
 11
-1.300009
 21
-140.0
 31
0.0
  0
LINE
  5
32B
  8
0
  6
CONTINUOUS
 62
     3
 10
2.699991
 20
-135.25
 30
0.0
 11
2.699991
 21
-131.5
 31
0.0
  0
LINE
  5
32C
  8
0
  6
CONTINUOUS
 62
     3
 10
-41.700009
 20
-135.25
 30
0.0
 11
-41.700009
 21
-131.5
 31
0.0
  0
LINE
  5
32D
  8
0
  6
CONTINUOUS
 62
     3
 10
-38.550009
 20
-140.0
 30
0.0
 11
-0.450009
 21
-140.0
 31
0.0
  0
LINE
  5
32E
  8
0
  6
CONTINUOUS
 62
     3
 10
-37.700009
 20
-155.88
 30
0.0
 11
-1.300009
 21
-155.88
 31
0.0
  0
LINE
  5
32F
  8
0
  6
CONTINUOUS
 62
     3
 10
-41.700009
 20
-135.25
 30
0.0
 11
2.699991
 21
-135.25
 31
0.0
  0
LINE
  5
330
  8
0
  6
CONTINUOUS
 62
     3
 10
-41.700009
 20
-132.5
 30
0.0
 11
2.699991
 21
-132.5
 31
0.0
  0
ARC
  5
331
  8
0
  6
CONTINUOUS
 62
     3
 10
-279.500009
 20
-130.5
 30
0.0
 40
1.0
 50
180.0
 51
270.0
  0
ARC
  5
332
  8
0
  6
CONTINUOUS
 62
     3
 10
-235.500009
 20
-130.5
 30
0.0
 40
1.0
 50
270.0
 51
0.0
  0
LINE
  5
333
  8
0
  6
CONTINUOUS
 62
     3
 10
-280.500009
 20
-130.5
 30
0.0
 11
-280.500009
 21
-102.5
 31
0.0
  0
LINE
  5
334
  8
0
  6
CONTINUOUS
 62
     3
 10
-234.500009
 20
-130.5
 30
0.0
 11
-234.500009
 21
-102.5
 31
0.0
  0
LINE
  5
335
  8
0
  6
CONTINUOUS
 62
     3
 10
-279.500009
 20
-131.5
 30
0.0
 11
-235.500009
 21
-131.5
 31
0.0
  0
LINE
  5
336
  8
0
  6
CONTINUOUS
 62
     3
 10
-42.000009
 20
-131.5
 30
0.0
 11
2.999991
 21
-131.5
 31
0.0
  0
LINE
  5
337
  8
0
  6
CONTINUOUS
 62
     3
 10
-190.000009
 20
-75.0
 30
0.0
 11
-190.000009
 21
-99.5
 31
0.0
  0
ARC
  5
338
  8
0
  6
CONTINUOUS
 62
     3
 10
-193.000009
 20
-99.5
 30
0.0
 40
3.0
 50
270.0
 51
360.0
  0
ARC
  5
339
  8
0
  6
CONTINUOUS
 62
     3
 10
-257.500009
 20
7.5
 30
0.0
 40
135.0
 50
305.430945
 51
324.569055
  0
LINE
  5
33A
  8
0
  6
CONTINUOUS
 62
     3
 10
-257.500009
 20
-102.5
 30
0.0
 11
-179.237629
 21
-102.5
 31
0.0
  0
LINE
  5
33B
  8
0
  6
CONTINUOUS
 62
     3
 10
-175.000009
 20
-60.0
 30
0.0
 11
-152.959453
 21
-60.0
 31
0.0
  0
ARC
  5
33C
  8
0
  6
CONTINUOUS
 62
     3
 10
-175.000009
 20
-75.0
 30
0.0
 40
15.0
 50
90.0
 51
180.0
  0
CIRCLE
  5
33D
  8
0
  6
CONTINUOUS
 62
     3
 10
-174.414962
 20
-75.585047
 30
0.0
 40
6.75
  0
LINE
  5
33E
  8
0
  6
DASHDOT
 62
     4
 10
-183.283071
 20
-66.716938
 30
0.0
 11
-165.827386
 21
-84.172623
 31
0.0
  0
ARC
  5
33F
  8
0
  6
DASHDOT
 62
     4
 10
-257.500009
 20
7.5
 30
0.0
 40
117.5
 50
309.099851
 51
321.436128
  0
ARC
  5
340
  8
0
  6
CONTINUOUS
 62
     3
 10
-152.959453
 20
-57.0
 30
0.0
 40
3.0
 50
270.0
 51
355.632634
  0
LINE
  5
341
  8
0
  6
CONTINUOUS
 62
     3
 10
-147.500009
 20
7.5
 30
0.0
 11
-147.500009
 21
-70.762379
 31
0.0
  0
ARC
  5
342
  8
0
  6
CONTINUOUS
 62
     3
 10
-997.500009
 20
7.5
 30
0.0
 40
850.0
 50
355.632634
 51
0.0
  0
LINE
  5
343
  8
0
  6
CONTINUOUS
 62
     3
 10
-190.000009
 20
90.0
 30
0.0
 11
-190.000009
 21
114.5
 31
0.0
  0
ARC
  5
344
  8
0
  6
CONTINUOUS
 62
     3
 10
-193.000009
 20
114.5
 30
0.0
 40
3.0
 50
360.0
 51
90.0
  0
LINE
  5
345
  8
0
  6
CONTINUOUS
 62
     3
 10
-147.500009
 20
7.5
 30
0.0
 11
-147.500009
 21
85.762379
 31
0.0
  0
ARC
  5
346
  8
0
  6
CONTINUOUS
 62
     3
 10
-997.500009
 20
7.5
 30
0.0
 40
850.0
 50
0.0
 51
4.367366
  0
LINE
  5
347
  8
0
  6
CONTINUOUS
 62
     3
 10
-175.000009
 20
75.0
 30
0.0
 11
-152.959453
 21
75.0
 31
0.0
  0
ARC
  5
348
  8
0
  6
CONTINUOUS
 62
     3
 10
-152.959453
 20
72.0
 30
0.0
 40
3.0
 50
4.367366
 51
90.0
  0
ARC
  5
349
  8
0
  6
CONTINUOUS
 62
     3
 10
-257.500009
 20
7.5
 30
0.0
 40
135.0
 50
35.430945
 51
54.569055
  0
LINE
  5
34A
  8
0
  6
CONTINUOUS
 62
     3
 10
-257.500009
 20
117.5
 30
0.0
 11
-179.237629
 21
117.5
 31
0.0
  0
ARC
  5
34B
  8
0
  6
CONTINUOUS
 62
     3
 10
-175.000009
 20
90.0
 30
0.0
 40
15.0
 50
180.0
 51
270.0
  0
CIRCLE
  5
34C
  8
0
  6
CONTINUOUS
 62
     3
 10
-174.414962
 20
90.585047
 30
0.0
 40
6.75
  0
LINE
  5
34D
  8
0
  6
CENTER
 62
     4
 10
-183.283071
 20
81.716938
 30
0.0
 11
-165.827386
 21
99.172623
 31
0.0
  0
ARC
  5
34E
  8
0
  6
CENTER
 62
     4
 10
-257.500009
 20
7.5
 30
0.0
 40
117.5
 50
38.563872
 51
50.900149
  0
CIRCLE
  5
34F
  8
0
  6
CONTINUOUS
 62
     3
 10
262.499991
 20
7.5
 30
0.0
 40
100.0
  0
ARC
  5
350
  8
0
  6
CONTINUOUS
 62
     3
 10
262.499991
 20
7.5
 30
0.0
 40
135.0
 50
35.430945
 51
54.569055
  0
LINE
  5
351
  8
0
  6
CONTINUOUS
 62
     3
 10
372.499991
 20
85.762379
 30
0.0
 11
372.499991
 21
7.5
 31
0.0
  0
LINE
  5
352
  8
0
  6
CONTINUOUS
 62
     3
 10
262.499991
 20
117.5
 30
0.0
 11
340.762371
 21
117.5
 31
0.0
  0
CIRCLE
  5
353
  8
0
  6
CONTINUOUS
 62
     3
 10
345.585038
 20
90.585047
 30
0.0
 40
6.75
  0
ARC
  5
354
  8
0
  6
CENTER
 62
     4
 10
262.499991
 20
7.5
 30
0.0
 40
117.5
 50
35.587627
 51
50.961411
  0
LINE
  5
355
  8
0
  6
CENTER
 62
     4
 10
337.269703
 20
82.269712
 30
0.0
 11
353.135099
 21
98.135108
 31
0.0
  0
ARC
  5
356
  8
0
  6
CONTINUOUS
 62
     3
 10
262.499991
 20
7.5
 30
0.0
 40
135.0
 50
305.430945
 51
324.569055
  0
LINE
  5
357
  8
0
  6
CONTINUOUS
 62
     3
 10
340.762371
 20
-102.5
 30
0.0
 11
262.499991
 21
-102.5
 31
0.0
  0
LINE
  5
358
  8
0
  6
CONTINUOUS
 62
     3
 10
372.499991
 20
7.5
 30
0.0
 11
372.499991
 21
-70.762379
 31
0.0
  0
CIRCLE
  5
359
  8
0
  6
CONTINUOUS
 62
     3
 10
345.585038
 20
-75.585047
 30
0.0
 40
6.75
  0
ARC
  5
35A
  8
0
  6
CENTER
 62
     4
 10
262.499991
 20
7.5
 30
0.0
 40
117.5
 50
308.950732
 51
320.961411
  0
LINE
  5
35B
  8
0
  6
CENTER
 62
     4
 10
337.269703
 20
-67.269712
 30
0.0
 11
353.135099
 21
-83.135108
 31
0.0
  0
ARC
  5
35C
  8
0
  6
CONTINUOUS
 62
     3
 10
262.499991
 20
7.5
 30
0.0
 40
135.0
 50
215.430945
 51
234.569055
  0
LINE
  5
35D
  8
0
  6
CONTINUOUS
 62
     3
 10
152.499991
 20
-70.762379
 30
0.0
 11
152.499991
 21
7.5
 31
0.0
  0
LINE
  5
35E
  8
0
  6
CONTINUOUS
 62
     3
 10
262.499991
 20
-102.5
 30
0.0
 11
184.237612
 21
-102.5
 31
0.0
  0
CIRCLE
  5
35F
  8
0
  6
CONTINUOUS
 62
     3
 10
179.414945
 20
-75.585047
 30
0.0
 40
6.75
  0
ARC
  5
360
  8
0
  6
CENTER
 62
     4
 10
262.499991
 20
7.5
 30
0.0
 40
117.5
 50
216.074423
 51
230.961411
  0
LINE
  5
361
  8
0
  6
CENTER
 62
     4
 10
187.73028
 20
-67.269712
 30
0.0
 11
171.864884
 21
-83.135108
 31
0.0
  0
LINE
  5
362
  8
0
  6
CENTER
 62
     4
 10
187.73028
 20
82.269712
 30
0.0
 11
171.864884
 21
98.135108
 31
0.0
  0
CIRCLE
  5
363
  8
0
  6
CONTINUOUS
 62
     3
 10
179.414945
 20
90.585047
 30
0.0
 40
6.75
  0
ARC
  5
364
  8
0
  6
CENTER
 62
     4
 10
262.499991
 20
7.5
 30
0.0
 40
117.5
 50
128.950732
 51
140.961411
  0
ARC
  5
365
  8
0
  6
CONTINUOUS
 62
     3
 10
262.499991
 20
7.5
 30
0.0
 40
135.0
 50
125.430945
 51
144.569055
  0
LINE
  5
366
  8
0
  6
CONTINUOUS
 62
     3
 10
184.237612
 20
117.5
 30
0.0
 11
262.499991
 21
117.5
 31
0.0
  0
LINE
  5
367
  8
0
  6
CONTINUOUS
 62
     3
 10
152.499991
 20
7.5
 30
0.0
 11
152.499991
 21
85.762379
 31
0.0
  0
LINE
  5
368
  8
0
  6
CONTINUOUS
 62
     3
 10
23.000009
 20
-92.5
 30
0.0
 11
27.000009
 21
-92.5
 31
0.0
  0
LINE
  5
369
  8
0
  6
CONTINUOUS
 62
     3
 10
23.000009
 20
107.5
 30
0.0
 11
27.000009
 21
107.5
 31
0.0
  0
LINE
  5
36A
  8
0
  6
CENTER
 62
     4
 10
-377.500009
 20
7.5
 30
0.0
 11
-137.500009
 21
7.5
 31
0.0
  0
LINE
  5
36B
  8
0
  6
CONTINUOUS
 62
     3
 10
-44.999991
 20
52.5
 30
0.0
 11
5.000009
 21
52.5
 31
0.0
  0
LINE
  5
36C
  8
0
  6
CONTINUOUS
 62
     3
 10
-44.999991
 20
47.5
 30
0.0
 11
5.000009
 21
47.5
 31
0.0
  0
LINE
  5
36D
  8
0
  6
CONTINUOUS
 62
     3
 10
-44.999991
 20
42.5
 30
0.0
 11
5.000009
 21
42.5
 31
0.0
  0
LINE
  5
36E
  8
0
  6
CONTINUOUS
 62
     3
 10
-44.999991
 20
37.5
 30
0.0
 11
5.000009
 21
37.5
 31
0.0
  0
LINE
  5
36F
  8
0
  6
CONTINUOUS
 62
     3
 10
-44.999991
 20
-37.5
 30
0.0
 11
5.000009
 21
-37.5
 31
0.0
  0
LINE
  5
370
  8
0
  6
CONTINUOUS
 62
     3
 10
-44.999991
 20
-32.5
 30
0.0
 11
5.000009
 21
-32.5
 31
0.0
  0
LINE
  5
371
  8
0
  6
CONTINUOUS
 62
     3
 10
-44.999991
 20
-27.5
 30
0.0
 11
5.000009
 21
-27.5
 31
0.0
  0
LINE
  5
372
  8
0
  6
CONTINUOUS
 62
     3
 10
-55.499991
 20
-60.0
 30
0.0
 11
7.000009
 21
-60.0
 31
0.0
  0
LINE
  5
373
  8
0
  6
CONTINUOUS
 62
     3
 10
-55.499991
 20
75.0
 30
0.0
 11
7.000009
 21
75.0
 31
0.0
  0
LINE
  5
374
  8
0
  6
CONTINUOUS
 62
     3
 10
-55.499991
 20
-102.5
 30
0.0
 11
23.000009
 21
-102.5
 31
0.0
  0
LINE
  5
375
  8
0
  6
CONTINUOUS
 62
     3
 10
-55.499991
 20
117.5
 30
0.0
 11
23.000009
 21
117.5
 31
0.0
  0
LINE
  5
376
  8
0
  6
CONTINUOUS
 62
     3
 10
-368.200009
 20
19.5
 30
0.0
 11
-368.200009
 21
-4.5
 31
0.0
  0
LINE
  5
377
  8
0
  6
CONTINUOUS
 62
     3
 10
-367.500009
 20
-4.5
 30
0.0
 11
-368.200009
 21
-4.5
 31
0.0
  0
LINE
  5
378
  8
0
  6
CONTINUOUS
 62
     3
 10
-367.500009
 20
19.5
 30
0.0
 11
-368.200009
 21
19.5
 31
0.0
  0
LINE
  5
379
  8
0
  6
CONTINUOUS
 62
     3
 10
-325.000009
 20
-75.0
 30
0.0
 11
-325.000009
 21
-99.5
 31
0.0
  0
ARC
  5
37A
  8
0
  6
CONTINUOUS
 62
     3
 10
-322.000009
 20
-99.5
 30
0.0
 40
3.0
 50
180.0
 51
270.0
  0
LINE
  5
37B
  8
0
  6
CONTINUOUS
 62
     3
 10
-367.500009
 20
7.5
 30
0.0
 11
-367.500009
 21
-70.762379
 31
0.0
  0
ARC
  5
37C
  8
0
  6
CONTINUOUS
 62
     3
 10
482.499991
 20
7.5
 30
0.0
 40
850.0
 50
180.0
 51
184.367366
  0
LINE
  5
37D
  8
0
  6
CONTINUOUS
 62
     3
 10
-340.000009
 20
-60.0
 30
0.0
 11
-362.040564
 21
-60.0
 31
0.0
  0
ARC
  5
37E
  8
0
  6
CONTINUOUS
 62
     3
 10
-362.040564
 20
-57.0
 30
0.0
 40
3.0
 50
184.367366
 51
270.0
  0
ARC
  5
37F
  8
0
  6
CONTINUOUS
 62
     3
 10
-257.500009
 20
7.5
 30
0.0
 40
135.0
 50
215.430945
 51
234.569055
  0
LINE
  5
380
  8
0
  6
CONTINUOUS
 62
     3
 10
-257.500009
 20
-102.5
 30
0.0
 11
-335.762388
 21
-102.5
 31
0.0
  0
ARC
  5
381
  8
0
  6
CONTINUOUS
 62
     3
 10
-340.000009
 20
-75.0
 30
0.0
 40
15.0
 50
0.0
 51
90.0
  0
CIRCLE
  5
382
  8
0
  6
CONTINUOUS
 62
     3
 10
-340.585055
 20
-75.585047
 30
0.0
 40
6.75
  0
LINE
  5
383
  8
0
  6
DASHDOT
 62
     4
 10
-331.716946
 20
-66.716938
 30
0.0
 11
-349.172631
 21
-84.172623
 31
0.0
  0
ARC
  5
384
  8
0
  6
DASHDOT
 62
     4
 10
-257.500009
 20
7.5
 30
0.0
 40
117.5
 50
218.563872
 51
230.900149
  0
LINE
  5
385
  8
0
  6
CONTINUOUS
 62
     3
 10
-367.500009
 20
7.5
 30
0.0
 11
-367.500009
 21
85.762379
 31
0.0
  0
ARC
  5
386
  8
0
  6
CONTINUOUS
 62
     3
 10
482.499991
 20
7.5
 30
0.0
 40
850.0
 50
175.632634
 51
180.0
  0
LINE
  5
387
  8
0
  6
CONTINUOUS
 62
     3
 10
-340.000009
 20
75.0
 30
0.0
 11
-362.040564
 21
75.0
 31
0.0
  0
ARC
  5
388
  8
0
  6
CONTINUOUS
 62
     3
 10
-362.040564
 20
72.0
 30
0.0
 40
3.0
 50
90.0
 51
175.632634
  0
ARC
  5
389
  8
0
  6
CONTINUOUS
 62
     3
 10
-257.500009
 20
7.5
 30
0.0
 40
135.0
 50
125.430945
 51
144.569055
  0
LINE
  5
38A
  8
0
  6
CONTINUOUS
 62
     3
 10
-257.500009
 20
117.5
 30
0.0
 11
-335.762388
 21
117.5
 31
0.0
  0
ARC
  5
38B
  8
0
  6
CONTINUOUS
 62
     3
 10
-340.000009
 20
90.0
 30
0.0
 40
15.0
 50
270.0
 51
0.0
  0
LINE
  5
38C
  8
0
  6
CONTINUOUS
 62
     3
 10
-325.000009
 20
90.0
 30
0.0
 11
-325.000009
 21
114.5
 31
0.0
  0
ARC
  5
38D
  8
0
  6
CONTINUOUS
 62
     3
 10
-322.000009
 20
114.5
 30
0.0
 40
3.0
 50
90.0
 51
180.0
  0
CIRCLE
  5
38E
  8
0
  6
CONTINUOUS
 62
     3
 10
-340.585055
 20
90.585047
 30
0.0
 40
6.75
  0
LINE
  5
38F
  8
0
  6
CENTER
 62
     4
 10
-331.716946
 20
81.716938
 30
0.0
 11
-349.172631
 21
99.172623
 31
0.0
  0
ARC
  5
390
  8
0
  6
CENTER
 62
     4
 10
-257.500009
 20
7.5
 30
0.0
 40
117.5
 50
129.099851
 51
141.436128
  0
LINE
  5
391
  8
0
  6
CENTER
 62
     4
 10
262.499991
 20
-163.112222
 30
0.0
 11
262.499991
 21
121.767587
 31
0.0
  0
LINE
  5
392
  8
0
  6
CENTER
 62
     4
 10
-19.500009
 20
-165.0
 30
0.0
 11
-19.500009
 21
-122.5
 31
0.0
  0
LINE
  5
393
  8
0
  6
CENTER
 62
     4
 10
-105.000009
 20
7.5
 30
0.0
 11
97.499991
 21
7.5
 31
0.0
  0
CIRCLE
  5
394
  8
0
  6
CONTINUOUS
 62
     3
 10
294.319797
 20
-24.319805
 30
0.0
 40
7.5
  0
CIRCLE
  5
395
  8
0
  6
CONTINUOUS
 62
     3
 10
294.319797
 20
-24.319805
 30
0.0
 40
4.25
  0
LINE
  5
396
  8
0
  6
CONTINUOUS
 62
     3
 10
295.95279
 20
-25.952798
 30
0.0
 11
296.550507
 21
-23.722088
 31
0.0
  0
LINE
  5
397
  8
0
  6
CONTINUOUS
 62
     3
 10
293.72208
 20
-26.550515
 30
0.0
 11
295.95279
 21
-25.952798
 31
0.0
  0
LINE
  5
398
  8
0
  6
CONTINUOUS
 62
     3
 10
292.089086
 20
-24.917522
 30
0.0
 11
293.72208
 21
-26.550515
 31
0.0
  0
LINE
  5
399
  8
0
  6
CONTINUOUS
 62
     3
 10
292.686803
 20
-22.686812
 30
0.0
 11
292.089086
 21
-24.917522
 31
0.0
  0
LINE
  5
39A
  8
0
  6
CONTINUOUS
 62
     3
 10
294.917514
 20
-22.089095
 30
0.0
 11
292.686803
 21
-22.686812
 31
0.0
  0
LINE
  5
39B
  8
0
  6
CONTINUOUS
 62
     3
 10
296.550507
 20
-23.722088
 30
0.0
 11
294.917514
 21
-22.089095
 31
0.0
  0
ARC
  5
39C
  8
0
  6
CENTER
 62
     4
 10
262.499991
 20
7.5
 30
0.0
 40
45.0
 50
302.582506
 51
326.994504
  0
LINE
  5
39D
  8
0
  6
CENTER
 62
     4
 10
288.198477
 20
-18.198485
 30
0.0
 11
301.310522
 21
-31.310531
 31
0.0
  0
CIRCLE
  5
39E
  8
0
  6
CONTINUOUS
 62
     3
 10
230.680186
 20
-24.319805
 30
0.0
 40
7.5
  0
CIRCLE
  5
39F
  8
0
  6
CONTINUOUS
 62
     3
 10
230.680186
 20
-24.319805
 30
0.0
 40
4.25
  0
LINE
  5
3A0
  8
0
  6
CONTINUOUS
 62
     3
 10
229.047193
 20
-25.952798
 30
0.0
 11
231.277903
 21
-26.550515
 31
0.0
  0
LINE
  5
3A1
  8
0
  6
CONTINUOUS
 62
     3
 10
228.449476
 20
-23.722088
 30
0.0
 11
229.047193
 21
-25.952798
 31
0.0
  0
LINE
  5
3A2
  8
0
  6
CONTINUOUS
 62
     3
 10
230.082469
 20
-22.089095
 30
0.0
 11
228.449476
 21
-23.722088
 31
0.0
  0
LINE
  5
3A3
  8
0
  6
CONTINUOUS
 62
     3
 10
232.313179
 20
-22.686812
 30
0.0
 11
230.082469
 21
-22.089095
 31
0.0
  0
LINE
  5
3A4
  8
0
  6
CONTINUOUS
 62
     3
 10
232.910896
 20
-24.917522
 30
0.0
 11
232.313179
 21
-22.686812
 31
0.0
  0
LINE
  5
3A5
  8
0
  6
CONTINUOUS
 62
     3
 10
231.277903
 20
-26.550515
 30
0.0
 11
232.910896
 21
-24.917522
 31
0.0
  0
ARC
  5
3A6
  8
0
  6
CENTER
 62
     4
 10
262.499991
 20
7.5
 30
0.0
 40
45.0
 50
212.582506
 51
236.994504
  0
LINE
  5
3A7
  8
0
  6
CENTER
 62
     4
 10
236.801506
 20
-18.198485
 30
0.0
 11
223.689461
 21
-31.310531
 31
0.0
  0
CIRCLE
  5
3A8
  8
0
  6
CONTINUOUS
 62
     3
 10
230.680186
 20
39.319805
 30
0.0
 40
7.5
  0
CIRCLE
  5
3A9
  8
0
  6
CONTINUOUS
 62
     3
 10
230.680186
 20
39.319805
 30
0.0
 40
4.25
  0
LINE
  5
3AA
  8
0
  6
CONTINUOUS
 62
     3
 10
229.047193
 20
40.952798
 30
0.0
 11
228.449476
 21
38.722088
 31
0.0
  0
LINE
  5
3AB
  8
0
  6
CONTINUOUS
 62
     3
 10
231.277903
 20
41.550515
 30
0.0
 11
229.047193
 21
40.952798
 31
0.0
  0
LINE
  5
3AC
  8
0
  6
CONTINUOUS
 62
     3
 10
232.910896
 20
39.917522
 30
0.0
 11
231.277903
 21
41.550515
 31
0.0
  0
LINE
  5
3AD
  8
0
  6
CONTINUOUS
 62
     3
 10
232.313179
 20
37.686812
 30
0.0
 11
232.910896
 21
39.917522
 31
0.0
  0
LINE
  5
3AE
  8
0
  6
CONTINUOUS
 62
     3
 10
230.082469
 20
37.089095
 30
0.0
 11
232.313179
 21
37.686812
 31
0.0
  0
LINE
  5
3AF
  8
0
  6
CONTINUOUS
 62
     3
 10
228.449476
 20
38.722088
 30
0.0
 11
230.082469
 21
37.089095
 31
0.0
  0
ARC
  5
3B0
  8
0
  6
CENTER
 62
     4
 10
262.499991
 20
7.5
 30
0.0
 40
45.0
 50
122.582506
 51
146.994504
  0
LINE
  5
3B1
  8
0
  6
CENTER
 62
     4
 10
236.801506
 20
33.198485
 30
0.0
 11
223.689461
 21
46.310531
 31
0.0
  0
LINE
  5
3B2
  8
0
  6
CENTER
 62
     4
 10
288.198477
 20
33.198485
 30
0.0
 11
301.310522
 21
46.310531
 31
0.0
  0
ARC
  5
3B3
  8
0
  6
CENTER
 62
     4
 10
262.499991
 20
7.5
 30
0.0
 40
45.0
 50
32.582506
 51
56.994504
  0
LINE
  5
3B4
  8
0
  6
CONTINUOUS
 62
     3
 10
295.95279
 20
40.952798
 30
0.0
 11
293.72208
 21
41.550515
 31
0.0
  0
LINE
  5
3B5
  8
0
  6
CONTINUOUS
 62
     3
 10
292.686803
 20
37.686812
 30
0.0
 11
294.917514
 21
37.089095
 31
0.0
  0
LINE
  5
3B6
  8
0
  6
CONTINUOUS
 62
     3
 10
296.550507
 20
38.722088
 30
0.0
 11
295.95279
 21
40.952798
 31
0.0
  0
LINE
  5
3B7
  8
0
  6
CONTINUOUS
 62
     3
 10
292.089086
 20
39.917522
 30
0.0
 11
292.686803
 21
37.686812
 31
0.0
  0
LINE
  5
3B8
  8
0
  6
CONTINUOUS
 62
     3
 10
294.917514
 20
37.089095
 30
0.0
 11
296.550507
 21
38.722088
 31
0.0
  0
LINE
  5
3B9
  8
0
  6
CONTINUOUS
 62
     3
 10
293.72208
 20
41.550515
 30
0.0
 11
292.089086
 21
39.917522
 31
0.0
  0
CIRCLE
  5
3BA
  8
0
  6
CONTINUOUS
 62
     3
 10
294.319797
 20
39.319805
 30
0.0
 40
4.25
  0
CIRCLE
  5
3BB
  8
0
  6
CONTINUOUS
 62
     3
 10
294.319797
 20
39.319805
 30
0.0
 40
7.5
  0
CIRCLE
  5
3BC
  8
0
  6
CONTINUOUS
 62
     3
 10
262.499991
 20
7.5
 30
0.0
 40
54.0
  0
LINE
  5
3BD
  8
0
  6
DASHDOT
 62
     4
 10
-65.869618
 20
-89.494845
 30
0.0
 11
-51.45548
 21
-89.494845
 31
0.0
  0
LINE
  5
3BE
  8
0
  6
DASHDOT
 62
     4
 10
-65.42793
 20
63.5
 30
0.0
 11
-52.360515
 21
63.5
 31
0.0
  0
LINE
  5
3BF
  8
0
  6
CENTER
 62
     4
 10
-75.000009
 20
104.494845
 30
0.0
 11
-51.757819
 21
104.494845
 31
0.0
  0
LINE
  5
3C0
  8
0
  6
CENTER
 62
     4
 10
-257.500009
 20
127.5
 30
0.0
 11
-257.500009
 21
-165.0
 31
0.0
  0
LINE
  5
3C1
  8
0
  6
CONTINUOUS
 62
     3
 10
-44.999991
 20
-22.5
 30
0.0
 11
5.000009
 21
-22.5
 31
0.0
  0
LINE
  5
3C2
  8
0
  6
CONTINUOUS
 62
     3
 10
27.000009
 20
-12.5
 30
0.0
 11
28.000009
 21
-12.5
 31
0.0
  0
LINE
  5
3C3
  8
0
  6
CENTER
 62
     4
 10
142.499991
 20
7.5
 30
0.0
 11
382.499991
 21
7.5
 31
0.0
  0
LINE
  5
3C4
  8
0
  6
CONTINUOUS
 62
     3
 10
28.000009
 20
-12.5
 30
0.0
 11
28.000009
 21
27.5
 31
0.0
  0
LINE
  5
3C5
  8
0
  6
CONTINUOUS
 62
     3
 10
27.000009
 20
27.5
 30
0.0
 11
28.000009
 21
27.5
 31
0.0
  0
CIRCLE
  5
3C7
  8
0
  6
CONTINUOUS
 62
     3
 10
262.499991
 20
7.5
 30
0.0
 40
30.0
  0
CIRCLE
  5
3C8
  8
0
  6
CONTINUOUS
 62
     3
 10
262.499991
 20
7.5
 30
0.0
 40
20.0
  0
CIRCLE
  5
3C9
  8
0
  6
CONTINUOUS
 62
     3
 10
262.499991
 20
7.5
 30
0.0
 40
17.5
  0
LINE
  5
3CA
  8
0
  6
CONTINUOUS
 62
     3
 10
28.000009
 20
-10.0
 30
0.0
 11
88.000009
 21
-10.0
 31
0.0
  0
LINE
  5
3CB
  8
0
  6
CONTINUOUS
 62
     3
 10
28.000009
 20
25.0
 30
0.0
 11
88.000009
 21
25.0
 31
0.0
  0
LINE
  5
3CC
  8
0
  6
CONTINUOUS
 62
     3
 10
88.000009
 20
-10.0
 30
0.0
 11
88.000009
 21
25.0
 31
0.0
  0
LINE
  5
3CD
  8
0
  6
CONTINUOUS
 62
     3
 10
5.000009
 20
-102.5
 30
0.0
 11
5.000009
 21
117.5
 31
0.0
  0
LINE
  5
3CE
  8
0
  6
CONTINUOUS
 62
     3
 10
23.000009
 20
-102.5
 30
0.0
 11
23.000009
 21
117.5
 31
0.0
  0
LINE
  5
3CF
  8
0
  6
CONTINUOUS
 62
     3
 10
-55.499991
 20
-102.5
 30
0.0
 11
-55.499991
 21
117.5
 31
0.0
  0
LINE
  5
3D0
  8
0
  6
CONTINUOUS
 62
     3
 10
23.000009
 20
30.5
 30
0.0
 11
23.000009
 21
95.5
 31
0.0
  0
LINE
  5
3DE
  8
0
  6
CENTER
 62
     4
 10
-84.547372
 20
-7.607231
 30
0.0
 11
130.423424
 21
-7.607231
 31
0.0
  0
LINE
  5
3DF
  8
0
  6
CONTINUOUS
 62
     3
 10
23.000009
 20
-80.5
 30
0.0
 11
23.000009
 21
-15.5
 31
0.0
  0
TEXT
  5
424
  8
1
  6
CONTINUOUS
 62
     4
 10
48.461361
 20
131.513916
 30
0.0
 40
3.2
  1
Ѓ@
 50
0.000003
 41
0.713542
  7
STANDARD1
  0
POINT
  5
52B
  8
0
  6
CONTINUOUS
 62
     3
 10
-4.686185
 20
-7.392769
 30
0.0
  0
TEXT
  5
53C
  8
1
  6
CONTINUOUS
 62
     4
 10
33.397266
 20
-91.351105
 30
0.0
 40
2.8
  1
 
 50
0.000003
 41
0.598571
  7
STANDARD1
  0
TEXT
  5
6CF
  8
0
  6
CONTINUOUS
 62
     0
 10
-377.533186
 20
193.297656
 30
0.0
 40
10.0
  1
HC-UF202
  7
STANDARD1
  0
LINE
  5
6FA
  8
0
  6
CONTINUOUS
 62
     3
 10
-89.299991
 20
-74.0
 30
0.0
 11
-61.699991
 21
-74.0
 31
0.0
  0
LINE
  5
722
  8
0
  6
CONTINUOUS
 62
     3
 10
-43.000009
 20
-130.5
 30
0.0
 11
-43.000009
 21
-102.5
 31
0.0
  0
ENDSEC
  0
EOF
