  0
SECTION
  2
HEADER
  9
$ACADVER
  1
AC1009
  9
$INSBASE
 10
0.0
 20
0.0
 30
0.0
  9
$EXTMIN
 10
30.182491363218439
 20
118.5779086155203
 30
-0.0000000000112498
  9
$EXTMAX
 10
400.55673302722238
 20
238.93140417211291
 30
0.0000000000002956
  9
$LIMMIN
 10
0.0
 20
0.0
  9
$LIMMAX
 10
12.0
 20
9.0
  9
$ORTHOMODE
 70
     0
  9
$REGENMODE
 70
     1
  9
$FILLMODE
 70
     1
  9
$QTEXTMODE
 70
     0
  9
$MIRRTEXT
 70
     1
  9
$DRAGMODE
 70
     2
  9
$LTSCALE
 40
0.5
  9
$OSMODE
 70
    37
  9
$ATTMODE
 70
     1
  9
$TEXTSIZE
 40
0.2
  9
$TRACEWID
 40
0.05
  9
$TEXTSTYLE
  7
STANDARD
  9
$CLAYER
  8
0
  9
$CELTYPE
  6
BYLAYER
  9
$CECOLOR
 62
   256
  9
$DIMSCALE
 40
1.0
  9
$DIMASZ
 40
0.18
  9
$DIMEXO
 40
0.0625
  9
$DIMDLI
 40
0.38
  9
$DIMRND
 40
0.0
  9
$DIMDLE
 40
0.0
  9
$DIMEXE
 40
0.18
  9
$DIMTP
 40
0.0
  9
$DIMTM
 40
0.0
  9
$DIMTXT
 40
0.18
  9
$DIMCEN
 40
0.09
  9
$DIMTSZ
 40
0.0
  9
$DIMTOL
 70
     0
  9
$DIMLIM
 70
     0
  9
$DIMTIH
 70
     1
  9
$DIMTOH
 70
     1
  9
$DIMSE1
 70
     0
  9
$DIMSE2
 70
     0
  9
$DIMTAD
 70
     0
  9
$DIMZIN
 70
     0
  9
$DIMBLK
  1

  9
$DIMASO
 70
     1
  9
$DIMSHO
 70
     1
  9
$DIMPOST
  1

  9
$DIMAPOST
  1

  9
$DIMALT
 70
     0
  9
$DIMALTD
 70
     2
  9
$DIMALTF
 40
25.399999999999999
  9
$DIMLFAC
 40
1.0
  9
$DIMTOFL
 70
     0
  9
$DIMTVP
 40
0.0
  9
$DIMTIX
 70
     0
  9
$DIMSOXD
 70
     0
  9
$DIMSAH
 70
     0
  9
$DIMBLK1
  1

  9
$DIMBLK2
  1

  9
$DIMSTYLE
  2
STANDARD
  9
$DIMCLRD
 70
     0
  9
$DIMCLRE
 70
     0
  9
$DIMCLRT
 70
     0
  9
$DIMTFAC
 40
1.0
  9
$DIMGAP
 40
0.09
  9
$LUNITS
 70
     2
  9
$LUPREC
 70
     4
  9
$SKETCHINC
 40
0.1
  9
$FILLETRAD
 40
0.0
  9
$AUNITS
 70
     0
  9
$AUPREC
 70
     0
  9
$MENU
  1
.
  9
$ELEVATION
 40
0.0
  9
$PELEVATION
 40
0.0
  9
$THICKNESS
 40
0.0
  9
$LIMCHECK
 70
     0
  9
$BLIPMODE
 70
     0
  9
$CHAMFERA
 40
0.0
  9
$CHAMFERB
 40
0.0
  9
$SKPOLY
 70
     0
  9
$TDCREATE
 40
2451614.568096065
  9
$TDUPDATE
 40
2453362.5745697329
  9
$TDINDWG
 40
0.278601713
  9
$TDUSRTIMER
 40
0.2785935995
  9
$USRTIMER
 70
     1
  9
$ANGBASE
 50
0.0
  9
$ANGDIR
 70
     0
  9
$PDMODE
 70
     0
  9
$PDSIZE
 40
0.0
  9
$PLINEWID
 40
0.0
  9
$COORDS
 70
     1
  9
$SPLFRAME
 70
     0
  9
$SPLINETYPE
 70
     6
  9
$SPLINESEGS
 70
     8
  9
$ATTDIA
 70
     0
  9
$ATTREQ
 70
     1
  9
$HANDLING
 70
 22529
  9
$HANDSEED
  5
1B5BB
  9
$SURFTAB1
 70
     6
  9
$SURFTAB2
 70
     6
  9
$SURFTYPE
 70
     6
  9
$SURFU
 70
     6
  9
$SURFV
 70
     6
  9
$UCSNAME
  2

  9
$UCSORG
 10
0.0
 20
0.0
 30
0.0
  9
$UCSXDIR
 10
1.0
 20
0.0
 30
0.0
  9
$UCSYDIR
 10
0.0
 20
1.0
 30
0.0
  9
$PUCSNAME
  2

  9
$PUCSORG
 10
0.0
 20
0.0
 30
0.0
  9
$PUCSXDIR
 10
1.0
 20
0.0
 30
0.0
  9
$PUCSYDIR
 10
0.0
 20
1.0
 30
0.0
  9
$USERI1
 70
     0
  9
$USERI2
 70
     0
  9
$USERI3
 70
     0
  9
$USERI4
 70
     0
  9
$USERI5
 70
     0
  9
$USERR1
 40
0.0
  9
$USERR2
 40
0.0
  9
$USERR3
 40
0.0
  9
$USERR4
 40
0.0
  9
$USERR5
 40
0.0
  9
$WORLDVIEW
 70
     1
  9
$SHADEDGE
 70
     3
  9
$SHADEDIF
 70
    70
  9
$TILEMODE
 70
     1
  9
$MAXACTVP
 70
    48
  9
$PLIMCHECK
 70
     0
  9
$PEXTMIN
 10
1.0000000000000000E+020
 20
1.0000000000000000E+020
 30
1.0000000000000000E+020
  9
$PEXTMAX
 10
-1.0000000000000000E+020
 20
-1.0000000000000000E+020
 30
-1.0000000000000000E+020
  9
$PLIMMIN
 10
0.0
 20
0.0
  9
$PLIMMAX
 10
12.0
 20
9.0
  9
$UNITMODE
 70
     0
  9
$VISRETAIN
 70
     1
  9
$PLINEGEN
 70
     0
  9
$PSLTSCALE
 70
     1
  0
ENDSEC
  0
SECTION
  2
TABLES
  0
TABLE
  2
VPORT
 70
     2
  0
VPORT
  2
*ACTIVE
 70
     0
 10
0.0
 20
0.0
 11
1.0
 21
1.0
 12
215.36961219522041
 22
178.75465639381659
 13
0.0
 23
0.0
 14
1.0
 24
1.0
 15
0.0
 25
0.0
 16
0.0
 26
0.0
 36
1.0
 17
0.0
 27
0.0
 37
0.0
 40
240.4003567265375
 41
1.548223350253807
 42
50.0
 43
0.0
 44
0.0
 50
0.0
 51
0.0
 71
     0
 72
   100
 73
     1
 74
     1
 75
     0
 76
     0
 77
     0
 78
     0
  0
ENDTAB
  0
TABLE
  2
LTYPE
 70
     3
  0
LTYPE
  2
CONTINUOUS
 70
     0
  3
Solid line
 72
    65
 73
     0
 40
0.0
  0
LTYPE
  2
CENTER
 70
     0
  3
____ _ ____ _ ____ _ ____ _ ____ _ ____ _ ____
 72
    65
 73
     4
 40
17.5
 49
13.0
 49
-1.5
 49
1.5
 49
-1.5
  0
LTYPE
  2
HIDDEN
 70
     0
  3
Hidden __ __ __ __ __ __ __ __ __ __ __ __ __ _
 72
    65
 73
     2
 40
9.5249999999999986
 49
6.3499999999999961
 49
-3.174999999999998
  0
ENDTAB
  0
TABLE
  2
LAYER
 70
     4
  0
LAYER
  2
0
 70
     0
 62
     7
  6
CONTINUOUS
  0
LAYER
  2
CENTER
 70
     0
 62
     1
  6
CENTER
  0
LAYER
  2
1
 70
     0
 62
     7
  6
CONTINUOUS
  0
LAYER
  2
HIDDEN
 70
     0
 62
     6
  6
HIDDEN
  0
ENDTAB
  0
TABLE
  2
STYLE
 70
     1
  0
STYLE
  2
STANDARD
 70
     0
 40
0.0
 41
1.0
 50
0.0
 71
     0
 42
0.2
  3
txt
  4

  0
ENDTAB
  0
TABLE
  2
VIEW
 70
     0
  0
ENDTAB
  0
TABLE
  2
UCS
 70
     0
  0
ENDTAB
  0
TABLE
  2
APPID
 70
     2
  0
APPID
  2
ACAD
 70
     0
  0
APPID
  2
DCO15
 70
     0
  0
ENDTAB
  0
TABLE
  2
DIMSTYLE
 70
     1
  0
DIMSTYLE
  2
STANDARD
 70
     0
  3

  4

  5

  6

  7

 40
1.0
 41
0.18
 42
0.0625
 43
0.38
 44
0.18
 45
0.0
 46
0.0
 47
0.0
 48
0.0
140
0.18
141
0.09
142
0.0
143
25.399999999999999
144
1.0
145
0.0
146
1.0
147
0.09
 71
     0
 72
     0
 73
     1
 74
     1
 75
     0
 76
     0
 77
     0
 78
     0
170
     0
171
     2
172
     0
173
     0
174
     0
175
     0
176
     0
177
     0
178
     0
  0
ENDTAB
  0
ENDSEC
  0
SECTION
  2
BLOCKS
  0
BLOCK
  8
0
  2
$MODEL_SPACE
 70
     0
 10
0.0
 20
0.0
 30
0.0
  3
$MODEL_SPACE
  1

  0
ENDBLK
  5
1B52C
  8
0
  0
BLOCK
 67
     1
  8
0
  2
$PAPER_SPACE
 70
     0
 10
0.0
 20
0.0
 30
0.0
  3
$PAPER_SPACE
  1

  0
ENDBLK
  5
1B52A
 67
     1
  8
0
  0
BLOCK
  8
0
  2
A$C3C4259C2
 70
     0
 10
0.0
 20
0.0
 30
0.0
  3
A$C3C4259C2
  1

  0
POLYLINE
  5
1A8A6
  8
HIDDEN
 66
     1
 10
0.0
 20
0.0
 30
0.0
 70
     8
  0
VERTEX
  5
1A8A7
  8
0
 10
0.0000000000000001
 20
4.1600000000000001
 30
0.0
 70
    32
  0
VERTEX
  5
1A8A8
  8
0
 10
-0.0164102
 20
4.1596900000000003
 30
0.0
 70
    32
  0
VERTEX
  5
1A8A9
  8
0
 10
-0.0328105
 20
4.1587500000000004
 30
0.0
 70
    32
  0
VERTEX
  5
1A8AA
  8
0
 10
-0.049191
 20
4.1571800000000003
 30
0.0
 70
    32
  0
VERTEX
  5
1A8AB
  8
0
 10
-0.0655419
 20
4.1549899999999971
 30
0.0
 70
    32
  0
VERTEX
  5
1A8AC
  8
0
 10
-0.0818533
 20
4.1521800000000004
 30
0.0
 70
    32
  0
VERTEX
  5
1A8AD
  8
0
 10
-0.0981154
 20
4.1487400000000001
 30
0.0
 70
    32
  0
VERTEX
  5
1A8AE
  8
0
 10
-0.114318
 20
4.1446899999999971
 30
0.0
 70
    32
  0
VERTEX
  5
1A8AF
  8
0
 10
-0.130453
 20
4.140019999999998
 30
0.0
 70
    32
  0
VERTEX
  5
1A8B0
  8
0
 10
-0.146508
 20
4.1347300000000002
 30
0.0
 70
    32
  0
VERTEX
  5
1A8B1
  8
0
 10
-0.162475
 20
4.128829999999998
 30
0.0
 70
    32
  0
VERTEX
  5
1A8B2
  8
0
 10
-0.178345
 20
4.1223299999999981
 30
0.0
 70
    32
  0
VERTEX
  5
1A8B3
  8
0
 10
-0.194107
 20
4.1152199999999981
 30
0.0
 70
    32
  0
VERTEX
  5
1A8B4
  8
0
 10
-0.209752
 20
4.1075099999999951
 30
0.0
 70
    32
  0
VERTEX
  5
1A8B5
  8
0
 10
-0.225271
 20
4.0992100000000002
 30
0.0
 70
    32
  0
VERTEX
  5
1A8B6
  8
0
 10
-0.240654
 20
4.090309999999997
 30
0.0
 70
    32
  0
VERTEX
  5
1A8B7
  8
0
 10
-0.255892
 20
4.0808299999999971
 30
0.0
 70
    32
  0
VERTEX
  5
1A8B8
  8
0
 10
-0.270976
 20
4.0707800000000001
 30
0.0
 70
    32
  0
VERTEX
  5
1A8B9
  8
0
 10
-0.2858969999999999
 20
4.0601500000000001
 30
0.0
 70
    32
  0
VERTEX
  5
1A8BA
  8
0
 10
-0.300645
 20
4.0489499999999961
 30
0.0
 70
    32
  0
VERTEX
  5
1A8BB
  8
0
 10
-0.315212
 20
4.0372000000000003
 30
0.0
 70
    32
  0
VERTEX
  5
1A8BC
  8
0
 10
-0.32959
 20
4.0248900000000001
 30
0.0
 70
    32
  0
VERTEX
  5
1A8BD
  8
0
 10
-0.343769
 20
4.0120399999999981
 30
0.0
 70
    32
  0
VERTEX
  5
1A8BE
  8
0
 10
-0.3577409999999999
 20
3.9986499999999991
 30
0.0
 70
    32
  0
VERTEX
  5
1A8BF
  8
0
 10
-0.371497
 20
3.9847299999999981
 30
0.0
 70
    32
  0
VERTEX
  5
1A8C0
  8
0
 10
-0.38503
 20
3.9702899999999981
 30
0.0
 70
    32
  0
VERTEX
  5
1A8C1
  8
0
 10
-0.398331
 20
3.9553399999999992
 30
0.0
 70
    32
  0
VERTEX
  5
1A8C2
  8
0
 10
-0.4113920000000002
 20
3.93988
 30
0.0
 70
    32
  0
VERTEX
  5
1A8C3
  8
0
 10
-0.424205
 20
3.9239299999999981
 30
0.0
 70
    32
  0
VERTEX
  5
1A8C4
  8
0
 10
-0.436762
 20
3.9075000000000002
 30
0.0
 70
    32
  0
VERTEX
  5
1A8C5
  8
0
 10
-0.4490560000000002
 20
3.8905899999999991
 30
0.0
 70
    32
  0
VERTEX
  5
1A8C6
  8
0
 10
-0.4610800000000002
 20
3.8732199999999981
 30
0.0
 70
    32
  0
VERTEX
  5
1A8C7
  8
0
 10
-0.4728260000000001
 20
3.8553899999999981
 30
0.0
 70
    32
  0
VERTEX
  5
1A8C8
  8
0
 10
-0.484288
 20
3.8371199999999992
 30
0.0
 70
    32
  0
VERTEX
  5
1A8C9
  8
0
 10
-0.495457
 20
3.818419999999997
 30
0.0
 70
    32
  0
VERTEX
  5
1A8CA
  8
0
 10
-0.5063290000000003
 20
3.7993000000000001
 30
0.0
 70
    32
  0
VERTEX
  5
1A8CB
  8
0
 10
-0.516895
 20
3.7797699999999992
 30
0.0
 70
    32
  0
VERTEX
  5
1A8CC
  8
0
 10
-0.52715
 20
3.7598400000000001
 30
0.0
 70
    32
  0
VERTEX
  5
1A8CD
  8
0
 10
-0.537087
 20
3.7395299999999989
 30
0.0
 70
    32
  0
VERTEX
  5
1A8CE
  8
0
 10
-0.5467010000000001
 20
3.7188400000000001
 30
0.0
 70
    32
  0
VERTEX
  5
1A8CF
  8
0
 10
-0.5559850000000001
 20
3.697789999999999
 30
0.0
 70
    32
  0
VERTEX
  5
1A8D0
  8
0
 10
-0.5649350000000001
 20
3.6764000000000001
 30
0.0
 70
    32
  0
VERTEX
  5
1A8D1
  8
0
 10
-0.5735440000000001
 20
3.6546699999999981
 30
0.0
 70
    32
  0
VERTEX
  5
1A8D2
  8
0
 10
-0.5818080000000001
 20
3.632609999999997
 30
0.0
 70
    32
  0
VERTEX
  5
1A8D3
  8
0
 10
-0.5897210000000001
 20
3.6102500000000002
 30
0.0
 70
    32
  0
VERTEX
  5
1A8D4
  8
0
 10
-0.597279
 20
3.5876000000000001
 30
0.0
 70
    32
  0
VERTEX
  5
1A8D5
  8
0
 10
-0.6044770000000002
 20
3.5646599999999991
 30
0.0
 70
    32
  0
VERTEX
  5
1A8D6
  8
0
 10
-0.611312
 20
3.5414500000000002
 30
0.0
 70
    32
  0
VERTEX
  5
1A8D7
  8
0
 10
-0.6177780000000001
 20
3.5179900000000002
 30
0.0
 70
    32
  0
VERTEX
  5
1A8D8
  8
0
 10
-0.623871
 20
3.494289999999999
 30
0.0
 70
    32
  0
VERTEX
  5
1A8D9
  8
0
 10
-0.6295890000000001
 20
3.4703699999999991
 30
0.0
 70
    32
  0
VERTEX
  5
1A8DA
  8
0
 10
-0.6349280000000001
 20
3.446229999999999
 30
0.0
 70
    32
  0
VERTEX
  5
1A8DB
  8
0
 10
-0.6398850000000002
 20
3.4218999999999991
 30
0.0
 70
    32
  0
VERTEX
  5
1A8DC
  8
0
 10
-0.644456
 20
3.3973800000000001
 30
0.0
 70
    32
  0
VERTEX
  5
1A8DD
  8
0
 10
-0.6486380000000001
 20
3.3727
 30
0.0
 70
    32
  0
VERTEX
  5
1A8DE
  8
0
 10
-0.6524300000000001
 20
3.347869999999999
 30
0.0
 70
    32
  0
VERTEX
  5
1A8DF
  8
0
 10
-0.655829
 20
3.3228900000000001
 30
0.0
 70
    32
  0
VERTEX
  5
1A8E0
  8
0
 10
-0.658833
 20
3.2978000000000001
 30
0.0
 70
    32
  0
VERTEX
  5
1A8E1
  8
0
 10
-0.6614399999999999
 20
3.2726000000000002
 30
0.0
 70
    32
  0
VERTEX
  5
1A8E2
  8
0
 10
-0.6636490000000002
 20
3.247309999999997
 30
0.0
 70
    32
  0
VERTEX
  5
1A8E3
  8
0
 10
-0.6654580000000001
 20
3.22194
 30
0.0
 70
    32
  0
VERTEX
  5
1A8E4
  8
0
 10
-0.666866
 20
3.1965099999999991
 30
0.0
 70
    32
  0
VERTEX
  5
1A8E5
  8
0
 10
-0.6678720000000001
 20
3.17103
 30
0.0
 70
    32
  0
VERTEX
  5
1A8E6
  8
0
 10
-0.6684760000000001
 20
3.1455199999999981
 30
0.0
 70
    32
  0
VERTEX
  5
1A8E7
  8
0
 10
-0.668678
 20
3.1200000000000001
 30
0.0
 70
    32
  0
VERTEX
  5
1A8E8
  8
0
 10
-0.6684760000000001
 20
3.094479999999999
 30
0.0
 70
    32
  0
VERTEX
  5
1A8E9
  8
0
 10
-0.6678720000000001
 20
3.0689700000000002
 30
0.0
 70
    32
  0
VERTEX
  5
1A8EA
  8
0
 10
-0.666866
 20
3.043489999999998
 30
0.0
 70
    32
  0
VERTEX
  5
1A8EB
  8
0
 10
-0.6654580000000001
 20
3.0180599999999962
 30
0.0
 70
    32
  0
VERTEX
  5
1A8EC
  8
0
 10
-0.6636490000000002
 20
2.9926899999999992
 30
0.0
 70
    32
  0
VERTEX
  5
1A8ED
  8
0
 10
-0.6614399999999999
 20
2.9673999999999991
 30
0.0
 70
    32
  0
VERTEX
  5
1A8EE
  8
0
 10
-0.658833
 20
2.9422000000000001
 30
0.0
 70
    32
  0
VERTEX
  5
1A8EF
  8
0
 10
-0.655829
 20
2.9171099999999992
 30
0.0
 70
    32
  0
VERTEX
  5
1A8F0
  8
0
 10
-0.6524300000000001
 20
2.8921299999999981
 30
0.0
 70
    32
  0
VERTEX
  5
1A8F1
  8
0
 10
-0.6486380000000001
 20
2.8673000000000002
 30
0.0
 70
    32
  0
VERTEX
  5
1A8F2
  8
0
 10
-0.644456
 20
2.8426200000000001
 30
0.0
 70
    32
  0
VERTEX
  5
1A8F3
  8
0
 10
-0.6398850000000002
 20
2.8180999999999949
 30
0.0
 70
    32
  0
VERTEX
  5
1A8F4
  8
0
 10
-0.6349280000000001
 20
2.7937699999999981
 30
0.0
 70
    32
  0
VERTEX
  5
1A8F5
  8
0
 10
-0.6295890000000001
 20
2.769629999999998
 30
0.0
 70
    32
  0
VERTEX
  5
1A8F6
  8
0
 10
-0.623871
 20
2.7457099999999981
 30
0.0
 70
    32
  0
VERTEX
  5
1A8F7
  8
0
 10
-0.6177780000000001
 20
2.72201
 30
0.0
 70
    32
  0
VERTEX
  5
1A8F8
  8
0
 10
-0.611312
 20
2.69855
 30
0.0
 70
    32
  0
VERTEX
  5
1A8F9
  8
0
 10
-0.6044770000000002
 20
2.6753399999999981
 30
0.0
 70
    32
  0
VERTEX
  5
1A8FA
  8
0
 10
-0.597279
 20
2.6524000000000001
 30
0.0
 70
    32
  0
VERTEX
  5
1A8FB
  8
0
 10
-0.5897210000000001
 20
2.62975
 30
0.0
 70
    32
  0
VERTEX
  5
1A8FC
  8
0
 10
-0.5818080000000001
 20
2.6073900000000001
 30
0.0
 70
    32
  0
VERTEX
  5
1A8FD
  8
0
 10
-0.5735440000000001
 20
2.585329999999999
 30
0.0
 70
    32
  0
VERTEX
  5
1A8FE
  8
0
 10
-0.5649350000000001
 20
2.5636000000000001
 30
0.0
 70
    32
  0
VERTEX
  5
1A8FF
  8
0
 10
-0.5559850000000001
 20
2.5422099999999981
 30
0.0
 70
    32
  0
VERTEX
  5
1A900
  8
0
 10
-0.5467010000000001
 20
2.5211600000000001
 30
0.0
 70
    32
  0
VERTEX
  5
1A901
  8
0
 10
-0.537087
 20
2.5004699999999991
 30
0.0
 70
    32
  0
VERTEX
  5
1A902
  8
0
 10
-0.52715
 20
2.480159999999997
 30
0.0
 70
    32
  0
VERTEX
  5
1A903
  8
0
 10
-0.516895
 20
2.4602300000000001
 30
0.0
 70
    32
  0
VERTEX
  5
1A904
  8
0
 10
-0.5063290000000003
 20
2.4407000000000001
 30
0.0
 70
    32
  0
VERTEX
  5
1A905
  8
0
 10
-0.495457
 20
2.4215800000000001
 30
0.0
 70
    32
  0
VERTEX
  5
1A906
  8
0
 10
-0.484288
 20
2.4028800000000001
 30
0.0
 70
    32
  0
VERTEX
  5
1A907
  8
0
 10
-0.4728260000000001
 20
2.384609999999999
 30
0.0
 70
    32
  0
VERTEX
  5
1A908
  8
0
 10
-0.4610800000000002
 20
2.3667799999999981
 30
0.0
 70
    32
  0
VERTEX
  5
1A909
  8
0
 10
-0.4490560000000002
 20
2.349409999999994
 30
0.0
 70
    32
  0
VERTEX
  5
1A90A
  8
0
 10
-0.436762
 20
2.3325
 30
0.0
 70
    32
  0
VERTEX
  5
1A90B
  8
0
 10
-0.424205
 20
2.3160699999999981
 30
0.0
 70
    32
  0
VERTEX
  5
1A90C
  8
0
 10
-0.4113920000000002
 20
2.3001200000000002
 30
0.0
 70
    32
  0
VERTEX
  5
1A90D
  8
0
 10
-0.398331
 20
2.284659999999997
 30
0.0
 70
    32
  0
VERTEX
  5
1A90E
  8
0
 10
-0.38503
 20
2.269709999999999
 30
0.0
 70
    32
  0
VERTEX
  5
1A90F
  8
0
 10
-0.371497
 20
2.2552699999999981
 30
0.0
 70
    32
  0
VERTEX
  5
1A910
  8
0
 10
-0.3577409999999999
 20
2.2413500000000002
 30
0.0
 70
    32
  0
VERTEX
  5
1A911
  8
0
 10
-0.343769
 20
2.2279599999999991
 30
0.0
 70
    32
  0
VERTEX
  5
1A912
  8
0
 10
-0.32959
 20
2.215109999999997
 30
0.0
 70
    32
  0
VERTEX
  5
1A913
  8
0
 10
-0.315212
 20
2.2027999999999981
 30
0.0
 70
    32
  0
VERTEX
  5
1A914
  8
0
 10
-0.300645
 20
2.1910500000000002
 30
0.0
 70
    32
  0
VERTEX
  5
1A915
  8
0
 10
-0.2858969999999999
 20
2.1798500000000001
 30
0.0
 70
    32
  0
VERTEX
  5
1A916
  8
0
 10
-0.270976
 20
2.1692200000000001
 30
0.0
 70
    32
  0
VERTEX
  5
1A917
  8
0
 10
-0.255892
 20
2.15917
 30
0.0
 70
    32
  0
VERTEX
  5
1A918
  8
0
 10
-0.240654
 20
2.1496900000000001
 30
0.0
 70
    32
  0
VERTEX
  5
1A919
  8
0
 10
-0.225271
 20
2.1407899999999991
 30
0.0
 70
    32
  0
VERTEX
  5
1A91A
  8
0
 10
-0.209752
 20
2.1324900000000002
 30
0.0
 70
    32
  0
VERTEX
  5
1A91B
  8
0
 10
-0.194107
 20
2.124779999999999
 30
0.0
 70
    32
  0
VERTEX
  5
1A91C
  8
0
 10
-0.178345
 20
2.1176699999999991
 30
0.0
 70
    32
  0
VERTEX
  5
1A91D
  8
0
 10
-0.162475
 20
2.1111699999999991
 30
0.0
 70
    32
  0
VERTEX
  5
1A91E
  8
0
 10
-0.146508
 20
2.1052699999999991
 30
0.0
 70
    32
  0
VERTEX
  5
1A91F
  8
0
 10
-0.130453
 20
2.0999799999999991
 30
0.0
 70
    32
  0
VERTEX
  5
1A920
  8
0
 10
-0.114318
 20
2.09531
 30
0.0
 70
    32
  0
VERTEX
  5
1A921
  8
0
 10
-0.0981154
 20
2.0912599999999961
 30
0.0
 70
    32
  0
VERTEX
  5
1A922
  8
0
 10
-0.0818533
 20
2.087819999999998
 30
0.0
 70
    32
  0
VERTEX
  5
1A923
  8
0
 10
-0.0655419
 20
2.08501
 30
0.0
 70
    32
  0
VERTEX
  5
1A924
  8
0
 10
-0.049191
 20
2.082819999999999
 30
0.0
 70
    32
  0
VERTEX
  5
1A925
  8
0
 10
-0.0328105
 20
2.081249999999998
 30
0.0
 70
    32
  0
VERTEX
  5
1A926
  8
0
 10
-0.0164102
 20
2.0803099999999981
 30
0.0
 70
    32
  0
VERTEX
  5
1A927
  8
0
 10
0.0
 20
2.0800000000000001
 30
0.0
 70
    32
  0
SEQEND
  5
1A928
  8
0
  0
POLYLINE
  5
1A929
  8
HIDDEN
 66
     1
 10
0.0
 20
0.0
 30
0.0
 70
     8
  0
VERTEX
  5
1A92A
  8
0
 10
0.0
 20
0.000000000000014
 30
0.0
 70
    32
  0
VERTEX
  5
1A92B
  8
0
 10
0.0328105
 20
0.00125273
 30
0.0
 70
    32
  0
VERTEX
  5
1A92C
  8
0
 10
0.0655419
 20
0.00500788
 30
0.0
 70
    32
  0
VERTEX
  5
1A92D
  8
0
 10
0.0981154
 20
0.0112564
 30
0.0
 70
    32
  0
VERTEX
  5
1A92E
  8
0
 10
0.130453
 20
0.0199833
 30
0.0
 70
    32
  0
VERTEX
  5
1A92F
  8
0
 10
0.162475
 20
0.0311675
 30
0.0
 70
    32
  0
VERTEX
  5
1A930
  8
0
 10
0.194107
 20
0.0447821
 30
0.0
 70
    32
  0
VERTEX
  5
1A931
  8
0
 10
0.225271
 20
0.0607942
 30
0.0
 70
    32
  0
VERTEX
  5
1A932
  8
0
 10
0.255892
 20
0.0791653
 30
0.0
 70
    32
  0
VERTEX
  5
1A933
  8
0
 10
0.2858969999999999
 20
0.0998511
 30
0.0
 70
    32
  0
VERTEX
  5
1A934
  8
0
 10
0.315212
 20
0.122802
 30
0.0
 70
    32
  0
VERTEX
  5
1A935
  8
0
 10
0.343769
 20
0.147962
 30
0.0
 70
    32
  0
VERTEX
  5
1A936
  8
0
 10
0.371497
 20
0.175272
 30
0.0
 70
    32
  0
VERTEX
  5
1A937
  8
0
 10
0.398331
 20
0.204664
 30
0.0
 70
    32
  0
VERTEX
  5
1A938
  8
0
 10
0.424205
 20
0.236069
 30
0.0
 70
    32
  0
VERTEX
  5
1A939
  8
0
 10
0.4490560000000002
 20
0.269411
 30
0.0
 70
    32
  0
VERTEX
  5
1A93A
  8
0
 10
0.4728260000000001
 20
0.304609
 30
0.0
 70
    32
  0
VERTEX
  5
1A93B
  8
0
 10
0.495457
 20
0.341579
 30
0.0
 70
    32
  0
VERTEX
  5
1A93C
  8
0
 10
0.516895
 20
0.380231
 30
0.0
 70
    32
  0
VERTEX
  5
1A93D
  8
0
 10
0.537087
 20
0.420473
 30
0.0
 70
    32
  0
VERTEX
  5
1A93E
  8
0
 10
0.5559850000000001
 20
0.462207
 30
0.0
 70
    32
  0
VERTEX
  5
1A93F
  8
0
 10
0.5735440000000001
 20
0.5053330000000003
 30
0.0
 70
    32
  0
VERTEX
  5
1A940
  8
0
 10
0.5897210000000001
 20
0.549747
 30
0.0
 70
    32
  0
VERTEX
  5
1A941
  8
0
 10
0.6044770000000002
 20
0.5953430000000001
 30
0.0
 70
    32
  0
VERTEX
  5
1A942
  8
0
 10
0.6177780000000001
 20
0.6420090000000001
 30
0.0
 70
    32
  0
VERTEX
  5
1A943
  8
0
 10
0.6295890000000001
 20
0.689635
 30
0.0
 70
    32
  0
VERTEX
  5
1A944
  8
0
 10
0.6398850000000002
 20
0.738104
 30
0.0
 70
    32
  0
VERTEX
  5
1A945
  8
0
 10
0.6486380000000001
 20
0.7873010000000003
 30
0.0
 70
    32
  0
VERTEX
  5
1A946
  8
0
 10
0.655829
 20
0.8371059999999999
 30
0.0
 70
    32
  0
VERTEX
  5
1A947
  8
0
 10
0.6614399999999999
 20
0.8873999999999997
 30
0.0
 70
    32
  0
VERTEX
  5
1A948
  8
0
 10
0.6654580000000001
 20
0.938062
 30
0.0
 70
    32
  0
VERTEX
  5
1A949
  8
0
 10
0.6678720000000001
 20
0.9889699999999999
 30
0.0
 70
    32
  0
VERTEX
  5
1A94A
  8
0
 10
0.668678
 20
1.04
 30
0.0
 70
    32
  0
VERTEX
  5
1A94B
  8
0
 10
0.6678720000000001
 20
1.0910299999999991
 30
0.0
 70
    32
  0
VERTEX
  5
1A94C
  8
0
 10
0.6654580000000001
 20
1.1419399999999991
 30
0.0
 70
    32
  0
VERTEX
  5
1A94D
  8
0
 10
0.6614399999999999
 20
1.1926000000000001
 30
0.0
 70
    32
  0
VERTEX
  5
1A94E
  8
0
 10
0.655829
 20
1.2428900000000001
 30
0.0
 70
    32
  0
VERTEX
  5
1A94F
  8
0
 10
0.6486380000000001
 20
1.2926999999999991
 30
0.0
 70
    32
  0
VERTEX
  5
1A950
  8
0
 10
0.6398850000000002
 20
1.3419000000000001
 30
0.0
 70
    32
  0
VERTEX
  5
1A951
  8
0
 10
0.6295890000000001
 20
1.3903700000000001
 30
0.0
 70
    32
  0
VERTEX
  5
1A952
  8
0
 10
0.6177780000000001
 20
1.4379899999999981
 30
0.0
 70
    32
  0
VERTEX
  5
1A953
  8
0
 10
0.6044770000000002
 20
1.4846600000000001
 30
0.0
 70
    32
  0
VERTEX
  5
1A954
  8
0
 10
0.5897210000000001
 20
1.5302500000000001
 30
0.0
 70
    32
  0
VERTEX
  5
1A955
  8
0
 10
0.5735440000000001
 20
1.57467
 30
0.0
 70
    32
  0
VERTEX
  5
1A956
  8
0
 10
0.5559850000000001
 20
1.6177900000000001
 30
0.0
 70
    32
  0
VERTEX
  5
1A957
  8
0
 10
0.537087
 20
1.6595299999999991
 30
0.0
 70
    32
  0
VERTEX
  5
1A958
  8
0
 10
0.516895
 20
1.69977
 30
0.0
 70
    32
  0
VERTEX
  5
1A959
  8
0
 10
0.495457
 20
1.7384200000000001
 30
0.0
 70
    32
  0
VERTEX
  5
1A95A
  8
0
 10
0.4728260000000001
 20
1.77539
 30
0.0
 70
    32
  0
VERTEX
  5
1A95B
  8
0
 10
0.4490560000000002
 20
1.810589999999999
 30
0.0
 70
    32
  0
VERTEX
  5
1A95C
  8
0
 10
0.424205
 20
1.8439299999999981
 30
0.0
 70
    32
  0
VERTEX
  5
1A95D
  8
0
 10
0.398331
 20
1.87534
 30
0.0
 70
    32
  0
VERTEX
  5
1A95E
  8
0
 10
0.371497
 20
1.9047299999999929
 30
0.0
 70
    32
  0
VERTEX
  5
1A95F
  8
0
 10
0.343769
 20
1.9320399999999991
 30
0.0
 70
    32
  0
VERTEX
  5
1A960
  8
0
 10
0.315212
 20
1.9572000000000001
 30
0.0
 70
    32
  0
VERTEX
  5
1A961
  8
0
 10
0.2858969999999999
 20
1.9801500000000001
 30
0.0
 70
    32
  0
VERTEX
  5
1A962
  8
0
 10
0.255892
 20
2.0008300000000001
 30
0.0
 70
    32
  0
VERTEX
  5
1A963
  8
0
 10
0.225271
 20
2.0192099999999962
 30
0.0
 70
    32
  0
VERTEX
  5
1A964
  8
0
 10
0.194107
 20
2.035219999999998
 30
0.0
 70
    32
  0
VERTEX
  5
1A965
  8
0
 10
0.162475
 20
2.0488299999999962
 30
0.0
 70
    32
  0
VERTEX
  5
1A966
  8
0
 10
0.130453
 20
2.0600200000000002
 30
0.0
 70
    32
  0
VERTEX
  5
1A967
  8
0
 10
0.0981154
 20
2.06874
 30
0.0
 70
    32
  0
VERTEX
  5
1A968
  8
0
 10
0.0655419
 20
2.0749900000000001
 30
0.0
 70
    32
  0
VERTEX
  5
1A969
  8
0
 10
0.0328105
 20
2.0787499999999981
 30
0.0
 70
    32
  0
VERTEX
  5
1A96A
  8
0
 10
0.0000000000000001
 20
2.0800000000000001
 30
0.0
 70
    32
  0
VERTEX
  5
1A96B
  8
0
 10
-0.0328105
 20
2.0787499999999981
 30
0.0
 70
    32
  0
VERTEX
  5
1A96C
  8
0
 10
-0.0655419
 20
2.0749900000000001
 30
0.0
 70
    32
  0
VERTEX
  5
1A96D
  8
0
 10
-0.0981154
 20
2.06874
 30
0.0
 70
    32
  0
VERTEX
  5
1A96E
  8
0
 10
-0.130453
 20
2.0600200000000002
 30
0.0
 70
    32
  0
VERTEX
  5
1A96F
  8
0
 10
-0.162475
 20
2.0488299999999962
 30
0.0
 70
    32
  0
VERTEX
  5
1A970
  8
0
 10
-0.194107
 20
2.035219999999998
 30
0.0
 70
    32
  0
VERTEX
  5
1A971
  8
0
 10
-0.225271
 20
2.0192099999999962
 30
0.0
 70
    32
  0
VERTEX
  5
1A972
  8
0
 10
-0.255892
 20
2.0008300000000001
 30
0.0
 70
    32
  0
VERTEX
  5
1A973
  8
0
 10
-0.2858969999999999
 20
1.9801500000000001
 30
0.0
 70
    32
  0
VERTEX
  5
1A974
  8
0
 10
-0.315212
 20
1.9572000000000001
 30
0.0
 70
    32
  0
VERTEX
  5
1A975
  8
0
 10
-0.343769
 20
1.9320399999999991
 30
0.0
 70
    32
  0
VERTEX
  5
1A976
  8
0
 10
-0.371497
 20
1.9047299999999929
 30
0.0
 70
    32
  0
VERTEX
  5
1A977
  8
0
 10
-0.398331
 20
1.87534
 30
0.0
 70
    32
  0
VERTEX
  5
1A978
  8
0
 10
-0.424205
 20
1.8439299999999981
 30
0.0
 70
    32
  0
VERTEX
  5
1A979
  8
0
 10
-0.4490560000000002
 20
1.810589999999999
 30
0.0
 70
    32
  0
VERTEX
  5
1A97A
  8
0
 10
-0.4728260000000001
 20
1.77539
 30
0.0
 70
    32
  0
VERTEX
  5
1A97B
  8
0
 10
-0.495457
 20
1.7384200000000001
 30
0.0
 70
    32
  0
VERTEX
  5
1A97C
  8
0
 10
-0.516895
 20
1.69977
 30
0.0
 70
    32
  0
VERTEX
  5
1A97D
  8
0
 10
-0.537087
 20
1.6595299999999991
 30
0.0
 70
    32
  0
VERTEX
  5
1A97E
  8
0
 10
-0.5559850000000001
 20
1.6177900000000001
 30
0.0
 70
    32
  0
VERTEX
  5
1A97F
  8
0
 10
-0.5735440000000001
 20
1.57467
 30
0.0
 70
    32
  0
VERTEX
  5
1A980
  8
0
 10
-0.5897210000000001
 20
1.5302500000000001
 30
0.0
 70
    32
  0
VERTEX
  5
1A981
  8
0
 10
-0.6044770000000002
 20
1.4846600000000001
 30
0.0
 70
    32
  0
VERTEX
  5
1A982
  8
0
 10
-0.6177780000000001
 20
1.4379899999999981
 30
0.0
 70
    32
  0
VERTEX
  5
1A983
  8
0
 10
-0.6295890000000001
 20
1.3903700000000001
 30
0.0
 70
    32
  0
VERTEX
  5
1A984
  8
0
 10
-0.6398850000000002
 20
1.3419000000000001
 30
0.0
 70
    32
  0
VERTEX
  5
1A985
  8
0
 10
-0.6486380000000001
 20
1.2926999999999991
 30
0.0
 70
    32
  0
VERTEX
  5
1A986
  8
0
 10
-0.655829
 20
1.2428900000000001
 30
0.0
 70
    32
  0
VERTEX
  5
1A987
  8
0
 10
-0.6614399999999999
 20
1.1926000000000001
 30
0.0
 70
    32
  0
VERTEX
  5
1A988
  8
0
 10
-0.6654580000000001
 20
1.1419399999999991
 30
0.0
 70
    32
  0
VERTEX
  5
1A989
  8
0
 10
-0.6678720000000001
 20
1.0910299999999991
 30
0.0
 70
    32
  0
VERTEX
  5
1A98A
  8
0
 10
-0.668678
 20
1.04
 30
0.0
 70
    32
  0
VERTEX
  5
1A98B
  8
0
 10
-0.6678720000000001
 20
0.9889699999999999
 30
0.0
 70
    32
  0
VERTEX
  5
1A98C
  8
0
 10
-0.6654580000000001
 20
0.938062
 30
0.0
 70
    32
  0
VERTEX
  5
1A98D
  8
0
 10
-0.6614399999999999
 20
0.8873999999999997
 30
0.0
 70
    32
  0
VERTEX
  5
1A98E
  8
0
 10
-0.655829
 20
0.8371059999999999
 30
0.0
 70
    32
  0
VERTEX
  5
1A98F
  8
0
 10
-0.6486380000000001
 20
0.7873010000000003
 30
0.0
 70
    32
  0
VERTEX
  5
1A990
  8
0
 10
-0.6398850000000002
 20
0.738104
 30
0.0
 70
    32
  0
VERTEX
  5
1A991
  8
0
 10
-0.6295890000000001
 20
0.689635
 30
0.0
 70
    32
  0
VERTEX
  5
1A992
  8
0
 10
-0.6177780000000001
 20
0.6420090000000001
 30
0.0
 70
    32
  0
VERTEX
  5
1A993
  8
0
 10
-0.6044770000000002
 20
0.5953430000000001
 30
0.0
 70
    32
  0
VERTEX
  5
1A994
  8
0
 10
-0.5897210000000001
 20
0.549747
 30
0.0
 70
    32
  0
VERTEX
  5
1A995
  8
0
 10
-0.5735440000000001
 20
0.5053330000000003
 30
0.0
 70
    32
  0
VERTEX
  5
1A996
  8
0
 10
-0.5559850000000001
 20
0.462207
 30
0.0
 70
    32
  0
VERTEX
  5
1A997
  8
0
 10
-0.537087
 20
0.420473
 30
0.0
 70
    32
  0
VERTEX
  5
1A998
  8
0
 10
-0.516895
 20
0.380231
 30
0.0
 70
    32
  0
VERTEX
  5
1A999
  8
0
 10
-0.495457
 20
0.341579
 30
0.0
 70
    32
  0
VERTEX
  5
1A99A
  8
0
 10
-0.4728260000000001
 20
0.304609
 30
0.0
 70
    32
  0
VERTEX
  5
1A99B
  8
0
 10
-0.4490560000000002
 20
0.269411
 30
0.0
 70
    32
  0
VERTEX
  5
1A99C
  8
0
 10
-0.424205
 20
0.236069
 30
0.0
 70
    32
  0
VERTEX
  5
1A99D
  8
0
 10
-0.398331
 20
0.204664
 30
0.0
 70
    32
  0
VERTEX
  5
1A99E
  8
0
 10
-0.371497
 20
0.175272
 30
0.0
 70
    32
  0
VERTEX
  5
1A99F
  8
0
 10
-0.343769
 20
0.147962
 30
0.0
 70
    32
  0
VERTEX
  5
1A9A0
  8
0
 10
-0.315212
 20
0.122802
 30
0.0
 70
    32
  0
VERTEX
  5
1A9A1
  8
0
 10
-0.2858969999999999
 20
0.0998511
 30
0.0
 70
    32
  0
VERTEX
  5
1A9A2
  8
0
 10
-0.255892
 20
0.0791653
 30
0.0
 70
    32
  0
VERTEX
  5
1A9A3
  8
0
 10
-0.225271
 20
0.0607942
 30
0.0
 70
    32
  0
VERTEX
  5
1A9A4
  8
0
 10
-0.194107
 20
0.0447821
 30
0.0
 70
    32
  0
VERTEX
  5
1A9A5
  8
0
 10
-0.162475
 20
0.0311675
 30
0.0
 70
    32
  0
VERTEX
  5
1A9A6
  8
0
 10
-0.130453
 20
0.0199833
 30
0.0
 70
    32
  0
VERTEX
  5
1A9A7
  8
0
 10
-0.0981154
 20
0.0112564
 30
0.0
 70
    32
  0
VERTEX
  5
1A9A8
  8
0
 10
-0.0655419
 20
0.00500788
 30
0.0
 70
    32
  0
VERTEX
  5
1A9A9
  8
0
 10
-0.0328105
 20
0.00125273
 30
0.0
 70
    32
  0
VERTEX
  5
1A9AA
  8
0
 10
0.0
 20
0.000000000000014
 30
0.0
 70
    32
  0
SEQEND
  5
1A9AB
  8
0
  0
ENDBLK
  5
1A9AC
  8
0
  0
ENDSEC
  0
SECTION
  2
ENTITIES
  0
TEXT
  5
1A9AD
  8
0
  6
CONTINUOUS
 62
     7
 10
30.208542999999992
 20
230.4610899999999
 30
0.0
 40
8.4666671999999998
  1
HF-MP23B
  0
LINE
  5
1A9AE
  8
CENTER
 10
284.67929922240558
 20
170.48887999999991
 30
0.0
 11
125.87415784273951
 21
170.48887999999991
 31
0.0
  0
LINE
  5
1A9AF
  8
0
 62
     5
 10
251.6835184453968
 20
177.48887999999991
 30
0.0
 11
277.88351844539682
 21
177.48887999999991
 31
0.0
  0
LINE
  5
1A9B0
  8
0
 62
     5
 10
251.6835184453968
 20
163.48887999999971
 30
0.0
 11
277.88351844539682
 21
163.48887999999971
 31
0.0
  0
LINE
  5
1A9B1
  8
CENTER
 10
91.146924854023425
 20
151.78639814597631
 30
0.0
 11
102.8880356543504
 21
140.0452873456494
 31
0.0
  0
LINE
  5
1A9B2
  8
CENTER
 10
91.146924854023567
 20
189.1913618540234
 30
0.0
 11
102.8880356543504
 21
200.93247265435031
 31
0.0
  0
LINE
  5
1A9B3
  8
CENTER
 10
107.7411320414997
 20
170.48887999999991
 30
0.0
 11
37.147753958500218
 21
170.48887999999991
 31
0.0
  0
ARC
  5
1A9B4
  8
0
 62
     5
 10
97.944442999949985
 20
195.98887999999991
 30
0.0
 40
4.5
 50
0.0
 51
90.0
  0
ARC
  5
1A9B5
  8
0
 62
     5
 10
101.4444429999499
 20
189.12318261789969
 30
0.0
 40
1.0
 50
0.0
 51
85.611600842500224
  0
ARC
  5
1A9B6
  8
0
 62
     5
 10
101.4444429999499
 20
181.98887999999991
 30
0.0
 40
1.0
 50
0.0
 51
90.0
  0
ARC
  5
1A9B7
  8
0
 62
     5
 10
101.4444429999499
 20
151.8545773820999
 30
0.0
 40
1.0
 50
274.38839915749969
 51
0.0
  0
ARC
  5
1A9B8
  8
0
 62
     5
 10
101.4444429999499
 20
158.68887999999981
 30
0.0
 40
1.0
 50
270.0
 51
0.0
  0
ARC
  5
1A9B9
  8
0
 62
     5
 10
97.944442999949985
 20
144.98887999999991
 30
0.0
 40
4.5
 50
270.0
 51
0.0
  0
LINE
  5
1A9BA
  8
CENTER
 10
72.444443000000007
 20
204.2065716761451
 30
0.0
 11
72.444443000000007
 21
118.5933741867086
 31
0.0
  0
LINE
  5
1A9BB
  8
0
 62
     5
 10
102.4444429999499
 20
151.8545773820999
 30
0.0
 11
102.4444429999499
 21
189.12318261789969
 31
0.0
  0
LINE
  5
1A9BC
  8
0
 62
     5
 10
42.178278599949998
 20
151.60812793659991
 30
0.0
 11
42.178278599949998
 21
189.36963206339991
 31
0.0
  0
LINE
  5
1A9BD
  8
0
 62
     5
 10
42.444442999950049
 20
189.12318261789969
 30
0.0
 11
42.444442999950049
 21
151.8545773820999
 31
0.0
  0
LINE
  5
1A9BE
  8
HIDDEN
 10
66.467760293523412
 20
123.3888799999999
 30
0.0
 11
60.87817975702346
 21
123.3888799999999
 31
0.0
  0
LINE
  5
1A9BF
  8
0
 62
     5
 10
66.73963495502332
 20
129.68887999999939
 30
0.0
 11
57.555800962823341
 21
129.68887999999939
 31
0.0
  0
LINE
  5
1A9C0
  8
HIDDEN
 10
66.679535343549674
 20
124.49210521498691
 30
0.0
 11
60.555838861508732
 21
124.4921064841907
 31
0.0
  0
LINE
  5
1A9C1
  8
0
 62
     5
 10
59.079243276050043
 20
136.28887999999969
 30
0.0
 11
67.968438341449982
 21
136.28887999999969
 31
0.0
  0
LINE
  5
1A9C2
  8
0
 62
     5
 10
69.10673401065003
 20
132.98887999999991
 30
0.0
 11
52.955888812449999
 21
132.98887999999991
 31
0.0
  0
LINE
  5
1A9C3
  8
0
 62
     5
 10
50.254612705550031
 20
137.48887999999991
 30
0.0
 11
74.63427329435001
 21
137.48887999999991
 31
0.0
  0
LINE
  5
1A9C4
  8
0
 62
     5
 10
48.944442999950027
 20
138.48887999999991
 30
0.0
 11
76.944442999950013
 21
138.48887999999991
 31
0.0
  0
ARC
  5
1A9C5
  8
0
 62
     5
 10
51.155651411831357
 20
143.48887999999991
 30
0.0
 40
1.5
 50
269.9999999999992
 51
4.0584021088608271
  0
LINE
  5
1A9C6
  8
CENTER
 10
53.741961145976482
 20
151.78639814597651
 30
0.0
 11
42.000850345649518
 21
140.04528734564951
 31
0.0
  0
LINE
  5
1A9C7
  8
0
 62
     5
 10
51.375880078150018
 20
141.4904316587
 30
0.0
 11
51.349768074649973
 21
141.9896558335999
 31
0.0
  0
ARC
  5
1A9C8
  8
0
 62
     5
 10
49.244442999949982
 20
141.48887999999991
 30
0.0
 40
0.5
 50
90.0
 51
180.0
  0
ARC
  5
1A9C9
  8
0
 62
     5
 10
46.944442999950013
 20
144.98887999999991
 30
0.0
 40
4.5
 50
180.0
 51
270.0
  0
ARC
  5
1A9CA
  8
HIDDEN
 10
51.754608120350021
 20
132.99210521498671
 30
0.0
 40
1.5
 50
180.0
 51
270.0
  0
LINE
  5
1A9CB
  8
HIDDEN
 10
50.254608120350028
 20
132.99210521498671
 30
0.0
 11
50.254608120350028
 21
135.74210521498691
 31
0.0
  0
LINE
  5
1A9CC
  8
0
 62
     5
 10
50.254608120350028
 20
137.48887999999991
 30
0.0
 11
50.254608120350028
 21
138.48887999999991
 31
0.0
  0
LINE
  5
1A9CD
  8
0
 62
     5
 10
50.303854757950049
 20
138.48887999999991
 30
0.0
 11
50.303854757950049
 21
137.48887999999991
 31
0.0
  0
LINE
  5
1A9CE
  8
0
 62
     5
 10
48.74444299995001
 20
140.48887999999991
 30
0.0
 11
46.944442999950013
 21
140.48887999999991
 31
0.0
  0
ARC
  5
1A9CF
  8
0
 62
     5
 10
48.944442999950027
 20
138.6888799999999
 30
0.0
 40
0.2
 50
180.0
 51
270.0
  0
LINE
  5
1A9D0
  8
0
 62
     5
 10
48.74444299995001
 20
138.6888799999999
 30
0.0
 11
48.74444299995001
 21
141.48887999999991
 31
0.0
  0
LINE
  5
1A9D1
  8
0
 62
     5
 10
59.079243276050043
 20
133.28887999999961
 30
0.0
 11
59.079243276050043
 21
136.28887999999969
 31
0.0
  0
LINE
  5
1A9D2
  8
0
 62
     5
 10
52.354608120350044
 20
137.48887999999991
 30
0.0
 11
52.354608120350044
 21
133.5888799999999
 31
0.0
  0
LINE
  5
1A9D3
  8
0
 62
     5
 10
52.378000273150001
 20
137.48887999999991
 30
0.0
 11
52.378000273150001
 21
133.5888799999999
 31
0.0
  0
LINE
  5
1A9D4
  8
0
 62
     5
 10
53.942344923650033
 20
133.5888799999999
 30
0.0
 11
53.942344923650033
 21
137.48887999999991
 31
0.0
  0
LINE
  5
1A9D5
  8
0
 62
     5
 10
56.116178254350011
 20
137.48887999999991
 30
0.0
 11
56.116178254350011
 21
133.5888799999999
 31
0.0
  0
LINE
  5
1A9D6
  8
HIDDEN
 10
51.754569701549997
 20
131.49210521498691
 30
0.0
 11
56.538981630050003
 21
131.49210521498691
 31
0.0
  0
LINE
  5
1A9D7
  8
0
 62
     5
 10
53.660762886549989
 20
133.5888799999999
 30
0.0
 11
57.894017267350037
 21
133.5888799999999
 31
0.0
  0
LINE
  5
1A9D8
  8
HIDDEN
 10
56.15410011502351
 20
130.8566983711878
 30
0.0
 11
56.15410011502351
 21
127.3888799999999
 31
0.0
  0
LINE
  5
1A9D9
  8
0
 62
     5
 10
55.537370733650022
 20
133.5888799999999
 30
0.0
 11
55.537370733650022
 21
132.98887999999991
 31
0.0
  0
LINE
  5
1A9DA
  8
0
 62
     5
 10
52.955888812449999
 20
132.98887999999991
 30
0.0
 11
52.659582310249952
 21
133.28887999999961
 31
0.0
  0
LINE
  5
1A9DB
  8
0
 62
     5
 10
52.659582310249952
 20
133.28887999999961
 30
0.0
 11
53.660762886549989
 21
133.28887999999961
 31
0.0
  0
LINE
  5
1A9DC
  8
0
 62
     5
 10
52.659582310249952
 20
133.5888799999999
 30
0.0
 11
52.354656584250023
 21
133.5888799999999
 31
0.0
  0
LINE
  5
1A9DD
  8
0
 62
     5
 10
52.659582310249952
 20
133.5888799999999
 30
0.0
 11
52.659582310249952
 21
133.28887999999961
 31
0.0
  0
LINE
  5
1A9DE
  8
0
 62
     5
 10
53.660762886549989
 20
133.28887999999961
 30
0.0
 11
53.660762886549989
 21
133.5888799999999
 31
0.0
  0
LINE
  5
1A9DF
  8
0
 62
     5
 10
53.957069388749971
 20
132.98887999999991
 30
0.0
 11
53.660762886549989
 21
133.28887999999961
 31
0.0
  0
LINE
  5
1A9E0
  8
0
 62
     5
 10
57.23508111592335
 20
129.98887999999971
 30
0.0
 11
57.23508111592335
 21
132.98887999999991
 31
0.0
  0
LINE
  5
1A9E1
  8
0
 62
     5
 10
57.555800962823341
 20
129.68887999999939
 30
0.0
 11
57.23508111592335
 21
129.98887999999971
 31
0.0
  0
LINE
  5
1A9E2
  8
HIDDEN
 10
56.538981630050003
 20
131.49210521498691
 30
0.0
 11
56.538981630050003
 21
128.88048020978701
 31
0.0
  0
LINE
  5
1A9E3
  8
0
 62
     5
 10
57.894017267350037
 20
133.28887999999961
 30
0.0
 11
59.079243276050043
 21
133.28887999999961
 31
0.0
  0
LINE
  5
1A9E4
  8
0
 62
     5
 10
57.894017267350037
 20
133.5888799999999
 30
0.0
 11
57.894017267350037
 21
133.28887999999961
 31
0.0
  0
LINE
  5
1A9E5
  8
0
 62
     5
 10
57.84708692785
 20
132.98887999999991
 30
0.0
 11
57.894017267350037
 21
133.28887999999961
 31
0.0
  0
LINE
  5
1A9E6
  8
0
 62
     5
 10
59.032312936549999
 20
132.98887999999991
 30
0.0
 11
59.079243276050043
 21
133.28887999999961
 31
0.0
  0
LINE
  5
1A9E7
  8
0
 62
     5
 10
57.596791783850023
 20
132.98887999999991
 30
0.0
 11
57.596791783850023
 21
133.5888799999999
 31
0.0
  0
LINE
  5
1A9E8
  8
0
 62
     5
 10
51.868199408350051
 20
137.48887999999991
 30
0.0
 11
51.868199408350051
 21
138.48887999999991
 31
0.0
  0
LINE
  5
1A9E9
  8
0
 62
     5
 10
51.375880078150018
 20
141.4904308957999
 30
0.0
 11
51.375880078150018
 21
138.48887999999991
 31
0.0
  0
LINE
  5
1A9EA
  8
0
 62
     5
 10
56.444690630850019
 20
138.48887999999991
 30
0.0
 11
56.444690630850019
 21
137.48887999999991
 31
0.0
  0
CIRCLE
  5
1A9EB
  8
0
 62
     5
 10
45.955735348149979
 20
154.19291832429991
 30
0.0
 40
2.75
  0
ARC
  5
1A9EC
  8
0
 62
     5
 10
45.955735348149979
 20
154.19291832429991
 30
0.0
 40
2.9500000000000002
 50
276.8138543441998
 51
263.18614565579992
  0
CIRCLE
  5
1A9ED
  8
0
 62
     5
 10
45.955735348149979
 20
154.19291832429991
 30
0.0
 40
3.0
  0
ARC
  5
1A9EE
  8
0
 62
     5
 10
46.444442999950027
 20
154.48887999999999
 30
0.0
 40
3.5
 50
0.0
 51
90.0
  0
ARC
  5
1A9EF
  8
CENTER
 10
72.444443000000007
 20
170.48887999999991
 30
0.0
 40
34.999999999958803
 50
216.25402293116221
 51
234.3810343967447
  0
ARC
  5
1A9F0
  8
0
 62
     5
 10
47.695705658450031
 20
145.74014265849991
 30
0.0
 40
4.5338355998999971
 50
3.6875717785018272
 51
86.3124282214998
  0
ARC
  5
1A9F1
  8
0
 62
     5
 10
47.695705658450031
 20
145.74014265849991
 30
0.0
 40
4.799999999999998
 50
3.6875717785018272
 51
86.3124282214998
  0
LINE
  5
1A9F2
  8
0
 62
     5
 10
42.444442999950049
 20
144.98887999999991
 30
0.0
 11
42.444442999950049
 21
150.92951143839991
 31
0.0
  0
CIRCLE
  5
1A9F3
  8
0
 62
     5
 10
47.695705658450031
 20
145.74014265849991
 30
0.0
 40
2.8999999999999981
  0
POLYLINE
  5
1A9F4
  8
0
 62
     5
 66
     1
 10
0.0
 20
0.0
 30
0.0
  0
VERTEX
  5
1B53F
  8
0
 62
     5
 10
50.235385869150022
 20
141.98460243079981
 30
0.0
  0
VERTEX
  5
1B540
  8
0
 62
     5
 10
50.26754651375002
 20
141.9878094616999
 30
0.0
  0
VERTEX
  5
1B541
  8
0
 62
     5
 10
50.299845467350032
 20
141.98887999999991
 30
0.0
  0
SEQEND
  5
1B542
  8
0
 62
     5
  0
LINE
  5
1A9F9
  8
0
 62
     5
 10
51.155651411831343
 20
141.98887999999991
 30
0.0
 11
49.244442999949982
 21
141.98887999999999
 31
0.0
  0
LINE
  5
1A9FA
  8
0
 62
     5
 10
46.235735348150037
 20
152.9748294626998
 30
0.0
 11
46.095735348150008
 21
153.17803084189981
 31
0.0
  0
LINE
  5
1A9FB
  8
0
 62
     5
 10
46.415966392150047
 20
154.65314936839999
 30
0.0
 11
46.095735348150008
 21
155.20780580679991
 31
0.0
  0
LINE
  5
1A9FC
  8
0
 62
     5
 10
46.235735348150037
 20
152.41482946269991
 30
0.0
 11
46.095735348150008
 21
153.12203084189991
 31
0.0
  0
LINE
  5
1A9FD
  8
0
 62
     5
 10
46.235735348150037
 20
155.97100718599981
 30
0.0
 11
46.095735348150008
 21
155.26380580680001
 31
0.0
  0
LINE
  5
1A9FE
  8
0
 62
     5
 10
46.095735348150008
 20
153.17803084189981
 30
0.0
 11
46.415966392150047
 21
153.73268728029981
 31
0.0
  0
LINE
  5
1A9FF
  8
0
 62
     5
 10
46.235735348150037
 20
155.41100718599981
 30
0.0
 11
46.095735348150008
 21
155.20780580679991
 31
0.0
  0
ARC
  5
1AA00
  8
0
 62
     5
 10
45.955735348149979
 20
154.19291832429991
 30
0.0
 40
1.8
 50
261.05098193469991
 51
278.94901806529992
  0
ARC
  5
1AA01
  8
0
 62
     5
 10
45.955735348149979
 20
154.19291832429991
 30
0.0
 40
1.8
 50
81.050981934699905
 51
98.949018065300081
  0
LINE
  5
1AA02
  8
0
 62
     5
 10
46.579099702550003
 20
153.5695539699997
 30
0.0
 11
45.332370993750033
 21
154.81628267869991
 31
0.0
  0
LINE
  5
1AA03
  8
0
 62
     5
 10
44.884847865750032
 20
154.33291832429981
 30
0.0
 11
47.026622830549996
 21
154.05291832429981
 31
0.0
  0
LINE
  5
1AA04
  8
0
 62
     5
 10
44.940847865750037
 20
154.33291832429981
 30
0.0
 11
46.970622830549992
 21
154.05291832429981
 31
0.0
  0
LINE
  5
1AA05
  8
0
 62
     5
 10
44.884847865750032
 20
154.05291832429981
 30
0.0
 11
47.026622830549996
 21
154.33291832429981
 31
0.0
  0
LINE
  5
1AA06
  8
0
 62
     5
 10
44.940847865750037
 20
154.05291832429981
 30
0.0
 11
46.970622830549992
 21
154.33291832429981
 31
0.0
  0
LINE
  5
1AA07
  8
0
 62
     5
 10
45.332370993750033
 20
153.5695539699997
 30
0.0
 11
46.579099702550003
 21
154.81628267869991
 31
0.0
  0
ARC
  5
1AA08
  8
0
 62
     5
 10
72.444442999950013
 20
529.74344993589955
 30
0.0
 40
380.26616440010002
 50
265.57435662750009
 51
266.31242822149972
  0
ARC
  5
1AA09
  8
0
 62
     5
 10
72.444442999950013
 20
529.74344993589955
 30
0.0
 40
380.0
 50
265.61160084250008
 51
266.31242822149972
  0
LINE
  5
1AA0A
  8
0
 62
     5
 10
44.737646486450039
 20
154.47291832429991
 30
0.0
 11
44.940847865750037
 21
154.33291832429981
 31
0.0
  0
LINE
  5
1AA0B
  8
0
 62
     5
 10
45.675735348149992
 20
155.41100718599981
 30
0.0
 11
45.815735348150021
 21
155.20780580679991
 31
0.0
  0
LINE
  5
1AA0C
  8
0
 62
     5
 10
45.675735348149992
 20
152.9748294626998
 30
0.0
 11
45.332370993750033
 21
153.5695539699997
 31
0.0
  0
LINE
  5
1AA0D
  8
0
 62
     5
 10
45.495504304149982
 20
153.73268728029981
 30
0.0
 11
45.815735348150021
 21
153.17803084189981
 31
0.0
  0
LINE
  5
1AA0E
  8
0
 62
     5
 10
45.675735348149992
 20
155.97100718599981
 30
0.0
 11
45.815735348150021
 21
155.26380580680001
 31
0.0
  0
LINE
  5
1AA0F
  8
0
 62
     5
 10
45.675735348149992
 20
152.41482946269991
 30
0.0
 11
45.675735348149992
 21
152.9748294626998
 31
0.0
  0
LINE
  5
1AA10
  8
0
 62
     5
 10
45.675735348149992
 20
155.41100718599981
 30
0.0
 11
45.675735348149992
 21
155.97100718599981
 31
0.0
  0
LINE
  5
1AA11
  8
0
 62
     5
 10
45.815735348150021
 20
155.26380580680001
 30
0.0
 11
45.815735348150021
 21
155.20780580679991
 31
0.0
  0
LINE
  5
1AA12
  8
0
 62
     5
 10
45.815735348150021
 20
153.17803084189981
 30
0.0
 11
45.815735348150021
 21
153.12203084189991
 31
0.0
  0
LINE
  5
1AA13
  8
0
 62
     5
 10
46.095735348150008
 20
153.12203084189991
 30
0.0
 11
46.095735348150008
 21
153.17803084189981
 31
0.0
  0
LINE
  5
1AA14
  8
0
 62
     5
 10
46.095735348150008
 20
155.20780580679991
 30
0.0
 11
46.095735348150008
 21
155.26380580680001
 31
0.0
  0
LINE
  5
1AA15
  8
0
 62
     5
 10
45.332370993750033
 20
153.5695539699997
 30
0.0
 11
44.737646486450039
 21
153.91291832429991
 31
0.0
  0
LINE
  5
1AA16
  8
0
 62
     5
 10
44.940847865750037
 20
154.05291832429981
 30
0.0
 11
45.495504304149982
 21
153.73268728029981
 31
0.0
  0
LINE
  5
1AA17
  8
0
 62
     5
 10
46.095735348150008
 20
153.17803084189981
 30
0.0
 11
45.815735348150021
 21
155.20780580679991
 31
0.0
  0
LINE
  5
1AA18
  8
0
 62
     5
 10
46.095735348150008
 20
153.12203084189991
 30
0.0
 11
45.815735348150021
 21
155.26380580680001
 31
0.0
  0
LINE
  5
1AA19
  8
0
 62
     5
 10
45.815735348150021
 20
153.12203084189991
 30
0.0
 11
46.095735348150008
 21
155.26380580680001
 31
0.0
  0
LINE
  5
1AA1A
  8
0
 62
     5
 10
45.815735348150021
 20
153.17803084189981
 30
0.0
 11
46.095735348150008
 21
155.20780580679991
 31
0.0
  0
LINE
  5
1AA1B
  8
0
 62
     5
 10
45.675735348149992
 20
152.41482946269991
 30
0.0
 11
45.815735348150021
 21
153.12203084189991
 31
0.0
  0
LINE
  5
1AA1C
  8
0
 62
     5
 10
44.177646486449987
 20
154.47291832429991
 30
0.0
 11
44.884847865750032
 21
154.33291832429981
 31
0.0
  0
LINE
  5
1AA1D
  8
0
 62
     5
 10
44.737646486450039
 20
153.91291832429991
 30
0.0
 11
44.177646486449987
 21
153.91291832429991
 31
0.0
  0
LINE
  5
1AA1E
  8
0
 62
     5
 10
44.884847865750032
 20
154.05291832429981
 30
0.0
 11
44.940847865750037
 21
154.05291832429981
 31
0.0
  0
LINE
  5
1AA1F
  8
0
 62
     5
 10
44.940847865750037
 20
154.33291832429981
 30
0.0
 11
44.884847865750032
 21
154.33291832429981
 31
0.0
  0
LINE
  5
1AA20
  8
0
 62
     5
 10
44.177646486449987
 20
154.47291832429991
 30
0.0
 11
44.737646486450039
 21
154.47291832429991
 31
0.0
  0
LINE
  5
1AA21
  8
0
 62
     5
 10
45.332370993750033
 20
154.81628267869991
 30
0.0
 11
45.675735348149992
 21
155.41100718599981
 31
0.0
  0
LINE
  5
1AA22
  8
0
 62
     5
 10
45.815735348150021
 20
155.20780580679991
 30
0.0
 11
45.495504304149982
 21
154.65314936839999
 31
0.0
  0
LINE
  5
1AA23
  8
0
 62
     5
 10
45.675735348149992
 20
152.9748294626998
 30
0.0
 11
45.815735348150021
 21
153.17803084189981
 31
0.0
  0
LINE
  5
1AA24
  8
0
 62
     5
 10
44.177646486449987
 20
153.91291832429991
 30
0.0
 11
44.884847865750032
 21
154.05291832429981
 31
0.0
  0
LINE
  5
1AA25
  8
0
 62
     5
 10
44.737646486450039
 20
153.91291832429991
 30
0.0
 11
44.940847865750037
 21
154.05291832429981
 31
0.0
  0
LINE
  5
1AA26
  8
0
 62
     5
 10
44.737646486450039
 20
154.47291832429991
 30
0.0
 11
45.332370993750033
 21
154.81628267869991
 31
0.0
  0
LINE
  5
1AA27
  8
0
 62
     5
 10
45.495504304149982
 20
154.65314936839999
 30
0.0
 11
44.940847865750037
 21
154.33291832429981
 31
0.0
  0
ARC
  5
1AA28
  8
0
 62
     5
 10
45.955735348149979
 20
154.19291832429991
 30
0.0
 40
1.1277213352999991
 50
109.03326855569981
 51
160.96673144430119
  0
ARC
  5
1AA29
  8
0
 62
     5
 10
45.955735348149979
 20
154.19291832429991
 30
0.0
 40
1.0800000000000001
 50
172.55180943900211
 51
187.4481905609978
  0
ARC
  5
1AA2A
  8
0
 62
     5
 10
45.955735348149979
 20
154.19291832429991
 30
0.0
 40
1.0800000000000001
 50
262.55180943899973
 51
277.44819056100022
  0
ARC
  5
1AA2B
  8
0
 62
     5
 10
45.955735348149979
 20
154.19291832429991
 30
0.0
 40
1.0800000000000001
 50
82.551809438999697
 51
97.448190561000288
  0
ARC
  5
1AA2C
  8
0
 62
     5
 10
45.955735348149979
 20
154.19291832429991
 30
0.0
 40
1.1277213352999991
 50
199.0332685556983
 51
250.9667314443
  0
ARC
  5
1AA2D
  8
0
 62
     5
 10
45.955735348149979
 20
154.19291832429991
 30
0.0
 40
1.8
 50
171.05098193469971
 51
188.94901806529981
  0
LINE
  5
1AA2E
  8
0
 62
     5
 10
45.605735348149999
 20
151.46765765949971
 30
0.0
 11
45.605735348149999
 21
151.26375462119981
 31
0.0
  0
ARC
  5
1AA2F
  8
0
 62
     5
 10
43.444442999949992
 20
151.8545773820999
 30
0.0
 40
1.0
 50
180.0
 51
265.61160084250008
  0
LINE
  5
1AA30
  8
0
 62
     5
 10
46.579099702550003
 20
154.81628267869991
 30
0.0
 11
47.17382420984999
 21
154.47291832429991
 31
0.0
  0
LINE
  5
1AA31
  8
0
 62
     5
 10
47.17382420984999
 20
153.91291832429991
 30
0.0
 11
46.970622830549992
 21
154.05291832429981
 31
0.0
  0
LINE
  5
1AA32
  8
0
 62
     5
 10
47.733824209850027
 20
153.91291832429991
 30
0.0
 11
47.026622830549996
 21
154.05291832429981
 31
0.0
  0
LINE
  5
1AA33
  8
0
 62
     5
 10
47.733824209850027
 20
153.91291832429991
 30
0.0
 11
47.17382420984999
 21
153.91291832429991
 31
0.0
  0
LINE
  5
1AA34
  8
0
 62
     5
 10
46.970622830549992
 20
154.05291832429981
 30
0.0
 11
47.026622830549996
 21
154.05291832429981
 31
0.0
  0
LINE
  5
1AA35
  8
0
 62
     5
 10
47.026622830549996
 20
154.33291832429981
 30
0.0
 11
46.970622830549992
 21
154.33291832429981
 31
0.0
  0
LINE
  5
1AA36
  8
0
 62
     5
 10
47.17382420984999
 20
154.47291832429991
 30
0.0
 11
47.733824209850027
 21
154.47291832429991
 31
0.0
  0
LINE
  5
1AA37
  8
0
 62
     5
 10
47.733824209850027
 20
154.47291832429991
 30
0.0
 11
47.026622830549996
 21
154.33291832429981
 31
0.0
  0
LINE
  5
1AA38
  8
0
 62
     5
 10
47.17382420984999
 20
154.47291832429991
 30
0.0
 11
46.970622830549992
 21
154.33291832429981
 31
0.0
  0
LINE
  5
1AA39
  8
0
 62
     5
 10
47.17382420984999
 20
153.91291832429991
 30
0.0
 11
46.579099702550003
 21
153.5695539699997
 31
0.0
  0
ARC
  5
1AA3A
  8
0
 62
     5
 10
45.955735348149979
 20
154.19291832429991
 30
0.0
 40
1.0800000000000001
 50
352.551809439002
 51
7.4481905609978769
  0
ARC
  5
1AA3B
  8
0
 62
     5
 10
45.955735348149979
 20
154.19291832429991
 30
0.0
 40
1.8
 50
351.05098193469979
 51
8.9490180653002085
  0
LINE
  5
1AA3C
  8
0
 62
     5
 10
46.235735348150037
 20
155.97100718599981
 30
0.0
 11
46.235735348150037
 21
155.41100718599981
 31
0.0
  0
LINE
  5
1AA3D
  8
0
 62
     5
 10
46.235735348150037
 20
152.9748294626998
 30
0.0
 11
46.235735348150037
 21
152.41482946269991
 31
0.0
  0
LINE
  5
1AA3E
  8
0
 62
     5
 10
46.235735348150037
 20
155.41100718599981
 30
0.0
 11
46.579099702550003
 21
154.81628267869991
 31
0.0
  0
LINE
  5
1AA3F
  8
0
 62
     5
 10
46.970622830549992
 20
154.33291832429981
 30
0.0
 11
46.415966392150047
 21
154.65314936839999
 31
0.0
  0
LINE
  5
1AA40
  8
0
 62
     5
 10
46.579099702550003
 20
153.5695539699997
 30
0.0
 11
46.235735348150037
 21
152.9748294626998
 31
0.0
  0
LINE
  5
1AA41
  8
0
 62
     5
 10
46.415966392150047
 20
153.73268728029981
 30
0.0
 11
46.970622830549992
 21
154.05291832429981
 31
0.0
  0
ARC
  5
1AA42
  8
0
 62
     5
 10
45.955735348149979
 20
154.19291832429991
 30
0.0
 40
1.1277213352999991
 50
289.03326855569981
 51
340.9667314443011
  0
ARC
  5
1AA43
  8
0
 62
     5
 10
45.955735348149979
 20
154.19291832429991
 30
0.0
 40
1.1277213352999991
 50
19.033268555698768
 51
70.96673144430018
  0
ARC
  5
1AA44
  8
0
 62
     5
 10
50.944442999949999
 20
150.5449013085998
 30
0.0
 40
1.0
 50
180.0
 51
235.93541006419881
  0
LINE
  5
1AA45
  8
0
 62
     5
 10
46.305735348150023
 20
151.26375462119981
 30
0.0
 11
46.305735348150023
 21
151.46765765949971
 31
0.0
  0
LINE
  5
1AA46
  8
0
 62
     5
 10
49.944442999950063
 20
154.48887999999999
 30
0.0
 11
49.944442999950063
 21
150.5449013085998
 31
0.0
  0
ARC
  5
1AA47
  8
0
 62
     5
 10
431.69901293946481
 20
170.4888800002461
 30
0.0
 40
380.26616440372283
 50
183.6875717785033
 51
184.18672164793239
  0
ARC
  5
1AA48
  8
0
 62
     5
 10
431.69901293584991
 20
170.48887999999991
 30
0.0
 40
380.0
 50
183.68757177850171
 51
184.0584021088558
  0
LINE
  5
1AA49
  8
0
 62
     5
 10
43.444442999949992
 20
157.98887999999991
 30
0.0
 11
46.444442999950027
 21
157.98887999999991
 31
0.0
  0
ARC
  5
1AA4A
  8
0
 62
     5
 10
43.444442999949992
 20
158.98887999999991
 30
0.0
 40
1.0
 50
180.0
 51
270.0
  0
LINE
  5
1AA4B
  8
CENTER
 10
63.14444300000001
 20
142.50140827692411
 30
0.0
 11
63.14444300000001
 21
122.14296357749529
 31
0.0
  0
LINE
  5
1AA4C
  8
CENTER
 10
78.34444299999997
 20
142.50140827692411
 30
0.0
 11
78.34444299999997
 21
121.43332916816171
 31
0.0
  0
LINE
  5
1AA4D
  8
CENTER
 10
62.444443000000021
 20
142.50140827692411
 30
0.0
 11
62.444443000000021
 21
122.14296357749529
 31
0.0
  0
ARC
  5
1AA4E
  8
0
 62
     5
 10
-286.81012693594982
 20
170.48887999999991
 30
0.0
 40
380.0
 50
355.6116008424986
 51
356.31242822149801
  0
ARC
  5
1AA4F
  8
0
 62
     5
 10
-286.81012693594982
 20
170.48887999999991
 30
0.0
 40
380.26616440010002
 50
355.43488272469762
 51
356.31242822149801
  0
LINE
  5
1AA50
  8
0
 62
     5
 10
84.944442999949999
 20
141.48887999999991
 30
0.0
 11
84.944442999949999
 21
144.48887999999991
 31
0.0
  0
CIRCLE
  5
1AA51
  8
0
 62
     5
 10
88.740404675649984
 20
144.0001723481999
 30
0.0
 40
2.75
  0
ARC
  5
1AA52
  8
0
 62
     5
 10
88.740404675649984
 20
144.0001723481999
 30
0.0
 40
2.9500000000000002
 50
276.8138543441998
 51
263.18614565579992
  0
CIRCLE
  5
1AA53
  8
0
 62
     5
 10
88.740404675649984
 20
144.0001723481999
 30
0.0
 40
3.0
  0
LINE
  5
1AA54
  8
HIDDEN
 10
72.89444299995003
 20
123.3888799999999
 30
0.0
 11
83.794442998309393
 21
123.3888799999999
 31
0.0
  0
LINE
  5
1AA55
  8
0
 62
     5
 10
77.644442999950016
 20
140.48887999999991
 30
0.0
 11
91.078745617950034
 21
140.48887999999991
 31
0.0
  0
LINE
  5
1AA56
  8
0
 62
     5
 10
70.98614322295002
 20
131.68887999999939
 30
0.0
 11
85.702742776950018
 21
131.68887999999939
 31
0.0
  0
LINE
  5
1AA57
  8
0
 62
     5
 10
91.767135023950047
 20
137.0888799999999
 30
0.0
 11
73.534277879650034
 21
137.0888799999999
 31
0.0
  0
LINE
  5
1AA58
  8
0
 62
     5
 10
92.249650777349984
 20
140.22271559989991
 30
0.0
 11
77.202546333649991
 21
140.22271559989991
 31
0.0
  0
ARC
  5
1AA59
  8
HIDDEN
 10
72.89444299995003
 20
127.3888799999999
 30
0.0
 40
4.0
 50
226.9037386681004
 51
270.0
  0
LINE
  5
1AA5A
  8
HIDDEN
 10
70.786905242250057
 20
131.485747707787
 30
0.0
 11
73.134316298450031
 21
131.49210521498691
 31
0.0
  0
LINE
  5
1AA5B
  8
0
 62
     5
 10
71.932997187550015
 20
132.98887999999991
 30
0.0
 11
69.17813289854999
 21
132.98887999999991
 31
0.0
  0
LINE
  5
1AA5C
  8
0
 62
     5
 10
69.153664350150009
 20
133.5888799999999
 30
0.0
 11
72.534229415750048
 21
133.5888799999999
 31
0.0
  0
LINE
  5
1AA5D
  8
0
 62
     5
 10
67.608639071850021
 20
132.98887999999991
 30
0.0
 11
67.608639071850021
 21
136.28887999999969
 31
0.0
  0
LINE
  5
1AA5E
  8
0
 62
     5
 10
67.968438341449982
 20
136.28887999999969
 30
0.0
 11
67.968438341449982
 21
133.28887999999961
 31
0.0
  0
LINE
  5
1AA5F
  8
0
 62
     5
 10
70.931503363250044
 20
133.5888799999999
 30
0.0
 11
70.931503363250044
 21
137.48887999999991
 31
0.0
  0
LINE
  5
1AA60
  8
0
 62
     5
 10
67.060354801923381
 20
129.98887999999971
 30
0.0
 11
66.73963495502332
 21
129.68887999999939
 31
0.0
  0
LINE
  5
1AA61
  8
0
 62
     5
 10
67.052714416473378
 20
132.98887999999991
 30
0.0
 11
67.060354801923381
 21
129.98887999999971
 31
0.0
  0
LINE
  5
1AA62
  8
0
 62
     5
 10
71.656925491150034
 20
132.98887999999991
 30
0.0
 11
71.673847831550034
 21
131.68887999999939
 31
0.0
  0
LINE
  5
1AA63
  8
0
 62
     5
 10
70.35269584255002
 20
132.98887999999991
 30
0.0
 11
70.35269584255002
 21
133.5888799999999
 31
0.0
  0
LINE
  5
1AA64
  8
0
 62
     5
 10
67.968438341449982
 20
133.28887999999961
 30
0.0
 11
69.153664350150009
 21
133.28887999999961
 31
0.0
  0
LINE
  5
1AA65
  8
0
 62
     5
 10
69.98614322295002
 20
131.68887999999939
 30
0.0
 11
69.94528907714998
 21
132.98887999999991
 31
0.0
  0
LINE
  5
1AA66
  8
0
 62
     5
 10
69.153664350150009
 20
133.28887999999961
 30
0.0
 11
69.153664350150009
 21
133.5888799999999
 31
0.0
  0
LINE
  5
1AA67
  8
0
 62
     5
 10
67.968438341449982
 20
133.28887999999961
 30
0.0
 11
67.921508001950002
 21
132.98887999999991
 31
0.0
  0
LINE
  5
1AA68
  8
0
 62
     5
 10
69.153664350150009
 20
133.28887999999961
 30
0.0
 11
69.10673401065003
 21
132.98887999999991
 31
0.0
  0
LINE
  5
1AA69
  8
0
 62
     5
 10
71.260015739850019
 20
137.48887999999991
 30
0.0
 11
71.260015739850019
 21
138.48887999999991
 31
0.0
  0
LINE
  5
1AA6A
  8
HIDDEN
 10
74.634277879650043
 20
132.99210521498671
 30
0.0
 11
74.634277879650043
 21
135.74210521498691
 31
0.0
  0
LINE
  5
1AA6B
  8
0
 62
     5
 10
72.534277879650034
 20
137.48887999999991
 30
0.0
 11
72.534277879650034
 21
133.5888799999999
 31
0.0
  0
ARC
  5
1AA6C
  8
HIDDEN
 10
73.134277879650014
 20
132.99210521498671
 30
0.0
 40
1.5
 50
270.0
 51
0.0
  0
LINE
  5
1AA6D
  8
0
 62
     5
 10
72.229303689750012
 20
133.5888799999999
 30
0.0
 11
72.229303689750012
 21
133.28887999999961
 31
0.0
  0
LINE
  5
1AA6E
  8
0
 62
     5
 10
72.229303689750012
 20
133.28887999999961
 30
0.0
 11
71.932997187550015
 21
132.98887999999991
 31
0.0
  0
LINE
  5
1AA6F
  8
0
 62
     5
 10
81.844442999950033
 20
137.11191039929921
 30
0.0
 11
74.844442999950033
 21
137.11191039929921
 31
0.0
  0
LINE
  5
1AA70
  8
0
 62
     5
 10
81.844442999950033
 20
137.3888799999998
 30
0.0
 11
74.844442999950033
 21
137.3888799999998
 31
0.0
  0
LINE
  5
1AA71
  8
0
 62
     5
 10
74.63427787965
 20
137.48887999999991
 30
0.0
 11
74.63427787965
 21
138.48887999999991
 31
0.0
  0
LINE
  5
1AA72
  8
0
 62
     5
 10
74.844442999950033
 20
137.11191039929921
 30
0.0
 11
74.844442999950033
 21
137.3888799999998
 31
0.0
  0
LINE
  5
1AA73
  8
0
 62
     5
 10
81.844442999950033
 20
137.11191039929921
 30
0.0
 11
81.844442999950033
 21
137.3888799999998
 31
0.0
  0
LINE
  5
1AA74
  8
0
 62
     5
 10
77.144442999950044
 20
139.98887999999991
 30
0.0
 11
77.144442999950044
 21
138.6888799999999
 31
0.0
  0
ARC
  5
1AA75
  8
0
 62
     5
 10
76.944442999950013
 20
138.6888799999999
 30
0.0
 40
0.2
 50
270.0
 51
0.0
  0
ARC
  5
1AA76
  8
0
 62
     5
 10
77.644442999950016
 20
139.98887999999991
 30
0.0
 40
0.5
 50
90.0
 51
180.0
  0
ARC
  5
1AA77
  8
HIDDEN
 10
83.794442999950022
 20
127.3888799999999
 30
0.0
 40
4.0
 50
269.99999997649991
 51
0.0
  0
LINE
  5
1AA78
  8
0
 62
     5
 10
97.944442999949985
 20
140.48887999999991
 30
0.0
 11
92.270560920050045
 21
140.48887999999991
 31
0.0
  0
LINE
  5
1AA79
  8
HIDDEN
 10
87.794442999949993
 20
127.3888799999999
 30
0.0
 11
87.794442999949993
 21
134.5888799999999
 31
0.0
  0
LINE
  5
1AA7A
  8
0
 62
     5
 10
85.015038168450005
 20
131.68887999999939
 30
0.0
 11
85.085330967150014
 21
137.0888799999999
 31
0.0
  0
LINE
  5
1AA7B
  8
0
 62
     5
 10
85.872444613750034
 20
137.0888799999999
 30
0.0
 11
85.702742776950018
 21
131.68887999999939
 31
0.0
  0
ARC
  5
1AA7C
  8
0
 62
     5
 10
83.944442999950041
 20
141.48887999999991
 30
0.0
 40
1.0
 50
270.0
 51
0.0
  0
LINE
  5
1AA7D
  8
HIDDEN
 10
90.094442999754236
 20
134.5888799999999
 30
0.0
 11
87.794442999949993
 21
134.5888799999999
 31
0.0
  0
ARC
  5
1AA7E
  8
HIDDEN
 10
90.094442999899954
 20
135.0888799999999
 30
0.0
 40
0.5
 50
269.99999998330031
 51
0.0
  0
LINE
  5
1AA7F
  8
HIDDEN
 10
90.594442999899954
 20
135.6388799999992
 30
0.0
 11
90.594442999899954
 21
135.0888799999999
 31
0.0
  0
LINE
  5
1AA80
  8
0
 62
     5
 10
92.267135023950047
 20
140.4452719010998
 30
0.0
 11
92.267135023950047
 21
137.58887999999999
 31
0.0
  0
LINE
  5
1AA81
  8
0
 62
     5
 10
88.390404675650018
 20
141.27491168329991
 30
0.0
 11
88.390404675650018
 21
141.07100864500001
 31
0.0
  0
LINE
  5
1AA82
  8
0
 62
     5
 10
89.090404675650021
 20
141.07100864500001
 30
0.0
 11
89.090404675650021
 21
141.27491168329991
 31
0.0
  0
ARC
  5
1AA83
  8
0
 62
     5
 10
91.078745617950034
 20
141.48887999999991
 30
0.0
 40
1.0
 50
270.0
 51
355.6116008424986
  0
ARC
  5
1AA84
  8
0
 62
     5
 10
98.944442999950041
 20
154.1888799999999
 30
0.0
 40
3.5
 50
90.0
 51
180.0
  0
ARC
  5
1AA85
  8
0
 62
     5
 10
97.193180341550004
 20
145.74014265849991
 30
0.0
 40
4.5338355998999971
 50
93.687571778500185
 51
176.3124282214981
  0
LINE
  5
1AA86
  8
0
 62
     5
 10
88.444442999950041
 20
147.98887999999991
 30
0.0
 11
92.38842169145002
 21
147.98887999999991
 31
0.0
  0
ARC
  5
1AA87
  8
0
 62
     5
 10
97.193180341550004
 20
145.74014265849991
 30
0.0
 40
4.799999999999998
 50
93.687571778500185
 51
176.3124282214981
  0
LINE
  5
1AA88
  8
0
 62
     5
 10
87.522315813949987
 20
143.72017234819941
 30
0.0
 11
86.962315813949999
 21
143.72017234819941
 31
0.0
  0
LINE
  5
1AA89
  8
0
 62
     5
 10
86.962315813949999
 20
144.28017234819981
 30
0.0
 11
87.522315813949987
 21
144.28017234819981
 31
0.0
  0
LINE
  5
1AA8A
  8
0
 62
     5
 10
86.962315813949999
 20
143.72017234819941
 30
0.0
 11
87.66951719325003
 21
143.86017234819991
 31
0.0
  0
LINE
  5
1AA8B
  8
0
 62
     5
 10
86.962315813949999
 20
144.28017234819981
 30
0.0
 11
87.66951719325003
 21
144.14017234819991
 31
0.0
  0
ARC
  5
1AA8C
  8
0
 62
     5
 10
88.444442999950041
 20
144.48887999999991
 30
0.0
 40
3.5
 50
90.0
 51
180.0
  0
ARC
  5
1AA8D
  8
0
 62
     5
 10
88.740404675649984
 20
144.0001723481999
 30
0.0
 40
1.8
 50
171.05098193469971
 51
188.94901806529981
  0
LINE
  5
1AA8E
  8
0
 62
     5
 10
90.518493537350039
 20
144.28017234819981
 30
0.0
 11
89.811292158050037
 21
144.14017234819991
 31
0.0
  0
LINE
  5
1AA8F
  8
0
 62
     5
 10
87.725517193250042
 20
143.86017234819991
 30
0.0
 11
89.755292158050025
 21
144.14017234819991
 31
0.0
  0
LINE
  5
1AA90
  8
0
 62
     5
 10
87.66951719325003
 20
143.86017234819991
 30
0.0
 11
89.811292158050037
 21
144.14017234819991
 31
0.0
  0
LINE
  5
1AA91
  8
0
 62
     5
 10
90.518493537350039
 20
143.72017234819941
 30
0.0
 11
89.958493537350009
 21
143.72017234819941
 31
0.0
  0
LINE
  5
1AA92
  8
0
 62
     5
 10
87.66951719325003
 20
143.86017234819991
 30
0.0
 11
87.725517193250042
 21
143.86017234819991
 31
0.0
  0
LINE
  5
1AA93
  8
0
 62
     5
 10
89.755292158050025
 20
143.86017234819991
 30
0.0
 11
89.811292158050037
 21
143.86017234819991
 31
0.0
  0
LINE
  5
1AA94
  8
0
 62
     5
 10
89.811292158050037
 20
144.14017234819991
 30
0.0
 11
89.755292158050025
 21
144.14017234819991
 31
0.0
  0
LINE
  5
1AA95
  8
0
 62
     5
 10
87.725517193250042
 20
144.14017234819991
 30
0.0
 11
87.66951719325003
 21
144.14017234819991
 31
0.0
  0
LINE
  5
1AA96
  8
0
 62
     5
 10
89.958493537350009
 20
144.28017234819981
 30
0.0
 11
90.518493537350039
 21
144.28017234819981
 31
0.0
  0
LINE
  5
1AA97
  8
0
 62
     5
 10
87.66951719325003
 20
144.14017234819991
 30
0.0
 11
89.811292158050037
 21
143.86017234819991
 31
0.0
  0
LINE
  5
1AA98
  8
0
 62
     5
 10
87.725517193250042
 20
144.14017234819991
 30
0.0
 11
89.755292158050025
 21
143.86017234819991
 31
0.0
  0
LINE
  5
1AA99
  8
0
 62
     5
 10
90.518493537350039
 20
143.72017234819941
 30
0.0
 11
89.811292158050037
 21
143.86017234819991
 31
0.0
  0
LINE
  5
1AA9A
  8
0
 62
     5
 10
87.725517193250042
 20
143.86017234819991
 30
0.0
 11
88.280173631650015
 21
143.5399413040999
 31
0.0
  0
LINE
  5
1AA9B
  8
0
 62
     5
 10
89.755292158050025
 20
144.14017234819991
 30
0.0
 11
89.200635719649981
 21
144.46040339219991
 31
0.0
  0
LINE
  5
1AA9C
  8
0
 62
     5
 10
89.363769030050037
 20
144.62353670249951
 30
0.0
 11
89.958493537350009
 21
144.28017234819981
 31
0.0
  0
LINE
  5
1AA9D
  8
0
 62
     5
 10
89.958493537350009
 20
143.72017234819941
 30
0.0
 11
89.755292158050025
 21
143.86017234819991
 31
0.0
  0
LINE
  5
1AA9E
  8
0
 62
     5
 10
89.363769030050037
 20
143.3768079937999
 30
0.0
 11
88.117040321250045
 21
144.62353670249951
 31
0.0
  0
LINE
  5
1AA9F
  8
0
 62
     5
 10
89.020404675650042
 20
142.7820834864998
 30
0.0
 11
88.880404675650027
 21
142.9852848656999
 31
0.0
  0
LINE
  5
1AAA0
  8
0
 62
     5
 10
88.460404675650025
 20
145.21826120979989
 30
0.0
 11
88.600404675650026
 21
145.01505983059991
 31
0.0
  0
LINE
  5
1AAA1
  8
0
 62
     5
 10
88.460404675650025
 20
142.7820834864998
 30
0.0
 11
88.117040321250045
 21
143.3768079937999
 31
0.0
  0
LINE
  5
1AAA2
  8
0
 62
     5
 10
88.280173631650015
 20
143.5399413040999
 30
0.0
 11
88.600404675650026
 21
142.9852848656999
 31
0.0
  0
LINE
  5
1AAA3
  8
0
 62
     5
 10
89.200635719649981
 20
144.46040339219991
 30
0.0
 11
88.880404675650027
 21
145.01505983059991
 31
0.0
  0
LINE
  5
1AAA4
  8
0
 62
     5
 10
89.020404675650042
 20
145.21826120979989
 30
0.0
 11
89.363769030050037
 21
144.62353670249951
 31
0.0
  0
LINE
  5
1AAA5
  8
0
 62
     5
 10
89.020404675650042
 20
142.22208348649991
 30
0.0
 11
88.880404675650027
 21
142.92928486569991
 31
0.0
  0
LINE
  5
1AAA6
  8
0
 62
     5
 10
88.460404675650025
 20
145.77826120979981
 30
0.0
 11
88.600404675650026
 21
145.07105983059981
 31
0.0
  0
LINE
  5
1AAA7
  8
0
 62
     5
 10
88.880404675650027
 20
142.9852848656999
 30
0.0
 11
88.600404675650026
 21
145.01505983059991
 31
0.0
  0
LINE
  5
1AAA8
  8
0
 62
     5
 10
88.880404675650027
 20
142.92928486569991
 30
0.0
 11
88.600404675650026
 21
145.07105983059981
 31
0.0
  0
LINE
  5
1AAA9
  8
0
 62
     5
 10
88.460404675650025
 20
142.22208348649991
 30
0.0
 11
88.460404675650025
 21
142.7820834864998
 31
0.0
  0
LINE
  5
1AAAA
  8
0
 62
     5
 10
88.460404675650025
 20
145.21826120979989
 30
0.0
 11
88.460404675650025
 21
145.77826120979981
 31
0.0
  0
LINE
  5
1AAAB
  8
0
 62
     5
 10
88.600404675650026
 20
145.07105983059981
 30
0.0
 11
88.600404675650026
 21
145.01505983059991
 31
0.0
  0
LINE
  5
1AAAC
  8
0
 62
     5
 10
88.600404675650026
 20
142.9852848656999
 30
0.0
 11
88.600404675650026
 21
142.92928486569991
 31
0.0
  0
LINE
  5
1AAAD
  8
0
 62
     5
 10
88.880404675650027
 20
142.92928486569991
 30
0.0
 11
88.880404675650027
 21
142.9852848656999
 31
0.0
  0
LINE
  5
1AAAE
  8
0
 62
     5
 10
88.880404675650027
 20
145.01505983059991
 30
0.0
 11
88.880404675650027
 21
145.07105983059981
 31
0.0
  0
LINE
  5
1AAAF
  8
0
 62
     5
 10
89.020404675650042
 20
145.77826120979981
 30
0.0
 11
89.020404675650042
 21
145.21826120979989
 31
0.0
  0
LINE
  5
1AAB0
  8
0
 62
     5
 10
89.020404675650042
 20
142.7820834864998
 30
0.0
 11
89.020404675650042
 21
142.22208348649991
 31
0.0
  0
LINE
  5
1AAB1
  8
0
 62
     5
 10
88.600404675650026
 20
142.92928486569991
 30
0.0
 11
88.880404675650027
 21
145.07105983059981
 31
0.0
  0
LINE
  5
1AAB2
  8
0
 62
     5
 10
88.600404675650026
 20
142.9852848656999
 30
0.0
 11
88.880404675650027
 21
145.01505983059991
 31
0.0
  0
LINE
  5
1AAB3
  8
0
 62
     5
 10
89.020404675650042
 20
145.77826120979981
 30
0.0
 11
88.880404675650027
 21
145.07105983059981
 31
0.0
  0
LINE
  5
1AAB4
  8
0
 62
     5
 10
88.460404675650025
 20
142.22208348649991
 30
0.0
 11
88.600404675650026
 21
142.92928486569991
 31
0.0
  0
LINE
  5
1AAB5
  8
0
 62
     5
 10
88.117040321250045
 20
144.62353670249951
 30
0.0
 11
88.460404675650025
 21
145.21826120979989
 31
0.0
  0
LINE
  5
1AAB6
  8
0
 62
     5
 10
88.600404675650026
 20
145.01505983059991
 30
0.0
 11
88.280173631650015
 21
144.46040339219991
 31
0.0
  0
LINE
  5
1AAB7
  8
0
 62
     5
 10
88.880404675650027
 20
142.9852848656999
 30
0.0
 11
89.200635719649981
 21
143.5399413040999
 31
0.0
  0
LINE
  5
1AAB8
  8
0
 62
     5
 10
89.363769030050037
 20
143.3768079937999
 30
0.0
 11
89.020404675650042
 21
142.7820834864998
 31
0.0
  0
LINE
  5
1AAB9
  8
0
 62
     5
 10
89.020404675650042
 20
145.21826120979989
 30
0.0
 11
88.880404675650027
 21
145.01505983059991
 31
0.0
  0
LINE
  5
1AABA
  8
0
 62
     5
 10
88.460404675650025
 20
142.7820834864998
 30
0.0
 11
88.600404675650026
 21
142.9852848656999
 31
0.0
  0
LINE
  5
1AABB
  8
0
 62
     5
 10
88.117040321250045
 20
143.3768079937999
 30
0.0
 11
89.363769030050037
 21
144.62353670249951
 31
0.0
  0
LINE
  5
1AABC
  8
0
 62
     5
 10
89.958493537350009
 20
144.28017234819981
 30
0.0
 11
89.755292158050025
 21
144.14017234819991
 31
0.0
  0
LINE
  5
1AABD
  8
0
 62
     5
 10
88.280173631650015
 20
144.46040339219991
 30
0.0
 11
87.725517193250042
 21
144.14017234819991
 31
0.0
  0
LINE
  5
1AABE
  8
0
 62
     5
 10
89.200635719649981
 20
143.5399413040999
 30
0.0
 11
89.755292158050025
 21
143.86017234819991
 31
0.0
  0
LINE
  5
1AABF
  8
0
 62
     5
 10
89.958493537350009
 20
143.72017234819941
 30
0.0
 11
89.363769030050037
 21
143.3768079937999
 31
0.0
  0
ARC
  5
1AAC0
  8
0
 62
     5
 10
88.740404675649984
 20
144.0001723481999
 30
0.0
 40
1.1277213352999991
 50
109.03326855569981
 51
160.96673144430119
  0
ARC
  5
1AAC1
  8
0
 62
     5
 10
88.740404675649984
 20
144.0001723481999
 30
0.0
 40
1.1277213352999991
 50
289.03326855569981
 51
340.9667314443011
  0
ARC
  5
1AAC2
  8
0
 62
     5
 10
88.740404675649984
 20
144.0001723481999
 30
0.0
 40
1.1277213352999991
 50
19.033268555698768
 51
70.96673144430018
  0
ARC
  5
1AAC3
  8
0
 62
     5
 10
88.740404675649984
 20
144.0001723481999
 30
0.0
 40
1.0800000000000001
 50
172.55180943900211
 51
187.4481905609978
  0
ARC
  5
1AAC4
  8
0
 62
     5
 10
88.740404675649984
 20
144.0001723481999
 30
0.0
 40
1.0800000000000001
 50
262.55180943899973
 51
277.44819056100022
  0
ARC
  5
1AAC5
  8
0
 62
     5
 10
88.740404675649984
 20
144.0001723481999
 30
0.0
 40
1.0800000000000001
 50
352.551809439002
 51
7.4481905609978769
  0
ARC
  5
1AAC6
  8
0
 62
     5
 10
88.740404675649984
 20
144.0001723481999
 30
0.0
 40
1.0800000000000001
 50
82.551809438999697
 51
97.448190561000288
  0
ARC
  5
1AAC7
  8
0
 62
     5
 10
88.740404675649984
 20
144.0001723481999
 30
0.0
 40
1.8
 50
261.05098193469991
 51
278.94901806529992
  0
ARC
  5
1AAC8
  8
0
 62
     5
 10
88.740404675649984
 20
144.0001723481999
 30
0.0
 40
1.1277213352999991
 50
199.0332685556983
 51
250.9667314443
  0
ARC
  5
1AAC9
  8
0
 62
     5
 10
88.740404675649984
 20
144.0001723481999
 30
0.0
 40
1.8
 50
351.05098193469979
 51
8.9490180653002085
  0
ARC
  5
1AACA
  8
0
 62
     5
 10
88.740404675649984
 20
144.0001723481999
 30
0.0
 40
1.8
 50
81.050981934699905
 51
98.949018065300081
  0
LINE
  5
1AACB
  8
0
 62
     5
 10
88.117040321250045
 20
143.3768079937999
 30
0.0
 11
87.522315813949987
 21
143.72017234819941
 31
0.0
  0
LINE
  5
1AACC
  8
0
 62
     5
 10
87.522315813949987
 20
144.28017234819981
 30
0.0
 11
87.725517193250042
 21
144.14017234819991
 31
0.0
  0
LINE
  5
1AACD
  8
0
 62
     5
 10
87.522315813949987
 20
143.72017234819941
 30
0.0
 11
87.725517193250042
 21
143.86017234819991
 31
0.0
  0
LINE
  5
1AACE
  8
0
 62
     5
 10
87.522315813949987
 20
144.28017234819981
 30
0.0
 11
88.117040321250045
 21
144.62353670249951
 31
0.0
  0
ARC
  5
1AACF
  8
CENTER
 10
72.444443000000007
 20
170.48887999999991
 30
0.0
 40
34.999999999958803
 50
306.25402293116213
 51
324.38103439674347
  0
LINE
  5
1AAD0
  8
0
 62
     5
 10
102.4444429999499
 20
150.92951143839991
 30
0.0
 11
102.4444429999499
 21
144.98887999999991
 31
0.0
  0
CIRCLE
  5
1AAD1
  8
0
 62
     5
 10
97.193180341550004
 20
145.74014265849991
 30
0.0
 40
2.8999999999999981
  0
ARC
  5
1AAD2
  8
0
 62
     5
 10
92.38842169145002
 20
148.98887999999991
 30
0.0
 40
1.0
 50
270.0
 51
325.93541006420128
  0
LINE
  5
1AAD3
  8
0
 62
     5
 10
96.88446428325004
 20
150.53020470349981
 30
0.0
 11
101.5209601503495
 21
150.8575091167998
 31
0.0
  0
ARC
  5
1AAD4
  8
0
 62
     5
 10
72.444442999950013
 20
529.74344993589955
 30
0.0
 40
380.26616440010002
 50
273.68757177850023
 51
274.42564337249951
  0
ARC
  5
1AAD5
  8
0
 62
     5
 10
94.444442999950013
 20
150.84743577979981
 30
0.0
 40
1.0
 50
298.28906965429832
 51
0.0
  0
LINE
  5
1AAD6
  8
0
 62
     5
 10
95.444442999949985
 20
150.84743577979981
 30
0.0
 11
95.444442999949985
 21
154.1888799999999
 31
0.0
  0
LINE
  5
1AAD7
  8
0
 62
     5
 10
98.944442999950041
 20
157.68887999999981
 30
0.0
 11
101.4444429999499
 21
157.68887999999981
 31
0.0
  0
LINE
  5
1AAD8
  8
0
 62
     5
 10
91.078745617950034
 20
200.4888799999998
 30
0.0
 11
53.810140382050037
 21
200.4888799999998
 31
0.0
  0
LINE
  5
1AAD9
  8
0
 62
     5
 10
53.56369093655001
 20
200.75504440009991
 30
0.0
 11
91.325195063449996
 21
200.75504440009991
 31
0.0
  0
LINE
  5
1AADA
  8
CENTER
 10
53.741961145976482
 20
189.19136185402351
 30
0.0
 11
42.000850345649518
 21
200.93247265435031
 31
0.0
  0
ARC
  5
1AADB
  8
0
 62
     5
 10
60.944442999949999
 20
199.48887999999999
 30
0.0
 40
1.0
 50
90.0
 51
180.0
  0
ARC
  5
1AADC
  8
0
 62
     5
 10
53.810140382050037
 20
199.48887999999999
 30
0.0
 40
1.0
 50
90.0
 51
175.6116008424984
  0
ARC
  5
1AADD
  8
0
 62
     5
 10
46.944442999950013
 20
195.98887999999991
 30
0.0
 40
4.5
 50
90.0
 51
180.0
  0
ARC
  5
1AADE
  8
0
 62
     5
 10
45.944442999949992
 20
186.7888799999993
 30
0.0
 40
3.5
 50
270.0
 51
0.0
  0
LINE
  5
1AADF
  8
0
 62
     5
 10
45.944442999949992
 20
183.28887999999981
 30
0.0
 11
43.444442999949992
 21
183.28887999999981
 31
0.0
  0
ARC
  5
1AAE0
  8
0
 62
     5
 10
43.444442999949992
 20
182.28887999999949
 30
0.0
 40
1.0
 50
90.0
 51
180.0
  0
ARC
  5
1AAE1
  8
CENTER
 10
72.444442999999936
 20
170.48887999999991
 30
0.0
 40
34.999999999958803
 50
126.2540229311621
 51
144.3810343967435
  0
ARC
  5
1AAE2
  8
0
 62
     5
 10
47.695705658450031
 20
195.2376173415
 30
0.0
 40
4.5338355998999971
 50
273.68757177850023
 51
356.31242822149801
  0
ARC
  5
1AAE3
  8
0
 62
     5
 10
47.695705658450031
 20
195.2376173415
 30
0.0
 40
4.799999999999998
 50
273.68757177850023
 51
356.31242822149801
  0
LINE
  5
1AAE4
  8
0
 62
     5
 10
42.444442999950049
 20
190.04824856159991
 30
0.0
 11
42.444442999950049
 21
195.98887999999991
 31
0.0
  0
CIRCLE
  5
1AAE5
  8
0
 62
     5
 10
47.695705658450031
 20
195.2376173415
 30
0.0
 40
2.8999999999999981
  0
LINE
  5
1AAE6
  8
0
 62
     5
 10
43.367925849550012
 20
190.1202508831999
 30
0.0
 11
48.004421716750052
 21
190.4475552964993
 31
0.0
  0
ARC
  5
1AAE7
  8
0
 62
     5
 10
72.444442999950013
 20
-188.76568993590001
 30
0.0
 40
380.26616440010002
 50
93.687571778500185
 51
94.425643372499863
  0
ARC
  5
1AAE8
  8
0
 62
     5
 10
43.444442999949992
 20
189.12318261789969
 30
0.0
 40
1.0
 50
94.388399157499776
 51
180.0
  0
ARC
  5
1AAE9
  8
0
 62
     5
 10
50.444442999950027
 20
190.1303242201999
 30
0.0
 40
1.0
 50
118.2890696542982
 51
180.0
  0
LINE
  5
1AAEA
  8
0
 62
     5
 10
49.44444299995002
 20
190.1303242201999
 30
0.0
 11
49.44444299995002
 21
186.7888799999993
 31
0.0
  0
ARC
  5
1AAEB
  8
0
 62
     5
 10
52.500464308550043
 20
191.98887999999999
 30
0.0
 40
1.0
 50
90.0
 51
145.93541006420111
  0
ARC
  5
1AAEC
  8
0
 62
     5
 10
56.444442999950027
 20
196.48887999999991
 30
0.0
 40
3.5
 50
270.0
 51
0.0
  0
ARC
  5
1AAED
  8
0
 62
     5
 10
56.14848132435003
 20
196.97758765189991
 30
0.0
 40
1.8
 50
81.050981934699905
 51
98.949018065300081
  0
LINE
  5
1AAEE
  8
0
 62
     5
 10
56.288481324350059
 20
195.96270016939991
 30
0.0
 11
56.60871236835002
 21
196.51735660779991
 31
0.0
  0
LINE
  5
1AAEF
  8
0
 62
     5
 10
56.428481324350017
 20
198.1956765134999
 30
0.0
 11
56.288481324350059
 21
197.99247513429981
 31
0.0
  0
LINE
  5
1AAF0
  8
0
 62
     5
 10
55.525116969950027
 20
196.35422329749991
 30
0.0
 11
56.77184567874999
 21
197.6009520061998
 31
0.0
  0
LINE
  5
1AAF1
  8
0
 62
     5
 10
56.428481324350017
 20
195.1994987901999
 30
0.0
 11
56.288481324350059
 21
195.9067001693999
 31
0.0
  0
LINE
  5
1AAF2
  8
0
 62
     5
 10
56.428481324350017
 20
195.75949879019981
 30
0.0
 11
56.288481324350059
 21
195.96270016939991
 31
0.0
  0
LINE
  5
1AAF3
  8
0
 62
     5
 10
56.60871236835002
 20
197.43781869589981
 30
0.0
 11
56.288481324350059
 21
197.99247513429981
 31
0.0
  0
LINE
  5
1AAF4
  8
0
 62
     5
 10
56.77184567874999
 20
196.35422329749991
 30
0.0
 11
55.525116969950027
 21
197.6009520061998
 31
0.0
  0
LINE
  5
1AAF5
  8
0
 62
     5
 10
55.077593841950019
 20
197.1175876518999
 30
0.0
 11
57.219368806749991
 21
196.83758765189961
 31
0.0
  0
LINE
  5
1AAF6
  8
0
 62
     5
 10
55.133593841950017
 20
197.1175876518999
 30
0.0
 11
57.16336880675005
 21
196.83758765189961
 31
0.0
  0
LINE
  5
1AAF7
  8
0
 62
     5
 10
55.133593841950017
 20
196.83758765189961
 30
0.0
 11
57.16336880675005
 21
197.1175876518999
 31
0.0
  0
LINE
  5
1AAF8
  8
0
 62
     5
 10
55.077593841950019
 20
196.83758765189961
 30
0.0
 11
57.219368806749991
 21
197.1175876518999
 31
0.0
  0
ARC
  5
1AAF9
  8
0
 62
     5
 10
56.14848132435003
 20
196.97758765189991
 30
0.0
 40
1.8
 50
261.05098193469991
 51
278.94901806529992
  0
LINE
  5
1AAFA
  8
0
 62
     5
 10
56.444442999950027
 20
192.98887999999991
 30
0.0
 11
52.500464308550043
 21
192.98887999999991
 31
0.0
  0
LINE
  5
1AAFB
  8
0
 62
     5
 10
56.428481324350017
 20
198.75567651349951
 30
0.0
 11
56.288481324350059
 21
198.04847513429971
 31
0.0
  0
CIRCLE
  5
1AAFC
  8
0
 62
     5
 10
56.14848132435003
 20
196.97758765189991
 30
0.0
 40
2.75
  0
ARC
  5
1AAFD
  8
0
 62
     5
 10
56.14848132435003
 20
196.97758765189991
 30
0.0
 40
2.9500000000000002
 50
276.8138543441998
 51
263.18614565579992
  0
CIRCLE
  5
1AAFE
  8
0
 62
     5
 10
56.14848132435003
 20
196.97758765189991
 30
0.0
 40
3.0
  0
LINE
  5
1AAFF
  8
0
 62
     5
 10
54.930392462650019
 20
196.69758765189991
 30
0.0
 11
55.133593841950017
 21
196.83758765189961
 31
0.0
  0
LINE
  5
1AB00
  8
0
 62
     5
 10
54.930392462650019
 20
197.25758765189991
 30
0.0
 11
55.525116969950027
 21
197.6009520061998
 31
0.0
  0
LINE
  5
1AB01
  8
0
 62
     5
 10
55.68825028035004
 20
197.43781869589981
 30
0.0
 11
55.133593841950017
 21
197.1175876518999
 31
0.0
  0
LINE
  5
1AB02
  8
0
 62
     5
 10
55.525116969950027
 20
197.6009520061998
 30
0.0
 11
55.868481324350043
 21
198.1956765134999
 31
0.0
  0
LINE
  5
1AB03
  8
0
 62
     5
 10
56.008481324350001
 20
197.99247513429981
 30
0.0
 11
55.68825028035004
 21
197.43781869589981
 31
0.0
  0
LINE
  5
1AB04
  8
0
 62
     5
 10
55.868481324350043
 20
195.75949879019981
 30
0.0
 11
56.008481324350001
 21
195.96270016939991
 31
0.0
  0
LINE
  5
1AB05
  8
0
 62
     5
 10
56.008481324350001
 20
195.9067001693999
 30
0.0
 11
56.288481324350059
 21
198.04847513429971
 31
0.0
  0
LINE
  5
1AB06
  8
0
 62
     5
 10
56.008481324350001
 20
195.96270016939991
 30
0.0
 11
56.288481324350059
 21
197.99247513429981
 31
0.0
  0
LINE
  5
1AB07
  8
0
 62
     5
 10
55.868481324350043
 20
195.1994987901999
 30
0.0
 11
56.008481324350001
 21
195.9067001693999
 31
0.0
  0
LINE
  5
1AB08
  8
0
 62
     5
 10
55.798481324349993
 20
194.2523269869998
 30
0.0
 11
55.798481324349993
 21
194.04842394869951
 31
0.0
  0
LINE
  5
1AB09
  8
0
 62
     5
 10
55.868481324350043
 20
195.1994987901999
 30
0.0
 11
55.868481324350043
 21
195.75949879019981
 31
0.0
  0
LINE
  5
1AB0A
  8
0
 62
     5
 10
56.008481324350001
 20
198.04847513429971
 30
0.0
 11
56.008481324350001
 21
197.99247513429981
 31
0.0
  0
LINE
  5
1AB0B
  8
0
 62
     5
 10
56.008481324350001
 20
195.96270016939991
 30
0.0
 11
56.008481324350001
 21
195.9067001693999
 31
0.0
  0
LINE
  5
1AB0C
  8
0
 62
     5
 10
56.288481324350059
 20
195.9067001693999
 30
0.0
 11
56.288481324350059
 21
195.96270016939991
 31
0.0
  0
LINE
  5
1AB0D
  8
0
 62
     5
 10
56.288481324350059
 20
197.99247513429981
 30
0.0
 11
56.288481324350059
 21
198.04847513429971
 31
0.0
  0
LINE
  5
1AB0E
  8
0
 62
     5
 10
56.288481324350059
 20
195.96270016939991
 30
0.0
 11
56.008481324350001
 21
197.99247513429981
 31
0.0
  0
LINE
  5
1AB0F
  8
0
 62
     5
 10
56.288481324350059
 20
195.9067001693999
 30
0.0
 11
56.008481324350001
 21
198.04847513429971
 31
0.0
  0
LINE
  5
1AB10
  8
0
 62
     5
 10
55.868481324350043
 20
195.75949879019981
 30
0.0
 11
55.525116969950027
 21
196.35422329749991
 31
0.0
  0
LINE
  5
1AB11
  8
0
 62
     5
 10
55.68825028035004
 20
196.51735660779991
 30
0.0
 11
56.008481324350001
 21
195.96270016939991
 31
0.0
  0
LINE
  5
1AB12
  8
0
 62
     5
 10
55.868481324350043
 20
198.1956765134999
 30
0.0
 11
56.008481324350001
 21
197.99247513429981
 31
0.0
  0
LINE
  5
1AB13
  8
0
 62
     5
 10
54.930392462650019
 20
197.25758765189991
 30
0.0
 11
55.133593841950017
 21
197.1175876518999
 31
0.0
  0
LINE
  5
1AB14
  8
0
 62
     5
 10
55.525116969950027
 20
196.35422329749991
 30
0.0
 11
54.930392462650019
 21
196.69758765189991
 31
0.0
  0
LINE
  5
1AB15
  8
0
 62
     5
 10
55.133593841950017
 20
196.83758765189961
 30
0.0
 11
55.68825028035004
 21
196.51735660779991
 31
0.0
  0
LINE
  5
1AB16
  8
0
 62
     5
 10
55.077593841950019
 20
196.83758765189961
 30
0.0
 11
55.133593841950017
 21
196.83758765189961
 31
0.0
  0
LINE
  5
1AB17
  8
0
 62
     5
 10
55.133593841950017
 20
197.1175876518999
 30
0.0
 11
55.077593841950019
 21
197.1175876518999
 31
0.0
  0
ARC
  5
1AB18
  8
0
 62
     5
 10
56.14848132435003
 20
196.97758765189991
 30
0.0
 40
1.1277213352999991
 50
109.03326855569981
 51
160.96673144430119
  0
ARC
  5
1AB19
  8
0
 62
     5
 10
56.14848132435003
 20
196.97758765189991
 30
0.0
 40
1.0800000000000001
 50
172.55180943900211
 51
187.4481905609978
  0
ARC
  5
1AB1A
  8
0
 62
     5
 10
56.14848132435003
 20
196.97758765189991
 30
0.0
 40
1.0800000000000001
 50
262.55180943899973
 51
277.44819056100022
  0
ARC
  5
1AB1B
  8
0
 62
     5
 10
56.14848132435003
 20
196.97758765189991
 30
0.0
 40
1.0800000000000001
 50
82.551809438999697
 51
97.448190561000288
  0
ARC
  5
1AB1C
  8
0
 62
     5
 10
56.14848132435003
 20
196.97758765189991
 30
0.0
 40
1.1277213352999991
 50
199.0332685556983
 51
250.9667314443
  0
ARC
  5
1AB1D
  8
0
 62
     5
 10
56.14848132435003
 20
196.97758765189991
 30
0.0
 40
1.8
 50
171.05098193469971
 51
188.94901806529981
  0
LINE
  5
1AB1E
  8
0
 62
     5
 10
54.370392462650052
 20
197.25758765189991
 30
0.0
 11
55.077593841950019
 21
197.1175876518999
 31
0.0
  0
LINE
  5
1AB1F
  8
0
 62
     5
 10
54.930392462650019
 20
196.69758765189991
 30
0.0
 11
54.370392462650052
 21
196.69758765189991
 31
0.0
  0
LINE
  5
1AB20
  8
0
 62
     5
 10
54.370392462650052
 20
196.69758765189991
 30
0.0
 11
55.077593841950019
 21
196.83758765189961
 31
0.0
  0
LINE
  5
1AB21
  8
0
 62
     5
 10
54.370392462650052
 20
197.25758765189991
 30
0.0
 11
54.930392462650019
 21
197.25758765189991
 31
0.0
  0
LINE
  5
1AB22
  8
0
 62
     5
 10
55.868481324350043
 20
198.1956765134999
 30
0.0
 11
55.868481324350043
 21
198.75567651349951
 31
0.0
  0
LINE
  5
1AB23
  8
0
 62
     5
 10
55.868481324350043
 20
198.75567651349951
 30
0.0
 11
56.008481324350001
 21
198.04847513429971
 31
0.0
  0
ARC
  5
1AB24
  8
0
 62
     5
 10
431.69901293584991
 20
170.48887999999991
 30
0.0
 40
380.26616440010002
 50
175.5743566274983
 51
176.3124282214981
  0
ARC
  5
1AB25
  8
0
 62
     5
 10
431.69901293584991
 20
170.48887999999991
 30
0.0
 40
380.0
 50
175.6116008424984
 51
176.3124282214981
  0
LINE
  5
1AB26
  8
0
 62
     5
 10
59.944442999950063
 20
199.48887999999999
 30
0.0
 11
59.944442999950063
 21
196.48887999999991
 31
0.0
  0
LINE
  5
1AB27
  8
0
 62
     5
 10
56.77184567874999
 20
196.35422329749991
 30
0.0
 11
56.428481324350017
 21
195.75949879019981
 31
0.0
  0
LINE
  5
1AB28
  8
0
 62
     5
 10
57.366570185950003
 20
197.25758765189991
 30
0.0
 11
57.16336880675005
 21
197.1175876518999
 31
0.0
  0
LINE
  5
1AB29
  8
0
 62
     5
 10
56.60871236835002
 20
196.51735660779991
 30
0.0
 11
57.16336880675005
 21
196.83758765189961
 31
0.0
  0
LINE
  5
1AB2A
  8
0
 62
     5
 10
57.366570185950003
 20
196.69758765189991
 30
0.0
 11
56.77184567874999
 21
196.35422329749991
 31
0.0
  0
LINE
  5
1AB2B
  8
0
 62
     5
 10
56.428481324350017
 20
195.75949879019981
 30
0.0
 11
56.428481324350017
 21
195.1994987901999
 31
0.0
  0
LINE
  5
1AB2C
  8
0
 62
     5
 10
56.498481324350003
 20
194.04842394869951
 30
0.0
 11
56.498481324350003
 21
194.2523269869998
 31
0.0
  0
LINE
  5
1AB2D
  8
0
 62
     5
 10
56.428481324350017
 20
198.1956765134999
 30
0.0
 11
56.77184567874999
 21
197.6009520061998
 31
0.0
  0
LINE
  5
1AB2E
  8
0
 62
     5
 10
57.366570185950003
 20
196.69758765189991
 30
0.0
 11
57.16336880675005
 21
196.83758765189961
 31
0.0
  0
LINE
  5
1AB2F
  8
0
 62
     5
 10
57.16336880675005
 20
197.1175876518999
 30
0.0
 11
56.60871236835002
 21
197.43781869589981
 31
0.0
  0
LINE
  5
1AB30
  8
0
 62
     5
 10
56.77184567874999
 20
197.6009520061998
 30
0.0
 11
57.366570185950003
 21
197.25758765189991
 31
0.0
  0
LINE
  5
1AB31
  8
0
 62
     5
 10
57.926570185950041
 20
196.69758765189991
 30
0.0
 11
57.219368806749991
 21
196.83758765189961
 31
0.0
  0
LINE
  5
1AB32
  8
0
 62
     5
 10
57.926570185950041
 20
196.69758765189991
 30
0.0
 11
57.366570185950003
 21
196.69758765189991
 31
0.0
  0
LINE
  5
1AB33
  8
0
 62
     5
 10
57.926570185950041
 20
197.25758765189991
 30
0.0
 11
57.219368806749991
 21
197.1175876518999
 31
0.0
  0
LINE
  5
1AB34
  8
0
 62
     5
 10
57.16336880675005
 20
196.83758765189961
 30
0.0
 11
57.219368806749991
 21
196.83758765189961
 31
0.0
  0
LINE
  5
1AB35
  8
0
 62
     5
 10
57.219368806749991
 20
197.1175876518999
 30
0.0
 11
57.16336880675005
 21
197.1175876518999
 31
0.0
  0
LINE
  5
1AB36
  8
0
 62
     5
 10
57.366570185950003
 20
197.25758765189991
 30
0.0
 11
57.926570185950041
 21
197.25758765189991
 31
0.0
  0
ARC
  5
1AB37
  8
0
 62
     5
 10
56.14848132435003
 20
196.97758765189991
 30
0.0
 40
1.1277213352999991
 50
289.03326855569981
 51
340.9667314443011
  0
ARC
  5
1AB38
  8
0
 62
     5
 10
56.14848132435003
 20
196.97758765189991
 30
0.0
 40
1.1277213352999991
 50
19.033268555698768
 51
70.96673144430018
  0
ARC
  5
1AB39
  8
0
 62
     5
 10
56.14848132435003
 20
196.97758765189991
 30
0.0
 40
1.0800000000000001
 50
352.551809439002
 51
7.4481905609978769
  0
ARC
  5
1AB3A
  8
0
 62
     5
 10
56.14848132435003
 20
196.97758765189991
 30
0.0
 40
1.8
 50
351.05098193469979
 51
8.9490180653002085
  0
LINE
  5
1AB3B
  8
0
 62
     5
 10
56.428481324350017
 20
198.75567651349951
 30
0.0
 11
56.428481324350017
 21
198.1956765134999
 31
0.0
  0
LINE
  5
1AB3C
  8
0
 62
     5
 10
46.944442999950013
 20
200.4888799999998
 30
0.0
 11
52.885074438350053
 21
200.4888799999998
 31
0.0
  0
ARC
  5
1AB3D
  8
0
 62
     5
 10
84.244442999949982
 20
199.48887999999999
 30
0.0
 40
1.0
 50
0.0
 51
90.0
  0
ARC
  5
1AB3E
  8
0
 62
     5
 10
91.078745617950034
 20
199.48887999999999
 30
0.0
 40
1.0
 50
4.3883991575014001
 51
90.0
  0
LINE
  5
1AB3F
  8
0
 62
     5
 10
98.653150651850055
 20
185.00675281400001
 30
0.0
 11
98.793150651850056
 21
185.71395419329991
 31
0.0
  0
LINE
  5
1AB40
  8
0
 62
     5
 10
98.653150651850055
 20
185.00675281400001
 30
0.0
 11
98.653150651850055
 21
185.56675281399981
 31
0.0
  0
LINE
  5
1AB41
  8
0
 62
     5
 10
99.21315065185
 20
185.56675281399981
 30
0.0
 11
99.21315065185
 21
185.00675281400001
 31
0.0
  0
LINE
  5
1AB42
  8
0
 62
     5
 10
99.21315065185
 20
185.00675281400001
 30
0.0
 11
99.073150651850014
 21
185.71395419329991
 31
0.0
  0
ARC
  5
1AB43
  8
0
 62
     5
 10
98.444442999950041
 20
186.48887999999991
 30
0.0
 40
3.5
 50
180.0
 51
270.0
  0
CIRCLE
  5
1AB44
  8
0
 62
     5
 10
98.933150651849985
 20
186.78484167569991
 30
0.0
 40
2.75
  0
ARC
  5
1AB45
  8
0
 62
     5
 10
98.933150651849985
 20
186.78484167569991
 30
0.0
 40
2.9500000000000002
 50
276.8138543441998
 51
263.18614565579992
  0
CIRCLE
  5
1AB46
  8
0
 62
     5
 10
98.933150651849985
 20
186.78484167569991
 30
0.0
 40
3.0
  0
LINE
  5
1AB47
  8
0
 62
     5
 10
98.583150651850048
 20
184.0595810107996
 30
0.0
 11
98.583150651850048
 21
183.8556779724999
 31
0.0
  0
LINE
  5
1AB48
  8
0
 62
     5
 10
99.28315065185005
 20
183.8556779724999
 30
0.0
 11
99.28315065185005
 21
184.0595810107996
 31
0.0
  0
ARC
  5
1AB49
  8
0
 62
     5
 10
98.933150651849985
 20
186.78484167569991
 30
0.0
 40
1.8
 50
261.05098193469991
 51
278.94901806529992
  0
LINE
  5
1AB4A
  8
0
 62
     5
 10
101.4444429999499
 20
182.98887999999991
 30
0.0
 11
98.444442999950041
 21
182.98887999999991
 31
0.0
  0
ARC
  5
1AB4B
  8
0
 62
     5
 10
92.085887220149985
 20
192.48887999999991
 30
0.0
 40
1.0
 50
28.289069654297659
 51
90.0
  0
LINE
  5
1AB4C
  8
0
 62
     5
 10
92.075813883250007
 20
199.5653971503998
 30
0.0
 11
92.403118296449989
 21
194.92890128319991
 31
0.0
  0
ARC
  5
1AB4D
  8
0
 62
     5
 10
97.193180341550004
 20
195.2376173415
 30
0.0
 40
4.5338355998999971
 50
183.68757177850171
 51
266.31242822149972
  0
ARC
  5
1AB4E
  8
0
 62
     5
 10
97.193180341550004
 20
195.2376173415
 30
0.0
 40
4.799999999999998
 50
183.68757177850171
 51
266.31242822149972
  0
ARC
  5
1AB4F
  8
0
 62
     5
 10
88.74444299995001
 20
196.98887999999991
 30
0.0
 40
3.5
 50
180.0
 51
270.0
  0
LINE
  5
1AB50
  8
0
 62
     5
 10
85.244442999950024
 20
196.98887999999991
 30
0.0
 11
85.244442999950024
 21
199.48887999999999
 31
0.0
  0
LINE
  5
1AB51
  8
0
 62
     5
 10
92.085887220149985
 20
193.48887999999991
 30
0.0
 11
88.74444299995001
 21
193.48887999999991
 31
0.0
  0
ARC
  5
1AB52
  8
CENTER
 10
72.444443000000007
 20
170.48887999999991
 30
0.0
 40
34.999999999958803
 50
36.254022931162282
 51
54.381034396744781
  0
LINE
  5
1AB53
  8
0
 62
     5
 10
102.4444429999499
 20
195.98887999999991
 30
0.0
 11
102.4444429999499
 21
190.04824856159991
 31
0.0
  0
CIRCLE
  5
1AB54
  8
0
 62
     5
 10
97.193180341550004
 20
195.2376173415
 30
0.0
 40
2.8999999999999981
  0
LINE
  5
1AB55
  8
0
 62
     5
 10
97.155061790150015
 20
187.06484167569991
 30
0.0
 11
97.715061790149974
 21
187.06484167569991
 31
0.0
  0
LINE
  5
1AB56
  8
0
 62
     5
 10
97.155061790150015
 20
187.06484167569991
 30
0.0
 11
97.862263169450003
 21
186.9248416756995
 31
0.0
  0
LINE
  5
1AB57
  8
0
 62
     5
 10
97.155061790150015
 20
186.50484167569991
 30
0.0
 11
97.862263169450003
 21
186.64484167569981
 31
0.0
  0
LINE
  5
1AB58
  8
0
 62
     5
 10
97.715061790149974
 20
186.50484167569991
 30
0.0
 11
97.155061790150015
 21
186.50484167569991
 31
0.0
  0
ARC
  5
1AB59
  8
0
 62
     5
 10
72.444442999950013
 20
-188.76568993590001
 30
0.0
 40
380.26616440010002
 50
85.574356627500123
 51
86.3124282214998
  0
ARC
  5
1AB5A
  8
0
 62
     5
 10
72.444442999950013
 20
-188.76568993590001
 30
0.0
 40
380.0
 50
85.611600842500224
 51
86.3124282214998
  0
ARC
  5
1AB5B
  8
0
 62
     5
 10
93.944442999950041
 20
190.43285869139959
 30
0.0
 40
1.0
 50
0.0
 51
55.935410064198933
  0
LINE
  5
1AB5C
  8
0
 62
     5
 10
94.944442999949999
 20
186.48887999999991
 30
0.0
 11
94.944442999949999
 21
190.43285869139959
 31
0.0
  0
ARC
  5
1AB5D
  8
0
 62
     5
 10
98.933150651849985
 20
186.78484167569991
 30
0.0
 40
1.8
 50
171.05098193469971
 51
188.94901806529981
  0
LINE
  5
1AB5E
  8
0
 62
     5
 10
100.15123951355
 20
187.06484167569991
 30
0.0
 11
99.948038134250055
 21
186.9248416756995
 31
0.0
  0
LINE
  5
1AB5F
  8
0
 62
     5
 10
100.71123951355
 20
187.06484167569991
 30
0.0
 11
100.00403813425
 21
186.9248416756995
 31
0.0
  0
LINE
  5
1AB60
  8
0
 62
     5
 10
100.00403813425
 20
186.9248416756995
 30
0.0
 11
99.948038134250055
 21
186.9248416756995
 31
0.0
  0
LINE
  5
1AB61
  8
0
 62
     5
 10
100.15123951355
 20
187.06484167569991
 30
0.0
 11
100.71123951355
 21
187.06484167569991
 31
0.0
  0
LINE
  5
1AB62
  8
0
 62
     5
 10
100.71123951355
 20
186.50484167569991
 30
0.0
 11
100.15123951355
 21
186.50484167569991
 31
0.0
  0
LINE
  5
1AB63
  8
0
 62
     5
 10
99.948038134250055
 20
186.64484167569981
 30
0.0
 11
100.00403813425
 21
186.64484167569981
 31
0.0
  0
LINE
  5
1AB64
  8
0
 62
     5
 10
100.71123951355
 20
186.50484167569991
 30
0.0
 11
100.00403813425
 21
186.64484167569981
 31
0.0
  0
LINE
  5
1AB65
  8
0
 62
     5
 10
100.15123951355
 20
186.50484167569991
 30
0.0
 11
99.948038134250055
 21
186.64484167569981
 31
0.0
  0
ARC
  5
1AB66
  8
0
 62
     5
 10
98.933150651849985
 20
186.78484167569991
 30
0.0
 40
1.0800000000000001
 50
352.551809439002
 51
7.4481905609978769
  0
ARC
  5
1AB67
  8
0
 62
     5
 10
98.933150651849985
 20
186.78484167569991
 30
0.0
 40
1.8
 50
351.05098193469979
 51
8.9490180653002085
  0
LINE
  5
1AB68
  8
0
 62
     5
 10
97.715061790149974
 20
187.06484167569991
 30
0.0
 11
98.309786297450003
 21
187.40820602999989
 31
0.0
  0
LINE
  5
1AB69
  8
0
 62
     5
 10
98.472919607850073
 20
187.2450727197
 30
0.0
 11
97.91826316945
 21
186.9248416756995
 31
0.0
  0
LINE
  5
1AB6A
  8
0
 62
     5
 10
99.21315065185
 20
188.0029305372999
 30
0.0
 11
99.073150651850014
 21
187.79972915810001
 31
0.0
  0
LINE
  5
1AB6B
  8
0
 62
     5
 10
98.309786297450003
 20
187.40820602999989
 30
0.0
 11
98.653150651850055
 21
188.0029305372999
 31
0.0
  0
LINE
  5
1AB6C
  8
0
 62
     5
 10
98.793150651850056
 20
187.79972915810001
 30
0.0
 11
98.472919607850073
 21
187.2450727197
 31
0.0
  0
LINE
  5
1AB6D
  8
0
 62
     5
 10
97.91826316945
 20
186.9248416756995
 30
0.0
 11
97.862263169450003
 21
186.9248416756995
 31
0.0
  0
LINE
  5
1AB6E
  8
0
 62
     5
 10
99.21315065185
 20
188.56293053729991
 30
0.0
 11
99.073150651850014
 21
187.85572915809999
 31
0.0
  0
LINE
  5
1AB6F
  8
0
 62
     5
 10
98.653150651850055
 20
188.0029305372999
 30
0.0
 11
98.653150651850055
 21
188.56293053729991
 31
0.0
  0
LINE
  5
1AB70
  8
0
 62
     5
 10
98.793150651850056
 20
187.85572915809999
 30
0.0
 11
98.793150651850056
 21
187.79972915810001
 31
0.0
  0
LINE
  5
1AB71
  8
0
 62
     5
 10
99.073150651850014
 20
187.79972915810001
 30
0.0
 11
99.073150651850014
 21
187.85572915809999
 31
0.0
  0
LINE
  5
1AB72
  8
0
 62
     5
 10
99.21315065185
 20
188.56293053729991
 30
0.0
 11
99.21315065185
 21
188.0029305372999
 31
0.0
  0
LINE
  5
1AB73
  8
0
 62
     5
 10
97.715061790149974
 20
187.06484167569991
 30
0.0
 11
97.91826316945
 21
186.9248416756995
 31
0.0
  0
LINE
  5
1AB74
  8
0
 62
     5
 10
98.653150651850055
 20
188.56293053729991
 30
0.0
 11
98.793150651850056
 21
187.85572915809999
 31
0.0
  0
LINE
  5
1AB75
  8
0
 62
     5
 10
98.653150651850055
 20
188.0029305372999
 30
0.0
 11
98.793150651850056
 21
187.79972915810001
 31
0.0
  0
LINE
  5
1AB76
  8
0
 62
     5
 10
99.393381695849996
 20
187.2450727197
 30
0.0
 11
99.073150651850014
 21
187.79972915810001
 31
0.0
  0
LINE
  5
1AB77
  8
0
 62
     5
 10
99.21315065185
 20
188.0029305372999
 30
0.0
 11
99.556515006250024
 21
187.40820602999989
 31
0.0
  0
ARC
  5
1AB78
  8
0
 62
     5
 10
98.933150651849985
 20
186.78484167569991
 30
0.0
 40
1.1277213352999991
 50
109.03326855569981
 51
160.96673144430119
  0
ARC
  5
1AB79
  8
0
 62
     5
 10
98.933150651849985
 20
186.78484167569991
 30
0.0
 40
1.0800000000000001
 50
82.551809438999697
 51
97.448190561000288
  0
ARC
  5
1AB7A
  8
0
 62
     5
 10
98.933150651849985
 20
186.78484167569991
 30
0.0
 40
1.8
 50
81.050981934699905
 51
98.949018065300081
  0
LINE
  5
1AB7B
  8
0
 62
     5
 10
97.715061790149974
 20
186.50484167569991
 30
0.0
 11
97.91826316945
 21
186.64484167569981
 31
0.0
  0
LINE
  5
1AB7C
  8
0
 62
     5
 10
99.073150651850014
 20
185.76995419329981
 30
0.0
 11
99.393381695849996
 21
186.32461063169981
 31
0.0
  0
LINE
  5
1AB7D
  8
0
 62
     5
 10
99.556515006250024
 20
186.16147732129971
 30
0.0
 11
99.21315065185
 21
185.56675281399981
 31
0.0
  0
LINE
  5
1AB7E
  8
0
 62
     5
 10
98.653150651850055
 20
185.56675281399981
 30
0.0
 11
98.793150651850056
 21
185.76995419329981
 31
0.0
  0
LINE
  5
1AB7F
  8
0
 62
     5
 10
97.862263169450003
 20
186.64484167569981
 30
0.0
 11
97.91826316945
 21
186.64484167569981
 31
0.0
  0
LINE
  5
1AB80
  8
0
 62
     5
 10
98.793150651850056
 20
185.76995419329981
 30
0.0
 11
98.793150651850056
 21
185.71395419329991
 31
0.0
  0
LINE
  5
1AB81
  8
0
 62
     5
 10
99.073150651850014
 20
185.71395419329991
 30
0.0
 11
99.073150651850014
 21
185.76995419329981
 31
0.0
  0
LINE
  5
1AB82
  8
0
 62
     5
 10
98.309786297450003
 20
186.16147732129971
 30
0.0
 11
97.715061790149974
 21
186.50484167569991
 31
0.0
  0
LINE
  5
1AB83
  8
0
 62
     5
 10
97.91826316945
 20
186.64484167569981
 30
0.0
 11
98.472919607850073
 21
186.32461063169981
 31
0.0
  0
LINE
  5
1AB84
  8
0
 62
     5
 10
99.21315065185
 20
185.56675281399981
 30
0.0
 11
99.073150651850014
 21
185.76995419329981
 31
0.0
  0
LINE
  5
1AB85
  8
0
 62
     5
 10
98.653150651850055
 20
185.56675281399981
 30
0.0
 11
98.309786297450003
 21
186.16147732129971
 31
0.0
  0
LINE
  5
1AB86
  8
0
 62
     5
 10
98.472919607850073
 20
186.32461063169981
 30
0.0
 11
98.793150651850056
 21
185.76995419329981
 31
0.0
  0
ARC
  5
1AB87
  8
0
 62
     5
 10
98.933150651849985
 20
186.78484167569991
 30
0.0
 40
1.0800000000000001
 50
262.55180943899973
 51
277.44819056100022
  0
ARC
  5
1AB88
  8
0
 62
     5
 10
98.933150651849985
 20
186.78484167569991
 30
0.0
 40
1.1277213352999991
 50
199.0332685556983
 51
250.9667314443
  0
LINE
  5
1AB89
  8
0
 62
     5
 10
98.309786297450003
 20
186.16147732129971
 30
0.0
 11
99.556515006250024
 21
187.40820602999989
 31
0.0
  0
LINE
  5
1AB8A
  8
0
 62
     5
 10
98.793150651850056
 20
185.71395419329991
 30
0.0
 11
99.073150651850014
 21
187.85572915809999
 31
0.0
  0
LINE
  5
1AB8B
  8
0
 62
     5
 10
98.793150651850056
 20
185.76995419329981
 30
0.0
 11
99.073150651850014
 21
187.79972915810001
 31
0.0
  0
LINE
  5
1AB8C
  8
0
 62
     5
 10
99.556515006250024
 20
186.16147732129971
 30
0.0
 11
98.309786297450003
 21
187.40820602999989
 31
0.0
  0
LINE
  5
1AB8D
  8
0
 62
     5
 10
99.073150651850014
 20
185.76995419329981
 30
0.0
 11
98.793150651850056
 21
187.79972915810001
 31
0.0
  0
LINE
  5
1AB8E
  8
0
 62
     5
 10
99.073150651850014
 20
185.71395419329991
 30
0.0
 11
98.793150651850056
 21
187.85572915809999
 31
0.0
  0
ARC
  5
1AB8F
  8
0
 62
     5
 10
98.933150651849985
 20
186.78484167569991
 30
0.0
 40
1.0800000000000001
 50
172.55180943900211
 51
187.4481905609978
  0
LINE
  5
1AB90
  8
0
 62
     5
 10
99.393381695849996
 20
186.32461063169981
 30
0.0
 11
99.948038134250055
 21
186.64484167569981
 31
0.0
  0
LINE
  5
1AB91
  8
0
 62
     5
 10
100.15123951355
 20
186.50484167569991
 30
0.0
 11
99.556515006250024
 21
186.16147732129971
 31
0.0
  0
LINE
  5
1AB92
  8
0
 62
     5
 10
97.91826316945
 20
186.64484167569981
 30
0.0
 11
99.948038134250055
 21
186.9248416756995
 31
0.0
  0
LINE
  5
1AB93
  8
0
 62
     5
 10
97.862263169450003
 20
186.64484167569981
 30
0.0
 11
100.00403813425
 21
186.9248416756995
 31
0.0
  0
LINE
  5
1AB94
  8
0
 62
     5
 10
97.862263169450003
 20
186.9248416756995
 30
0.0
 11
100.00403813425
 21
186.64484167569981
 31
0.0
  0
LINE
  5
1AB95
  8
0
 62
     5
 10
97.91826316945
 20
186.9248416756995
 30
0.0
 11
99.948038134250055
 21
186.64484167569981
 31
0.0
  0
LINE
  5
1AB96
  8
0
 62
     5
 10
99.948038134250055
 20
186.9248416756995
 30
0.0
 11
99.393381695849996
 21
187.2450727197
 31
0.0
  0
LINE
  5
1AB97
  8
0
 62
     5
 10
99.556515006250024
 20
187.40820602999989
 30
0.0
 11
100.15123951355
 21
187.06484167569991
 31
0.0
  0
ARC
  5
1AB98
  8
0
 62
     5
 10
98.933150651849985
 20
186.78484167569991
 30
0.0
 40
1.1277213352999991
 50
289.03326855569981
 51
340.9667314443011
  0
ARC
  5
1AB99
  8
0
 62
     5
 10
98.933150651849985
 20
186.78484167569991
 30
0.0
 40
1.1277213352999991
 50
19.033268555698768
 51
70.96673144430018
  0
ARC
  5
1AB9A
  8
0
 62
     5
 10
-286.81012693594982
 20
170.48887999999991
 30
0.0
 40
380.26616440010002
 50
3.6875717785018272
 51
4.4256433725014768
  0
LINE
  5
1AB9B
  8
0
 62
     5
 10
92.003811561650053
 20
200.4888799999998
 30
0.0
 11
97.944442999949985
 21
200.4888799999998
 31
0.0
  0
LINE
  5
1AB9C
  8
0
 62
     5
 10
199.39254505169669
 20
135.18888000000001
 30
0.0
 11
180.02984032691231
 21
135.1888799999999
 31
0.0
  0
LINE
  5
1AB9D
  8
0
 62
     5
 10
199.85476136459681
 20
138.48887999999991
 30
0.0
 11
180.11227552619661
 21
138.48887999999991
 31
0.0
  0
LINE
  5
1AB9E
  8
0
 62
     5
 10
156.3835184453967
 20
200.4888799999998
 30
0.0
 11
199.98351844539681
 21
200.4888799999998
 31
0.0
  0
LINE
  5
1AB9F
  8
0
 62
     5
 10
156.3835184453967
 20
190.4475552964993
 30
0.0
 11
199.9835184453965
 21
190.4475552964993
 31
0.0
  0
LINE
  5
1ABA0
  8
0
 62
     5
 10
156.1835184453962
 20
150.53020470349981
 30
0.0
 11
200.04532184429661
 21
150.5399731336999
 31
0.0
  0
LINE
  5
1ABA1
  8
0
 62
     5
 10
199.98351844539681
 20
140.48887999999991
 30
0.0
 11
156.3835184453967
 21
140.48887999999991
 31
0.0
  0
LINE
  5
1ABA2
  8
0
 62
     5
 10
156.1835184453962
 20
200.28887999999989
 30
0.0
 11
156.1835184453962
 21
140.48887999999991
 31
0.0
  0
LINE
  5
1ABA3
  8
0
 62
     5
 10
132.18351844539609
 20
138.6888799999999
 30
0.0
 11
132.18351844539609
 21
199.48887999999999
 31
0.0
  0
LINE
  5
1ABA4
  8
0
 62
     5
 10
102.71060740004999
 20
189.36963206339991
 30
0.0
 11
102.71060740004999
 21
151.60812793659991
 31
0.0
  0
LINE
  5
1ABA5
  8
HIDDEN
 10
160.20523124899671
 20
124.4888799999998
 30
0.0
 11
140.52985932259671
 21
124.4888822965996
 31
0.0
  0
LINE
  5
1ABA6
  8
0
 62
     5
 10
132.18351844539609
 20
150.84743577979981
 30
0.0
 11
148.18441196689659
 21
150.84743577979981
 31
0.0
  0
LINE
  5
1ABA7
  8
0
 62
     5
 10
133.183518445396
 20
157.68887999999981
 30
0.0
 11
148.1835184453968
 21
157.68887999999981
 31
0.0
  0
LINE
  5
1ABA8
  8
0
 62
     5
 10
151.39393794409671
 20
132.98887999999991
 30
0.0
 11
136.5730989466968
 21
132.98887999999991
 31
0.0
  0
LINE
  5
1ABA9
  8
0
 62
     5
 10
142.29339972689641
 20
133.28887999999961
 30
0.0
 11
148.6146051066965
 21
133.28887999999961
 31
0.0
  0
LINE
  5
1ABAA
  8
0
 62
     5
 10
133.87182283989679
 20
137.48887999999991
 30
0.0
 11
154.0952140508968
 21
137.48887999999991
 31
0.0
  0
LINE
  5
1ABAB
  8
0
 62
     5
 10
132.3835184453967
 20
138.48887999999991
 30
0.0
 11
155.48351844539681
 21
138.48887999999991
 31
0.0
  0
LINE
  5
1ABAC
  8
0
 62
     5
 10
133.183518445396
 20
140.48887999999991
 30
0.0
 11
156.1835184453962
 21
140.48887999999991
 31
0.0
  0
LINE
  5
1ABAD
  8
0
 62
     5
 10
151.1835184453968
 20
147.98887999999991
 30
0.0
 11
133.183518445396
 21
147.98887999999991
 31
0.0
  0
ARC
  5
1ABAE
  8
HIDDEN
 10
140.41752180253241
 20
131.27708830709381
 30
0.0
 40
6.7891354795232051
 50
195.3895335409876
 51
270.94809708025792
  0
POLYLINE
  5
1ABAF
  8
0
 62
     5
 66
     1
 10
0.0
 20
0.0
 30
0.0
 70
     8
  0
VERTEX
  5
1ABB0
  8
0
 62
     5
 10
132.18399999999991
 20
141.43399999999991
 30
0.0
 70
    32
  0
VERTEX
  5
1ABB1
  8
0
 62
     5
 10
132.18399999999991
 20
141.43399999999991
 30
0.0
 70
    32
  0
VERTEX
  5
1ABB2
  8
0
 62
     5
 10
132.18399999999991
 20
141.4349999999996
 30
0.0
 70
    32
  0
VERTEX
  5
1ABB3
  8
0
 62
     5
 10
132.18399999999991
 20
141.4349999999996
 30
0.0
 70
    32
  0
VERTEX
  5
1ABB4
  8
0
 62
     5
 10
132.18399999999991
 20
141.43600000000001
 30
0.0
 70
    32
  0
VERTEX
  5
1ABB5
  8
0
 62
     5
 10
132.18399999999991
 20
141.43600000000001
 30
0.0
 70
    32
  0
VERTEX
  5
1ABB6
  8
0
 62
     5
 10
132.18399999999991
 20
141.43600000000001
 30
0.0
 70
    32
  0
VERTEX
  5
1ABB7
  8
0
 62
     5
 10
132.18399999999991
 20
141.43700000000001
 30
0.0
 70
    32
  0
VERTEX
  5
1ABB8
  8
0
 62
     5
 10
132.18399999999991
 20
141.43700000000001
 30
0.0
 70
    32
  0
VERTEX
  5
1ABB9
  8
0
 62
     5
 10
132.18399999999991
 20
141.4379999999999
 30
0.0
 70
    32
  0
VERTEX
  5
1ABBA
  8
0
 62
     5
 10
132.18399999999991
 20
141.4379999999999
 30
0.0
 70
    32
  0
VERTEX
  5
1ABBB
  8
0
 62
     5
 10
132.18399999999991
 20
141.43899999999999
 30
0.0
 70
    32
  0
VERTEX
  5
1ABBC
  8
0
 62
     5
 10
132.18399999999991
 20
141.43899999999999
 30
0.0
 70
    32
  0
VERTEX
  5
1ABBD
  8
0
 62
     5
 10
132.18399999999991
 20
141.43899999999999
 30
0.0
 70
    32
  0
VERTEX
  5
1ABBE
  8
0
 62
     5
 10
132.18399999999991
 20
141.44
 30
0.0
 70
    32
  0
VERTEX
  5
1ABBF
  8
0
 62
     5
 10
132.18399999999991
 20
141.44
 30
0.0
 70
    32
  0
VERTEX
  5
1ABC0
  8
0
 62
     5
 10
132.18399999999991
 20
141.4409999999998
 30
0.0
 70
    32
  0
VERTEX
  5
1ABC1
  8
0
 62
     5
 10
132.18399999999991
 20
141.4409999999998
 30
0.0
 70
    32
  0
VERTEX
  5
1ABC2
  8
0
 62
     5
 10
132.18399999999991
 20
141.44199999999981
 30
0.0
 70
    32
  0
VERTEX
  5
1ABC3
  8
0
 62
     5
 10
132.18399999999991
 20
141.44199999999981
 30
0.0
 70
    32
  0
VERTEX
  5
1ABC4
  8
0
 62
     5
 10
132.18399999999991
 20
141.44299999999981
 30
0.0
 70
    32
  0
VERTEX
  5
1ABC5
  8
0
 62
     5
 10
132.18399999999991
 20
141.44299999999981
 30
0.0
 70
    32
  0
VERTEX
  5
1ABC6
  8
0
 62
     5
 10
132.18399999999991
 20
141.44299999999981
 30
0.0
 70
    32
  0
VERTEX
  5
1ABC7
  8
0
 62
     5
 10
132.18399999999991
 20
141.4439999999999
 30
0.0
 70
    32
  0
VERTEX
  5
1ABC8
  8
0
 62
     5
 10
132.18399999999991
 20
141.4439999999999
 30
0.0
 70
    32
  0
VERTEX
  5
1ABC9
  8
0
 62
     5
 10
132.18399999999991
 20
141.44499999999991
 30
0.0
 70
    32
  0
VERTEX
  5
1ABCA
  8
0
 62
     5
 10
132.18399999999991
 20
141.44499999999991
 30
0.0
 70
    32
  0
VERTEX
  5
1ABCB
  8
0
 62
     5
 10
132.18399999999991
 20
141.446
 30
0.0
 70
    32
  0
VERTEX
  5
1ABCC
  8
0
 62
     5
 10
132.18399999999991
 20
141.446
 30
0.0
 70
    32
  0
VERTEX
  5
1ABCD
  8
0
 62
     5
 10
132.18399999999991
 20
141.446
 30
0.0
 70
    32
  0
VERTEX
  5
1ABCE
  8
0
 62
     5
 10
132.18399999999991
 20
141.447
 30
0.0
 70
    32
  0
VERTEX
  5
1ABCF
  8
0
 62
     5
 10
132.18399999999991
 20
141.447
 30
0.0
 70
    32
  0
VERTEX
  5
1ABD0
  8
0
 62
     5
 10
132.18399999999991
 20
141.44799999999981
 30
0.0
 70
    32
  0
VERTEX
  5
1ABD1
  8
0
 62
     5
 10
132.18399999999991
 20
141.44799999999981
 30
0.0
 70
    32
  0
VERTEX
  5
1ABD2
  8
0
 62
     5
 10
132.18399999999991
 20
141.44899999999981
 30
0.0
 70
    32
  0
VERTEX
  5
1ABD3
  8
0
 62
     5
 10
132.18399999999991
 20
141.44899999999981
 30
0.0
 70
    32
  0
VERTEX
  5
1ABD4
  8
0
 62
     5
 10
132.18399999999991
 20
141.44899999999981
 30
0.0
 70
    32
  0
VERTEX
  5
1ABD5
  8
0
 62
     5
 10
132.18399999999991
 20
141.44999999999951
 30
0.0
 70
    32
  0
VERTEX
  5
1ABD6
  8
0
 62
     5
 10
132.18399999999991
 20
141.44999999999951
 30
0.0
 70
    32
  0
VERTEX
  5
1ABD7
  8
0
 62
     5
 10
132.18399999999991
 20
141.45099999999991
 30
0.0
 70
    32
  0
VERTEX
  5
1ABD8
  8
0
 62
     5
 10
132.18399999999991
 20
141.45099999999991
 30
0.0
 70
    32
  0
VERTEX
  5
1ABD9
  8
0
 62
     5
 10
132.18399999999991
 20
141.45199999999991
 30
0.0
 70
    32
  0
VERTEX
  5
1ABDA
  8
0
 62
     5
 10
132.18399999999991
 20
141.45199999999991
 30
0.0
 70
    32
  0
VERTEX
  5
1ABDB
  8
0
 62
     5
 10
132.18399999999991
 20
141.45199999999991
 30
0.0
 70
    32
  0
VERTEX
  5
1ABDC
  8
0
 62
     5
 10
132.18399999999991
 20
141.453
 30
0.0
 70
    32
  0
VERTEX
  5
1ABDD
  8
0
 62
     5
 10
132.18399999999991
 20
141.453
 30
0.0
 70
    32
  0
VERTEX
  5
1ABDE
  8
0
 62
     5
 10
132.18399999999991
 20
141.45400000000001
 30
0.0
 70
    32
  0
VERTEX
  5
1ABDF
  8
0
 62
     5
 10
132.18399999999991
 20
141.45400000000001
 30
0.0
 70
    32
  0
VERTEX
  5
1ABE0
  8
0
 62
     5
 10
132.18399999999991
 20
141.45500000000001
 30
0.0
 70
    32
  0
VERTEX
  5
1ABE1
  8
0
 62
     5
 10
132.18399999999991
 20
141.45500000000001
 30
0.0
 70
    32
  0
VERTEX
  5
1ABE2
  8
0
 62
     5
 10
132.18399999999991
 20
141.4559999999999
 30
0.0
 70
    32
  0
VERTEX
  5
1ABE3
  8
0
 62
     5
 10
132.18399999999991
 20
141.4559999999999
 30
0.0
 70
    32
  0
VERTEX
  5
1ABE4
  8
0
 62
     5
 10
132.18399999999991
 20
141.4559999999999
 30
0.0
 70
    32
  0
VERTEX
  5
1ABE5
  8
0
 62
     5
 10
132.18399999999991
 20
141.45699999999991
 30
0.0
 70
    32
  0
VERTEX
  5
1ABE6
  8
0
 62
     5
 10
132.18399999999991
 20
141.45699999999991
 30
0.0
 70
    32
  0
VERTEX
  5
1ABE7
  8
0
 62
     5
 10
132.18399999999991
 20
141.45799999999991
 30
0.0
 70
    32
  0
VERTEX
  5
1ABE8
  8
0
 62
     5
 10
132.18399999999991
 20
141.45799999999991
 30
0.0
 70
    32
  0
VERTEX
  5
1ABE9
  8
0
 62
     5
 10
132.18399999999991
 20
141.459
 30
0.0
 70
    32
  0
VERTEX
  5
1ABEA
  8
0
 62
     5
 10
132.18399999999991
 20
141.459
 30
0.0
 70
    32
  0
VERTEX
  5
1ABEB
  8
0
 62
     5
 10
132.18399999999991
 20
141.459
 30
0.0
 70
    32
  0
VERTEX
  5
1ABEC
  8
0
 62
     5
 10
132.18399999999991
 20
141.46000000000001
 30
0.0
 70
    32
  0
VERTEX
  5
1ABED
  8
0
 62
     5
 10
132.18399999999991
 20
141.46000000000001
 30
0.0
 70
    32
  0
VERTEX
  5
1ABEE
  8
0
 62
     5
 10
132.18399999999991
 20
141.46100000000001
 30
0.0
 70
    32
  0
VERTEX
  5
1ABEF
  8
0
 62
     5
 10
132.18399999999991
 20
141.46100000000001
 30
0.0
 70
    32
  0
VERTEX
  5
1ABF0
  8
0
 62
     5
 10
132.18399999999991
 20
141.4619999999999
 30
0.0
 70
    32
  0
VERTEX
  5
1ABF1
  8
0
 62
     5
 10
132.18399999999991
 20
141.4619999999999
 30
0.0
 70
    32
  0
VERTEX
  5
1ABF2
  8
0
 62
     5
 10
132.18399999999991
 20
141.4619999999999
 30
0.0
 70
    32
  0
VERTEX
  5
1ABF3
  8
0
 62
     5
 10
132.18399999999991
 20
141.46299999999999
 30
0.0
 70
    32
  0
VERTEX
  5
1ABF4
  8
0
 62
     5
 10
132.18399999999991
 20
141.46299999999999
 30
0.0
 70
    32
  0
VERTEX
  5
1ABF5
  8
0
 62
     5
 10
132.18399999999991
 20
141.464
 30
0.0
 70
    32
  0
VERTEX
  5
1ABF6
  8
0
 62
     5
 10
132.18399999999991
 20
141.464
 30
0.0
 70
    32
  0
VERTEX
  5
1ABF7
  8
0
 62
     5
 10
132.18399999999991
 20
141.46499999999961
 30
0.0
 70
    32
  0
VERTEX
  5
1ABF8
  8
0
 62
     5
 10
132.18399999999991
 20
141.46499999999961
 30
0.0
 70
    32
  0
VERTEX
  5
1ABF9
  8
0
 62
     5
 10
132.18399999999991
 20
141.46499999999961
 30
0.0
 70
    32
  0
VERTEX
  5
1ABFA
  8
0
 62
     5
 10
132.18399999999991
 20
141.46600000000001
 30
0.0
 70
    32
  0
VERTEX
  5
1ABFB
  8
0
 62
     5
 10
132.18399999999991
 20
141.46600000000001
 30
0.0
 70
    32
  0
VERTEX
  5
1ABFC
  8
0
 62
     5
 10
132.18399999999991
 20
141.46700000000001
 30
0.0
 70
    32
  0
VERTEX
  5
1ABFD
  8
0
 62
     5
 10
132.18399999999991
 20
141.46700000000001
 30
0.0
 70
    32
  0
VERTEX
  5
1ABFE
  8
0
 62
     5
 10
132.18399999999991
 20
141.4679999999999
 30
0.0
 70
    32
  0
VERTEX
  5
1ABFF
  8
0
 62
     5
 10
132.18399999999991
 20
141.4679999999999
 30
0.0
 70
    32
  0
VERTEX
  5
1AC00
  8
0
 62
     5
 10
132.18399999999991
 20
141.46899999999999
 30
0.0
 70
    32
  0
VERTEX
  5
1AC01
  8
0
 62
     5
 10
132.18399999999991
 20
141.46899999999999
 30
0.0
 70
    32
  0
VERTEX
  5
1AC02
  8
0
 62
     5
 10
132.18399999999991
 20
141.46899999999999
 30
0.0
 70
    32
  0
VERTEX
  5
1AC03
  8
0
 62
     5
 10
132.18399999999991
 20
141.47
 30
0.0
 70
    32
  0
VERTEX
  5
1AC04
  8
0
 62
     5
 10
132.18399999999991
 20
141.47
 30
0.0
 70
    32
  0
VERTEX
  5
1AC05
  8
0
 62
     5
 10
132.18399999999991
 20
141.471
 30
0.0
 70
    32
  0
VERTEX
  5
1AC06
  8
0
 62
     5
 10
132.18399999999991
 20
141.471
 30
0.0
 70
    32
  0
VERTEX
  5
1AC07
  8
0
 62
     5
 10
132.18399999999991
 20
141.47200000000001
 30
0.0
 70
    32
  0
VERTEX
  5
1AC08
  8
0
 62
     5
 10
132.18399999999991
 20
141.47200000000001
 30
0.0
 70
    32
  0
VERTEX
  5
1AC09
  8
0
 62
     5
 10
132.18399999999991
 20
141.47200000000001
 30
0.0
 70
    32
  0
VERTEX
  5
1AC0A
  8
0
 62
     5
 10
132.18399999999991
 20
141.47299999999939
 30
0.0
 70
    32
  0
VERTEX
  5
1AC0B
  8
0
 62
     5
 10
132.18399999999991
 20
141.47299999999939
 30
0.0
 70
    32
  0
VERTEX
  5
1AC0C
  8
0
 62
     5
 10
132.18399999999991
 20
141.47399999999979
 30
0.0
 70
    32
  0
VERTEX
  5
1AC0D
  8
0
 62
     5
 10
132.18399999999991
 20
141.47399999999979
 30
0.0
 70
    32
  0
VERTEX
  5
1AC0E
  8
0
 62
     5
 10
132.18399999999991
 20
141.47499999999991
 30
0.0
 70
    32
  0
VERTEX
  5
1AC0F
  8
0
 62
     5
 10
132.18399999999991
 20
141.47499999999991
 30
0.0
 70
    32
  0
VERTEX
  5
1AC10
  8
0
 62
     5
 10
132.18399999999991
 20
141.47499999999991
 30
0.0
 70
    32
  0
VERTEX
  5
1AC11
  8
0
 62
     5
 10
132.18399999999991
 20
141.476
 30
0.0
 70
    32
  0
VERTEX
  5
1AC12
  8
0
 62
     5
 10
132.18399999999991
 20
141.476
 30
0.0
 70
    32
  0
VERTEX
  5
1AC13
  8
0
 62
     5
 10
132.18399999999991
 20
141.477
 30
0.0
 70
    32
  0
VERTEX
  5
1AC14
  8
0
 62
     5
 10
132.18399999999991
 20
141.477
 30
0.0
 70
    32
  0
VERTEX
  5
1AC15
  8
0
 62
     5
 10
132.18399999999991
 20
141.47799999999981
 30
0.0
 70
    32
  0
VERTEX
  5
1AC16
  8
0
 62
     5
 10
132.18399999999991
 20
141.47799999999981
 30
0.0
 70
    32
  0
VERTEX
  5
1AC17
  8
0
 62
     5
 10
132.18399999999991
 20
141.47799999999981
 30
0.0
 70
    32
  0
VERTEX
  5
1AC18
  8
0
 62
     5
 10
132.18399999999991
 20
141.4789999999999
 30
0.0
 70
    32
  0
VERTEX
  5
1AC19
  8
0
 62
     5
 10
132.18399999999991
 20
141.4789999999999
 30
0.0
 70
    32
  0
VERTEX
  5
1AC1A
  8
0
 62
     5
 10
132.18399999999991
 20
141.4799999999999
 30
0.0
 70
    32
  0
VERTEX
  5
1AC1B
  8
0
 62
     5
 10
132.18399999999991
 20
141.4799999999999
 30
0.0
 70
    32
  0
VERTEX
  5
1AC1C
  8
0
 62
     5
 10
132.18399999999991
 20
141.48099999999991
 30
0.0
 70
    32
  0
VERTEX
  5
1AC1D
  8
0
 62
     5
 10
132.18399999999991
 20
141.48099999999991
 30
0.0
 70
    32
  0
VERTEX
  5
1AC1E
  8
0
 62
     5
 10
132.18399999999991
 20
141.48199999999991
 30
0.0
 70
    32
  0
VERTEX
  5
1AC1F
  8
0
 62
     5
 10
132.18399999999991
 20
141.48199999999991
 30
0.0
 70
    32
  0
VERTEX
  5
1AC20
  8
0
 62
     5
 10
132.18399999999991
 20
141.48199999999991
 30
0.0
 70
    32
  0
VERTEX
  5
1AC21
  8
0
 62
     5
 10
132.18399999999991
 20
141.483
 30
0.0
 70
    32
  0
VERTEX
  5
1AC22
  8
0
 62
     5
 10
132.18399999999991
 20
141.483
 30
0.0
 70
    32
  0
VERTEX
  5
1AC23
  8
0
 62
     5
 10
132.18399999999991
 20
141.48400000000001
 30
0.0
 70
    32
  0
VERTEX
  5
1AC24
  8
0
 62
     5
 10
132.18399999999991
 20
141.48400000000001
 30
0.0
 70
    32
  0
VERTEX
  5
1AC25
  8
0
 62
     5
 10
132.18399999999991
 20
141.48500000000001
 30
0.0
 70
    32
  0
VERTEX
  5
1AC26
  8
0
 62
     5
 10
132.18399999999991
 20
141.48500000000001
 30
0.0
 70
    32
  0
VERTEX
  5
1AC27
  8
0
 62
     5
 10
132.18399999999991
 20
141.48500000000001
 30
0.0
 70
    32
  0
VERTEX
  5
1AC28
  8
0
 62
     5
 10
132.18399999999991
 20
141.48599999999999
 30
0.0
 70
    32
  0
VERTEX
  5
1AC29
  8
0
 62
     5
 10
132.18399999999991
 20
141.48599999999999
 30
0.0
 70
    32
  0
VERTEX
  5
1AC2A
  8
0
 62
     5
 10
132.18399999999991
 20
141.48699999999999
 30
0.0
 70
    32
  0
VERTEX
  5
1AC2B
  8
0
 62
     5
 10
132.18399999999991
 20
141.48699999999999
 30
0.0
 70
    32
  0
VERTEX
  5
1AC2C
  8
0
 62
     5
 10
132.18399999999991
 20
141.4879999999998
 30
0.0
 70
    32
  0
VERTEX
  5
1AC2D
  8
0
 62
     5
 10
132.18399999999991
 20
141.4879999999998
 30
0.0
 70
    32
  0
VERTEX
  5
1AC2E
  8
0
 62
     5
 10
132.18399999999991
 20
141.4879999999998
 30
0.0
 70
    32
  0
VERTEX
  5
1AC2F
  8
0
 62
     5
 10
132.18399999999991
 20
141.48899999999961
 30
0.0
 70
    32
  0
SEQEND
  5
1AC30
  8
0
 62
     5
  0
ARC
  5
1AC31
  8
0
 62
     5
 10
132.3835184453967
 20
138.6888799999999
 30
0.0
 40
0.2
 50
180.0
 51
270.0
  0
ARC
  5
1AC32
  8
0
 62
     5
 10
133.183518445396
 20
141.48887999999991
 30
0.0
 40
1.0
 50
180.0
 51
270.0
  0
LINE
  5
1AC33
  8
HIDDEN
 10
133.87181825459621
 20
129.4753875489599
 30
0.0
 11
133.87181825459621
 21
138.48887999999991
 31
0.0
  0
LINE
  5
1AC34
  8
0
 62
     5
 10
135.9718182545968
 20
137.48887999999991
 30
0.0
 11
135.9718182545968
 21
133.5888799999999
 31
0.0
  0
LINE
  5
1AC35
  8
0
 62
     5
 10
135.9952104074965
 20
137.48887999999991
 30
0.0
 11
135.9952104074965
 21
133.5888799999999
 31
0.0
  0
LINE
  5
1AC36
  8
0
 62
     5
 10
136.4645138025968
 20
133.28887999999961
 30
0.0
 11
136.4645138025968
 21
136.28887999999969
 31
0.0
  0
LINE
  5
1AC37
  8
0
 62
     5
 10
137.87242398799671
 20
136.28887999999969
 30
0.0
 11
137.87242398799671
 21
133.28887999999961
 31
0.0
  0
LINE
  5
1AC38
  8
0
 62
     5
 10
138.34172738309661
 20
133.5888799999999
 30
0.0
 11
138.34172738309661
 21
137.48887999999991
 31
0.0
  0
LINE
  5
1AC39
  8
0
 62
     5
 10
140.5155607137965
 20
137.48887999999991
 30
0.0
 11
140.5155607137965
 21
133.5888799999999
 31
0.0
  0
LINE
  5
1AC3A
  8
0
 62
     5
 10
138.06014534599609
 20
133.5888799999999
 30
0.0
 11
142.29339972689641
 21
133.5888799999999
 31
0.0
  0
LINE
  5
1AC3B
  8
0
 62
     5
 10
136.5730989466968
 20
132.98887999999991
 30
0.0
 11
136.27679244459679
 21
133.28887999999961
 31
0.0
  0
LINE
  5
1AC3C
  8
0
 62
     5
 10
136.76082030479671
 20
132.98887999999991
 30
0.0
 11
136.4645138025968
 21
133.28887999999961
 31
0.0
  0
LINE
  5
1AC3D
  8
0
 62
     5
 10
137.87242398799671
 20
133.28887999999961
 30
0.0
 11
138.16873049019679
 21
132.98887999999991
 31
0.0
  0
LINE
  5
1AC3E
  8
0
 62
     5
 10
138.06014534599609
 20
133.28887999999961
 30
0.0
 11
138.3564518481968
 21
132.98887999999991
 31
0.0
  0
LINE
  5
1AC3F
  8
0
 62
     5
 10
136.27679244459679
 20
133.5888799999999
 30
0.0
 11
136.27679244459679
 21
133.28887999999961
 31
0.0
  0
LINE
  5
1AC40
  8
0
 62
     5
 10
138.06014534599609
 20
133.28887999999961
 30
0.0
 11
138.06014534599609
 21
133.5888799999999
 31
0.0
  0
LINE
  5
1AC41
  8
0
 62
     5
 10
136.27679244459679
 20
133.28887999999961
 30
0.0
 11
136.4645138025968
 21
133.28887999999961
 31
0.0
  0
LINE
  5
1AC42
  8
0
 62
     5
 10
137.87242398799671
 20
133.28887999999961
 30
0.0
 11
138.06014534599609
 21
133.28887999999961
 31
0.0
  0
LINE
  5
1AC43
  8
0
 62
     5
 10
135.9718667185966
 20
133.5888799999999
 30
0.0
 11
136.27679244459679
 21
133.5888799999999
 31
0.0
  0
LINE
  5
1AC44
  8
0
 62
     5
 10
141.99617424329679
 20
132.98887999999991
 30
0.0
 11
141.99617424329679
 21
133.5888799999999
 31
0.0
  0
LINE
  5
1AC45
  8
0
 62
     5
 10
142.29339972689641
 20
133.5888799999999
 30
0.0
 11
142.29339972689641
 21
133.28887999999961
 31
0.0
  0
LINE
  5
1AC46
  8
0
 62
     5
 10
142.29339972689641
 20
133.28887999999961
 30
0.0
 11
142.24646938739659
 21
132.98887999999991
 31
0.0
  0
LINE
  5
1AC47
  8
0
 62
     5
 10
139.93675319319661
 20
133.5888799999999
 30
0.0
 11
139.93675319319661
 21
132.98887999999991
 31
0.0
  0
LINE
  5
1AC48
  8
0
  6
CONTINUOUS
 62
     5
 10
133.87181825459621
 20
138.0888799999999
 30
0.0
 11
133.87181825459621
 21
138.48887999999991
 31
0.0
  0
LINE
  5
1AC49
  8
0
 62
     5
 10
136.4645138025968
 20
136.28887999999969
 30
0.0
 11
137.87242398799671
 21
136.28887999999969
 31
0.0
  0
LINE
  5
1AC4A
  8
0
 62
     5
 10
133.87181825459621
 20
137.48887999999991
 30
0.0
 11
133.87181825459621
 21
138.48887999999991
 31
0.0
  0
ARC
  5
1AC4B
  8
0
 62
     5
 10
133.183518445396
 20
148.98887999999991
 30
0.0
 40
1.0
 50
180.0
 51
270.0
  0
ARC
  5
1AC4C
  8
0
 62
     5
 10
133.183518445396
 20
158.68887999999981
 30
0.0
 40
1.0
 50
180.0
 51
270.0
  0
LINE
  5
1AC4D
  8
CENTER
 10
143.98351844539641
 20
126.702282121197
 30
0.0
 11
143.98351844539641
 21
143.70403685026611
 31
0.0
  0
ARC
  5
1AC4E
  8
0
 62
     5
 10
150.47962061718579
 20
143.1693002490405
 30
0.0
 40
1.91913185916185
 50
187.0394857508268
 51
270.1163699399919
  0
LINE
  5
1AC4F
  8
0
 62
     5
 10
150.48351844539681
 20
141.07100864500001
 30
0.0
 11
150.48351844539681
 21
146.9483702741999
 31
0.0
  0
LINE
  5
1AC50
  8
0
 62
     5
 10
151.1835184453968
 20
146.99736724579981
 30
0.0
 11
151.1835184453968
 21
141.0029774504998
 31
0.0
  0
LINE
  5
1AC51
  8
0
 62
     5
 10
151.6835184453968
 20
140.6888799999999
 30
0.0
 11
151.6835184453968
 21
147.49388302859981
 31
0.0
  0
LINE
  5
1AC52
  8
HIDDEN
 10
163.73728525729661
 20
125.6888799999996
 30
0.0
 11
162.35452158049651
 21
125.6888799999996
 31
0.0
  0
LINE
  5
1AC53
  8
HIDDEN
 10
162.40364615749641
 20
125.6888799999996
 30
0.0
 11
161.17373301409671
 21
124.80433861019991
 31
0.0
  0
LINE
  5
1AC54
  8
0
 62
     5
 10
150.39244411979661
 20
133.5888799999999
 30
0.0
 11
150.39244411979661
 21
137.48887999999991
 31
0.0
  0
LINE
  5
1AC55
  8
0
 62
     5
 10
151.9952186361968
 20
137.48887999999991
 30
0.0
 11
151.9952186361968
 21
133.5888799999999
 31
0.0
  0
LINE
  5
1AC56
  8
0
 62
     5
 10
151.99517017219671
 20
133.5888799999999
 30
0.0
 11
148.6146051066965
 21
133.5888799999999
 31
0.0
  0
LINE
  5
1AC57
  8
0
 62
     5
 10
148.6146051066965
 20
133.28887999999961
 30
0.0
 11
148.6146051066965
 21
133.5888799999999
 31
0.0
  0
LINE
  5
1AC58
  8
0
 62
     5
 10
148.56767476719651
 20
132.98887999999991
 30
0.0
 11
148.6146051066965
 21
133.28887999999961
 31
0.0
  0
LINE
  5
1AC59
  8
0
 62
     5
 10
149.8136365990965
 20
132.98887999999991
 30
0.0
 11
149.8136365990965
 21
133.5888799999999
 31
0.0
  0
LINE
  5
1AC5A
  8
0
 62
     5
 10
151.6902444461968
 20
133.5888799999999
 30
0.0
 11
151.6902444461968
 21
133.28887999999961
 31
0.0
  0
LINE
  5
1AC5B
  8
0
 62
     5
 10
151.39393794409671
 20
132.98887999999991
 30
0.0
 11
151.6902444461968
 21
133.28887999999961
 31
0.0
  0
LINE
  5
1AC5C
  8
0
 62
     5
 10
151.1835184453968
 20
141.0001723481999
 30
0.0
 11
151.6835184453968
 21
141.0001723481999
 31
0.0
  0
LINE
  5
1AC5D
  8
0
 62
     5
 10
151.1835184453968
 20
141.07100864500001
 30
0.0
 11
150.48351844539681
 21
141.07100864500001
 31
0.0
  0
ARC
  5
1AC5E
  8
0
 62
     5
 10
151.8835184453967
 20
140.6888799999999
 30
0.0
 40
0.2
 50
180.0
 51
270.0
  0
LINE
  5
1AC5F
  8
HIDDEN
 10
160.20523124899671
 20
138.0888799999999
 30
0.0
 11
154.09521863619671
 21
138.0888799999999
 31
0.0
  0
ARC
  5
1AC60
  8
0
 62
     5
 10
156.3835184453967
 20
140.6888799999999
 30
0.0
 40
0.2
 50
180.0
 51
270.0
  0
LINE
  5
1AC61
  8
0
 62
     5
 10
154.09521863619671
 20
137.48887999999991
 30
0.0
 11
154.09521863619671
 21
138.48887999999991
 31
0.0
  0
ARC
  5
1AC62
  8
0
 62
     5
 10
155.48351844539681
 20
138.6888799999999
 30
0.0
 40
0.2
 50
270.0
 51
0.0
  0
LINE
  5
1AC63
  8
0
 62
     5
 10
155.6835184453968
 20
140.48887999999991
 30
0.0
 11
155.6835184453968
 21
138.6888799999999
 31
0.0
  0
LINE
  5
1AC64
  8
HIDDEN
 10
162.40364615749641
 20
136.8888799999998
 30
0.0
 11
161.17373301409671
 21
137.77342138979961
 31
0.0
  0
LINE
  5
1AC65
  8
HIDDEN
 10
163.73728525729661
 20
136.8888799999998
 30
0.0
 11
162.35452158049651
 21
136.8888799999998
 31
0.0
  0
LINE
  5
1AC66
  8
HIDDEN
 10
165.18492937871571
 20
127.5888799999999
 30
0.0
 11
173.61416866329671
 21
127.5888799999999
 31
0.0
  0
LINE
  5
1AC67
  8
HIDDEN
 10
165.18775064795651
 20
134.98887999999991
 30
0.0
 11
173.61416866329671
 21
134.98887999999991
 31
0.0
  0
LINE
  5
1AC68
  8
HIDDEN
 10
182.63584877009541
 20
135.1888799999999
 30
0.0
 11
182.6358487701124
 21
127.7929777910842
 31
0.0
  0
LINE
  5
1AC69
  8
0
 62
     5
 10
180.02984032691231
 20
135.1888799999999
 30
0.0
 11
180.02984032691231
 21
138.48887999999991
 31
0.0
  0
ARC
  5
1AC6A
  8
0
 62
     5
 10
180.11227373389639
 20
138.6888799999999
 30
0.0
 40
0.2
 50
180.0
 51
270.0
  0
LINE
  5
1AC6B
  8
0
 62
     5
 10
179.91227373389671
 20
138.6888799999999
 30
0.0
 11
179.91227373389671
 21
140.48887999999991
 31
0.0
  0
ARC
  5
1AC6C
  8
0
 62
     5
 10
154.7443983037966
 20
155.94291832429991
 30
0.0
 40
1.0
 50
90.000013699500073
 51
163.0422846088974
  0
LINE
  5
1AC6D
  8
0
 62
     5
 10
148.6835184453966
 20
150.8909343501999
 30
0.0
 11
148.6835184453966
 21
157.1888799999999
 31
0.0
  0
LINE
  5
1AC6E
  8
0
 62
     5
 10
151.6835184453968
 20
157.3888799999992
 30
0.0
 11
151.6835184453968
 21
150.8382861339
 31
0.0
  0
LINE
  5
1AC6F
  8
0
 62
     5
 10
155.48351844539681
 20
151.26375462119981
 30
0.0
 11
155.48351844539681
 21
157.1411162503999
 31
0.0
  0
LINE
  5
1AC70
  8
0
 62
     5
 10
151.6835184453968
 20
150.84743577979981
 30
0.0
 11
156.1835184453962
 21
150.84743577979981
 31
0.0
  0
ARC
  5
1AC71
  8
0
 62
     5
 10
154.7443983037966
 20
152.44291832429991
 30
0.0
 40
1.0
 50
196.95771539109879
 51
269.99998630049993
  0
LINE
  5
1AC72
  8
0
 62
     5
 10
148.81865667759669
 20
143.72017234819941
 30
0.0
 11
148.5989507625965
 21
143.72017234819941
 31
0.0
  0
LINE
  5
1AC73
  8
0
 62
     5
 10
148.5989507625965
 20
144.28017234819981
 30
0.0
 11
148.81865667759669
 21
144.28017234819981
 31
0.0
  0
ARC
  5
1AC74
  8
0
 62
     5
 10
150.4795887240069
 20
144.83116469122291
 30
0.0
 40
1.91901168049157
 50
89.882670538198909
 51
172.9709222020503
  0
LINE
  5
1AC75
  8
0
 62
     5
 10
148.5749553103966
 20
143.63240312429991
 30
0.0
 11
148.5749553103966
 21
142.93410424149991
 31
0.0
  0
LINE
  5
1AC76
  8
0
 62
     5
 10
148.5749553103966
 20
144.36794157200001
 30
0.0
 11
148.5749553103966
 21
145.06624045479981
 31
0.0
  0
LINE
  5
1AC77
  8
0
 62
     5
 10
151.1835184453968
 20
147.0001723481999
 30
0.0
 11
151.1835184453968
 21
147.99221535239991
 31
0.0
  0
LINE
  5
1AC78
  8
0
 62
     5
 10
151.1835184453968
 20
146.95017234819991
 30
0.0
 11
150.48351844539681
 21
146.95017234819991
 31
0.0
  0
LINE
  5
1AC79
  8
0
 62
     5
 10
151.1835184453968
 20
147.0001723481999
 30
0.0
 11
151.6835184453968
 21
147.0001723481999
 31
0.0
  0
ARC
  5
1AC7A
  8
0
 62
     5
 10
151.1835184453968
 20
147.48887999999991
 30
0.0
 40
0.5
 50
0.0
 51
90.0
  0
LINE
  5
1AC7B
  8
0
 62
     5
 10
148.81865667759669
 20
144.28017234819981
 30
0.0
 11
148.81865667759669
 21
143.72017234819941
 31
0.0
  0
POLYLINE
  5
1AC7C
  8
0
 62
     5
 66
     1
 10
0.0
 20
0.0
 30
0.0
 70
     8
  0
VERTEX
  5
1AC7D
  8
0
 62
     5
 10
148.68399999999991
 20
150.86799999999999
 30
0.0
 70
    32
  0
VERTEX
  5
1AC7E
  8
0
 62
     5
 10
148.68399999999991
 20
150.86799999999999
 30
0.0
 70
    32
  0
VERTEX
  5
1AC7F
  8
0
 62
     5
 10
148.68399999999991
 20
150.86799999999999
 30
0.0
 70
    32
  0
VERTEX
  5
1AC80
  8
0
 62
     5
 10
148.68399999999991
 20
150.86799999999999
 30
0.0
 70
    32
  0
VERTEX
  5
1AC81
  8
0
 62
     5
 10
148.68399999999991
 20
150.869
 30
0.0
 70
    32
  0
VERTEX
  5
1AC82
  8
0
 62
     5
 10
148.68399999999991
 20
150.869
 30
0.0
 70
    32
  0
VERTEX
  5
1AC83
  8
0
 62
     5
 10
148.68399999999991
 20
150.869
 30
0.0
 70
    32
  0
VERTEX
  5
1AC84
  8
0
 62
     5
 10
148.68399999999991
 20
150.869
 30
0.0
 70
    32
  0
VERTEX
  5
1AC85
  8
0
 62
     5
 10
148.68399999999991
 20
150.869
 30
0.0
 70
    32
  0
VERTEX
  5
1AC86
  8
0
 62
     5
 10
148.68399999999991
 20
150.869
 30
0.0
 70
    32
  0
VERTEX
  5
1AC87
  8
0
 62
     5
 10
148.68399999999991
 20
150.869
 30
0.0
 70
    32
  0
VERTEX
  5
1AC88
  8
0
 62
     5
 10
148.68399999999991
 20
150.87
 30
0.0
 70
    32
  0
VERTEX
  5
1AC89
  8
0
 62
     5
 10
148.68399999999991
 20
150.87
 30
0.0
 70
    32
  0
VERTEX
  5
1AC8A
  8
0
 62
     5
 10
148.68399999999991
 20
150.87
 30
0.0
 70
    32
  0
VERTEX
  5
1AC8B
  8
0
 62
     5
 10
148.68399999999991
 20
150.87
 30
0.0
 70
    32
  0
VERTEX
  5
1AC8C
  8
0
 62
     5
 10
148.68399999999991
 20
150.87
 30
0.0
 70
    32
  0
VERTEX
  5
1AC8D
  8
0
 62
     5
 10
148.68399999999991
 20
150.87
 30
0.0
 70
    32
  0
VERTEX
  5
1AC8E
  8
0
 62
     5
 10
148.68399999999991
 20
150.87
 30
0.0
 70
    32
  0
VERTEX
  5
1AC8F
  8
0
 62
     5
 10
148.68399999999991
 20
150.87100000000001
 30
0.0
 70
    32
  0
VERTEX
  5
1AC90
  8
0
 62
     5
 10
148.68399999999991
 20
150.87100000000001
 30
0.0
 70
    32
  0
VERTEX
  5
1AC91
  8
0
 62
     5
 10
148.68399999999991
 20
150.87100000000001
 30
0.0
 70
    32
  0
VERTEX
  5
1AC92
  8
0
 62
     5
 10
148.68399999999991
 20
150.87100000000001
 30
0.0
 70
    32
  0
VERTEX
  5
1AC93
  8
0
 62
     5
 10
148.68399999999991
 20
150.87100000000001
 30
0.0
 70
    32
  0
VERTEX
  5
1AC94
  8
0
 62
     5
 10
148.68399999999991
 20
150.87100000000001
 30
0.0
 70
    32
  0
VERTEX
  5
1AC95
  8
0
 62
     5
 10
148.68399999999991
 20
150.87100000000001
 30
0.0
 70
    32
  0
VERTEX
  5
1AC96
  8
0
 62
     5
 10
148.68399999999991
 20
150.87200000000001
 30
0.0
 70
    32
  0
VERTEX
  5
1AC97
  8
0
 62
     5
 10
148.68399999999991
 20
150.87200000000001
 30
0.0
 70
    32
  0
VERTEX
  5
1AC98
  8
0
 62
     5
 10
148.68399999999991
 20
150.87200000000001
 30
0.0
 70
    32
  0
VERTEX
  5
1AC99
  8
0
 62
     5
 10
148.68399999999991
 20
150.87200000000001
 30
0.0
 70
    32
  0
VERTEX
  5
1AC9A
  8
0
 62
     5
 10
148.68399999999991
 20
150.87200000000001
 30
0.0
 70
    32
  0
VERTEX
  5
1AC9B
  8
0
 62
     5
 10
148.68399999999991
 20
150.87200000000001
 30
0.0
 70
    32
  0
VERTEX
  5
1AC9C
  8
0
 62
     5
 10
148.68399999999991
 20
150.87200000000001
 30
0.0
 70
    32
  0
VERTEX
  5
1AC9D
  8
0
 62
     5
 10
148.68399999999991
 20
150.87299999999991
 30
0.0
 70
    32
  0
VERTEX
  5
1AC9E
  8
0
 62
     5
 10
148.68399999999991
 20
150.87299999999991
 30
0.0
 70
    32
  0
VERTEX
  5
1AC9F
  8
0
 62
     5
 10
148.68399999999991
 20
150.87299999999991
 30
0.0
 70
    32
  0
VERTEX
  5
1ACA0
  8
0
 62
     5
 10
148.68399999999991
 20
150.87299999999991
 30
0.0
 70
    32
  0
VERTEX
  5
1ACA1
  8
0
 62
     5
 10
148.68399999999991
 20
150.87299999999991
 30
0.0
 70
    32
  0
VERTEX
  5
1ACA2
  8
0
 62
     5
 10
148.68399999999991
 20
150.87299999999991
 30
0.0
 70
    32
  0
VERTEX
  5
1ACA3
  8
0
 62
     5
 10
148.68399999999991
 20
150.87299999999991
 30
0.0
 70
    32
  0
VERTEX
  5
1ACA4
  8
0
 62
     5
 10
148.68399999999991
 20
150.87399999999991
 30
0.0
 70
    32
  0
VERTEX
  5
1ACA5
  8
0
 62
     5
 10
148.68399999999991
 20
150.87399999999991
 30
0.0
 70
    32
  0
VERTEX
  5
1ACA6
  8
0
 62
     5
 10
148.68399999999991
 20
150.87399999999991
 30
0.0
 70
    32
  0
VERTEX
  5
1ACA7
  8
0
 62
     5
 10
148.68399999999991
 20
150.87399999999991
 30
0.0
 70
    32
  0
VERTEX
  5
1ACA8
  8
0
 62
     5
 10
148.68399999999991
 20
150.87399999999991
 30
0.0
 70
    32
  0
VERTEX
  5
1ACA9
  8
0
 62
     5
 10
148.68399999999991
 20
150.87399999999991
 30
0.0
 70
    32
  0
VERTEX
  5
1ACAA
  8
0
 62
     5
 10
148.68399999999991
 20
150.87399999999991
 30
0.0
 70
    32
  0
VERTEX
  5
1ACAB
  8
0
 62
     5
 10
148.68399999999991
 20
150.875
 30
0.0
 70
    32
  0
VERTEX
  5
1ACAC
  8
0
 62
     5
 10
148.68399999999991
 20
150.875
 30
0.0
 70
    32
  0
VERTEX
  5
1ACAD
  8
0
 62
     5
 10
148.68399999999991
 20
150.875
 30
0.0
 70
    32
  0
VERTEX
  5
1ACAE
  8
0
 62
     5
 10
148.68399999999991
 20
150.875
 30
0.0
 70
    32
  0
VERTEX
  5
1ACAF
  8
0
 62
     5
 10
148.68399999999991
 20
150.875
 30
0.0
 70
    32
  0
VERTEX
  5
1ACB0
  8
0
 62
     5
 10
148.68399999999991
 20
150.875
 30
0.0
 70
    32
  0
VERTEX
  5
1ACB1
  8
0
 62
     5
 10
148.68399999999991
 20
150.875
 30
0.0
 70
    32
  0
VERTEX
  5
1ACB2
  8
0
 62
     5
 10
148.68399999999991
 20
150.876
 30
0.0
 70
    32
  0
VERTEX
  5
1ACB3
  8
0
 62
     5
 10
148.68399999999991
 20
150.876
 30
0.0
 70
    32
  0
VERTEX
  5
1ACB4
  8
0
 62
     5
 10
148.68399999999991
 20
150.876
 30
0.0
 70
    32
  0
VERTEX
  5
1ACB5
  8
0
 62
     5
 10
148.68399999999991
 20
150.876
 30
0.0
 70
    32
  0
VERTEX
  5
1ACB6
  8
0
 62
     5
 10
148.68399999999991
 20
150.876
 30
0.0
 70
    32
  0
VERTEX
  5
1ACB7
  8
0
 62
     5
 10
148.68399999999991
 20
150.876
 30
0.0
 70
    32
  0
VERTEX
  5
1ACB8
  8
0
 62
     5
 10
148.68399999999991
 20
150.876
 30
0.0
 70
    32
  0
VERTEX
  5
1ACB9
  8
0
 62
     5
 10
148.68399999999991
 20
150.87700000000001
 30
0.0
 70
    32
  0
VERTEX
  5
1ACBA
  8
0
 62
     5
 10
148.68399999999991
 20
150.87700000000001
 30
0.0
 70
    32
  0
VERTEX
  5
1ACBB
  8
0
 62
     5
 10
148.68399999999991
 20
150.87700000000001
 30
0.0
 70
    32
  0
VERTEX
  5
1ACBC
  8
0
 62
     5
 10
148.68399999999991
 20
150.87700000000001
 30
0.0
 70
    32
  0
VERTEX
  5
1ACBD
  8
0
 62
     5
 10
148.68399999999991
 20
150.87700000000001
 30
0.0
 70
    32
  0
VERTEX
  5
1ACBE
  8
0
 62
     5
 10
148.68399999999991
 20
150.87700000000001
 30
0.0
 70
    32
  0
VERTEX
  5
1ACBF
  8
0
 62
     5
 10
148.68399999999991
 20
150.87700000000001
 30
0.0
 70
    32
  0
VERTEX
  5
1ACC0
  8
0
 62
     5
 10
148.68399999999991
 20
150.8779999999999
 30
0.0
 70
    32
  0
VERTEX
  5
1ACC1
  8
0
 62
     5
 10
148.68399999999991
 20
150.8779999999999
 30
0.0
 70
    32
  0
VERTEX
  5
1ACC2
  8
0
 62
     5
 10
148.68399999999991
 20
150.8779999999999
 30
0.0
 70
    32
  0
VERTEX
  5
1ACC3
  8
0
 62
     5
 10
148.68399999999991
 20
150.8779999999999
 30
0.0
 70
    32
  0
VERTEX
  5
1ACC4
  8
0
 62
     5
 10
148.68399999999991
 20
150.8779999999999
 30
0.0
 70
    32
  0
VERTEX
  5
1ACC5
  8
0
 62
     5
 10
148.68399999999991
 20
150.8779999999999
 30
0.0
 70
    32
  0
VERTEX
  5
1ACC6
  8
0
 62
     5
 10
148.68399999999991
 20
150.87899999999991
 30
0.0
 70
    32
  0
VERTEX
  5
1ACC7
  8
0
 62
     5
 10
148.68399999999991
 20
150.87899999999991
 30
0.0
 70
    32
  0
VERTEX
  5
1ACC8
  8
0
 62
     5
 10
148.68399999999991
 20
150.87899999999991
 30
0.0
 70
    32
  0
VERTEX
  5
1ACC9
  8
0
 62
     5
 10
148.68399999999991
 20
150.87899999999991
 30
0.0
 70
    32
  0
VERTEX
  5
1ACCA
  8
0
 62
     5
 10
148.68399999999991
 20
150.87899999999991
 30
0.0
 70
    32
  0
VERTEX
  5
1ACCB
  8
0
 62
     5
 10
148.68399999999991
 20
150.87899999999991
 30
0.0
 70
    32
  0
VERTEX
  5
1ACCC
  8
0
 62
     5
 10
148.68399999999991
 20
150.87899999999991
 30
0.0
 70
    32
  0
VERTEX
  5
1ACCD
  8
0
 62
     5
 10
148.68399999999991
 20
150.87999999999991
 30
0.0
 70
    32
  0
VERTEX
  5
1ACCE
  8
0
 62
     5
 10
148.68399999999991
 20
150.87999999999991
 30
0.0
 70
    32
  0
VERTEX
  5
1ACCF
  8
0
 62
     5
 10
148.68399999999991
 20
150.87999999999991
 30
0.0
 70
    32
  0
VERTEX
  5
1ACD0
  8
0
 62
     5
 10
148.68399999999991
 20
150.87999999999991
 30
0.0
 70
    32
  0
VERTEX
  5
1ACD1
  8
0
 62
     5
 10
148.68399999999991
 20
150.87999999999991
 30
0.0
 70
    32
  0
VERTEX
  5
1ACD2
  8
0
 62
     5
 10
148.68399999999991
 20
150.87999999999991
 30
0.0
 70
    32
  0
VERTEX
  5
1ACD3
  8
0
 62
     5
 10
148.68399999999991
 20
150.87999999999991
 30
0.0
 70
    32
  0
VERTEX
  5
1ACD4
  8
0
 62
     5
 10
148.68399999999991
 20
150.8809999999994
 30
0.0
 70
    32
  0
VERTEX
  5
1ACD5
  8
0
 62
     5
 10
148.68399999999991
 20
150.8809999999994
 30
0.0
 70
    32
  0
VERTEX
  5
1ACD6
  8
0
 62
     5
 10
148.68399999999991
 20
150.8809999999994
 30
0.0
 70
    32
  0
VERTEX
  5
1ACD7
  8
0
 62
     5
 10
148.68399999999991
 20
150.8809999999994
 30
0.0
 70
    32
  0
VERTEX
  5
1ACD8
  8
0
 62
     5
 10
148.68399999999991
 20
150.8809999999994
 30
0.0
 70
    32
  0
VERTEX
  5
1ACD9
  8
0
 62
     5
 10
148.68399999999991
 20
150.8809999999994
 30
0.0
 70
    32
  0
VERTEX
  5
1ACDA
  8
0
 62
     5
 10
148.68399999999991
 20
150.8809999999994
 30
0.0
 70
    32
  0
VERTEX
  5
1ACDB
  8
0
 62
     5
 10
148.68399999999991
 20
150.88200000000001
 30
0.0
 70
    32
  0
VERTEX
  5
1ACDC
  8
0
 62
     5
 10
148.68399999999991
 20
150.88200000000001
 30
0.0
 70
    32
  0
VERTEX
  5
1ACDD
  8
0
 62
     5
 10
148.68399999999991
 20
150.88200000000001
 30
0.0
 70
    32
  0
VERTEX
  5
1ACDE
  8
0
 62
     5
 10
148.68399999999991
 20
150.88200000000001
 30
0.0
 70
    32
  0
VERTEX
  5
1ACDF
  8
0
 62
     5
 10
148.68399999999991
 20
150.88200000000001
 30
0.0
 70
    32
  0
VERTEX
  5
1ACE0
  8
0
 62
     5
 10
148.68399999999991
 20
150.88200000000001
 30
0.0
 70
    32
  0
VERTEX
  5
1ACE1
  8
0
 62
     5
 10
148.68399999999991
 20
150.88200000000001
 30
0.0
 70
    32
  0
VERTEX
  5
1ACE2
  8
0
 62
     5
 10
148.68399999999991
 20
150.88299999999981
 30
0.0
 70
    32
  0
VERTEX
  5
1ACE3
  8
0
 62
     5
 10
148.68399999999991
 20
150.88299999999981
 30
0.0
 70
    32
  0
VERTEX
  5
1ACE4
  8
0
 62
     5
 10
148.68399999999991
 20
150.88299999999981
 30
0.0
 70
    32
  0
VERTEX
  5
1ACE5
  8
0
 62
     5
 10
148.68399999999991
 20
150.88299999999981
 30
0.0
 70
    32
  0
VERTEX
  5
1ACE6
  8
0
 62
     5
 10
148.68399999999991
 20
150.88299999999981
 30
0.0
 70
    32
  0
VERTEX
  5
1ACE7
  8
0
 62
     5
 10
148.68399999999991
 20
150.88299999999981
 30
0.0
 70
    32
  0
VERTEX
  5
1ACE8
  8
0
 62
     5
 10
148.68399999999991
 20
150.88299999999981
 30
0.0
 70
    32
  0
VERTEX
  5
1ACE9
  8
0
 62
     5
 10
148.68399999999991
 20
150.8839999999999
 30
0.0
 70
    32
  0
VERTEX
  5
1ACEA
  8
0
 62
     5
 10
148.68399999999991
 20
150.8839999999999
 30
0.0
 70
    32
  0
VERTEX
  5
1ACEB
  8
0
 62
     5
 10
148.68399999999991
 20
150.8839999999999
 30
0.0
 70
    32
  0
VERTEX
  5
1ACEC
  8
0
 62
     5
 10
148.68399999999991
 20
150.8839999999999
 30
0.0
 70
    32
  0
VERTEX
  5
1ACED
  8
0
 62
     5
 10
148.68399999999991
 20
150.8839999999999
 30
0.0
 70
    32
  0
VERTEX
  5
1ACEE
  8
0
 62
     5
 10
148.68399999999991
 20
150.8839999999999
 30
0.0
 70
    32
  0
VERTEX
  5
1ACEF
  8
0
 62
     5
 10
148.68399999999991
 20
150.8839999999999
 30
0.0
 70
    32
  0
VERTEX
  5
1ACF0
  8
0
 62
     5
 10
148.68399999999991
 20
150.88499999999991
 30
0.0
 70
    32
  0
VERTEX
  5
1ACF1
  8
0
 62
     5
 10
148.68399999999991
 20
150.88499999999991
 30
0.0
 70
    32
  0
VERTEX
  5
1ACF2
  8
0
 62
     5
 10
148.68399999999991
 20
150.88499999999991
 30
0.0
 70
    32
  0
VERTEX
  5
1ACF3
  8
0
 62
     5
 10
148.68399999999991
 20
150.88499999999991
 30
0.0
 70
    32
  0
VERTEX
  5
1ACF4
  8
0
 62
     5
 10
148.68399999999991
 20
150.88499999999991
 30
0.0
 70
    32
  0
VERTEX
  5
1ACF5
  8
0
 62
     5
 10
148.68399999999991
 20
150.88499999999991
 30
0.0
 70
    32
  0
VERTEX
  5
1ACF6
  8
0
 62
     5
 10
148.68399999999991
 20
150.88499999999991
 30
0.0
 70
    32
  0
VERTEX
  5
1ACF7
  8
0
 62
     5
 10
148.68399999999991
 20
150.886
 30
0.0
 70
    32
  0
VERTEX
  5
1ACF8
  8
0
 62
     5
 10
148.68399999999991
 20
150.886
 30
0.0
 70
    32
  0
VERTEX
  5
1ACF9
  8
0
 62
     5
 10
148.68399999999991
 20
150.886
 30
0.0
 70
    32
  0
VERTEX
  5
1ACFA
  8
0
 62
     5
 10
148.68399999999991
 20
150.886
 30
0.0
 70
    32
  0
VERTEX
  5
1ACFB
  8
0
 62
     5
 10
148.68399999999991
 20
150.886
 30
0.0
 70
    32
  0
VERTEX
  5
1ACFC
  8
0
 62
     5
 10
148.68399999999991
 20
150.886
 30
0.0
 70
    32
  0
VERTEX
  5
1ACFD
  8
0
 62
     5
 10
148.68399999999991
 20
150.886
 30
0.0
 70
    32
  0
VERTEX
  5
1ACFE
  8
0
 62
     5
 10
148.68399999999991
 20
150.8869999999998
 30
0.0
 70
    32
  0
VERTEX
  5
1ACFF
  8
0
 62
     5
 10
148.68399999999991
 20
150.8869999999998
 30
0.0
 70
    32
  0
VERTEX
  5
1AD00
  8
0
 62
     5
 10
148.68399999999991
 20
150.8869999999998
 30
0.0
 70
    32
  0
VERTEX
  5
1AD01
  8
0
 62
     5
 10
148.68399999999991
 20
150.8869999999998
 30
0.0
 70
    32
  0
VERTEX
  5
1AD02
  8
0
 62
     5
 10
148.68399999999991
 20
150.8869999999998
 30
0.0
 70
    32
  0
VERTEX
  5
1AD03
  8
0
 62
     5
 10
148.68399999999991
 20
150.8869999999998
 30
0.0
 70
    32
  0
VERTEX
  5
1AD04
  8
0
 62
     5
 10
148.68399999999991
 20
150.8869999999998
 30
0.0
 70
    32
  0
VERTEX
  5
1AD05
  8
0
 62
     5
 10
148.68399999999991
 20
150.88799999999961
 30
0.0
 70
    32
  0
VERTEX
  5
1AD06
  8
0
 62
     5
 10
148.68399999999991
 20
150.88799999999961
 30
0.0
 70
    32
  0
VERTEX
  5
1AD07
  8
0
 62
     5
 10
148.68399999999991
 20
150.88799999999961
 30
0.0
 70
    32
  0
VERTEX
  5
1AD08
  8
0
 62
     5
 10
148.68399999999991
 20
150.88799999999961
 30
0.0
 70
    32
  0
VERTEX
  5
1AD09
  8
0
 62
     5
 10
148.68399999999991
 20
150.88799999999961
 30
0.0
 70
    32
  0
VERTEX
  5
1AD0A
  8
0
 62
     5
 10
148.68399999999991
 20
150.88799999999961
 30
0.0
 70
    32
  0
VERTEX
  5
1AD0B
  8
0
 62
     5
 10
148.68399999999991
 20
150.88799999999961
 30
0.0
 70
    32
  0
VERTEX
  5
1AD0C
  8
0
 62
     5
 10
148.68399999999991
 20
150.88900000000001
 30
0.0
 70
    32
  0
VERTEX
  5
1AD0D
  8
0
 62
     5
 10
148.68399999999991
 20
150.88900000000001
 30
0.0
 70
    32
  0
VERTEX
  5
1AD0E
  8
0
 62
     5
 10
148.68399999999991
 20
150.88900000000001
 30
0.0
 70
    32
  0
VERTEX
  5
1AD0F
  8
0
 62
     5
 10
148.68399999999991
 20
150.88900000000001
 30
0.0
 70
    32
  0
VERTEX
  5
1AD10
  8
0
 62
     5
 10
148.68399999999991
 20
150.88900000000001
 30
0.0
 70
    32
  0
VERTEX
  5
1AD11
  8
0
 62
     5
 10
148.68399999999991
 20
150.88900000000001
 30
0.0
 70
    32
  0
VERTEX
  5
1AD12
  8
0
 62
     5
 10
148.68399999999991
 20
150.88900000000001
 30
0.0
 70
    32
  0
VERTEX
  5
1AD13
  8
0
 62
     5
 10
148.68399999999991
 20
150.8899999999997
 30
0.0
 70
    32
  0
VERTEX
  5
1AD14
  8
0
 62
     5
 10
148.68399999999991
 20
150.8899999999997
 30
0.0
 70
    32
  0
VERTEX
  5
1AD15
  8
0
 62
     5
 10
148.68399999999991
 20
150.8899999999997
 30
0.0
 70
    32
  0
VERTEX
  5
1AD16
  8
0
 62
     5
 10
148.68399999999991
 20
150.8899999999997
 30
0.0
 70
    32
  0
VERTEX
  5
1AD17
  8
0
 62
     5
 10
148.68399999999991
 20
150.8899999999997
 30
0.0
 70
    32
  0
VERTEX
  5
1AD18
  8
0
 62
     5
 10
148.68399999999991
 20
150.8899999999997
 30
0.0
 70
    32
  0
VERTEX
  5
1AD19
  8
0
 62
     5
 10
148.68399999999991
 20
150.89099999999991
 30
0.0
 70
    32
  0
VERTEX
  5
1AD1A
  8
0
 62
     5
 10
148.68399999999991
 20
150.89099999999991
 30
0.0
 70
    32
  0
VERTEX
  5
1AD1B
  8
0
 62
     5
 10
148.68399999999991
 20
150.89099999999991
 30
0.0
 70
    32
  0
VERTEX
  5
1AD1C
  8
0
 62
     5
 10
148.68399999999991
 20
150.89099999999991
 30
0.0
 70
    32
  0
SEQEND
  5
1AD1D
  8
0
 62
     5
  0
LINE
  5
1AD1E
  8
0
 62
     5
 10
148.6839652083965
 20
150.86796311079991
 30
0.0
 11
148.18441196689659
 21
150.84743577979981
 31
0.0
  0
LINE
  5
1AD1F
  8
0
 62
     5
 10
153.73240742569681
 20
154.47291832429991
 30
0.0
 11
153.73240742569681
 21
153.9129182758999
 31
0.0
  0
LINE
  5
1AD20
  8
0
 62
     5
 10
153.73240742569681
 20
156.0429183242999
 30
0.0
 11
153.7878780362966
 21
156.2345841911999
 31
0.0
  0
LINE
  5
1AD21
  8
0
 62
     5
 10
153.73240742569681
 20
153.91291832429991
 30
0.0
 11
153.6051443190965
 21
153.91291832429991
 31
0.0
  0
LINE
  5
1AD22
  8
0
 62
     5
 10
153.6051443190965
 20
154.47291832429991
 30
0.0
 11
153.73240742569681
 21
154.47291832429991
 31
0.0
  0
LINE
  5
1AD23
  8
0
 62
     5
 10
149.1835184453968
 20
150.8575091167998
 30
0.0
 11
151.1835184453968
 21
150.8575091167998
 31
0.0
  0
POLYLINE
  5
1AD24
  8
0
 62
     5
 66
     1
 10
0.0
 20
0.0
 30
0.0
 70
     8
  0
VERTEX
  5
1AD25
  8
0
 62
     5
 10
151.68399999999991
 20
150.839
 30
0.0
 70
    32
  0
VERTEX
  5
1AD26
  8
0
 62
     5
 10
151.68399999999991
 20
150.839
 30
0.0
 70
    32
  0
VERTEX
  5
1AD27
  8
0
 62
     5
 10
151.68399999999991
 20
150.839
 30
0.0
 70
    32
  0
VERTEX
  5
1AD28
  8
0
 62
     5
 10
151.68399999999991
 20
150.839
 30
0.0
 70
    32
  0
VERTEX
  5
1AD29
  8
0
 62
     5
 10
151.68399999999991
 20
150.839
 30
0.0
 70
    32
  0
VERTEX
  5
1AD2A
  8
0
 62
     5
 10
151.68399999999991
 20
150.839
 30
0.0
 70
    32
  0
VERTEX
  5
1AD2B
  8
0
 62
     5
 10
151.68399999999991
 20
150.839
 30
0.0
 70
    32
  0
VERTEX
  5
1AD2C
  8
0
 62
     5
 10
151.68399999999991
 20
150.839
 30
0.0
 70
    32
  0
VERTEX
  5
1AD2D
  8
0
 62
     5
 10
151.68399999999991
 20
150.839
 30
0.0
 70
    32
  0
VERTEX
  5
1AD2E
  8
0
 62
     5
 10
151.68399999999991
 20
150.839
 30
0.0
 70
    32
  0
VERTEX
  5
1AD2F
  8
0
 62
     5
 10
151.68399999999991
 20
150.839
 30
0.0
 70
    32
  0
VERTEX
  5
1AD30
  8
0
 62
     5
 10
151.68399999999991
 20
150.839
 30
0.0
 70
    32
  0
VERTEX
  5
1AD31
  8
0
 62
     5
 10
151.68399999999991
 20
150.839
 30
0.0
 70
    32
  0
VERTEX
  5
1AD32
  8
0
 62
     5
 10
151.68399999999991
 20
150.839
 30
0.0
 70
    32
  0
VERTEX
  5
1AD33
  8
0
 62
     5
 10
151.68399999999991
 20
150.839
 30
0.0
 70
    32
  0
VERTEX
  5
1AD34
  8
0
 62
     5
 10
151.68399999999991
 20
150.839
 30
0.0
 70
    32
  0
VERTEX
  5
1AD35
  8
0
 62
     5
 10
151.68399999999991
 20
150.839
 30
0.0
 70
    32
  0
VERTEX
  5
1AD36
  8
0
 62
     5
 10
151.68399999999991
 20
150.839
 30
0.0
 70
    32
  0
VERTEX
  5
1AD37
  8
0
 62
     5
 10
151.68399999999991
 20
150.839
 30
0.0
 70
    32
  0
VERTEX
  5
1AD38
  8
0
 62
     5
 10
151.68399999999991
 20
150.839
 30
0.0
 70
    32
  0
VERTEX
  5
1AD39
  8
0
 62
     5
 10
151.68399999999991
 20
150.839
 30
0.0
 70
    32
  0
VERTEX
  5
1AD3A
  8
0
 62
     5
 10
151.68399999999991
 20
150.839
 30
0.0
 70
    32
  0
VERTEX
  5
1AD3B
  8
0
 62
     5
 10
151.68399999999991
 20
150.839
 30
0.0
 70
    32
  0
VERTEX
  5
1AD3C
  8
0
 62
     5
 10
151.68399999999991
 20
150.839
 30
0.0
 70
    32
  0
VERTEX
  5
1AD3D
  8
0
 62
     5
 10
151.68399999999991
 20
150.839
 30
0.0
 70
    32
  0
VERTEX
  5
1AD3E
  8
0
 62
     5
 10
151.68399999999991
 20
150.839
 30
0.0
 70
    32
  0
VERTEX
  5
1AD3F
  8
0
 62
     5
 10
151.68399999999991
 20
150.839
 30
0.0
 70
    32
  0
VERTEX
  5
1AD40
  8
0
 62
     5
 10
151.68399999999991
 20
150.839
 30
0.0
 70
    32
  0
VERTEX
  5
1AD41
  8
0
 62
     5
 10
151.68399999999991
 20
150.839
 30
0.0
 70
    32
  0
VERTEX
  5
1AD42
  8
0
 62
     5
 10
151.68399999999991
 20
150.839
 30
0.0
 70
    32
  0
VERTEX
  5
1AD43
  8
0
 62
     5
 10
151.68399999999991
 20
150.839
 30
0.0
 70
    32
  0
VERTEX
  5
1AD44
  8
0
 62
     5
 10
151.68399999999991
 20
150.839
 30
0.0
 70
    32
  0
VERTEX
  5
1AD45
  8
0
 62
     5
 10
151.68399999999991
 20
150.839
 30
0.0
 70
    32
  0
VERTEX
  5
1AD46
  8
0
 62
     5
 10
151.68399999999991
 20
150.839
 30
0.0
 70
    32
  0
VERTEX
  5
1AD47
  8
0
 62
     5
 10
151.68399999999991
 20
150.839
 30
0.0
 70
    32
  0
VERTEX
  5
1AD48
  8
0
 62
     5
 10
151.68399999999991
 20
150.839
 30
0.0
 70
    32
  0
VERTEX
  5
1AD49
  8
0
 62
     5
 10
151.68399999999991
 20
150.839
 30
0.0
 70
    32
  0
VERTEX
  5
1AD4A
  8
0
 62
     5
 10
151.68399999999991
 20
150.839
 30
0.0
 70
    32
  0
VERTEX
  5
1AD4B
  8
0
 62
     5
 10
151.68399999999991
 20
150.839
 30
0.0
 70
    32
  0
VERTEX
  5
1AD4C
  8
0
 62
     5
 10
151.68399999999991
 20
150.839
 30
0.0
 70
    32
  0
VERTEX
  5
1AD4D
  8
0
 62
     5
 10
151.68399999999991
 20
150.839
 30
0.0
 70
    32
  0
VERTEX
  5
1AD4E
  8
0
 62
     5
 10
151.68399999999991
 20
150.839
 30
0.0
 70
    32
  0
VERTEX
  5
1AD4F
  8
0
 62
     5
 10
151.68399999999991
 20
150.839
 30
0.0
 70
    32
  0
VERTEX
  5
1AD50
  8
0
 62
     5
 10
151.68399999999991
 20
150.839
 30
0.0
 70
    32
  0
VERTEX
  5
1AD51
  8
0
 62
     5
 10
151.68399999999991
 20
150.839
 30
0.0
 70
    32
  0
VERTEX
  5
1AD52
  8
0
 62
     5
 10
151.68399999999991
 20
150.839
 30
0.0
 70
    32
  0
VERTEX
  5
1AD53
  8
0
 62
     5
 10
151.68399999999991
 20
150.839
 30
0.0
 70
    32
  0
VERTEX
  5
1AD54
  8
0
 62
     5
 10
151.68399999999991
 20
150.839
 30
0.0
 70
    32
  0
VERTEX
  5
1AD55
  8
0
 62
     5
 10
151.68399999999991
 20
150.839
 30
0.0
 70
    32
  0
VERTEX
  5
1AD56
  8
0
 62
     5
 10
151.68399999999991
 20
150.839
 30
0.0
 70
    32
  0
VERTEX
  5
1AD57
  8
0
 62
     5
 10
151.68399999999991
 20
150.839
 30
0.0
 70
    32
  0
VERTEX
  5
1AD58
  8
0
 62
     5
 10
151.68399999999991
 20
150.839
 30
0.0
 70
    32
  0
VERTEX
  5
1AD59
  8
0
 62
     5
 10
151.68399999999991
 20
150.839
 30
0.0
 70
    32
  0
VERTEX
  5
1AD5A
  8
0
 62
     5
 10
151.68399999999991
 20
150.839
 30
0.0
 70
    32
  0
VERTEX
  5
1AD5B
  8
0
 62
     5
 10
151.68399999999991
 20
150.839
 30
0.0
 70
    32
  0
VERTEX
  5
1AD5C
  8
0
 62
     5
 10
151.68399999999991
 20
150.839
 30
0.0
 70
    32
  0
VERTEX
  5
1AD5D
  8
0
 62
     5
 10
151.68399999999991
 20
150.839
 30
0.0
 70
    32
  0
VERTEX
  5
1AD5E
  8
0
 62
     5
 10
151.68399999999991
 20
150.839
 30
0.0
 70
    32
  0
VERTEX
  5
1AD5F
  8
0
 62
     5
 10
151.68399999999991
 20
150.839
 30
0.0
 70
    32
  0
VERTEX
  5
1AD60
  8
0
 62
     5
 10
151.68399999999991
 20
150.839
 30
0.0
 70
    32
  0
VERTEX
  5
1AD61
  8
0
 62
     5
 10
151.68399999999991
 20
150.839
 30
0.0
 70
    32
  0
VERTEX
  5
1AD62
  8
0
 62
     5
 10
151.68399999999991
 20
150.839
 30
0.0
 70
    32
  0
VERTEX
  5
1AD63
  8
0
 62
     5
 10
151.68399999999991
 20
150.839
 30
0.0
 70
    32
  0
VERTEX
  5
1AD64
  8
0
 62
     5
 10
151.68399999999991
 20
150.839
 30
0.0
 70
    32
  0
VERTEX
  5
1AD65
  8
0
 62
     5
 10
151.68399999999991
 20
150.839
 30
0.0
 70
    32
  0
VERTEX
  5
1AD66
  8
0
 62
     5
 10
151.68399999999991
 20
150.839
 30
0.0
 70
    32
  0
VERTEX
  5
1AD67
  8
0
 62
     5
 10
151.68399999999991
 20
150.839
 30
0.0
 70
    32
  0
VERTEX
  5
1AD68
  8
0
 62
     5
 10
151.68399999999991
 20
150.839
 30
0.0
 70
    32
  0
VERTEX
  5
1AD69
  8
0
 62
     5
 10
151.68399999999991
 20
150.839
 30
0.0
 70
    32
  0
VERTEX
  5
1AD6A
  8
0
 62
     5
 10
151.68399999999991
 20
150.839
 30
0.0
 70
    32
  0
VERTEX
  5
1AD6B
  8
0
 62
     5
 10
151.68399999999991
 20
150.839
 30
0.0
 70
    32
  0
VERTEX
  5
1AD6C
  8
0
 62
     5
 10
151.68399999999991
 20
150.839
 30
0.0
 70
    32
  0
VERTEX
  5
1AD6D
  8
0
 62
     5
 10
151.68399999999991
 20
150.839
 30
0.0
 70
    32
  0
VERTEX
  5
1AD6E
  8
0
 62
     5
 10
151.68399999999991
 20
150.839
 30
0.0
 70
    32
  0
VERTEX
  5
1AD6F
  8
0
 62
     5
 10
151.68399999999991
 20
150.839
 30
0.0
 70
    32
  0
VERTEX
  5
1AD70
  8
0
 62
     5
 10
151.68399999999991
 20
150.839
 30
0.0
 70
    32
  0
VERTEX
  5
1AD71
  8
0
 62
     5
 10
151.68399999999991
 20
150.839
 30
0.0
 70
    32
  0
VERTEX
  5
1AD72
  8
0
 62
     5
 10
151.68399999999991
 20
150.839
 30
0.0
 70
    32
  0
VERTEX
  5
1AD73
  8
0
 62
     5
 10
151.68399999999991
 20
150.839
 30
0.0
 70
    32
  0
VERTEX
  5
1AD74
  8
0
 62
     5
 10
151.68399999999991
 20
150.839
 30
0.0
 70
    32
  0
VERTEX
  5
1AD75
  8
0
 62
     5
 10
151.68399999999991
 20
150.839
 30
0.0
 70
    32
  0
VERTEX
  5
1AD76
  8
0
 62
     5
 10
151.68399999999991
 20
150.839
 30
0.0
 70
    32
  0
VERTEX
  5
1AD77
  8
0
 62
     5
 10
151.68399999999991
 20
150.839
 30
0.0
 70
    32
  0
VERTEX
  5
1AD78
  8
0
 62
     5
 10
151.68399999999991
 20
150.839
 30
0.0
 70
    32
  0
VERTEX
  5
1AD79
  8
0
 62
     5
 10
151.68399999999991
 20
150.839
 30
0.0
 70
    32
  0
VERTEX
  5
1AD7A
  8
0
 62
     5
 10
151.68399999999991
 20
150.83799999999999
 30
0.0
 70
    32
  0
VERTEX
  5
1AD7B
  8
0
 62
     5
 10
151.68399999999991
 20
150.83799999999999
 30
0.0
 70
    32
  0
VERTEX
  5
1AD7C
  8
0
 62
     5
 10
151.68399999999991
 20
150.83799999999999
 30
0.0
 70
    32
  0
VERTEX
  5
1AD7D
  8
0
 62
     5
 10
151.68399999999991
 20
150.83799999999999
 30
0.0
 70
    32
  0
VERTEX
  5
1AD7E
  8
0
 62
     5
 10
151.68399999999991
 20
150.83799999999999
 30
0.0
 70
    32
  0
VERTEX
  5
1AD7F
  8
0
 62
     5
 10
151.68399999999991
 20
150.83799999999999
 30
0.0
 70
    32
  0
VERTEX
  5
1AD80
  8
0
 62
     5
 10
151.68399999999991
 20
150.83799999999999
 30
0.0
 70
    32
  0
VERTEX
  5
1AD81
  8
0
 62
     5
 10
151.68399999999991
 20
150.83799999999999
 30
0.0
 70
    32
  0
VERTEX
  5
1AD82
  8
0
 62
     5
 10
151.68399999999991
 20
150.83799999999999
 30
0.0
 70
    32
  0
VERTEX
  5
1AD83
  8
0
 62
     5
 10
151.68399999999991
 20
150.83799999999999
 30
0.0
 70
    32
  0
VERTEX
  5
1AD84
  8
0
 62
     5
 10
151.68399999999991
 20
150.83799999999999
 30
0.0
 70
    32
  0
VERTEX
  5
1AD85
  8
0
 62
     5
 10
151.68399999999991
 20
150.83799999999999
 30
0.0
 70
    32
  0
VERTEX
  5
1AD86
  8
0
 62
     5
 10
151.68399999999991
 20
150.83799999999999
 30
0.0
 70
    32
  0
VERTEX
  5
1AD87
  8
0
 62
     5
 10
151.68399999999991
 20
150.83799999999999
 30
0.0
 70
    32
  0
VERTEX
  5
1AD88
  8
0
 62
     5
 10
151.68399999999991
 20
150.83799999999999
 30
0.0
 70
    32
  0
VERTEX
  5
1AD89
  8
0
 62
     5
 10
151.68399999999991
 20
150.83799999999999
 30
0.0
 70
    32
  0
VERTEX
  5
1AD8A
  8
0
 62
     5
 10
151.68399999999991
 20
150.83799999999999
 30
0.0
 70
    32
  0
VERTEX
  5
1AD8B
  8
0
 62
     5
 10
151.68399999999991
 20
150.83799999999999
 30
0.0
 70
    32
  0
VERTEX
  5
1AD8C
  8
0
 62
     5
 10
151.68399999999991
 20
150.83799999999999
 30
0.0
 70
    32
  0
VERTEX
  5
1AD8D
  8
0
 62
     5
 10
151.68399999999991
 20
150.83799999999999
 30
0.0
 70
    32
  0
VERTEX
  5
1AD8E
  8
0
 62
     5
 10
151.68399999999991
 20
150.83799999999999
 30
0.0
 70
    32
  0
VERTEX
  5
1AD8F
  8
0
 62
     5
 10
151.68399999999991
 20
150.83799999999999
 30
0.0
 70
    32
  0
VERTEX
  5
1AD90
  8
0
 62
     5
 10
151.68399999999991
 20
150.83799999999999
 30
0.0
 70
    32
  0
VERTEX
  5
1AD91
  8
0
 62
     5
 10
151.68399999999991
 20
150.83799999999999
 30
0.0
 70
    32
  0
VERTEX
  5
1AD92
  8
0
 62
     5
 10
151.68399999999991
 20
150.83799999999999
 30
0.0
 70
    32
  0
VERTEX
  5
1AD93
  8
0
 62
     5
 10
151.68399999999991
 20
150.83799999999999
 30
0.0
 70
    32
  0
VERTEX
  5
1AD94
  8
0
 62
     5
 10
151.68399999999991
 20
150.83799999999999
 30
0.0
 70
    32
  0
VERTEX
  5
1AD95
  8
0
 62
     5
 10
151.68399999999991
 20
150.83799999999999
 30
0.0
 70
    32
  0
VERTEX
  5
1AD96
  8
0
 62
     5
 10
151.68399999999991
 20
150.83799999999999
 30
0.0
 70
    32
  0
VERTEX
  5
1AD97
  8
0
 62
     5
 10
151.68399999999991
 20
150.83799999999999
 30
0.0
 70
    32
  0
VERTEX
  5
1AD98
  8
0
 62
     5
 10
151.68399999999991
 20
150.83799999999999
 30
0.0
 70
    32
  0
VERTEX
  5
1AD99
  8
0
 62
     5
 10
151.68399999999991
 20
150.83799999999999
 30
0.0
 70
    32
  0
VERTEX
  5
1AD9A
  8
0
 62
     5
 10
151.68399999999991
 20
150.83799999999999
 30
0.0
 70
    32
  0
VERTEX
  5
1AD9B
  8
0
 62
     5
 10
151.68399999999991
 20
150.83799999999999
 30
0.0
 70
    32
  0
VERTEX
  5
1AD9C
  8
0
 62
     5
 10
151.68399999999991
 20
150.83799999999999
 30
0.0
 70
    32
  0
VERTEX
  5
1AD9D
  8
0
 62
     5
 10
151.68399999999991
 20
150.83799999999999
 30
0.0
 70
    32
  0
VERTEX
  5
1AD9E
  8
0
 62
     5
 10
151.68399999999991
 20
150.83799999999999
 30
0.0
 70
    32
  0
VERTEX
  5
1AD9F
  8
0
 62
     5
 10
151.68399999999991
 20
150.83799999999999
 30
0.0
 70
    32
  0
VERTEX
  5
1ADA0
  8
0
 62
     5
 10
151.68399999999991
 20
150.83799999999999
 30
0.0
 70
    32
  0
VERTEX
  5
1ADA1
  8
0
 62
     5
 10
151.68399999999991
 20
150.83799999999999
 30
0.0
 70
    32
  0
VERTEX
  5
1ADA2
  8
0
 62
     5
 10
151.68399999999991
 20
150.83799999999999
 30
0.0
 70
    32
  0
VERTEX
  5
1ADA3
  8
0
 62
     5
 10
151.68399999999991
 20
150.83799999999999
 30
0.0
 70
    32
  0
VERTEX
  5
1ADA4
  8
0
 62
     5
 10
151.68399999999991
 20
150.83799999999999
 30
0.0
 70
    32
  0
SEQEND
  5
1ADA5
  8
0
 62
     5
  0
LINE
  5
1ADA6
  8
0
 62
     5
 10
156.1835184453962
 20
151.26375462119981
 30
0.0
 11
155.48351844539681
 21
151.26375462119981
 31
0.0
  0
LINE
  5
1ADA7
  8
0
 62
     5
 10
154.7443980646967
 20
151.44291832429991
 30
0.0
 11
155.48351844539681
 21
151.44291832429991
 31
0.0
  0
LINE
  5
1ADA8
  8
0
 62
     5
 10
156.1835184453962
 20
157.68887999999981
 30
0.0
 11
151.98351844539681
 21
157.68887999999981
 31
0.0
  0
ARC
  5
1ADA9
  8
0
 62
     5
 10
148.1835184453968
 20
157.1888799999999
 30
0.0
 40
0.5
 50
0.0
 51
90.0
  0
ARC
  5
1ADAA
  8
0
 62
     5
 10
151.98351844539681
 20
157.3888799999992
 30
0.0
 40
0.3
 50
90.0
 51
180.0
  0
LINE
  5
1ADAB
  8
0
 62
     5
 10
154.7443980646967
 20
156.94291832429991
 30
0.0
 11
155.48351844539681
 21
156.94291832429991
 31
0.0
  0
LINE
  5
1ADAC
  8
0
 62
     5
 10
156.1835184453962
 20
157.14291832429981
 30
0.0
 11
155.48351844539681
 21
157.14291832429981
 31
0.0
  0
LINE
  5
1ADAD
  8
0
 62
     5
 10
133.183518445396
 20
193.48887999999991
 30
0.0
 11
148.18441196689659
 21
193.48887999999991
 31
0.0
  0
LINE
  5
1ADAE
  8
0
 62
     5
 10
151.1835184453968
 20
182.98887999999991
 30
0.0
 11
133.183518445396
 21
182.98887999999991
 31
0.0
  0
LINE
  5
1ADAF
  8
0
 62
     5
 10
132.18351844539609
 20
190.43285869139959
 30
0.0
 11
151.6835184453968
 21
190.43285869139959
 31
0.0
  0
LINE
  5
1ADB0
  8
0
 62
     5
 10
133.183518445396
 20
200.4888799999998
 30
0.0
 11
156.1835184453962
 21
200.4888799999998
 31
0.0
  0
ARC
  5
1ADB1
  8
0
 62
     5
 10
133.183518445396
 20
199.48887999999999
 30
0.0
 40
1.0
 50
90.0
 51
180.0
  0
ARC
  5
1ADB2
  8
0
 62
     5
 10
133.183518445396
 20
181.98887999999991
 30
0.0
 40
1.0
 50
90.0
 51
180.0
  0
ARC
  5
1ADB3
  8
0
 62
     5
 10
133.183518445396
 20
192.48887999999991
 30
0.0
 40
1.0
 50
90.0
 51
180.0
  0
LINE
  5
1ADB4
  8
0
 62
     5
 10
155.6835184453968
 20
200.4888799999998
 30
0.0
 11
155.6835184453968
 21
199.92758765190001
 31
0.0
  0
ARC
  5
1ADB5
  8
0
 62
     5
 10
149.1835184453968
 20
199.98887999999991
 30
0.0
 40
0.5
 50
90.0
 51
180.0
  0
ARC
  5
1ADB6
  8
0
 62
     5
 10
151.1835184453968
 20
199.98887999999991
 30
0.0
 40
0.5
 50
0.0
 51
90.0
  0
LINE
  5
1ADB7
  8
0
 62
     5
 10
151.6835184453968
 20
183.48887999999991
 30
0.0
 11
151.6835184453968
 21
190.43285869139959
 31
0.0
  0
LINE
  5
1ADB8
  8
0
 62
     5
 10
150.48351844539681
 20
183.8556779724999
 30
0.0
 11
150.48351844539681
 21
189.7330396016998
 31
0.0
  0
LINE
  5
1ADB9
  8
0
 62
     5
 10
151.1835184453968
 20
189.78203657339981
 30
0.0
 11
151.1835184453968
 21
183.7876467779999
 31
0.0
  0
ARC
  5
1ADBA
  8
0
 62
     5
 10
150.47962061718579
 20
185.9539695765406
 30
0.0
 40
1.919131859161878
 50
187.03948575083351
 51
270.1163699399919
  0
LINE
  5
1ADBB
  8
0
 62
     5
 10
151.1835184453968
 20
183.78484167569991
 30
0.0
 11
151.6835184453968
 21
183.78484167569991
 31
0.0
  0
LINE
  5
1ADBC
  8
0
 62
     5
 10
151.1835184453968
 20
183.8556779724999
 30
0.0
 11
150.48351844539681
 21
183.8556779724999
 31
0.0
  0
ARC
  5
1ADBD
  8
0
 62
     5
 10
151.1835184453968
 20
183.48887999999991
 30
0.0
 40
0.5
 50
270.0
 51
0.0
  0
ARC
  5
1ADBE
  8
0
 62
     5
 10
154.7443983037966
 20
198.72758765189991
 30
0.0
 40
1.0
 50
90.000013699500073
 51
163.0422846088974
  0
ARC
  5
1ADBF
  8
0
 62
     5
 10
154.7443983037966
 20
195.22758765189991
 30
0.0
 40
1.0
 50
196.95771539109879
 51
269.99998630049993
  0
LINE
  5
1ADC0
  8
0
 62
     5
 10
151.98351844539681
 20
193.48887999999991
 30
0.0
 11
155.6835184453968
 21
193.48887999999991
 31
0.0
  0
LINE
  5
1ADC1
  8
0
 62
     5
 10
155.6835184453968
 20
190.4475552964993
 30
0.0
 11
151.8835184453967
 21
190.4475552964993
 31
0.0
  0
LINE
  5
1ADC2
  8
0
 62
     5
 10
148.5989507625965
 20
187.06484167569991
 30
0.0
 11
148.81865667759669
 21
187.06484167569991
 31
0.0
  0
ARC
  5
1ADC3
  8
0
 62
     5
 10
150.47962061718039
 20
187.615713774879
 30
0.0
 40
1.919131859141975
 50
89.883630059849907
 51
172.96051425270741
  0
LINE
  5
1ADC4
  8
0
 62
     5
 10
148.81865667759669
 20
186.50484167569991
 30
0.0
 11
148.5989507625965
 21
186.50484167569991
 31
0.0
  0
LINE
  5
1ADC5
  8
0
 62
     5
 10
148.5749553103966
 20
187.1526108994999
 30
0.0
 11
148.5749553103966
 21
187.85090978229951
 31
0.0
  0
LINE
  5
1ADC6
  8
0
 62
     5
 10
148.5749553103966
 20
186.4170724517999
 30
0.0
 11
148.5749553103966
 21
185.71877356899981
 31
0.0
  0
POLYLINE
  5
1ADC7
  8
0
 62
     5
 66
     1
 10
0.0
 20
0.0
 30
0.0
  0
VERTEX
  5
1B543
  8
0
 62
     5
 10
151.6835184453968
 20
190.24796937789981
 30
0.0
  0
VERTEX
  5
1B544
  8
0
 62
     5
 10
151.68413497889671
 20
190.26362871109981
 30
0.0
  0
VERTEX
  5
1B545
  8
0
 62
     5
 10
151.68598077799621
 20
190.27919149900001
 30
0.0
  0
VERTEX
  5
1B546
  8
0
 62
     5
 10
151.6890444628967
 20
190.29456179169981
 30
0.0
  0
VERTEX
  5
1B547
  8
0
 62
     5
 10
151.6933071446964
 20
190.30964482629969
 30
0.0
  0
VERTEX
  5
1B548
  8
0
 62
     5
 10
151.6987425424964
 20
190.32434761089991
 30
0.0
  0
VERTEX
  5
1B549
  8
0
 62
     5
 10
151.7053171451966
 20
190.3385794979998
 30
0.0
  0
VERTEX
  5
1B54A
  8
0
 62
     5
 10
151.71299041819671
 20
190.3522527431999
 30
0.0
  0
VERTEX
  5
1B54B
  8
0
 62
     5
 10
151.72171505319659
 20
190.36528304649991
 30
0.0
  0
VERTEX
  5
1B54C
  8
0
 62
     5
 10
151.73143725969641
 20
190.3775900717992
 30
0.0
  0
VERTEX
  5
1B54D
  8
0
 62
     5
 10
151.7420970970966
 20
190.38909794229991
 30
0.0
  0
VERTEX
  5
1B54E
  8
0
 62
     5
 10
151.75362884389679
 20
190.39973570799981
 30
0.0
  0
VERTEX
  5
1B54F
  8
0
 62
     5
 10
151.76596140309681
 20
190.40943778379969
 30
0.0
  0
VERTEX
  5
1B550
  8
0
 62
     5
 10
151.77901874039671
 20
190.41814435319989
 30
0.0
  0
VERTEX
  5
1B551
  8
0
 62
     5
 10
151.79272035289671
 20
190.42580173729991
 30
0.0
  0
VERTEX
  5
1B552
  8
0
 62
     5
 10
151.8069817654968
 20
190.43236272579981
 30
0.0
  0
VERTEX
  5
1B553
  8
0
 62
     5
 10
151.82171505209681
 20
190.43778686819991
 30
0.0
  0
VERTEX
  5
1B554
  8
0
 62
     5
 10
151.8368293769968
 20
190.4420407226998
 30
0.0
  0
VERTEX
  5
1B555
  8
0
 62
     5
 10
151.85223155539671
 20
190.44509806309981
 30
0.0
  0
VERTEX
  5
1B556
  8
0
 62
     5
 10
151.8678266277968
 20
190.44694003979981
 30
0.0
  0
VERTEX
  5
1B557
  8
0
 62
     5
 10
151.8835184453967
 20
190.4475552964993
 30
0.0
  0
SEQEND
  5
1B558
  8
0
 62
     5
  0
LINE
  5
1ADDE
  8
0
 62
     5
 10
151.1835184453968
 20
189.73484167569981
 30
0.0
 11
150.48351844539681
 21
189.73484167569981
 31
0.0
  0
LINE
  5
1ADDF
  8
0
 62
     5
 10
151.1835184453968
 20
189.78484167569999
 30
0.0
 11
151.6835184453968
 21
189.78484167569999
 31
0.0
  0
LINE
  5
1ADE0
  8
0
 62
     5
 10
148.81865667759669
 20
187.06484167569991
 30
0.0
 11
148.81865667759669
 21
186.50484167569991
 31
0.0
  0
ARC
  5
1ADE1
  8
0
 62
     5
 10
148.1835184453968
 20
193.98887999999991
 30
0.0
 40
0.5
 50
270.0
 51
0.0
  0
POLYLINE
  5
1ADE2
  8
0
 62
     5
 66
     1
 10
0.0
 20
0.0
 30
0.0
 70
     8
  0
VERTEX
  5
1ADE3
  8
0
 62
     5
 10
148.68399999999991
 20
193.98400000000001
 30
0.0
 70
    32
  0
VERTEX
  5
1ADE4
  8
0
 62
     5
 10
148.68399999999991
 20
193.98400000000001
 30
0.0
 70
    32
  0
VERTEX
  5
1ADE5
  8
0
 62
     5
 10
148.68399999999991
 20
193.98400000000001
 30
0.0
 70
    32
  0
VERTEX
  5
1ADE6
  8
0
 62
     5
 10
148.68399999999991
 20
193.98400000000001
 30
0.0
 70
    32
  0
VERTEX
  5
1ADE7
  8
0
 62
     5
 10
148.68399999999991
 20
193.98400000000001
 30
0.0
 70
    32
  0
VERTEX
  5
1ADE8
  8
0
 62
     5
 10
148.68399999999991
 20
193.98400000000001
 30
0.0
 70
    32
  0
VERTEX
  5
1ADE9
  8
0
 62
     5
 10
148.68399999999991
 20
193.98400000000001
 30
0.0
 70
    32
  0
VERTEX
  5
1ADEA
  8
0
 62
     5
 10
148.68399999999991
 20
193.98400000000001
 30
0.0
 70
    32
  0
VERTEX
  5
1ADEB
  8
0
 62
     5
 10
148.68399999999991
 20
193.98400000000001
 30
0.0
 70
    32
  0
VERTEX
  5
1ADEC
  8
0
 62
     5
 10
148.68399999999991
 20
193.98400000000001
 30
0.0
 70
    32
  0
VERTEX
  5
1ADED
  8
0
 62
     5
 10
148.68399999999991
 20
193.98400000000001
 30
0.0
 70
    32
  0
VERTEX
  5
1ADEE
  8
0
 62
     5
 10
148.68399999999991
 20
193.98400000000001
 30
0.0
 70
    32
  0
VERTEX
  5
1ADEF
  8
0
 62
     5
 10
148.68399999999991
 20
193.98400000000001
 30
0.0
 70
    32
  0
VERTEX
  5
1ADF0
  8
0
 62
     5
 10
148.68399999999991
 20
193.98400000000001
 30
0.0
 70
    32
  0
VERTEX
  5
1ADF1
  8
0
 62
     5
 10
148.68399999999991
 20
193.98400000000001
 30
0.0
 70
    32
  0
VERTEX
  5
1ADF2
  8
0
 62
     5
 10
148.68399999999991
 20
193.98400000000001
 30
0.0
 70
    32
  0
VERTEX
  5
1ADF3
  8
0
 62
     5
 10
148.68399999999991
 20
193.98400000000001
 30
0.0
 70
    32
  0
VERTEX
  5
1ADF4
  8
0
 62
     5
 10
148.68399999999991
 20
193.98400000000001
 30
0.0
 70
    32
  0
VERTEX
  5
1ADF5
  8
0
 62
     5
 10
148.68399999999991
 20
193.98400000000001
 30
0.0
 70
    32
  0
VERTEX
  5
1ADF6
  8
0
 62
     5
 10
148.68399999999991
 20
193.98400000000001
 30
0.0
 70
    32
  0
VERTEX
  5
1ADF7
  8
0
 62
     5
 10
148.68399999999991
 20
193.98400000000001
 30
0.0
 70
    32
  0
VERTEX
  5
1ADF8
  8
0
 62
     5
 10
148.68399999999991
 20
193.98500000000001
 30
0.0
 70
    32
  0
VERTEX
  5
1ADF9
  8
0
 62
     5
 10
148.68399999999991
 20
193.98500000000001
 30
0.0
 70
    32
  0
VERTEX
  5
1ADFA
  8
0
 62
     5
 10
148.68399999999991
 20
193.98500000000001
 30
0.0
 70
    32
  0
VERTEX
  5
1ADFB
  8
0
 62
     5
 10
148.68399999999991
 20
193.98500000000001
 30
0.0
 70
    32
  0
VERTEX
  5
1ADFC
  8
0
 62
     5
 10
148.68399999999991
 20
193.98500000000001
 30
0.0
 70
    32
  0
VERTEX
  5
1ADFD
  8
0
 62
     5
 10
148.68399999999991
 20
193.98500000000001
 30
0.0
 70
    32
  0
VERTEX
  5
1ADFE
  8
0
 62
     5
 10
148.68399999999991
 20
193.98500000000001
 30
0.0
 70
    32
  0
VERTEX
  5
1ADFF
  8
0
 62
     5
 10
148.68399999999991
 20
193.98500000000001
 30
0.0
 70
    32
  0
VERTEX
  5
1AE00
  8
0
 62
     5
 10
148.68399999999991
 20
193.98500000000001
 30
0.0
 70
    32
  0
VERTEX
  5
1AE01
  8
0
 62
     5
 10
148.68399999999991
 20
193.98500000000001
 30
0.0
 70
    32
  0
VERTEX
  5
1AE02
  8
0
 62
     5
 10
148.68399999999991
 20
193.98500000000001
 30
0.0
 70
    32
  0
VERTEX
  5
1AE03
  8
0
 62
     5
 10
148.68399999999991
 20
193.98500000000001
 30
0.0
 70
    32
  0
VERTEX
  5
1AE04
  8
0
 62
     5
 10
148.68399999999991
 20
193.98500000000001
 30
0.0
 70
    32
  0
VERTEX
  5
1AE05
  8
0
 62
     5
 10
148.68399999999991
 20
193.98500000000001
 30
0.0
 70
    32
  0
VERTEX
  5
1AE06
  8
0
 62
     5
 10
148.68399999999991
 20
193.98500000000001
 30
0.0
 70
    32
  0
VERTEX
  5
1AE07
  8
0
 62
     5
 10
148.68399999999991
 20
193.98500000000001
 30
0.0
 70
    32
  0
VERTEX
  5
1AE08
  8
0
 62
     5
 10
148.68399999999991
 20
193.98500000000001
 30
0.0
 70
    32
  0
VERTEX
  5
1AE09
  8
0
 62
     5
 10
148.68399999999991
 20
193.98500000000001
 30
0.0
 70
    32
  0
VERTEX
  5
1AE0A
  8
0
 62
     5
 10
148.68399999999991
 20
193.98500000000001
 30
0.0
 70
    32
  0
VERTEX
  5
1AE0B
  8
0
 62
     5
 10
148.68399999999991
 20
193.98500000000001
 30
0.0
 70
    32
  0
VERTEX
  5
1AE0C
  8
0
 62
     5
 10
148.68399999999991
 20
193.98500000000001
 30
0.0
 70
    32
  0
VERTEX
  5
1AE0D
  8
0
 62
     5
 10
148.68399999999991
 20
193.98500000000001
 30
0.0
 70
    32
  0
VERTEX
  5
1AE0E
  8
0
 62
     5
 10
148.68399999999991
 20
193.98500000000001
 30
0.0
 70
    32
  0
VERTEX
  5
1AE0F
  8
0
 62
     5
 10
148.68399999999991
 20
193.98500000000001
 30
0.0
 70
    32
  0
VERTEX
  5
1AE10
  8
0
 62
     5
 10
148.68399999999991
 20
193.98500000000001
 30
0.0
 70
    32
  0
VERTEX
  5
1AE11
  8
0
 62
     5
 10
148.68399999999991
 20
193.98500000000001
 30
0.0
 70
    32
  0
VERTEX
  5
1AE12
  8
0
 62
     5
 10
148.68399999999991
 20
193.98500000000001
 30
0.0
 70
    32
  0
VERTEX
  5
1AE13
  8
0
 62
     5
 10
148.68399999999991
 20
193.98500000000001
 30
0.0
 70
    32
  0
VERTEX
  5
1AE14
  8
0
 62
     5
 10
148.68399999999991
 20
193.98500000000001
 30
0.0
 70
    32
  0
VERTEX
  5
1AE15
  8
0
 62
     5
 10
148.68399999999991
 20
193.98500000000001
 30
0.0
 70
    32
  0
VERTEX
  5
1AE16
  8
0
 62
     5
 10
148.68399999999991
 20
193.98500000000001
 30
0.0
 70
    32
  0
VERTEX
  5
1AE17
  8
0
 62
     5
 10
148.68399999999991
 20
193.98500000000001
 30
0.0
 70
    32
  0
VERTEX
  5
1AE18
  8
0
 62
     5
 10
148.68399999999991
 20
193.9859999999999
 30
0.0
 70
    32
  0
VERTEX
  5
1AE19
  8
0
 62
     5
 10
148.68399999999991
 20
193.9859999999999
 30
0.0
 70
    32
  0
VERTEX
  5
1AE1A
  8
0
 62
     5
 10
148.68399999999991
 20
193.9859999999999
 30
0.0
 70
    32
  0
VERTEX
  5
1AE1B
  8
0
 62
     5
 10
148.68399999999991
 20
193.9859999999999
 30
0.0
 70
    32
  0
VERTEX
  5
1AE1C
  8
0
 62
     5
 10
148.68399999999991
 20
193.9859999999999
 30
0.0
 70
    32
  0
VERTEX
  5
1AE1D
  8
0
 62
     5
 10
148.68399999999991
 20
193.9859999999999
 30
0.0
 70
    32
  0
VERTEX
  5
1AE1E
  8
0
 62
     5
 10
148.68399999999991
 20
193.9859999999999
 30
0.0
 70
    32
  0
VERTEX
  5
1AE1F
  8
0
 62
     5
 10
148.68399999999991
 20
193.9859999999999
 30
0.0
 70
    32
  0
VERTEX
  5
1AE20
  8
0
 62
     5
 10
148.68399999999991
 20
193.9859999999999
 30
0.0
 70
    32
  0
VERTEX
  5
1AE21
  8
0
 62
     5
 10
148.68399999999991
 20
193.9859999999999
 30
0.0
 70
    32
  0
VERTEX
  5
1AE22
  8
0
 62
     5
 10
148.68399999999991
 20
193.9859999999999
 30
0.0
 70
    32
  0
VERTEX
  5
1AE23
  8
0
 62
     5
 10
148.68399999999991
 20
193.9859999999999
 30
0.0
 70
    32
  0
VERTEX
  5
1AE24
  8
0
 62
     5
 10
148.68399999999991
 20
193.9859999999999
 30
0.0
 70
    32
  0
VERTEX
  5
1AE25
  8
0
 62
     5
 10
148.68399999999991
 20
193.9859999999999
 30
0.0
 70
    32
  0
VERTEX
  5
1AE26
  8
0
 62
     5
 10
148.68399999999991
 20
193.9859999999999
 30
0.0
 70
    32
  0
VERTEX
  5
1AE27
  8
0
 62
     5
 10
148.68399999999991
 20
193.9859999999999
 30
0.0
 70
    32
  0
VERTEX
  5
1AE28
  8
0
 62
     5
 10
148.68399999999991
 20
193.9859999999999
 30
0.0
 70
    32
  0
VERTEX
  5
1AE29
  8
0
 62
     5
 10
148.68399999999991
 20
193.9859999999999
 30
0.0
 70
    32
  0
VERTEX
  5
1AE2A
  8
0
 62
     5
 10
148.68399999999991
 20
193.9859999999999
 30
0.0
 70
    32
  0
VERTEX
  5
1AE2B
  8
0
 62
     5
 10
148.68399999999991
 20
193.9859999999999
 30
0.0
 70
    32
  0
VERTEX
  5
1AE2C
  8
0
 62
     5
 10
148.68399999999991
 20
193.9859999999999
 30
0.0
 70
    32
  0
VERTEX
  5
1AE2D
  8
0
 62
     5
 10
148.68399999999991
 20
193.9859999999999
 30
0.0
 70
    32
  0
VERTEX
  5
1AE2E
  8
0
 62
     5
 10
148.68399999999991
 20
193.9859999999999
 30
0.0
 70
    32
  0
VERTEX
  5
1AE2F
  8
0
 62
     5
 10
148.68399999999991
 20
193.9859999999999
 30
0.0
 70
    32
  0
VERTEX
  5
1AE30
  8
0
 62
     5
 10
148.68399999999991
 20
193.9859999999999
 30
0.0
 70
    32
  0
VERTEX
  5
1AE31
  8
0
 62
     5
 10
148.68399999999991
 20
193.9859999999999
 30
0.0
 70
    32
  0
VERTEX
  5
1AE32
  8
0
 62
     5
 10
148.68399999999991
 20
193.9859999999999
 30
0.0
 70
    32
  0
VERTEX
  5
1AE33
  8
0
 62
     5
 10
148.68399999999991
 20
193.9859999999999
 30
0.0
 70
    32
  0
VERTEX
  5
1AE34
  8
0
 62
     5
 10
148.68399999999991
 20
193.9859999999999
 30
0.0
 70
    32
  0
VERTEX
  5
1AE35
  8
0
 62
     5
 10
148.68399999999991
 20
193.9859999999999
 30
0.0
 70
    32
  0
VERTEX
  5
1AE36
  8
0
 62
     5
 10
148.68399999999991
 20
193.9859999999999
 30
0.0
 70
    32
  0
VERTEX
  5
1AE37
  8
0
 62
     5
 10
148.68399999999991
 20
193.98699999999991
 30
0.0
 70
    32
  0
VERTEX
  5
1AE38
  8
0
 62
     5
 10
148.68399999999991
 20
193.98699999999991
 30
0.0
 70
    32
  0
VERTEX
  5
1AE39
  8
0
 62
     5
 10
148.68399999999991
 20
193.98699999999991
 30
0.0
 70
    32
  0
VERTEX
  5
1AE3A
  8
0
 62
     5
 10
148.68399999999991
 20
193.98699999999991
 30
0.0
 70
    32
  0
VERTEX
  5
1AE3B
  8
0
 62
     5
 10
148.68399999999991
 20
193.98699999999991
 30
0.0
 70
    32
  0
VERTEX
  5
1AE3C
  8
0
 62
     5
 10
148.68399999999991
 20
193.98699999999991
 30
0.0
 70
    32
  0
VERTEX
  5
1AE3D
  8
0
 62
     5
 10
148.68399999999991
 20
193.98699999999991
 30
0.0
 70
    32
  0
VERTEX
  5
1AE3E
  8
0
 62
     5
 10
148.68399999999991
 20
193.98699999999991
 30
0.0
 70
    32
  0
VERTEX
  5
1AE3F
  8
0
 62
     5
 10
148.68399999999991
 20
193.98699999999991
 30
0.0
 70
    32
  0
VERTEX
  5
1AE40
  8
0
 62
     5
 10
148.68399999999991
 20
193.98699999999991
 30
0.0
 70
    32
  0
VERTEX
  5
1AE41
  8
0
 62
     5
 10
148.68399999999991
 20
193.98699999999991
 30
0.0
 70
    32
  0
VERTEX
  5
1AE42
  8
0
 62
     5
 10
148.68399999999991
 20
193.98699999999991
 30
0.0
 70
    32
  0
VERTEX
  5
1AE43
  8
0
 62
     5
 10
148.68399999999991
 20
193.98699999999991
 30
0.0
 70
    32
  0
VERTEX
  5
1AE44
  8
0
 62
     5
 10
148.68399999999991
 20
193.98699999999991
 30
0.0
 70
    32
  0
VERTEX
  5
1AE45
  8
0
 62
     5
 10
148.68399999999991
 20
193.98699999999991
 30
0.0
 70
    32
  0
VERTEX
  5
1AE46
  8
0
 62
     5
 10
148.68399999999991
 20
193.98699999999991
 30
0.0
 70
    32
  0
VERTEX
  5
1AE47
  8
0
 62
     5
 10
148.68399999999991
 20
193.98699999999991
 30
0.0
 70
    32
  0
VERTEX
  5
1AE48
  8
0
 62
     5
 10
148.68399999999991
 20
193.98699999999991
 30
0.0
 70
    32
  0
VERTEX
  5
1AE49
  8
0
 62
     5
 10
148.68399999999991
 20
193.98699999999991
 30
0.0
 70
    32
  0
VERTEX
  5
1AE4A
  8
0
 62
     5
 10
148.68399999999991
 20
193.98699999999991
 30
0.0
 70
    32
  0
VERTEX
  5
1AE4B
  8
0
 62
     5
 10
148.68399999999991
 20
193.98699999999991
 30
0.0
 70
    32
  0
VERTEX
  5
1AE4C
  8
0
 62
     5
 10
148.68399999999991
 20
193.98699999999991
 30
0.0
 70
    32
  0
VERTEX
  5
1AE4D
  8
0
 62
     5
 10
148.68399999999991
 20
193.98699999999991
 30
0.0
 70
    32
  0
VERTEX
  5
1AE4E
  8
0
 62
     5
 10
148.68399999999991
 20
193.98699999999991
 30
0.0
 70
    32
  0
VERTEX
  5
1AE4F
  8
0
 62
     5
 10
148.68399999999991
 20
193.98699999999991
 30
0.0
 70
    32
  0
VERTEX
  5
1AE50
  8
0
 62
     5
 10
148.68399999999991
 20
193.98699999999991
 30
0.0
 70
    32
  0
VERTEX
  5
1AE51
  8
0
 62
     5
 10
148.68399999999991
 20
193.98699999999991
 30
0.0
 70
    32
  0
VERTEX
  5
1AE52
  8
0
 62
     5
 10
148.68399999999991
 20
193.98699999999991
 30
0.0
 70
    32
  0
VERTEX
  5
1AE53
  8
0
 62
     5
 10
148.68399999999991
 20
193.98699999999991
 30
0.0
 70
    32
  0
VERTEX
  5
1AE54
  8
0
 62
     5
 10
148.68399999999991
 20
193.98699999999991
 30
0.0
 70
    32
  0
VERTEX
  5
1AE55
  8
0
 62
     5
 10
148.68399999999991
 20
193.98699999999991
 30
0.0
 70
    32
  0
VERTEX
  5
1AE56
  8
0
 62
     5
 10
148.68399999999991
 20
193.98699999999991
 30
0.0
 70
    32
  0
VERTEX
  5
1AE57
  8
0
 62
     5
 10
148.68399999999991
 20
193.988
 30
0.0
 70
    32
  0
VERTEX
  5
1AE58
  8
0
 62
     5
 10
148.68399999999991
 20
193.988
 30
0.0
 70
    32
  0
VERTEX
  5
1AE59
  8
0
 62
     5
 10
148.68399999999991
 20
193.988
 30
0.0
 70
    32
  0
VERTEX
  5
1AE5A
  8
0
 62
     5
 10
148.68399999999991
 20
193.988
 30
0.0
 70
    32
  0
VERTEX
  5
1AE5B
  8
0
 62
     5
 10
148.68399999999991
 20
193.988
 30
0.0
 70
    32
  0
VERTEX
  5
1AE5C
  8
0
 62
     5
 10
148.68399999999991
 20
193.988
 30
0.0
 70
    32
  0
VERTEX
  5
1AE5D
  8
0
 62
     5
 10
148.68399999999991
 20
193.988
 30
0.0
 70
    32
  0
VERTEX
  5
1AE5E
  8
0
 62
     5
 10
148.68399999999991
 20
193.988
 30
0.0
 70
    32
  0
VERTEX
  5
1AE5F
  8
0
 62
     5
 10
148.68399999999991
 20
193.988
 30
0.0
 70
    32
  0
VERTEX
  5
1AE60
  8
0
 62
     5
 10
148.68399999999991
 20
193.988
 30
0.0
 70
    32
  0
VERTEX
  5
1AE61
  8
0
 62
     5
 10
148.68399999999991
 20
193.988
 30
0.0
 70
    32
  0
VERTEX
  5
1AE62
  8
0
 62
     5
 10
148.68399999999991
 20
193.988
 30
0.0
 70
    32
  0
VERTEX
  5
1AE63
  8
0
 62
     5
 10
148.68399999999991
 20
193.988
 30
0.0
 70
    32
  0
VERTEX
  5
1AE64
  8
0
 62
     5
 10
148.68399999999991
 20
193.988
 30
0.0
 70
    32
  0
VERTEX
  5
1AE65
  8
0
 62
     5
 10
148.68399999999991
 20
193.988
 30
0.0
 70
    32
  0
VERTEX
  5
1AE66
  8
0
 62
     5
 10
148.68399999999991
 20
193.988
 30
0.0
 70
    32
  0
VERTEX
  5
1AE67
  8
0
 62
     5
 10
148.68399999999991
 20
193.988
 30
0.0
 70
    32
  0
VERTEX
  5
1AE68
  8
0
 62
     5
 10
148.68399999999991
 20
193.988
 30
0.0
 70
    32
  0
VERTEX
  5
1AE69
  8
0
 62
     5
 10
148.68399999999991
 20
193.988
 30
0.0
 70
    32
  0
VERTEX
  5
1AE6A
  8
0
 62
     5
 10
148.68399999999991
 20
193.988
 30
0.0
 70
    32
  0
VERTEX
  5
1AE6B
  8
0
 62
     5
 10
148.68399999999991
 20
193.988
 30
0.0
 70
    32
  0
VERTEX
  5
1AE6C
  8
0
 62
     5
 10
148.68399999999991
 20
193.988
 30
0.0
 70
    32
  0
VERTEX
  5
1AE6D
  8
0
 62
     5
 10
148.68399999999991
 20
193.988
 30
0.0
 70
    32
  0
VERTEX
  5
1AE6E
  8
0
 62
     5
 10
148.68399999999991
 20
193.988
 30
0.0
 70
    32
  0
VERTEX
  5
1AE6F
  8
0
 62
     5
 10
148.68399999999991
 20
193.988
 30
0.0
 70
    32
  0
VERTEX
  5
1AE70
  8
0
 62
     5
 10
148.68399999999991
 20
193.988
 30
0.0
 70
    32
  0
VERTEX
  5
1AE71
  8
0
 62
     5
 10
148.68399999999991
 20
193.988
 30
0.0
 70
    32
  0
VERTEX
  5
1AE72
  8
0
 62
     5
 10
148.68399999999991
 20
193.988
 30
0.0
 70
    32
  0
VERTEX
  5
1AE73
  8
0
 62
     5
 10
148.68399999999991
 20
193.988
 30
0.0
 70
    32
  0
VERTEX
  5
1AE74
  8
0
 62
     5
 10
148.68399999999991
 20
193.988
 30
0.0
 70
    32
  0
VERTEX
  5
1AE75
  8
0
 62
     5
 10
148.68399999999991
 20
193.988
 30
0.0
 70
    32
  0
VERTEX
  5
1AE76
  8
0
 62
     5
 10
148.68399999999991
 20
193.988
 30
0.0
 70
    32
  0
VERTEX
  5
1AE77
  8
0
 62
     5
 10
148.68399999999991
 20
193.989
 30
0.0
 70
    32
  0
VERTEX
  5
1AE78
  8
0
 62
     5
 10
148.68399999999991
 20
193.989
 30
0.0
 70
    32
  0
VERTEX
  5
1AE79
  8
0
 62
     5
 10
148.68399999999991
 20
193.989
 30
0.0
 70
    32
  0
VERTEX
  5
1AE7A
  8
0
 62
     5
 10
148.68399999999991
 20
193.989
 30
0.0
 70
    32
  0
VERTEX
  5
1AE7B
  8
0
 62
     5
 10
148.68399999999991
 20
193.989
 30
0.0
 70
    32
  0
VERTEX
  5
1AE7C
  8
0
 62
     5
 10
148.68399999999991
 20
193.989
 30
0.0
 70
    32
  0
VERTEX
  5
1AE7D
  8
0
 62
     5
 10
148.68399999999991
 20
193.989
 30
0.0
 70
    32
  0
VERTEX
  5
1AE7E
  8
0
 62
     5
 10
148.68399999999991
 20
193.989
 30
0.0
 70
    32
  0
VERTEX
  5
1AE7F
  8
0
 62
     5
 10
148.68399999999991
 20
193.989
 30
0.0
 70
    32
  0
VERTEX
  5
1AE80
  8
0
 62
     5
 10
148.68399999999991
 20
193.989
 30
0.0
 70
    32
  0
VERTEX
  5
1AE81
  8
0
 62
     5
 10
148.68399999999991
 20
193.989
 30
0.0
 70
    32
  0
VERTEX
  5
1AE82
  8
0
 62
     5
 10
148.68399999999991
 20
193.989
 30
0.0
 70
    32
  0
SEQEND
  5
1AE83
  8
0
 62
     5
  0
LINE
  5
1AE84
  8
0
 62
     5
 10
148.6835184453966
 20
193.98887999999991
 30
0.0
 11
148.6835184453966
 21
199.98887999999991
 31
0.0
  0
LINE
  5
1AE85
  8
0
 62
     5
 10
153.73240742569681
 20
198.8275876518999
 30
0.0
 11
153.7878780362966
 21
199.01925351869991
 31
0.0
  0
LINE
  5
1AE86
  8
0
 62
     5
 10
153.73240742569681
 20
198.8275876518999
 30
0.0
 11
153.73240742569681
 21
198.8062757317995
 31
0.0
  0
LINE
  5
1AE87
  8
0
 62
     5
 10
153.73240742569681
 20
197.25758765189991
 30
0.0
 11
153.73240742569681
 21
196.69758760339991
 31
0.0
  0
LINE
  5
1AE88
  8
0
 62
     5
 10
153.73240742569681
 20
195.14889959749991
 30
0.0
 11
153.73240742569681
 21
195.1275876518998
 31
0.0
  0
LINE
  5
1AE89
  8
0
 62
     5
 10
153.73240742569681
 20
195.1275876518998
 30
0.0
 11
153.7878780362966
 21
194.93592178500001
 31
0.0
  0
LINE
  5
1AE8A
  8
0
 62
     5
 10
153.73240742569681
 20
196.69758765189991
 30
0.0
 11
153.6051443190965
 21
196.69758765189991
 31
0.0
  0
LINE
  5
1AE8B
  8
0
 62
     5
 10
153.6051443190965
 20
197.25758765189991
 30
0.0
 11
153.73240742569681
 21
197.25758765189991
 31
0.0
  0
ARC
  5
1AE8C
  8
0
 62
     5
 10
151.98351844539681
 20
193.78887999999981
 30
0.0
 40
0.3
 50
180.0
 51
270.0
  0
LINE
  5
1AE8D
  8
0
 62
     5
 10
151.6835184453968
 20
193.78884780109991
 30
0.0
 11
151.6835184453968
 21
199.98887999999991
 31
0.0
  0
LINE
  5
1AE8E
  8
0
 62
     5
 10
155.6835184453968
 20
190.375491463
 30
0.0
 11
155.6835184453968
 21
194.04842394869951
 31
0.0
  0
POLYLINE
  5
1AE8F
  8
0
 62
     5
 66
     1
 10
0.0
 20
0.0
 30
0.0
  0
VERTEX
  5
1B559
  8
0
 62
     5
 10
156.3835184453967
 20
190.4475552964993
 30
0.0
  0
VERTEX
  5
1B55A
  8
0
 62
     5
 10
156.3678266262967
 20
190.44694003969991
 30
0.0
  0
VERTEX
  5
1B55B
  8
0
 62
     5
 10
156.3522315523966
 20
190.4450980625999
 30
0.0
  0
VERTEX
  5
1B55C
  8
0
 62
     5
 10
156.3368293725963
 20
190.44204072169981
 30
0.0
  0
VERTEX
  5
1B55D
  8
0
 62
     5
 10
156.32171504649671
 20
190.43778686629969
 30
0.0
  0
VERTEX
  5
1B55E
  8
0
 62
     5
 10
156.30698175889671
 20
190.4323627231
 30
0.0
  0
VERTEX
  5
1B55F
  8
0
 62
     5
 10
156.2927203454968
 20
190.42580173349961
 30
0.0
  0
VERTEX
  5
1B560
  8
0
 62
     5
 10
156.27901873249681
 20
190.41814434829999
 30
0.0
  0
VERTEX
  5
1B561
  8
0
 62
     5
 10
156.26596139489669
 20
190.4094377778998
 30
0.0
  0
VERTEX
  5
1B562
  8
0
 62
     5
 10
156.25362883569679
 20
190.3997357010997
 30
0.0
  0
VERTEX
  5
1B563
  8
0
 62
     5
 10
156.24209708919651
 20
190.3890979343999
 30
0.0
  0
VERTEX
  5
1B564
  8
0
 62
     5
 10
156.2314372522967
 20
190.37759006319951
 30
0.0
  0
VERTEX
  5
1B565
  8
0
 62
     5
 10
156.22171504649671
 20
190.36528303739991
 30
0.0
  0
VERTEX
  5
1B566
  8
0
 62
     5
 10
156.21299041249671
 20
190.3522527338996
 30
0.0
  0
VERTEX
  5
1B567
  8
0
 62
     5
 10
156.20531714059661
 20
190.33857948879981
 30
0.0
  0
VERTEX
  5
1B568
  8
0
 62
     5
 10
156.19874253889671
 20
190.32434760230001
 30
0.0
  0
VERTEX
  5
1B569
  8
0
 62
     5
 10
156.1933071420963
 20
190.30964481859971
 30
0.0
  0
VERTEX
  5
1B56A
  8
0
 62
     5
 10
156.1890444612967
 20
190.29456178529961
 30
0.0
  0
VERTEX
  5
1B56B
  8
0
 62
     5
 10
156.18598077729681
 20
190.27919149429951
 30
0.0
  0
VERTEX
  5
1B56C
  8
0
 62
     5
 10
156.18413497869651
 20
190.26362870859981
 30
0.0
  0
VERTEX
  5
1B56D
  8
0
 62
     5
 10
156.1835184453962
 20
190.24796937789981
 30
0.0
  0
SEQEND
  5
1B56E
  8
0
 62
     5
  0
LINE
  5
1AEA6
  8
0
 62
     5
 10
156.1835184453962
 20
190.375491463
 30
0.0
 11
155.6835184453968
 21
190.375491463
 31
0.0
  0
LINE
  5
1AEA7
  8
0
 62
     5
 10
156.1835184453962
 20
190.3766214873998
 30
0.0
 11
155.6835184453968
 21
190.3766214873998
 31
0.0
  0
LINE
  5
1AEA8
  8
0
 62
     5
 10
154.7443980646967
 20
199.72758765189991
 30
0.0
 11
155.48351844539681
 21
199.72758765189991
 31
0.0
  0
LINE
  5
1AEA9
  8
0
 62
     5
 10
156.1835184453962
 20
199.92758765190001
 30
0.0
 11
155.48351844539681
 21
199.92758765190001
 31
0.0
  0
LINE
  5
1AEAA
  8
0
 62
     5
 10
156.1835184453962
 20
194.04842394869951
 30
0.0
 11
155.48351844539681
 21
194.04842394869951
 31
0.0
  0
LINE
  5
1AEAB
  8
0
 62
     5
 10
154.7443980646967
 20
194.22758765189991
 30
0.0
 11
155.48351844539681
 21
194.22758765189991
 31
0.0
  0
LINE
  5
1AEAC
  8
0
 62
     5
 10
155.48351844539681
 20
194.04842394869951
 30
0.0
 11
155.48351844539681
 21
199.9257855778998
 31
0.0
  0
LINE
  5
1AEAD
  8
0
 62
     5
 10
156.1835184453962
 20
200.4888799999998
 30
0.0
 11
156.1835184453962
 21
200.29723790360001
 31
0.0
  0
ARC
  5
1AEAE
  8
0
 62
     5
 10
156.3835184453967
 20
200.28887999999989
 30
0.0
 40
0.2
 50
90.0
 51
180.0
  0
LINE
  5
1AEAF
  8
0
 62
     5
 10
239.28351844539671
 20
140.48887999999991
 30
0.0
 11
239.28351844539671
 21
200.4888799999998
 31
0.0
  0
LINE
  5
1AEB0
  8
0
 62
     5
 10
248.28351844539671
 20
200.4888799999998
 30
0.0
 11
248.28351844539671
 21
140.48887999999991
 31
0.0
  0
LINE
  5
1AEB1
  8
0
 62
     5
 10
251.08351844539661
 20
195.48887999999991
 30
0.0
 11
251.08351844539661
 21
145.48887999999991
 31
0.0
  0
LINE
  5
1AEB2
  8
0
 62
     5
 10
251.28351844539679
 20
195.28887999999981
 30
0.0
 11
251.28351844539679
 21
145.6888799999999
 31
0.0
  0
LINE
  5
1AEB3
  8
0
 62
     5
 10
200.18351844539669
 20
140.31827298288661
 30
0.0
 11
200.18351844539669
 21
200.75504440009991
 31
0.0
  0
LINE
  5
1AEB4
  8
0
 62
     5
 10
239.28351844539671
 20
140.48887999999991
 30
0.0
 11
218.9809198483068
 21
140.40029263973651
 31
0.0
  0
LINE
  5
1AEB5
  8
HIDDEN
 10
227.68530617129679
 20
134.32781030619981
 30
0.0
 11
223.98078467319951
 21
136.48811383089841
 31
0.0
  0
LINE
  5
1AEB6
  8
HIDDEN
 10
227.68530617129679
 20
125.5499496938
 30
0.0
 11
223.97947083487151
 21
123.3888799999999
 31
0.0
  0
LINE
  5
1AEB7
  8
CENTER
 10
189.98351844539681
 20
142.46426534091879
 30
0.0
 11
189.98351844539681
 21
127.99213692788339
 31
0.0
  0
LINE
  5
1AEB8
  8
CENTER
 10
208.9835184453967
 20
129.00428621397
 30
0.0
 11
208.9835184453967
 21
144.77927133017221
 31
0.0
  0
LINE
  5
1AEB9
  8
0
 62
     5
 10
200.8357000999965
 20
140.4784713997995
 30
0.0
 11
218.16097163539669
 21
140.4814592381999
 31
0.0
  0
LINE
  5
1AEBA
  8
HIDDEN
 10
205.1924332530233
 20
124.47370627989319
 30
0.0
 11
203.70150549298111
 21
123.5798308089999
 31
0.0
  0
ARC
  5
1AEBB
  8
HIDDEN
 10
208.6335184453967
 20
129.3888799999992
 30
0.0
 40
6.0
 50
180.0
 51
269.99999999230062
  0
LINE
  5
1AEBC
  8
0
 62
     5
 10
217.98351844539661
 20
137.0888799999999
 30
0.0
 11
200.83351844539681
 21
137.0888799999999
 31
0.0
  0
LINE
  5
1AEBD
  8
HIDDEN
 10
197.9375618317965
 20
123.3888799999999
 30
0.0
 11
189.1179368986968
 21
123.3888799999999
 31
0.0
  0
LINE
  5
1AEBE
  8
HIDDEN
 10
198.3413937368968
 20
123.5798308089999
 30
0.0
 11
203.70150549298111
 21
123.5798308089999
 31
0.0
  0
POLYLINE
  5
1AEBF
  8
HIDDEN
 66
     1
 10
0.0
 20
0.0
 30
0.0
  0
VERTEX
  5
1B56F
  8
HIDDEN
 10
198.32774040999681
 20
123.5912029190999
 30
0.0
  0
VERTEX
  5
1B570
  8
HIDDEN
 10
198.28126696279671
 20
123.5354070147999
 30
0.0
  0
VERTEX
  5
1B571
  8
HIDDEN
 10
198.22332266109689
 20
123.4843628956999
 30
0.0
  0
VERTEX
  5
1B572
  8
HIDDEN
 10
198.15821730869681
 20
123.4434685147999
 30
0.0
  0
VERTEX
  5
1B573
  8
HIDDEN
 10
198.08778167809621
 20
123.4133452034999
 30
0.0
  0
VERTEX
  5
1B574
  8
HIDDEN
 10
198.0145066122968
 20
123.3952935406998
 30
0.0
  0
VERTEX
  5
1B575
  8
HIDDEN
 10
197.9375618301969
 20
123.3888799999999
 30
0.0
  0
SEQEND
  5
1B576
  8
HIDDEN
  0
LINE
  5
1AEC8
  8
0
 62
     5
 10
194.43432744059621
 20
129.98887999999991
 30
0.0
 11
194.43432744059621
 21
135.18888000000001
 31
0.0
  0
LINE
  5
1AEC9
  8
0
 62
     5
 10
185.53270945019631
 20
129.98887999999991
 30
0.0
 11
185.53270945019631
 21
135.18888000000001
 31
0.0
  0
LINE
  5
1AECA
  8
0
 62
     5
 10
194.11360759359661
 20
129.68887999999939
 30
0.0
 11
185.85342929709651
 21
129.68887999999939
 31
0.0
  0
LINE
  5
1AECB
  8
0
 62
     5
 10
185.53270945019631
 20
129.98887999999991
 30
0.0
 11
194.43432744059621
 21
129.98887999999991
 31
0.0
  0
LINE
  5
1AECC
  8
0
  6
CONTINUOUS
 62
     5
 10
185.53270945019631
 20
129.98887999999991
 30
0.0
 11
185.85342929709651
 21
129.68887999999939
 31
0.0
  0
LINE
  5
1AECD
  8
0
 62
     5
 10
194.11360759359661
 20
129.68887999999939
 30
0.0
 11
194.43432744059621
 21
129.98887999999991
 31
0.0
  0
LINE
  5
1AECE
  8
HIDDEN
 10
202.63351844539679
 20
129.3888799999992
 30
0.0
 11
202.63351844539679
 21
134.5888799999999
 31
0.0
  0
LINE
  5
1AECF
  8
0
 62
     5
 10
195.74311343418151
 20
137.38888001021141
 30
0.0
 11
200.05315194709661
 21
137.38888004770001
 31
0.0
  0
LINE
  5
1AED0
  8
HIDDEN
 10
199.3925450516972
 20
135.18888000000001
 30
0.0
 11
200.0547631568966
 21
135.1888799999999
 31
0.0
  0
LINE
  5
1AED1
  8
0
 62
     5
 10
199.7547631568967
 20
138.48887999999991
 30
0.0
 11
200.0547631568966
 21
138.18888000000001
 31
0.0
  0
ARC
  5
1AED2
  8
0
 62
     5
 10
199.85476315689681
 20
138.6888799999999
 30
0.0
 40
0.2
 50
270.0
 51
0.0
  0
LINE
  5
1AED3
  8
0
 62
     5
 10
195.74311343418151
 20
137.38888001021141
 30
0.0
 11
195.74311343418151
 21
135.18888000000001
 31
0.0
  0
LINE
  5
1AED4
  8
0
 62
     5
 10
196.71629931130599
 20
135.49328361813161
 30
0.0
 11
197.69503424234401
 21
135.49328361813161
 31
0.0
  0
ARC
  5
1AED5
  8
0
 62
     5
 10
196.85661959123141
 20
136.08941711071881
 30
0.0
 40
0.612500000525
 50
185.0000000011994
 51
254.49955892070091
  0
LINE
  5
1AED6
  8
0
 62
     5
 10
197.746133320094
 20
135.49328361813161
 30
0.0
 11
198.72486835788141
 21
135.49328361813161
 31
0.0
  0
ARC
  5
1AED7
  8
0
 62
     5
 10
198.58454787504411
 20
136.08941711071881
 30
0.0
 40
0.612500000525
 50
285.50044174899989
 51
354.99999999880021
  0
LINE
  5
1AED8
  8
0
 62
     5
 10
199.19471712818151
 20
136.0360342182191
 30
0.0
 11
199.2518337331816
 21
136.68888000096911
 31
0.0
  0
LINE
  5
1AED9
  8
0
 62
     5
 10
199.64558373318161
 20
136.68888000096911
 30
0.0
 11
199.64558373318161
 21
137.38888000096901
 31
0.0
  0
LINE
  5
1AEDA
  8
0
 62
     5
 10
195.79653370458161
 20
136.68887998014401
 30
0.0
 11
199.64483330474411
 21
136.68887998014401
 31
0.0
  0
LINE
  5
1AEDB
  8
0
 62
     5
 10
195.7955837331815
 20
136.68888000096911
 30
0.0
 11
195.7955837331815
 21
137.38888000096901
 31
0.0
  0
LINE
  5
1AEDC
  8
0
 62
     5
 10
196.24645033818101
 20
136.0360342182191
 30
0.0
 11
196.18933373318151
 21
136.68888000096911
 31
0.0
  0
LINE
  5
1AEDD
  8
0
 62
     5
 10
199.39254505169669
 20
135.18888000000001
 30
0.0
 11
199.39254505169669
 21
136.6977530747572
 31
0.0
  0
LINE
  5
1AEDE
  8
0
 62
     5
 10
200.7244254596576
 20
140.3206331499515
 30
0.0
 11
200.18351844539669
 21
140.31827298288661
 31
0.0
  0
LINE
  5
1AEDF
  8
HIDDEN
 10
200.0547631568966
 20
134.79792919099961
 30
0.0
 11
200.0547631568966
 21
135.1888799999999
 31
0.0
  0
LINE
  5
1AEE0
  8
HIDDEN
 10
201.0768888513652
 20
134.79792919099961
 30
0.0
 11
200.0547631568966
 21
134.79792919099961
 31
0.0
  0
LINE
  5
1AEE1
  8
0
  6
CONTINUOUS
 62
     5
 10
200.05315194709661
 20
137.38888004770001
 30
0.0
 11
200.0547631568966
 21
137.38888
 31
0.0
  0
LINE
  5
1AEE2
  8
0
 62
     5
 10
200.0547631568966
 20
138.18888000000001
 30
0.0
 11
200.0547631568966
 21
137.38888
 31
0.0
  0
LINE
  5
1AEE3
  8
0
 62
     5
 10
200.0547631568966
 20
138.6888799999999
 30
0.0
 11
200.0547631568966
 21
140.48887999999991
 31
0.0
  0
LINE
  5
1AEE4
  8
HIDDEN
 10
201.48351844544041
 20
134.5888799999999
 30
0.0
 11
202.63351844539679
 21
134.5888799999999
 31
0.0
  0
ARC
  5
1AEE5
  8
HIDDEN
 10
201.48351844539681
 20
135.0888799999999
 30
0.0
 40
0.5
 50
180.0
 51
270.00000000499921
  0
LINE
  5
1AEE6
  8
HIDDEN
 10
200.98351844539681
 20
135.0888799999999
 30
0.0
 11
200.98351844539681
 21
136.1888799999997
 31
0.0
  0
ARC
  5
1AEE7
  8
0
 62
     5
 10
199.98351844539681
 20
140.6888799999999
 30
0.0
 40
0.2
 50
270.0
 51
0.0
  0
LINE
  5
1AEE8
  8
0
 62
     5
 10
200.33351844539669
 20
140.3189274855097
 30
0.0
 11
200.33351844539669
 21
137.58887999999999
 31
0.0
  0
ARC
  5
1AEE9
  8
0
 62
     5
 10
200.83351844539681
 20
137.58887999999999
 30
0.0
 40
0.5
 50
180.0
 51
270.0
  0
LINE
  5
1AEEA
  8
HIDDEN
 10
223.97947083487151
 20
123.3888799999999
 30
0.0
 11
208.6335184453967
 21
123.3888799999999
 31
0.0
  0
LINE
  5
1AEEB
  8
0
 62
     5
 10
205.45021866839679
 20
131.68887999999939
 30
0.0
 11
205.2805168315968
 21
137.0888799999999
 31
0.0
  0
LINE
  5
1AEEC
  8
0
 62
     5
 10
206.06763047659669
 20
137.0888799999999
 30
0.0
 11
206.13792327739679
 21
131.68887999999939
 31
0.0
  0
LINE
  5
1AEED
  8
0
 62
     5
 10
211.8291136133968
 20
131.68887999999939
 30
0.0
 11
211.8994064141967
 21
137.0888799999999
 31
0.0
  0
LINE
  5
1AEEE
  8
0
 62
     5
 10
212.68652005919671
 20
137.0888799999999
 30
0.0
 11
212.51681822239681
 21
131.68887999999939
 31
0.0
  0
LINE
  5
1AEEF
  8
0
 62
     5
 10
205.45021866839679
 20
131.68887999999939
 30
0.0
 11
212.51681822239681
 21
131.68887999999939
 31
0.0
  0
LINE
  5
1AEF0
  8
HIDDEN
 10
223.98078467319951
 20
136.48811383089841
 30
0.0
 11
217.93722057714641
 21
136.48811383112491
 31
0.0
  0
ARC
  5
1AEF1
  8
0
 62
     5
 10
218.9831015029493
 20
139.9002973993754
 30
0.0
 40
0.5
 50
90.249999999999702
 51
180.0
  0
LINE
  5
1AEF2
  8
0
 62
     5
 10
218.48351844539681
 20
139.87166128079991
 30
0.0
 11
218.48351844539681
 21
137.58887999999999
 31
0.0
  0
ARC
  5
1AEF3
  8
0
 62
     5
 10
217.98351844539661
 20
137.58887999999999
 30
0.0
 40
0.5
 50
270.0
 51
0.0
  0
POLYLINE
  5
1AEF4
  8
0
 62
     5
 66
     1
 10
0.0
 20
0.0
 30
0.0
  0
VERTEX
  5
1B577
  8
0
 62
     5
 10
199.98351844539681
 20
150.53020470349981
 30
0.0
  0
VERTEX
  5
1B578
  8
0
 62
     5
 10
199.99921026449681
 20
150.53081996029991
 30
0.0
  0
VERTEX
  5
1B579
  8
0
 62
     5
 10
200.0148053383968
 20
150.53266193739981
 30
0.0
  0
VERTEX
  5
1B57A
  8
0
 62
     5
 10
200.03020751819611
 20
150.53571927829981
 30
0.0
  0
VERTEX
  5
1B57B
  8
0
 62
     5
 10
200.04532184429661
 20
150.5399731336999
 30
0.0
  0
VERTEX
  5
1B57C
  8
0
 62
     5
 10
200.0600551318968
 20
150.54539727689991
 30
0.0
  0
VERTEX
  5
1B57D
  8
0
 62
     5
 10
200.07431654539661
 20
150.55195826650001
 30
0.0
  0
VERTEX
  5
1B57E
  8
0
 62
     5
 10
200.08801815829671
 20
150.5596156516994
 30
0.0
  0
VERTEX
  5
1B57F
  8
0
 62
     5
 10
200.10107549589679
 20
150.56832222209991
 30
0.0
  0
VERTEX
  5
1B580
  8
0
 62
     5
 10
200.11340805509681
 20
150.57802429889989
 30
0.0
  0
VERTEX
  5
1B581
  8
0
 62
     5
 10
200.12493980159661
 20
150.58866206559961
 30
0.0
  0
VERTEX
  5
1B582
  8
0
 62
     5
 10
200.1355996384967
 20
150.6001699367998
 30
0.0
  0
VERTEX
  5
1B583
  8
0
 62
     5
 10
200.1453218442966
 20
150.61247696259991
 30
0.0
  0
VERTEX
  5
1B584
  8
0
 62
     5
 10
200.15404647829669
 20
150.6255072660999
 30
0.0
  0
VERTEX
  5
1B585
  8
0
 62
     5
 10
200.1617197501968
 20
150.6391805111999
 30
0.0
  0
VERTEX
  5
1B586
  8
0
 62
     5
 10
200.1682943518968
 20
150.65341239769941
 30
0.0
  0
VERTEX
  5
1B587
  8
0
 62
     5
 10
200.1737297486965
 20
150.66811518139991
 30
0.0
  0
VERTEX
  5
1B588
  8
0
 62
     5
 10
200.1779924294967
 20
150.68319821470001
 30
0.0
  0
VERTEX
  5
1B589
  8
0
 62
     5
 10
200.18105611349679
 20
150.69856850569991
 30
0.0
  0
VERTEX
  5
1B58A
  8
0
 62
     5
 10
200.18290191209681
 20
150.71413129139981
 30
0.0
  0
VERTEX
  5
1B58B
  8
0
 62
     5
 10
200.18351844539669
 20
150.7297906220999
 30
0.0
  0
SEQEND
  5
1B58C
  8
0
 62
     5
  0
LINE
  5
1AF0B
  8
0
 62
     5
 10
241.28351844539671
 20
140.48887999999991
 30
0.0
 11
241.28351844539671
 21
150.92951143839991
 31
0.0
  0
LINE
  5
1AF0C
  8
0
 62
     5
 10
248.28351844539671
 20
140.48887999999991
 30
0.0
 11
239.28351844539671
 21
140.48887999999991
 31
0.0
  0
INSERT
  5
1AF0D
  8
1
  2
A$C3C4259C2
 10
240.9018357415259
 20
126.6927175999998
 30
0.0
 41
-1.5615774999999841
 42
1.5615774999999841
 43
1.5615775000000001
  0
POLYLINE
  5
1AF0E
  8
HIDDEN
 66
     1
 10
0.0
 20
0.0
 30
0.0
  0
VERTEX
  5
1B58D
  8
HIDDEN
 10
227.69853194859681
 20
125.5590138524999
 30
0.0
  0
VERTEX
  5
1B58E
  8
HIDDEN
 10
227.75404555799679
 20
125.6269556079999
 30
0.0
  0
VERTEX
  5
1B58F
  8
HIDDEN
 10
227.8101738866967
 20
125.7467795052999
 30
0.0
  0
VERTEX
  5
1B590
  8
HIDDEN
 10
227.8643968192969
 20
125.9156428951998
 30
0.0
  0
VERTEX
  5
1B591
  8
HIDDEN
 10
227.91445877219681
 20
126.1238948353998
 30
0.0
  0
VERTEX
  5
1B592
  8
HIDDEN
 10
227.9631082182969
 20
126.3829686556998
 30
0.0
  0
VERTEX
  5
1B593
  8
HIDDEN
 10
228.18351844529639
 20
129.94079879999961
 30
0.0
  0
SEQEND
  5
1B594
  8
HIDDEN
  0
LINE
  5
1AF17
  8
HIDDEN
 10
227.98205965389181
 20
126.6888799999996
 30
0.0
 11
240.9009344145442
 21
126.69271820502171
 31
0.0
  0
LINE
  5
1AF18
  8
HIDDEN
 10
227.983357690188
 20
133.1888799999999
 30
0.0
 11
240.9018357415259
 21
133.1888799999999
 31
0.0
  0
POLYLINE
  5
1AF19
  8
HIDDEN
 66
     1
 10
0.0
 20
0.0
 30
0.0
  0
VERTEX
  5
1B595
  8
HIDDEN
 10
228.18351844529639
 20
129.94079879999961
 30
0.0
  0
VERTEX
  5
1B596
  8
HIDDEN
 10
227.96532869129689
 20
133.48144310669991
 30
0.0
  0
VERTEX
  5
1B597
  8
HIDDEN
 10
227.91684194379681
 20
133.74256248349991
 30
0.0
  0
VERTEX
  5
1B598
  8
HIDDEN
 10
227.86520199339671
 20
133.9591861072999
 30
0.0
  0
VERTEX
  5
1B599
  8
HIDDEN
 10
227.8127943280968
 20
134.1240650133
 30
0.0
  0
VERTEX
  5
1B59A
  8
HIDDEN
 10
227.75674169189679
 20
134.24625128959991
 30
0.0
  0
VERTEX
  5
1B59B
  8
HIDDEN
 10
227.69853226869679
 20
134.31874595089991
 30
0.0
  0
SEQEND
  5
1B59C
  8
HIDDEN
  0
LINE
  5
1AF22
  8
0
 62
     5
 10
241.28351844539671
 20
150.92951143839991
 30
0.0
 11
239.28351844539671
 21
150.92951143839991
 31
0.0
  0
LINE
  5
1AF23
  8
0
 62
     5
 10
251.08351844539661
 20
145.48887999999991
 30
0.0
 11
251.28351844539679
 21
145.6888799999999
 31
0.0
  0
LINE
  5
1AF24
  8
0
 62
     5
 10
248.48351844539681
 20
145.48887999999991
 30
0.0
 11
251.08351844539661
 21
145.48887999999991
 31
0.0
  0
ARC
  5
1AF25
  8
0
 62
     5
 10
248.48351844539681
 20
145.28887999999981
 30
0.0
 40
0.2
 50
90.0
 51
179.99999998790059
  0
ARC
  5
1AF26
  8
0
 62
     5
 10
251.6835184453968
 20
163.0888799999999
 30
0.0
 40
0.4000000000000001
 50
90.0
 51
179.99999996569841
  0
LINE
  5
1AF27
  8
0
 62
     5
 10
239.28351844539671
 20
200.4888799999998
 30
0.0
 11
200.18351844539669
 21
200.65948701711301
 31
0.0
  0
POLYLINE
  5
1AF28
  8
0
 62
     5
 66
     1
 10
0.0
 20
0.0
 30
0.0
  0
VERTEX
  5
1B59D
  8
0
 62
     5
 10
199.98351844539681
 20
190.4475552964993
 30
0.0
  0
VERTEX
  5
1B59E
  8
0
 62
     5
 10
199.99921026309681
 20
190.44694003979981
 30
0.0
  0
VERTEX
  5
1B59F
  8
0
 62
     5
 10
200.01480533559669
 20
190.44509806309981
 30
0.0
  0
VERTEX
  5
1B5A0
  8
0
 62
     5
 10
200.0302075139964
 20
190.4420407226998
 30
0.0
  0
VERTEX
  5
1B5A1
  8
0
 62
     5
 10
200.04532183899681
 20
190.43778686810001
 30
0.0
  0
VERTEX
  5
1B5A2
  8
0
 62
     5
 10
200.0600551255967
 20
190.4323627256997
 30
0.0
  0
VERTEX
  5
1B5A3
  8
0
 62
     5
 10
200.0743165382965
 20
190.4258017370999
 30
0.0
  0
VERTEX
  5
1B5A4
  8
0
 62
     5
 10
200.08801815079681
 20
190.4181443528995
 30
0.0
  0
VERTEX
  5
1B5A5
  8
0
 62
     5
 10
200.10107548809671
 20
190.4094377834999
 30
0.0
  0
VERTEX
  5
1B5A6
  8
0
 62
     5
 10
200.1134080472961
 20
190.3997357076999
 30
0.0
  0
VERTEX
  5
1B5A7
  8
0
 62
     5
 10
200.1249397940968
 20
190.38909794189991
 30
0.0
  0
VERTEX
  5
1B5A8
  8
0
 62
     5
 10
200.1355996314964
 20
190.37759007139991
 30
0.0
  0
VERTEX
  5
1B5A9
  8
0
 62
     5
 10
200.14532183799639
 20
190.36528304609951
 30
0.0
  0
VERTEX
  5
1B5AA
  8
0
 62
     5
 10
200.15404647289679
 20
190.3522527426999
 30
0.0
  0
VERTEX
  5
1B5AB
  8
0
 62
     5
 10
200.1617197457968
 20
190.33857949749989
 30
0.0
  0
VERTEX
  5
1B5AC
  8
0
 62
     5
 10
200.1682943484968
 20
190.32434761049981
 30
0.0
  0
VERTEX
  5
1B5AD
  8
0
 62
     5
 10
200.17372974629669
 20
190.30964482589999
 30
0.0
  0
VERTEX
  5
1B5AE
  8
0
 62
     5
 10
200.1779924279968
 20
190.2945617913997
 30
0.0
  0
VERTEX
  5
1B5AF
  8
0
 62
     5
 10
200.18105611279671
 20
190.2791914987998
 30
0.0
  0
VERTEX
  5
1B5B0
  8
0
 62
     5
 10
200.18290191199679
 20
190.26362871099991
 30
0.0
  0
VERTEX
  5
1B5B1
  8
0
 62
     5
 10
200.18351844539669
 20
190.24796937789981
 30
0.0
  0
SEQEND
  5
1B5B2
  8
0
 62
     5
  0
ARC
  5
1AF3F
  8
0
 62
     5
 10
199.98351844539681
 20
200.28887999999989
 30
0.0
 40
0.2
 50
0.0
 51
90.0
  0
LINE
  5
1AF40
  8
0
 62
     5
 10
241.28351844539671
 20
190.04824856159991
 30
0.0
 11
241.28351844539671
 21
200.4888799999998
 31
0.0
  0
LINE
  5
1AF41
  8
0
 62
     5
 10
241.28351844539671
 20
190.04824856159991
 30
0.0
 11
239.28351844539671
 21
190.04824856159991
 31
0.0
  0
ARC
  5
1AF42
  8
0
 62
     5
 10
251.6835184453968
 20
177.8888799999998
 30
0.0
 40
0.4000000000000001
 50
180.0000000342983
 51
270.0
  0
LINE
  5
1AF43
  8
0
 62
     5
 10
251.08351844539661
 20
195.48887999999991
 30
0.0
 11
251.28351844539679
 21
195.28887999999981
 31
0.0
  0
ARC
  5
1AF44
  8
0
 62
     5
 10
248.48351844539681
 20
195.6888799999999
 30
0.0
 40
0.2
 50
180.00000001209921
 51
270.0
  0
LINE
  5
1AF45
  8
0
 62
     5
 10
248.48351844539681
 20
195.48887999999991
 30
0.0
 11
251.08351844539661
 21
195.48887999999991
 31
0.0
  0
LINE
  5
1AF46
  8
0
 62
     5
 10
248.28351844539671
 20
200.4888799999998
 30
0.0
 11
239.28351844539671
 21
200.4888799999998
 31
0.0
  0
LINE
  5
1AF47
  8
0
 62
     5
 10
347.32696589547271
 20
200.75504440009971
 30
0.0
 11
385.0884700223732
 21
200.75504440009971
 31
0.0
  0
LINE
  5
1AF48
  8
HIDDEN
 10
348.55771795905349
 20
134.58888000019991
 30
0.0
 11
350.8577179589231
 21
134.58888000018021
 31
0.0
  0
LINE
  5
1AF49
  8
CENTER
 10
331.8648168597777
 20
170.48887999999991
 30
0.0
 11
400.55061905806872
 21
170.48887999999991
 31
0.0
  0
LINE
  5
1AF4A
  8
0
 62
     5
 10
346.88502593492319
 20
137.0888799999999
 30
0.0
 11
373.64834939732282
 21
137.0888799999999
 31
0.0
  0
LINE
  5
1AF4B
  8
0
 62
     5
 10
340.70771795892318
 20
140.48887999999991
 30
0.0
 11
391.7077179589233
 21
140.48887999999991
 31
0.0
  0
LINE
  5
1AF4C
  8
0
 62
     5
 10
391.7077179589233
 20
200.4888799999998
 30
0.0
 11
340.70771795892318
 21
200.4888799999998
 31
0.0
  0
CIRCLE
  5
1AF4D
  8
0
 62
     5
 10
366.20771795892313
 20
170.48887999999991
 30
0.0
 40
25.0
  0
LINE
  5
1AF4E
  8
0
 62
     5
 10
335.9415535588733
 20
151.6081279365998
 30
0.0
 11
335.9415535588733
 21
189.36963206339971
 31
0.0
  0
LINE
  5
1AF4F
  8
0
 62
     5
 10
336.2077179589233
 20
195.98887999999991
 30
0.0
 11
336.2077179589233
 21
144.98887999999991
 31
0.0
  0
LINE
  5
1AF50
  8
0
 62
     5
 10
277.88351844539682
 20
177.48887999999991
 30
0.0
 11
277.88351844539682
 21
163.48887999999971
 31
0.0
  0
LINE
  5
1AF51
  8
0
 62
     5
 10
278.28351844539679
 20
177.0888773870999
 30
0.0
 11
278.28351844539679
 21
163.88888261289941
 31
0.0
  0
LINE
  5
1AF52
  8
0
 62
     5
 10
277.88351844539682
 20
163.48887999999971
 30
0.0
 11
278.28351844539679
 21
163.8888799999998
 31
0.0
  0
LINE
  5
1AF53
  8
CENTER
 10
347.50523610489961
 20
151.78639814597631
 30
0.0
 11
335.76412530457281
 21
140.0452873456494
 31
0.0
  0
ARC
  5
1AF54
  8
0
 62
     5
 10
340.70771795892318
 20
144.98887999999991
 30
0.0
 40
4.5
 50
180.0
 51
270.0
  0
ARC
  5
1AF55
  8
HIDDEN
 10
348.5577179586233
 20
135.0888799998996
 30
0.0
 40
0.4999999997
 50
179.99999999670041
 51
270.0000000492995
  0
LINE
  5
1AF56
  8
HIDDEN
 10
348.05771795892321
 20
136.1888799999997
 30
0.0
 11
348.05771795892321
 21
135.0888799999999
 31
0.0
  0
LINE
  5
1AF57
  8
0
 62
     5
 10
346.38503069462303
 20
140.4784713997995
 30
0.0
 11
346.38502593492319
 21
140.4782257974999
 31
0.0
  0
POLYLINE
  5
1AF58
  8
0
 62
     5
 66
     1
 10
0.0
 20
0.0
 30
0.0
  0
VERTEX
  5
1B5B3
  8
0
 62
     5
 10
346.95985740152321
 20
137.0888799999999
 30
0.0
  0
VERTEX
  5
1B5B4
  8
0
 62
     5
 10
346.92966844022311
 20
137.0897922228998
 30
0.0
  0
VERTEX
  5
1B5B5
  8
0
 62
     5
 10
346.89958963512339
 20
137.09252556299981
 30
0.0
  0
SEQEND
  5
1B5B6
  8
0
 62
     5
  0
LINE
  5
1AF5D
  8
0
 62
     5
 10
346.38523241021949
 20
140.48887999999991
 30
0.0
 11
346.38502593492319
 21
137.5888799999999
 31
0.0
  0
ARC
  5
1AF5E
  8
CENTER
 10
366.20771795892313
 20
170.48887999999991
 30
0.0
 40
34.999999999958803
 50
216.25402293116221
 51
234.3810343967447
  0
CIRCLE
  5
1AF5F
  8
0
 62
     5
 10
341.45898061742281
 20
145.74014265849991
 30
0.0
 40
2.8999999999999981
  0
CIRCLE
  5
1AF60
  8
0
 62
     5
 10
339.7190103071232
 20
154.19291832429991
 30
0.0
 40
1.25
  0
LINE
  5
1AF61
  8
0
 62
     5
 10
277.88351844539682
 20
177.48887999999991
 30
0.0
 11
278.28351844539679
 21
177.0888799999999
 31
0.0
  0
LINE
  5
1AF62
  8
CENTER
 10
347.50523610489961
 20
189.19136185402351
 30
0.0
 11
335.76412530457281
 21
200.93247265435031
 31
0.0
  0
ARC
  5
1AF63
  8
0
 62
     5
 10
340.70771795892318
 20
195.98887999999991
 30
0.0
 40
4.5
 50
90.0
 51
180.0
  0
ARC
  5
1AF64
  8
CENTER
 10
366.20771795892313
 20
170.48887999999991
 30
0.0
 40
34.999999999958803
 50
126.2540229311621
 51
144.3810343967435
  0
CIRCLE
  5
1AF65
  8
0
 62
     5
 10
341.45898061742281
 20
195.23761734149991
 30
0.0
 40
2.8999999999999981
  0
POLYLINE
  5
1AF66
  8
0
 62
     5
 66
     1
 10
0.0
 20
0.0
 30
0.0
 70
     8
  0
VERTEX
  5
1AF67
  8
0
 62
     5
 10
347.32699999999983
 20
200.755
 30
0.0
 70
    32
  0
VERTEX
  5
1AF68
  8
0
 62
     5
 10
347.32499999999999
 20
200.755
 30
0.0
 70
    32
  0
VERTEX
  5
1AF69
  8
0
 62
     5
 10
347.32299999999998
 20
200.755
 30
0.0
 70
    32
  0
VERTEX
  5
1AF6A
  8
0
 62
     5
 10
347.32099999999991
 20
200.755
 30
0.0
 70
    32
  0
VERTEX
  5
1AF6B
  8
0
 62
     5
 10
347.31799999999993
 20
200.755
 30
0.0
 70
    32
  0
VERTEX
  5
1AF6C
  8
0
 62
     5
 10
347.31599999999997
 20
200.755
 30
0.0
 70
    32
  0
VERTEX
  5
1AF6D
  8
0
 62
     5
 10
347.31400000000002
 20
200.755
 30
0.0
 70
    32
  0
VERTEX
  5
1AF6E
  8
0
 62
     5
 10
347.31199999999973
 20
200.755
 30
0.0
 70
    32
  0
VERTEX
  5
1AF6F
  8
0
 62
     5
 10
347.31
 20
200.755
 30
0.0
 70
    32
  0
VERTEX
  5
1AF70
  8
0
 62
     5
 10
347.30799999999982
 20
200.75399999999999
 30
0.0
 70
    32
  0
VERTEX
  5
1AF71
  8
0
 62
     5
 10
347.30599999999993
 20
200.75399999999999
 30
0.0
 70
    32
  0
VERTEX
  5
1AF72
  8
0
 62
     5
 10
347.30399999999992
 20
200.75399999999999
 30
0.0
 70
    32
  0
VERTEX
  5
1AF73
  8
0
 62
     5
 10
347.30099999999982
 20
200.75399999999999
 30
0.0
 70
    32
  0
VERTEX
  5
1AF74
  8
0
 62
     5
 10
347.29899999999992
 20
200.75399999999999
 30
0.0
 70
    32
  0
VERTEX
  5
1AF75
  8
0
 62
     5
 10
347.29699999999991
 20
200.75399999999999
 30
0.0
 70
    32
  0
VERTEX
  5
1AF76
  8
0
 62
     5
 10
347.29500000000002
 20
200.75399999999999
 30
0.0
 70
    32
  0
VERTEX
  5
1AF77
  8
0
 62
     5
 10
347.29300000000001
 20
200.75399999999999
 30
0.0
 70
    32
  0
VERTEX
  5
1AF78
  8
0
 62
     5
 10
347.291
 20
200.75399999999999
 30
0.0
 70
    32
  0
VERTEX
  5
1AF79
  8
0
 62
     5
 10
347.28899999999999
 20
200.75399999999999
 30
0.0
 70
    32
  0
VERTEX
  5
1AF7A
  8
0
 62
     5
 10
347.28699999999992
 20
200.75399999999999
 30
0.0
 70
    32
  0
VERTEX
  5
1AF7B
  8
0
 62
     5
 10
347.28399999999999
 20
200.75399999999999
 30
0.0
 70
    32
  0
VERTEX
  5
1AF7C
  8
0
 62
     5
 10
347.28199999999998
 20
200.75399999999999
 30
0.0
 70
    32
  0
VERTEX
  5
1AF7D
  8
0
 62
     5
 10
347.27999999999992
 20
200.75299999999999
 30
0.0
 70
    32
  0
VERTEX
  5
1AF7E
  8
0
 62
     5
 10
347.27800000000002
 20
200.75299999999999
 30
0.0
 70
    32
  0
VERTEX
  5
1AF7F
  8
0
 62
     5
 10
347.27600000000001
 20
200.75299999999999
 30
0.0
 70
    32
  0
VERTEX
  5
1AF80
  8
0
 62
     5
 10
347.27399999999972
 20
200.75299999999999
 30
0.0
 70
    32
  0
VERTEX
  5
1AF81
  8
0
 62
     5
 10
347.27199999999982
 20
200.75299999999999
 30
0.0
 70
    32
  0
VERTEX
  5
1AF82
  8
0
 62
     5
 10
347.26999999999992
 20
200.75299999999999
 30
0.0
 70
    32
  0
VERTEX
  5
1AF83
  8
0
 62
     5
 10
347.26699999999983
 20
200.75299999999999
 30
0.0
 70
    32
  0
VERTEX
  5
1AF84
  8
0
 62
     5
 10
347.26499999999982
 20
200.75299999999999
 30
0.0
 70
    32
  0
VERTEX
  5
1AF85
  8
0
 62
     5
 10
347.26299999999992
 20
200.75299999999999
 30
0.0
 70
    32
  0
VERTEX
  5
1AF86
  8
0
 62
     5
 10
347.26099999999991
 20
200.75299999999999
 30
0.0
 70
    32
  0
VERTEX
  5
1AF87
  8
0
 62
     5
 10
347.25900000000001
 20
200.7519999999999
 30
0.0
 70
    32
  0
VERTEX
  5
1AF88
  8
0
 62
     5
 10
347.25699999999972
 20
200.7519999999999
 30
0.0
 70
    32
  0
VERTEX
  5
1AF89
  8
0
 62
     5
 10
347.255
 20
200.7519999999999
 30
0.0
 70
    32
  0
VERTEX
  5
1AF8A
  8
0
 62
     5
 10
347.25299999999987
 20
200.7519999999999
 30
0.0
 70
    32
  0
VERTEX
  5
1AF8B
  8
0
 62
     5
 10
347.25
 20
200.7519999999999
 30
0.0
 70
    32
  0
VERTEX
  5
1AF8C
  8
0
 62
     5
 10
347.24799999999999
 20
200.7519999999999
 30
0.0
 70
    32
  0
VERTEX
  5
1AF8D
  8
0
 62
     5
 10
347.24599999999992
 20
200.7519999999999
 30
0.0
 70
    32
  0
VERTEX
  5
1AF8E
  8
0
 62
     5
 10
347.24400000000009
 20
200.75099999999989
 30
0.0
 70
    32
  0
VERTEX
  5
1AF8F
  8
0
 62
     5
 10
347.24199999999962
 20
200.75099999999989
 30
0.0
 70
    32
  0
VERTEX
  5
1AF90
  8
0
 62
     5
 10
347.24000000000001
 20
200.75099999999989
 30
0.0
 70
    32
  0
VERTEX
  5
1AF91
  8
0
 62
     5
 10
347.238
 20
200.75099999999989
 30
0.0
 70
    32
  0
VERTEX
  5
1AF92
  8
0
 62
     5
 10
347.23599999999999
 20
200.75099999999989
 30
0.0
 70
    32
  0
VERTEX
  5
1AF93
  8
0
 62
     5
 10
347.23299999999972
 20
200.75099999999989
 30
0.0
 70
    32
  0
VERTEX
  5
1AF94
  8
0
 62
     5
 10
347.23099999999999
 20
200.7499999999998
 30
0.0
 70
    32
  0
VERTEX
  5
1AF95
  8
0
 62
     5
 10
347.22899999999998
 20
200.7499999999998
 30
0.0
 70
    32
  0
VERTEX
  5
1AF96
  8
0
 62
     5
 10
347.22699999999992
 20
200.7499999999998
 30
0.0
 70
    32
  0
VERTEX
  5
1AF97
  8
0
 62
     5
 10
347.22500000000002
 20
200.7499999999998
 30
0.0
 70
    32
  0
VERTEX
  5
1AF98
  8
0
 62
     5
 10
347.22300000000001
 20
200.7499999999998
 30
0.0
 70
    32
  0
VERTEX
  5
1AF99
  8
0
 62
     5
 10
347.221
 20
200.74899999999991
 30
0.0
 70
    32
  0
VERTEX
  5
1AF9A
  8
0
 62
     5
 10
347.21899999999982
 20
200.74899999999991
 30
0.0
 70
    32
  0
VERTEX
  5
1AF9B
  8
0
 62
     5
 10
347.21699999999993
 20
200.74899999999991
 30
0.0
 70
    32
  0
VERTEX
  5
1AF9C
  8
0
 62
     5
 10
347.214
 20
200.74899999999991
 30
0.0
 70
    32
  0
VERTEX
  5
1AF9D
  8
0
 62
     5
 10
347.21199999999982
 20
200.74899999999991
 30
0.0
 70
    32
  0
VERTEX
  5
1AF9E
  8
0
 62
     5
 10
347.20999999999992
 20
200.74799999999999
 30
0.0
 70
    32
  0
VERTEX
  5
1AF9F
  8
0
 62
     5
 10
347.20800000000003
 20
200.74799999999999
 30
0.0
 70
    32
  0
VERTEX
  5
1AFA0
  8
0
 62
     5
 10
347.20599999999979
 20
200.74799999999999
 30
0.0
 70
    32
  0
VERTEX
  5
1AFA1
  8
0
 62
     5
 10
347.20400000000001
 20
200.74799999999999
 30
0.0
 70
    32
  0
VERTEX
  5
1AFA2
  8
0
 62
     5
 10
347.202
 20
200.74700000000001
 30
0.0
 70
    32
  0
VERTEX
  5
1AFA3
  8
0
 62
     5
 10
347.19999999999982
 20
200.74700000000001
 30
0.0
 70
    32
  0
VERTEX
  5
1AFA4
  8
0
 62
     5
 10
347.19799999999992
 20
200.74700000000001
 30
0.0
 70
    32
  0
VERTEX
  5
1AFA5
  8
0
 62
     5
 10
347.19499999999999
 20
200.74600000000001
 30
0.0
 70
    32
  0
VERTEX
  5
1AFA6
  8
0
 62
     5
 10
347.19299999999993
 20
200.74600000000001
 30
0.0
 70
    32
  0
VERTEX
  5
1AFA7
  8
0
 62
     5
 10
347.19099999999992
 20
200.74600000000001
 30
0.0
 70
    32
  0
VERTEX
  5
1AFA8
  8
0
 62
     5
 10
347.18900000000002
 20
200.74600000000001
 30
0.0
 70
    32
  0
VERTEX
  5
1AFA9
  8
0
 62
     5
 10
347.18699999999973
 20
200.74499999999989
 30
0.0
 70
    32
  0
VERTEX
  5
1AFAA
  8
0
 62
     5
 10
347.18499999999972
 20
200.74499999999989
 30
0.0
 70
    32
  0
VERTEX
  5
1AFAB
  8
0
 62
     5
 10
347.18299999999999
 20
200.74499999999989
 30
0.0
 70
    32
  0
VERTEX
  5
1AFAC
  8
0
 62
     5
 10
347.18099999999998
 20
200.74399999999989
 30
0.0
 70
    32
  0
VERTEX
  5
1AFAD
  8
0
 62
     5
 10
347.17899999999992
 20
200.74399999999989
 30
0.0
 70
    32
  0
VERTEX
  5
1AFAE
  8
0
 62
     5
 10
347.17599999999982
 20
200.74399999999989
 30
0.0
 70
    32
  0
VERTEX
  5
1AFAF
  8
0
 62
     5
 10
347.17399999999998
 20
200.7429999999998
 30
0.0
 70
    32
  0
VERTEX
  5
1AFB0
  8
0
 62
     5
 10
347.17199999999991
 20
200.7429999999998
 30
0.0
 70
    32
  0
VERTEX
  5
1AFB1
  8
0
 62
     5
 10
347.17000000000002
 20
200.7429999999998
 30
0.0
 70
    32
  0
VERTEX
  5
1AFB2
  8
0
 62
     5
 10
347.16800000000001
 20
200.74199999999971
 30
0.0
 70
    32
  0
VERTEX
  5
1AFB3
  8
0
 62
     5
 10
347.16599999999983
 20
200.74199999999971
 30
0.0
 70
    32
  0
VERTEX
  5
1AFB4
  8
0
 62
     5
 10
347.16399999999982
 20
200.74199999999971
 30
0.0
 70
    32
  0
VERTEX
  5
1AFB5
  8
0
 62
     5
 10
347.16199999999992
 20
200.7409999999999
 30
0.0
 70
    32
  0
VERTEX
  5
1AFB6
  8
0
 62
     5
 10
347.16000000000003
 20
200.7409999999999
 30
0.0
 70
    32
  0
VERTEX
  5
1AFB7
  8
0
 62
     5
 10
347.15800000000002
 20
200.7409999999999
 30
0.0
 70
    32
  0
VERTEX
  5
1AFB8
  8
0
 62
     5
 10
347.15499999999992
 20
200.74000000000001
 30
0.0
 70
    32
  0
VERTEX
  5
1AFB9
  8
0
 62
     5
 10
347.15300000000002
 20
200.74000000000001
 30
0.0
 70
    32
  0
VERTEX
  5
1AFBA
  8
0
 62
     5
 10
347.15100000000001
 20
200.74000000000001
 30
0.0
 70
    32
  0
VERTEX
  5
1AFBB
  8
0
 62
     5
 10
347.149
 20
200.739
 30
0.0
 70
    32
  0
VERTEX
  5
1AFBC
  8
0
 62
     5
 10
347.14699999999999
 20
200.739
 30
0.0
 70
    32
  0
VERTEX
  5
1AFBD
  8
0
 62
     5
 10
347.14499999999992
 20
200.73799999999989
 30
0.0
 70
    32
  0
VERTEX
  5
1AFBE
  8
0
 62
     5
 10
347.14299999999992
 20
200.73799999999989
 30
0.0
 70
    32
  0
VERTEX
  5
1AFBF
  8
0
 62
     5
 10
347.14099999999991
 20
200.73799999999989
 30
0.0
 70
    32
  0
VERTEX
  5
1AFC0
  8
0
 62
     5
 10
347.13899999999973
 20
200.7369999999998
 30
0.0
 70
    32
  0
VERTEX
  5
1AFC1
  8
0
 62
     5
 10
347.13699999999972
 20
200.7369999999998
 30
0.0
 70
    32
  0
VERTEX
  5
1AFC2
  8
0
 62
     5
 10
347.13499999999999
 20
200.73599999999971
 30
0.0
 70
    32
  0
VERTEX
  5
1AFC3
  8
0
 62
     5
 10
347.13199999999972
 20
200.73599999999971
 30
0.0
 70
    32
  0
VERTEX
  5
1AFC4
  8
0
 62
     5
 10
347.12999999999982
 20
200.73599999999971
 30
0.0
 70
    32
  0
VERTEX
  5
1AFC5
  8
0
 62
     5
 10
347.12799999999999
 20
200.73500000000001
 30
0.0
 70
    32
  0
VERTEX
  5
1AFC6
  8
0
 62
     5
 10
347.12599999999998
 20
200.73500000000001
 30
0.0
 70
    32
  0
VERTEX
  5
1AFC7
  8
0
 62
     5
 10
347.12400000000002
 20
200.73400000000001
 30
0.0
 70
    32
  0
VERTEX
  5
1AFC8
  8
0
 62
     5
 10
347.12199999999962
 20
200.73400000000001
 30
0.0
 70
    32
  0
VERTEX
  5
1AFC9
  8
0
 62
     5
 10
347.12
 20
200.733
 30
0.0
 70
    32
  0
VERTEX
  5
1AFCA
  8
0
 62
     5
 10
347.11799999999982
 20
200.733
 30
0.0
 70
    32
  0
VERTEX
  5
1AFCB
  8
0
 62
     5
 10
347.11599999999981
 20
200.73199999999991
 30
0.0
 70
    32
  0
VERTEX
  5
1AFCC
  8
0
 62
     5
 10
347.11399999999992
 20
200.73199999999991
 30
0.0
 70
    32
  0
VERTEX
  5
1AFCD
  8
0
 62
     5
 10
347.11199999999991
 20
200.73199999999991
 30
0.0
 70
    32
  0
VERTEX
  5
1AFCE
  8
0
 62
     5
 10
347.11000000000001
 20
200.73099999999991
 30
0.0
 70
    32
  0
VERTEX
  5
1AFCF
  8
0
 62
     5
 10
347.108
 20
200.73099999999991
 30
0.0
 70
    32
  0
VERTEX
  5
1AFD0
  8
0
 62
     5
 10
347.10500000000002
 20
200.72999999999971
 30
0.0
 70
    32
  0
VERTEX
  5
1AFD1
  8
0
 62
     5
 10
347.10300000000001
 20
200.72999999999971
 30
0.0
 70
    32
  0
VERTEX
  5
1AFD2
  8
0
 62
     5
 10
347.101
 20
200.72900000000001
 30
0.0
 70
    32
  0
VERTEX
  5
1AFD3
  8
0
 62
     5
 10
347.09899999999999
 20
200.72900000000001
 30
0.0
 70
    32
  0
VERTEX
  5
1AFD4
  8
0
 62
     5
 10
347.09699999999992
 20
200.7279999999997
 30
0.0
 70
    32
  0
VERTEX
  5
1AFD5
  8
0
 62
     5
 10
347.09500000000008
 20
200.7279999999997
 30
0.0
 70
    32
  0
VERTEX
  5
1AFD6
  8
0
 62
     5
 10
347.09300000000002
 20
200.727
 30
0.0
 70
    32
  0
VERTEX
  5
1AFD7
  8
0
 62
     5
 10
347.09099999999961
 20
200.727
 30
0.0
 70
    32
  0
VERTEX
  5
1AFD8
  8
0
 62
     5
 10
347.089
 20
200.726
 30
0.0
 70
    32
  0
VERTEX
  5
1AFD9
  8
0
 62
     5
 10
347.08699999999999
 20
200.726
 30
0.0
 70
    32
  0
VERTEX
  5
1AFDA
  8
0
 62
     5
 10
347.08499999999992
 20
200.72499999999991
 30
0.0
 70
    32
  0
VERTEX
  5
1AFDB
  8
0
 62
     5
 10
347.08300000000003
 20
200.72499999999991
 30
0.0
 70
    32
  0
VERTEX
  5
1AFDC
  8
0
 62
     5
 10
347.08099999999962
 20
200.7239999999999
 30
0.0
 70
    32
  0
VERTEX
  5
1AFDD
  8
0
 62
     5
 10
347.07900000000001
 20
200.7239999999999
 30
0.0
 70
    32
  0
VERTEX
  5
1AFDE
  8
0
 62
     5
 10
347.07599999999979
 20
200.7229999999997
 30
0.0
 70
    32
  0
VERTEX
  5
1AFDF
  8
0
 62
     5
 10
347.07400000000001
 20
200.7229999999997
 30
0.0
 70
    32
  0
VERTEX
  5
1AFE0
  8
0
 62
     5
 10
347.07199999999972
 20
200.72200000000001
 30
0.0
 70
    32
  0
VERTEX
  5
1AFE1
  8
0
 62
     5
 10
347.06999999999982
 20
200.72200000000001
 30
0.0
 70
    32
  0
VERTEX
  5
1AFE2
  8
0
 62
     5
 10
347.06799999999993
 20
200.72099999999969
 30
0.0
 70
    32
  0
VERTEX
  5
1AFE3
  8
0
 62
     5
 10
347.06599999999992
 20
200.72
 30
0.0
 70
    32
  0
VERTEX
  5
1AFE4
  8
0
 62
     5
 10
347.06400000000002
 20
200.72
 30
0.0
 70
    32
  0
VERTEX
  5
1AFE5
  8
0
 62
     5
 10
347.06199999999978
 20
200.71899999999999
 30
0.0
 70
    32
  0
VERTEX
  5
1AFE6
  8
0
 62
     5
 10
347.06
 20
200.71899999999999
 30
0.0
 70
    32
  0
VERTEX
  5
1AFE7
  8
0
 62
     5
 10
347.05799999999982
 20
200.7179999999999
 30
0.0
 70
    32
  0
VERTEX
  5
1AFE8
  8
0
 62
     5
 10
347.05599999999993
 20
200.7179999999999
 30
0.0
 70
    32
  0
VERTEX
  5
1AFE9
  8
0
 62
     5
 10
347.05399999999992
 20
200.71700000000001
 30
0.0
 70
    32
  0
VERTEX
  5
1AFEA
  8
0
 62
     5
 10
347.05199999999991
 20
200.71599999999981
 30
0.0
 70
    32
  0
VERTEX
  5
1AFEB
  8
0
 62
     5
 10
347.05000000000001
 20
200.71599999999981
 30
0.0
 70
    32
  0
VERTEX
  5
1AFEC
  8
0
 62
     5
 10
347.048
 20
200.715
 30
0.0
 70
    32
  0
VERTEX
  5
1AFED
  8
0
 62
     5
 10
347.04599999999999
 20
200.715
 30
0.0
 70
    32
  0
VERTEX
  5
1AFEE
  8
0
 62
     5
 10
347.04399999999993
 20
200.714
 30
0.0
 70
    32
  0
VERTEX
  5
1AFEF
  8
0
 62
     5
 10
347.04199999999992
 20
200.71299999999999
 30
0.0
 70
    32
  0
VERTEX
  5
1AFF0
  8
0
 62
     5
 10
347.04000000000002
 20
200.71299999999999
 30
0.0
 70
    32
  0
VERTEX
  5
1AFF1
  8
0
 62
     5
 10
347.03800000000001
 20
200.71199999999999
 30
0.0
 70
    32
  0
VERTEX
  5
1AFF2
  8
0
 62
     5
 10
347.03599999999972
 20
200.71199999999999
 30
0.0
 70
    32
  0
VERTEX
  5
1AFF3
  8
0
 62
     5
 10
347.03300000000002
 20
200.7109999999999
 30
0.0
 70
    32
  0
VERTEX
  5
1AFF4
  8
0
 62
     5
 10
347.03100000000001
 20
200.71000000000001
 30
0.0
 70
    32
  0
VERTEX
  5
1AFF5
  8
0
 62
     5
 10
347.02899999999983
 20
200.71000000000001
 30
0.0
 70
    32
  0
VERTEX
  5
1AFF6
  8
0
 62
     5
 10
347.02699999999982
 20
200.709
 30
0.0
 70
    32
  0
VERTEX
  5
1AFF7
  8
0
 62
     5
 10
347.02499999999998
 20
200.708
 30
0.0
 70
    32
  0
VERTEX
  5
1AFF8
  8
0
 62
     5
 10
347.02300000000002
 20
200.708
 30
0.0
 70
    32
  0
VERTEX
  5
1AFF9
  8
0
 62
     5
 10
347.02099999999979
 20
200.70699999999999
 30
0.0
 70
    32
  0
VERTEX
  5
1AFFA
  8
0
 62
     5
 10
347.01900000000001
 20
200.70699999999999
 30
0.0
 70
    32
  0
VERTEX
  5
1AFFB
  8
0
 62
     5
 10
347.01699999999983
 20
200.70599999999999
 30
0.0
 70
    32
  0
VERTEX
  5
1AFFC
  8
0
 62
     5
 10
347.01499999999982
 20
200.70500000000001
 30
0.0
 70
    32
  0
VERTEX
  5
1AFFD
  8
0
 62
     5
 10
347.01299999999992
 20
200.70500000000001
 30
0.0
 70
    32
  0
VERTEX
  5
1AFFE
  8
0
 62
     5
 10
347.01099999999991
 20
200.70399999999989
 30
0.0
 70
    32
  0
VERTEX
  5
1AFFF
  8
0
 62
     5
 10
347.00900000000001
 20
200.7029999999998
 30
0.0
 70
    32
  0
VERTEX
  5
1B000
  8
0
 62
     5
 10
347.00699999999972
 20
200.7029999999998
 30
0.0
 70
    32
  0
VERTEX
  5
1B001
  8
0
 62
     5
 10
347.005
 20
200.70199999999991
 30
0.0
 70
    32
  0
VERTEX
  5
1B002
  8
0
 62
     5
 10
347.00299999999982
 20
200.70099999999999
 30
0.0
 70
    32
  0
VERTEX
  5
1B003
  8
0
 62
     5
 10
347.00099999999992
 20
200.69999999999999
 30
0.0
 70
    32
  0
VERTEX
  5
1B004
  8
0
 62
     5
 10
346.99900000000002
 20
200.69999999999999
 30
0.0
 70
    32
  0
VERTEX
  5
1B005
  8
0
 62
     5
 10
346.99699999999962
 20
200.69900000000001
 30
0.0
 70
    32
  0
VERTEX
  5
1B006
  8
0
 62
     5
 10
346.995
 20
200.69799999999989
 30
0.0
 70
    32
  0
VERTEX
  5
1B007
  8
0
 62
     5
 10
346.99299999999999
 20
200.69799999999989
 30
0.0
 70
    32
  0
VERTEX
  5
1B008
  8
0
 62
     5
 10
346.99099999999999
 20
200.69699999999989
 30
0.0
 70
    32
  0
VERTEX
  5
1B009
  8
0
 62
     5
 10
346.98899999999992
 20
200.6959999999998
 30
0.0
 70
    32
  0
VERTEX
  5
1B00A
  8
0
 62
     5
 10
346.98699999999991
 20
200.6959999999998
 30
0.0
 70
    32
  0
VERTEX
  5
1B00B
  8
0
 62
     5
 10
346.98500000000001
 20
200.69499999999971
 30
0.0
 70
    32
  0
VERTEX
  5
1B00C
  8
0
 62
     5
 10
346.98299999999972
 20
200.6939999999999
 30
0.0
 70
    32
  0
VERTEX
  5
1B00D
  8
0
 62
     5
 10
346.98099999999982
 20
200.6929999999999
 30
0.0
 70
    32
  0
VERTEX
  5
1B00E
  8
0
 62
     5
 10
346.97899999999993
 20
200.6929999999999
 30
0.0
 70
    32
  0
VERTEX
  5
1B00F
  8
0
 62
     5
 10
346.97699999999998
 20
200.69200000000001
 30
0.0
 70
    32
  0
VERTEX
  5
1B010
  8
0
 62
     5
 10
346.97500000000002
 20
200.69099999999989
 30
0.0
 70
    32
  0
VERTEX
  5
1B011
  8
0
 62
     5
 10
346.97300000000001
 20
200.68999999999991
 30
0.0
 70
    32
  0
VERTEX
  5
1B012
  8
0
 62
     5
 10
346.971
 20
200.68999999999991
 30
0.0
 70
    32
  0
VERTEX
  5
1B013
  8
0
 62
     5
 10
346.96899999999982
 20
200.68899999999971
 30
0.0
 70
    32
  0
VERTEX
  5
1B014
  8
0
 62
     5
 10
346.96699999999993
 20
200.6879999999997
 30
0.0
 70
    32
  0
VERTEX
  5
1B015
  8
0
 62
     5
 10
346.96499999999992
 20
200.68700000000001
 30
0.0
 70
    32
  0
VERTEX
  5
1B016
  8
0
 62
     5
 10
346.96300000000002
 20
200.68700000000001
 30
0.0
 70
    32
  0
VERTEX
  5
1B017
  8
0
 62
     5
 10
346.96100000000001
 20
200.68599999999981
 30
0.0
 70
    32
  0
VERTEX
  5
1B018
  8
0
 62
     5
 10
346.959
 20
200.685
 30
0.0
 70
    32
  0
VERTEX
  5
1B019
  8
0
 62
     5
 10
346.95699999999999
 20
200.68399999999991
 30
0.0
 70
    32
  0
VERTEX
  5
1B01A
  8
0
 62
     5
 10
346.95499999999993
 20
200.68299999999991
 30
0.0
 70
    32
  0
VERTEX
  5
1B01B
  8
0
 62
     5
 10
346.95299999999992
 20
200.68299999999991
 30
0.0
 70
    32
  0
VERTEX
  5
1B01C
  8
0
 62
     5
 10
346.95099999999991
 20
200.6819999999997
 30
0.0
 70
    32
  0
VERTEX
  5
1B01D
  8
0
 62
     5
 10
346.94900000000001
 20
200.6809999999997
 30
0.0
 70
    32
  0
VERTEX
  5
1B01E
  8
0
 62
     5
 10
346.94699999999972
 20
200.68000000000001
 30
0.0
 70
    32
  0
VERTEX
  5
1B01F
  8
0
 62
     5
 10
346.94499999999999
 20
200.679
 30
0.0
 70
    32
  0
VERTEX
  5
1B020
  8
0
 62
     5
 10
346.94299999999998
 20
200.679
 30
0.0
 70
    32
  0
VERTEX
  5
1B021
  8
0
 62
     5
 10
346.94099999999992
 20
200.678
 30
0.0
 70
    32
  0
VERTEX
  5
1B022
  8
0
 62
     5
 10
346.94
 20
200.67699999999991
 30
0.0
 70
    32
  0
VERTEX
  5
1B023
  8
0
 62
     5
 10
346.93799999999999
 20
200.6759999999997
 30
0.0
 70
    32
  0
VERTEX
  5
1B024
  8
0
 62
     5
 10
346.93599999999992
 20
200.67500000000001
 30
0.0
 70
    32
  0
VERTEX
  5
1B025
  8
0
 62
     5
 10
346.93400000000003
 20
200.67400000000001
 30
0.0
 70
    32
  0
VERTEX
  5
1B026
  8
0
 62
     5
 10
346.93199999999962
 20
200.67400000000001
 30
0.0
 70
    32
  0
VERTEX
  5
1B027
  8
0
 62
     5
 10
346.93000000000001
 20
200.673
 30
0.0
 70
    32
  0
VERTEX
  5
1B028
  8
0
 62
     5
 10
346.92799999999983
 20
200.672
 30
0.0
 70
    32
  0
VERTEX
  5
1B029
  8
0
 62
     5
 10
346.92599999999982
 20
200.67099999999991
 30
0.0
 70
    32
  0
VERTEX
  5
1B02A
  8
0
 62
     5
 10
346.92399999999992
 20
200.6699999999999
 30
0.0
 70
    32
  0
VERTEX
  5
1B02B
  8
0
 62
     5
 10
346.92199999999991
 20
200.66900000000001
 30
0.0
 70
    32
  0
VERTEX
  5
1B02C
  8
0
 62
     5
 10
346.92000000000002
 20
200.66800000000001
 30
0.0
 70
    32
  0
VERTEX
  5
1B02D
  8
0
 62
     5
 10
346.91800000000001
 20
200.66800000000001
 30
0.0
 70
    32
  0
VERTEX
  5
1B02E
  8
0
 62
     5
 10
346.916
 20
200.667
 30
0.0
 70
    32
  0
VERTEX
  5
1B02F
  8
0
 62
     5
 10
346.91399999999987
 20
200.666
 30
0.0
 70
    32
  0
VERTEX
  5
1B030
  8
0
 62
     5
 10
346.91199999999992
 20
200.66499999999999
 30
0.0
 70
    32
  0
VERTEX
  5
1B031
  8
0
 62
     5
 10
346.91000000000003
 20
200.6639999999999
 30
0.0
 70
    32
  0
VERTEX
  5
1B032
  8
0
 62
     5
 10
346.90800000000002
 20
200.6629999999999
 30
0.0
 70
    32
  0
VERTEX
  5
1B033
  8
0
 62
     5
 10
346.90600000000001
 20
200.66200000000001
 30
0.0
 70
    32
  0
VERTEX
  5
1B034
  8
0
 62
     5
 10
346.90499999999992
 20
200.6609999999998
 30
0.0
 70
    32
  0
VERTEX
  5
1B035
  8
0
 62
     5
 10
346.90300000000002
 20
200.6609999999998
 30
0.0
 70
    32
  0
VERTEX
  5
1B036
  8
0
 62
     5
 10
346.90100000000001
 20
200.66
 30
0.0
 70
    32
  0
VERTEX
  5
1B037
  8
0
 62
     5
 10
346.899
 20
200.65899999999999
 30
0.0
 70
    32
  0
VERTEX
  5
1B038
  8
0
 62
     5
 10
346.89699999999999
 20
200.65799999999999
 30
0.0
 70
    32
  0
VERTEX
  5
1B039
  8
0
 62
     5
 10
346.89499999999992
 20
200.6569999999999
 30
0.0
 70
    32
  0
VERTEX
  5
1B03A
  8
0
 62
     5
 10
346.89299999999992
 20
200.65599999999989
 30
0.0
 70
    32
  0
VERTEX
  5
1B03B
  8
0
 62
     5
 10
346.89099999999991
 20
200.6549999999998
 30
0.0
 70
    32
  0
VERTEX
  5
1B03C
  8
0
 62
     5
 10
346.88900000000001
 20
200.654
 30
0.0
 70
    32
  0
VERTEX
  5
1B03D
  8
0
 62
     5
 10
346.88699999999972
 20
200.65299999999999
 30
0.0
 70
    32
  0
VERTEX
  5
1B03E
  8
0
 62
     5
 10
346.88499999999982
 20
200.65199999999999
 30
0.0
 70
    32
  0
VERTEX
  5
1B03F
  8
0
 62
     5
 10
346.88299999999998
 20
200.65100000000001
 30
0.0
 70
    32
  0
VERTEX
  5
1B040
  8
0
 62
     5
 10
346.88199999999972
 20
200.64999999999989
 30
0.0
 70
    32
  0
VERTEX
  5
1B041
  8
0
 62
     5
 10
346.87999999999982
 20
200.6489999999998
 30
0.0
 70
    32
  0
VERTEX
  5
1B042
  8
0
 62
     5
 10
346.87799999999982
 20
200.6479999999998
 30
0.0
 70
    32
  0
VERTEX
  5
1B043
  8
0
 62
     5
 10
346.87599999999992
 20
200.64699999999991
 30
0.0
 70
    32
  0
VERTEX
  5
1B044
  8
0
 62
     5
 10
346.87400000000002
 20
200.64699999999991
 30
0.0
 70
    32
  0
VERTEX
  5
1B045
  8
0
 62
     5
 10
346.87199999999979
 20
200.6459999999999
 30
0.0
 70
    32
  0
VERTEX
  5
1B046
  8
0
 62
     5
 10
346.87
 20
200.64500000000001
 30
0.0
 70
    32
  0
VERTEX
  5
1B047
  8
0
 62
     5
 10
346.86799999999982
 20
200.64400000000001
 30
0.0
 70
    32
  0
VERTEX
  5
1B048
  8
0
 62
     5
 10
346.86599999999981
 20
200.64299999999989
 30
0.0
 70
    32
  0
VERTEX
  5
1B049
  8
0
 62
     5
 10
346.86399999999992
 20
200.6419999999998
 30
0.0
 70
    32
  0
VERTEX
  5
1B04A
  8
0
 62
     5
 10
346.863
 20
200.64099999999971
 30
0.0
 70
    32
  0
VERTEX
  5
1B04B
  8
0
 62
     5
 10
346.86099999999982
 20
200.6399999999997
 30
0.0
 70
    32
  0
VERTEX
  5
1B04C
  8
0
 62
     5
 10
346.85899999999992
 20
200.63900000000001
 30
0.0
 70
    32
  0
VERTEX
  5
1B04D
  8
0
 62
     5
 10
346.85699999999991
 20
200.63800000000001
 30
0.0
 70
    32
  0
VERTEX
  5
1B04E
  8
0
 62
     5
 10
346.85500000000002
 20
200.63699999999989
 30
0.0
 70
    32
  0
VERTEX
  5
1B04F
  8
0
 62
     5
 10
346.85300000000001
 20
200.63599999999991
 30
0.0
 70
    32
  0
VERTEX
  5
1B050
  8
0
 62
     5
 10
346.851
 20
200.63499999999991
 30
0.0
 70
    32
  0
VERTEX
  5
1B051
  8
0
 62
     5
 10
346.84899999999999
 20
200.6339999999997
 30
0.0
 70
    32
  0
VERTEX
  5
1B052
  8
0
 62
     5
 10
346.84800000000001
 20
200.6329999999997
 30
0.0
 70
    32
  0
VERTEX
  5
1B053
  8
0
 62
     5
 10
346.846
 20
200.63200000000001
 30
0.0
 70
    32
  0
VERTEX
  5
1B054
  8
0
 62
     5
 10
346.84399999999999
 20
200.6309999999998
 30
0.0
 70
    32
  0
VERTEX
  5
1B055
  8
0
 62
     5
 10
346.84199999999998
 20
200.62999999999991
 30
0.0
 70
    32
  0
VERTEX
  5
1B056
  8
0
 62
     5
 10
346.83999999999992
 20
200.62899999999991
 30
0.0
 70
    32
  0
VERTEX
  5
1B057
  8
0
 62
     5
 10
346.83800000000002
 20
200.62700000000001
 30
0.0
 70
    32
  0
VERTEX
  5
1B058
  8
0
 62
     5
 10
346.83600000000001
 20
200.62599999999969
 30
0.0
 70
    32
  0
VERTEX
  5
1B059
  8
0
 62
     5
 10
346.83499999999998
 20
200.625
 30
0.0
 70
    32
  0
VERTEX
  5
1B05A
  8
0
 62
     5
 10
346.83300000000003
 20
200.624
 30
0.0
 70
    32
  0
VERTEX
  5
1B05B
  8
0
 62
     5
 10
346.83099999999979
 20
200.62299999999991
 30
0.0
 70
    32
  0
VERTEX
  5
1B05C
  8
0
 62
     5
 10
346.82900000000001
 20
200.62200000000001
 30
0.0
 70
    32
  0
VERTEX
  5
1B05D
  8
0
 62
     5
 10
346.82699999999983
 20
200.62099999999981
 30
0.0
 70
    32
  0
VERTEX
  5
1B05E
  8
0
 62
     5
 10
346.82499999999982
 20
200.62
 30
0.0
 70
    32
  0
VERTEX
  5
1B05F
  8
0
 62
     5
 10
346.82299999999992
 20
200.619
 30
0.0
 70
    32
  0
VERTEX
  5
1B060
  8
0
 62
     5
 10
346.82199999999972
 20
200.61799999999999
 30
0.0
 70
    32
  0
VERTEX
  5
1B061
  8
0
 62
     5
 10
346.81999999999982
 20
200.61699999999999
 30
0.0
 70
    32
  0
VERTEX
  5
1B062
  8
0
 62
     5
 10
346.81799999999993
 20
200.6159999999999
 30
0.0
 70
    32
  0
VERTEX
  5
1B063
  8
0
 62
     5
 10
346.81599999999992
 20
200.61500000000001
 30
0.0
 70
    32
  0
VERTEX
  5
1B064
  8
0
 62
     5
 10
346.81400000000002
 20
200.614
 30
0.0
 70
    32
  0
VERTEX
  5
1B065
  8
0
 62
     5
 10
346.81199999999978
 20
200.613
 30
0.0
 70
    32
  0
VERTEX
  5
1B066
  8
0
 62
     5
 10
346.81099999999992
 20
200.61099999999999
 30
0.0
 70
    32
  0
VERTEX
  5
1B067
  8
0
 62
     5
 10
346.80900000000008
 20
200.6099999999999
 30
0.0
 70
    32
  0
VERTEX
  5
1B068
  8
0
 62
     5
 10
346.80699999999962
 20
200.6089999999999
 30
0.0
 70
    32
  0
VERTEX
  5
1B069
  8
0
 62
     5
 10
346.80500000000001
 20
200.60799999999981
 30
0.0
 70
    32
  0
VERTEX
  5
1B06A
  8
0
 62
     5
 10
346.803
 20
200.607
 30
0.0
 70
    32
  0
VERTEX
  5
1B06B
  8
0
 62
     5
 10
346.80199999999991
 20
200.60599999999999
 30
0.0
 70
    32
  0
VERTEX
  5
1B06C
  8
0
 62
     5
 10
346.79999999999973
 20
200.60499999999999
 30
0.0
 70
    32
  0
VERTEX
  5
1B06D
  8
0
 62
     5
 10
346.798
 20
200.60400000000001
 30
0.0
 70
    32
  0
VERTEX
  5
1B06E
  8
0
 62
     5
 10
346.79599999999999
 20
200.60299999999981
 30
0.0
 70
    32
  0
VERTEX
  5
1B06F
  8
0
 62
     5
 10
346.79399999999998
 20
200.6009999999998
 30
0.0
 70
    32
  0
VERTEX
  5
1B070
  8
0
 62
     5
 10
346.79299999999972
 20
200.59999999999991
 30
0.0
 70
    32
  0
VERTEX
  5
1B071
  8
0
 62
     5
 10
346.79099999999983
 20
200.5989999999999
 30
0.0
 70
    32
  0
VERTEX
  5
1B072
  8
0
 62
     5
 10
346.78899999999999
 20
200.59800000000001
 30
0.0
 70
    32
  0
VERTEX
  5
1B073
  8
0
 62
     5
 10
346.78699999999998
 20
200.59700000000001
 30
0.0
 70
    32
  0
VERTEX
  5
1B074
  8
0
 62
     5
 10
346.78500000000003
 20
200.59599999999989
 30
0.0
 70
    32
  0
VERTEX
  5
1B075
  8
0
 62
     5
 10
346.78399999999982
 20
200.59499999999991
 30
0.0
 70
    32
  0
VERTEX
  5
1B076
  8
0
 62
     5
 10
346.78199999999993
 20
200.59299999999971
 30
0.0
 70
    32
  0
VERTEX
  5
1B077
  8
0
 62
     5
 10
346.77999999999992
 20
200.59200000000001
 30
0.0
 70
    32
  0
VERTEX
  5
1B078
  8
0
 62
     5
 10
346.77800000000002
 20
200.59099999999981
 30
0.0
 70
    32
  0
VERTEX
  5
1B079
  8
0
 62
     5
 10
346.77600000000001
 20
200.59
 30
0.0
 70
    32
  0
VERTEX
  5
1B07A
  8
0
 62
     5
 10
346.77499999999992
 20
200.58899999999991
 30
0.0
 70
    32
  0
VERTEX
  5
1B07B
  8
0
 62
     5
 10
346.77300000000002
 20
200.58799999999951
 30
0.0
 70
    32
  0
VERTEX
  5
1B07C
  8
0
 62
     5
 10
346.77099999999979
 20
200.5859999999997
 30
0.0
 70
    32
  0
VERTEX
  5
1B07D
  8
0
 62
     5
 10
346.76900000000001
 20
200.58500000000001
 30
0.0
 70
    32
  0
VERTEX
  5
1B07E
  8
0
 62
     5
 10
346.76799999999992
 20
200.584
 30
0.0
 70
    32
  0
VERTEX
  5
1B07F
  8
0
 62
     5
 10
346.76599999999991
 20
200.583
 30
0.0
 70
    32
  0
VERTEX
  5
1B080
  8
0
 62
     5
 10
346.76400000000001
 20
200.58199999999991
 30
0.0
 70
    32
  0
VERTEX
  5
1B081
  8
0
 62
     5
 10
346.76199999999972
 20
200.58000000000001
 30
0.0
 70
    32
  0
VERTEX
  5
1B082
  8
0
 62
     5
 10
346.76099999999991
 20
200.57900000000001
 30
0.0
 70
    32
  0
VERTEX
  5
1B083
  8
0
 62
     5
 10
346.75900000000001
 20
200.578
 30
0.0
 70
    32
  0
VERTEX
  5
1B084
  8
0
 62
     5
 10
346.75699999999978
 20
200.577
 30
0.0
 70
    32
  0
VERTEX
  5
1B085
  8
0
 62
     5
 10
346.755
 20
200.57599999999991
 30
0.0
 70
    32
  0
VERTEX
  5
1B086
  8
0
 62
     5
 10
346.75400000000002
 20
200.57400000000001
 30
0.0
 70
    32
  0
VERTEX
  5
1B087
  8
0
 62
     5
 10
346.75199999999973
 20
200.57299999999981
 30
0.0
 70
    32
  0
VERTEX
  5
1B088
  8
0
 62
     5
 10
346.75
 20
200.572
 30
0.0
 70
    32
  0
VERTEX
  5
1B089
  8
0
 62
     5
 10
346.74799999999999
 20
200.571
 30
0.0
 70
    32
  0
VERTEX
  5
1B08A
  8
0
 62
     5
 10
346.74699999999962
 20
200.5689999999999
 30
0.0
 70
    32
  0
VERTEX
  5
1B08B
  8
0
 62
     5
 10
346.74499999999972
 20
200.5679999999999
 30
0.0
 70
    32
  0
VERTEX
  5
1B08C
  8
0
 62
     5
 10
346.74299999999999
 20
200.56700000000001
 30
0.0
 70
    32
  0
VERTEX
  5
1B08D
  8
0
 62
     5
 10
346.74099999999999
 20
200.56599999999969
 30
0.0
 70
    32
  0
VERTEX
  5
1B08E
  8
0
 62
     5
 10
346.74000000000001
 20
200.56399999999999
 30
0.0
 70
    32
  0
VERTEX
  5
1B08F
  8
0
 62
     5
 10
346.73799999999972
 20
200.56299999999999
 30
0.0
 70
    32
  0
VERTEX
  5
1B090
  8
0
 62
     5
 10
346.73599999999982
 20
200.5619999999999
 30
0.0
 70
    32
  0
VERTEX
  5
1B091
  8
0
 62
     5
 10
346.73500000000001
 20
200.56099999999989
 30
0.0
 70
    32
  0
VERTEX
  5
1B092
  8
0
 62
     5
 10
346.733
 20
200.559
 30
0.0
 70
    32
  0
VERTEX
  5
1B093
  8
0
 62
     5
 10
346.73099999999982
 20
200.55799999999999
 30
0.0
 70
    32
  0
VERTEX
  5
1B094
  8
0
 62
     5
 10
346.72899999999993
 20
200.55699999999999
 30
0.0
 70
    32
  0
VERTEX
  5
1B095
  8
0
 62
     5
 10
346.72800000000001
 20
200.55600000000001
 30
0.0
 70
    32
  0
VERTEX
  5
1B096
  8
0
 62
     5
 10
346.726
 20
200.5539999999998
 30
0.0
 70
    32
  0
VERTEX
  5
1B097
  8
0
 62
     5
 10
346.72399999999982
 20
200.55299999999991
 30
0.0
 70
    32
  0
VERTEX
  5
1B098
  8
0
 62
     5
 10
346.72300000000001
 20
200.55199999999991
 30
0.0
 70
    32
  0
VERTEX
  5
1B099
  8
0
 62
     5
 10
346.721
 20
200.55099999999999
 30
0.0
 70
    32
  0
VERTEX
  5
1B09A
  8
0
 62
     5
 10
346.71899999999982
 20
200.54899999999989
 30
0.0
 70
    32
  0
VERTEX
  5
1B09B
  8
0
 62
     5
 10
346.71800000000002
 20
200.54799999999989
 30
0.0
 70
    32
  0
VERTEX
  5
1B09C
  8
0
 62
     5
 10
346.71600000000001
 20
200.5469999999998
 30
0.0
 70
    32
  0
VERTEX
  5
1B09D
  8
0
 62
     5
 10
346.714
 20
200.5449999999997
 30
0.0
 70
    32
  0
VERTEX
  5
1B09E
  8
0
 62
     5
 10
346.71300000000002
 20
200.54400000000001
 30
0.0
 70
    32
  0
VERTEX
  5
1B09F
  8
0
 62
     5
 10
346.71100000000001
 20
200.54300000000001
 30
0.0
 70
    32
  0
VERTEX
  5
1B0A0
  8
0
 62
     5
 10
346.709
 20
200.54099999999991
 30
0.0
 70
    32
  0
VERTEX
  5
1B0A1
  8
0
 62
     5
 10
346.70800000000008
 20
200.53999999999971
 30
0.0
 70
    32
  0
VERTEX
  5
1B0A2
  8
0
 62
     5
 10
346.70599999999962
 20
200.5389999999997
 30
0.0
 70
    32
  0
VERTEX
  5
1B0A3
  8
0
 62
     5
 10
346.70400000000001
 20
200.53700000000001
 30
0.0
 70
    32
  0
VERTEX
  5
1B0A4
  8
0
 62
     5
 10
346.70299999999992
 20
200.5359999999998
 30
0.0
 70
    32
  0
VERTEX
  5
1B0A5
  8
0
 62
     5
 10
346.70099999999991
 20
200.53499999999991
 30
0.0
 70
    32
  0
VERTEX
  5
1B0A6
  8
0
 62
     5
 10
346.69900000000001
 20
200.5329999999997
 30
0.0
 70
    32
  0
VERTEX
  5
1B0A7
  8
0
 62
     5
 10
346.69799999999992
 20
200.53200000000001
 30
0.0
 70
    32
  0
VERTEX
  5
1B0A8
  8
0
 62
     5
 10
346.69599999999991
 20
200.53099999999969
 30
0.0
 70
    32
  0
VERTEX
  5
1B0A9
  8
0
 62
     5
 10
346.69400000000002
 20
200.529
 30
0.0
 70
    32
  0
VERTEX
  5
1B0AA
  8
0
 62
     5
 10
346.69299999999998
 20
200.52799999999991
 30
0.0
 70
    32
  0
VERTEX
  5
1B0AB
  8
0
 62
     5
 10
346.69099999999992
 20
200.5269999999997
 30
0.0
 70
    32
  0
VERTEX
  5
1B0AC
  8
0
 62
     5
 10
346.68900000000002
 20
200.52500000000001
 30
0.0
 70
    32
  0
VERTEX
  5
1B0AD
  8
0
 62
     5
 10
346.68799999999982
 20
200.524
 30
0.0
 70
    32
  0
VERTEX
  5
1B0AE
  8
0
 62
     5
 10
346.68599999999998
 20
200.523
 30
0.0
 70
    32
  0
VERTEX
  5
1B0AF
  8
0
 62
     5
 10
346.68400000000003
 20
200.5209999999999
 30
0.0
 70
    32
  0
VERTEX
  5
1B0B0
  8
0
 62
     5
 10
346.68299999999982
 20
200.52000000000001
 30
0.0
 70
    32
  0
VERTEX
  5
1B0B1
  8
0
 62
     5
 10
346.68099999999993
 20
200.51900000000001
 30
0.0
 70
    32
  0
VERTEX
  5
1B0B2
  8
0
 62
     5
 10
346.68000000000001
 20
200.517
 30
0.0
 70
    32
  0
VERTEX
  5
1B0B3
  8
0
 62
     5
 10
346.67799999999983
 20
200.51599999999999
 30
0.0
 70
    32
  0
VERTEX
  5
1B0B4
  8
0
 62
     5
 10
346.67599999999982
 20
200.5139999999999
 30
0.0
 70
    32
  0
VERTEX
  5
1B0B5
  8
0
 62
     5
 10
346.67500000000001
 20
200.51300000000001
 30
0.0
 70
    32
  0
VERTEX
  5
1B0B6
  8
0
 62
     5
 10
346.673
 20
200.512
 30
0.0
 70
    32
  0
VERTEX
  5
1B0B7
  8
0
 62
     5
 10
346.67099999999982
 20
200.50999999999999
 30
0.0
 70
    32
  0
VERTEX
  5
1B0B8
  8
0
 62
     5
 10
346.67000000000002
 20
200.50899999999999
 30
0.0
 70
    32
  0
VERTEX
  5
1B0B9
  8
0
 62
     5
 10
346.66800000000001
 20
200.50699999999989
 30
0.0
 70
    32
  0
VERTEX
  5
1B0BA
  8
0
 62
     5
 10
346.66699999999992
 20
200.5059999999998
 30
0.0
 70
    32
  0
VERTEX
  5
1B0BB
  8
0
 62
     5
 10
346.66500000000002
 20
200.50499999999991
 30
0.0
 70
    32
  0
VERTEX
  5
1B0BC
  8
0
 62
     5
 10
346.66300000000001
 20
200.50299999999999
 30
0.0
 70
    32
  0
VERTEX
  5
1B0BD
  8
0
 62
     5
 10
346.66199999999992
 20
200.50200000000001
 30
0.0
 70
    32
  0
VERTEX
  5
1B0BE
  8
0
 62
     5
 10
346.66000000000008
 20
200.49999999999989
 30
0.0
 70
    32
  0
VERTEX
  5
1B0BF
  8
0
 62
     5
 10
346.65899999999999
 20
200.4989999999998
 30
0.0
 70
    32
  0
VERTEX
  5
1B0C0
  8
0
 62
     5
 10
346.65699999999993
 20
200.49799999999991
 30
0.0
 70
    32
  0
VERTEX
  5
1B0C1
  8
0
 62
     5
 10
346.65600000000001
 20
200.4959999999999
 30
0.0
 70
    32
  0
VERTEX
  5
1B0C2
  8
0
 62
     5
 10
346.654
 20
200.495
 30
0.0
 70
    32
  0
VERTEX
  5
1B0C3
  8
0
 62
     5
 10
346.65199999999999
 20
200.4929999999998
 30
0.0
 70
    32
  0
VERTEX
  5
1B0C4
  8
0
 62
     5
 10
346.65099999999973
 20
200.49199999999971
 30
0.0
 70
    32
  0
VERTEX
  5
1B0C5
  8
0
 62
     5
 10
346.649
 20
200.49000000000001
 30
0.0
 70
    32
  0
VERTEX
  5
1B0C6
  8
0
 62
     5
 10
346.64800000000002
 20
200.489
 30
0.0
 70
    32
  0
SEQEND
  5
1B0C7
  8
0
 62
     5
  0
LINE
  5
1B0C8
  8
0
 62
     5
 10
396.47388235897319
 20
189.36963206339971
 30
0.0
 11
396.47388235897319
 21
151.6081279365998
 31
0.0
  0
LINE
  5
1B0C9
  8
CENTER
 10
366.20771795892313
 20
207.12657205951501
 30
0.0
 11
366.20771795892313
 21
122.34488068918
 31
0.0
  0
LINE
  5
1B0CA
  8
0
 62
     5
 10
396.2077179589233
 20
144.98887999999991
 30
0.0
 11
396.2077179589233
 21
195.98887999999991
 31
0.0
  0
CIRCLE
  5
1B0CB
  8
0
 62
     5
 10
366.20771795892313
 20
170.48887999999991
 30
0.0
 40
8.5
  0
CIRCLE
  5
1B0CC
  8
0
 62
     5
 10
366.20771795892313
 20
170.48887999999991
 30
0.0
 40
7.0
  0
LINE
  5
1B0CD
  8
0
  6
CONTINUOUS
 62
     5
 10
374.14834939722328
 20
138.48887999999971
 30
0.0
 11
389.7077179589233
 21
138.48887999999971
 31
0.0
  0
ARC
  5
1B0CE
  8
CENTER
 10
366.20771795892313
 20
170.48887999999991
 30
0.0
 40
34.999999999958803
 50
306.25402293116213
 51
324.38103439674347
  0
LINE
  5
1B0CF
  8
CENTER
 10
384.9101998129467
 20
151.78639814597631
 30
0.0
 11
396.65131061327372
 21
140.0452873456494
 31
0.0
  0
LINE
  5
1B0D0
  8
0
 62
     5
 10
374.14834939722328
 20
138.48887999999971
 30
0.0
 11
389.7077179589233
 21
138.48887999999971
 31
0.0
  0
CIRCLE
  5
1B0D1
  8
0
 62
     5
 10
390.95645530042322
 20
145.74014265849991
 30
0.0
 40
2.8999999999999981
  0
LINE
  5
1B0D2
  8
CENTER
 10
375.50771795892302
 20
142.05967673939881
 30
0.0
 11
375.50771795892302
 21
122.8222523783996
 31
0.0
  0
LINE
  5
1B0D3
  8
CENTER
 10
376.20771795892318
 20
142.05967673939881
 30
0.0
 11
376.20771795892318
 21
122.8222523783996
 31
0.0
  0
LINE
  5
1B0D4
  8
CENTER
 10
360.30771795892321
 20
142.05967673939881
 30
0.0
 11
360.30771795892321
 21
119.7455612072406
 31
0.0
  0
LINE
  5
1B0D5
  8
0
  6
CONTINUOUS
 62
     5
 10
386.31785876192322
 20
135.1888799999997
 30
0.0
 11
367.77600966718239
 21
135.1888799999997
 31
0.0
  0
LINE
  5
1B0D6
  8
0
 62
     5
 10
370.61036188682311
 20
132.98887999999991
 30
0.0
 11
367.7068718818233
 21
132.98887999999991
 31
0.0
  0
ARC
  5
1B0D7
  8
HIDDEN
 10
365.75771795788842
 20
127.3888800010342
 30
0.0
 40
4.0000000010347181
 50
270.0000000148213
 51
359.9999999851795
  0
LINE
  5
1B0D8
  8
0
 62
     5
 10
367.7257276414233
 20
133.5888799999999
 30
0.0
 11
370.6056601111618
 21
133.5888799999999
 31
0.0
  0
ARC
  5
1B0D9
  8
HIDDEN
 10
354.85905055160441
 20
127.3902125926809
 30
0.0
 40
4.001332814582498
 50
180.0190816263931
 51
269.98091837360641
  0
LINE
  5
1B0DA
  8
HIDDEN
 10
354.85771795892282
 20
123.3888799999999
 30
0.0
 11
365.75771795892319
 21
123.3888799999999
 31
0.0
  0
LINE
  5
1B0DB
  8
0
 62
     5
 10
363.81710558652338
 20
137.3888799999998
 30
0.0
 11
356.79833033132343
 21
137.3888799999998
 31
0.0
  0
LINE
  5
1B0DC
  8
0
 62
     5
 10
352.94941818192342
 20
131.68887999999939
 30
0.0
 11
367.66601773592311
 21
131.68887999999939
 31
0.0
  0
LINE
  5
1B0DD
  8
HIDDEN
 10
350.8577179589231
 20
134.58888000018041
 30
0.0
 11
350.8577179589231
 21
127.3888799999999
 31
0.0
  0
LINE
  5
1B0DE
  8
0
 62
     5
 10
352.94941818192342
 20
131.68887999999939
 30
0.0
 11
352.77971634522271
 21
137.0888799999999
 31
0.0
  0
LINE
  5
1B0DF
  8
0
 62
     5
 10
353.5668299917233
 20
137.0888799999999
 30
0.0
 11
353.63712279052322
 21
131.68887999999939
 31
0.0
  0
LINE
  5
1B0E0
  8
0
 62
     5
 10
356.80771795892321
 20
137.28887999999969
 30
0.0
 11
356.80771795892321
 21
137.3888799999998
 31
0.0
  0
ARC
  5
1B0E1
  8
0
 62
     5
 10
356.60771795892282
 20
137.28887999999969
 30
0.0
 40
0.2
 50
270.0
 51
0.0
  0
LINE
  5
1B0E2
  8
0
 62
     5
 10
367.83571957272312
 20
137.0888799999999
 30
0.0
 11
367.66601773592311
 21
131.68887999999939
 31
0.0
  0
LINE
  5
1B0E3
  8
0
 62
     5
 10
366.97831312732302
 20
131.68887999999939
 30
0.0
 11
367.04860592612312
 21
137.0888799999999
 31
0.0
  0
LINE
  5
1B0E4
  8
0
 62
     5
 10
363.80771795892309
 20
137.28887999999969
 30
0.0
 11
363.80771795892309
 21
137.3888799999998
 31
0.0
  0
ARC
  5
1B0E5
  8
0
 62
     5
 10
364.00771795892319
 20
137.28887999999969
 30
0.0
 40
0.2
 50
180.0
 51
270.0
  0
LINE
  5
1B0E6
  8
HIDDEN
 10
372.18767562432322
 20
123.3888799999999
 30
0.0
 11
377.77725616082319
 21
123.3888799999999
 31
0.0
  0
LINE
  5
1B0E7
  8
0
 62
     5
 10
370.91580096282303
 20
129.68887999999939
 30
0.0
 11
380.0996349550233
 21
129.68887999999939
 31
0.0
  0
LINE
  5
1B0E8
  8
0
 62
     5
 10
374.64620521212311
 20
140.2255518925999
 30
0.0
 11
385.08847002232318
 21
140.22271559989991
 31
0.0
  0
LINE
  5
1B0E9
  8
0
 62
     5
 10
370.61036188682311
 20
135.1888799999997
 30
0.0
 11
370.59508111592271
 21
129.98887999999971
 31
0.0
  0
LINE
  5
1B0EA
  8
HIDDEN
 10
369.75771795892302
 20
134.5888800000194
 30
0.0
 11
369.75771795892302
 21
127.3888799999999
 31
0.0
  0
LINE
  5
1B0EB
  8
0
 62
     5
 10
370.59508111592271
 20
129.98887999999971
 30
0.0
 11
370.91580096282303
 21
129.68887999999939
 31
0.0
  0
LINE
  5
1B0EC
  8
HIDDEN
 10
369.75771795892302
 20
134.5888800000194
 30
0.0
 11
372.05771795898272
 21
134.5888799999999
 31
0.0
  0
ARC
  5
1B0ED
  8
HIDDEN
 10
372.05771795892309
 20
135.0888799999999
 30
0.0
 40
0.5
 50
270.00000000680041
 51
0.0
  0
LINE
  5
1B0EE
  8
0
 62
     5
 10
374.14834939732282
 20
139.7255470183033
 30
0.0
 11
374.14834939732282
 21
137.5888799999999
 31
0.0
  0
ARC
  5
1B0EF
  8
0
 62
     5
 10
373.64834939732282
 20
137.5888799999999
 30
0.0
 40
0.5
 50
270.0
 51
0.0
  0
LINE
  5
1B0F0
  8
0
 62
     5
 10
374.6483493973231
 20
140.22556129729981
 30
0.0
 11
374.64620521212311
 21
140.2255518925999
 31
0.0
  0
LINE
  5
1B0F1
  8
0
 62
     5
 10
380.42035480192322
 20
129.98887999999971
 30
0.0
 11
380.42035480192322
 21
135.1888799999997
 31
0.0
  0
LINE
  5
1B0F2
  8
HIDDEN
 10
387.3975528386232
 20
132.98887999999991
 30
0.0
 11
387.3975528386232
 21
138.48887999999991
 31
0.0
  0
LINE
  5
1B0F3
  8
0
 62
     5
 10
386.29755283862329
 20
135.1888799999997
 30
0.0
 11
386.29755283862329
 21
133.5888799999999
 31
0.0
  0
LINE
  5
1B0F4
  8
0
 62
     5
 10
381.73171330042322
 20
135.1888799999997
 30
0.0
 11
381.73171330042322
 21
133.28887999999961
 31
0.0
  0
LINE
  5
1B0F5
  8
HIDDEN
 10
382.6775239793231
 20
131.48887999999991
 30
0.0
 11
385.89759125732309
 21
131.48887999999991
 31
0.0
  0
LINE
  5
1B0F6
  8
0
 62
     5
 10
385.6962721465232
 20
132.98887999999991
 30
0.0
 11
382.9414078575233
 21
132.98887999999991
 31
0.0
  0
LINE
  5
1B0F7
  8
0
 62
     5
 10
382.91693930912282
 20
133.5888799999999
 30
0.0
 11
386.2975043746232
 21
133.5888799999999
 31
0.0
  0
LINE
  5
1B0F8
  8
0
 62
     5
 10
380.0996349550233
 20
129.68887999999939
 30
0.0
 11
380.42035480192322
 21
129.98887999999971
 31
0.0
  0
ARC
  5
1B0F9
  8
HIDDEN
 10
378.40805226803423
 20
128.7471605751268
 30
0.0
 40
4.2714532939133392
 50
343.39311903747392
 51
1.7453104257324901
  0
LINE
  5
1B0FA
  8
HIDDEN
 10
382.6775239793231
 20
131.48887999999991
 30
0.0
 11
382.6775239793231
 21
128.87725495849921
 31
0.0
  0
LINE
  5
1B0FB
  8
0
 62
     5
 10
381.73171330042322
 20
133.28887999999961
 30
0.0
 11
382.91693930912282
 21
133.28887999999961
 31
0.0
  0
LINE
  5
1B0FC
  8
0
 62
     5
 10
382.91693930912282
 20
133.28887999999961
 30
0.0
 11
382.91693930912282
 21
133.5888799999999
 31
0.0
  0
LINE
  5
1B0FD
  8
0
 62
     5
 10
381.73171330042322
 20
133.28887999999961
 30
0.0
 11
381.68478296092309
 21
132.98887999999991
 31
0.0
  0
LINE
  5
1B0FE
  8
0
 62
     5
 10
382.91693930912282
 20
133.28887999999961
 30
0.0
 11
382.87000896962343
 21
132.98887999999991
 31
0.0
  0
LINE
  5
1B0FF
  8
0
 62
     5
 10
382.87000896962343
 20
132.98887999999991
 30
0.0
 11
380.42035480192322
 21
132.98887999999991
 31
0.0
  0
ARC
  5
1B100
  8
HIDDEN
 10
385.8975528386232
 20
132.98887999999991
 30
0.0
 40
1.5
 50
270.0
 51
0.0
  0
LINE
  5
1B101
  8
0
 62
     5
 10
385.99257864862329
 20
133.5888799999999
 30
0.0
 11
385.99257864862329
 21
133.28887999999961
 31
0.0
  0
LINE
  5
1B102
  8
0
 62
     5
 10
385.6962721465232
 20
132.98887999999991
 30
0.0
 11
385.99257864862329
 21
133.28887999999961
 31
0.0
  0
ARC
  5
1B103
  8
0
  6
CONTINUOUS
 62
     5
 10
387.1178872269233
 20
138.6888799999997
 30
0.0
 40
0.2
 50
270.0
 51
0.0
  0
LINE
  5
1B104
  8
0
  6
CONTINUOUS
 62
     5
 10
387.31788722692312
 20
138.6888799999997
 30
0.0
 11
387.31788722692312
 21
140.48887999999971
 31
0.0
  0
LINE
  5
1B105
  8
0
 62
     5
 10
386.31788722692301
 20
135.1888799999997
 30
0.0
 11
386.31788722692301
 21
138.48887999999971
 31
0.0
  0
LINE
  5
1B106
  8
0
 62
     5
 10
388.3975528386232
 20
137.48887999999991
 30
0.0
 11
388.3975528386232
 21
138.48887999999991
 31
0.0
  0
LINE
  5
1B107
  8
0
 62
     5
 10
386.31788722692301
 20
137.48887999999991
 30
0.0
 11
388.39754825332312
 21
137.48887999999991
 31
0.0
  0
CIRCLE
  5
1B108
  8
0
 62
     5
 10
382.50367963462321
 20
144.0001723481999
 30
0.0
 40
1.25
  0
ARC
  5
1B109
  8
0
 62
     5
 10
391.7077179589233
 20
144.98887999999991
 30
0.0
 40
4.5
 50
270.0
 51
0.0
  0
ARC
  5
1B10A
  8
0
 62
     5
 10
389.7077179589233
 20
138.6888799999999
 30
0.0
 40
0.2
 50
270.0
 51
0.0
  0
LINE
  5
1B10B
  8
0
 62
     5
 10
389.90771795892312
 20
140.48887999999991
 30
0.0
 11
389.90771795892312
 21
138.6888799999999
 31
0.0
  0
LINE
  5
1B10C
  8
CENTER
 10
384.9101998129467
 20
189.1913618540234
 30
0.0
 11
396.65131061327372
 21
200.93247265435031
 31
0.0
  0
ARC
  5
1B10D
  8
CENTER
 10
366.20771795892313
 20
170.48887999999991
 30
0.0
 40
34.999999999958803
 50
36.254022931162282
 51
54.381034396744781
  0
CIRCLE
  5
1B10E
  8
0
 62
     5
 10
390.95645530042322
 20
195.23761734149991
 30
0.0
 40
2.8999999999999981
  0
CIRCLE
  5
1B10F
  8
0
 62
     5
 10
349.91175628322333
 20
196.97758765189991
 30
0.0
 40
1.25
  0
LINE
  5
1B110
  8
0
 62
     5
 10
388.5481047027227
 20
193.62302769499991
 30
0.0
 11
388.54921516062319
 21
193.62417760790001
 31
0.0
  0
POLYLINE
  5
1B111
  8
0
 62
     5
 66
     1
 10
0.0
 20
0.0
 30
0.0
 70
     8
  0
VERTEX
  5
1B112
  8
0
 62
     5
 10
385.76799999999992
 20
200.489
 30
0.0
 70
    32
  0
VERTEX
  5
1B113
  8
0
 62
     5
 10
385.76599999999991
 20
200.49000000000001
 30
0.0
 70
    32
  0
VERTEX
  5
1B114
  8
0
 62
     5
 10
385.76499999999982
 20
200.49199999999971
 30
0.0
 70
    32
  0
VERTEX
  5
1B115
  8
0
 62
     5
 10
385.76299999999992
 20
200.4929999999998
 30
0.0
 70
    32
  0
VERTEX
  5
1B116
  8
0
 62
     5
 10
385.76099999999991
 20
200.495
 30
0.0
 70
    32
  0
VERTEX
  5
1B117
  8
0
 62
     5
 10
385.75999999999999
 20
200.4959999999999
 30
0.0
 70
    32
  0
VERTEX
  5
1B118
  8
0
 62
     5
 10
385.75799999999998
 20
200.49799999999991
 30
0.0
 70
    32
  0
VERTEX
  5
1B119
  8
0
 62
     5
 10
385.75699999999989
 20
200.4989999999998
 30
0.0
 70
    32
  0
VERTEX
  5
1B11A
  8
0
 62
     5
 10
385.755
 20
200.49999999999989
 30
0.0
 70
    32
  0
VERTEX
  5
1B11B
  8
0
 62
     5
 10
385.75400000000002
 20
200.50200000000001
 30
0.0
 70
    32
  0
VERTEX
  5
1B11C
  8
0
 62
     5
 10
385.75199999999973
 20
200.50299999999999
 30
0.0
 70
    32
  0
VERTEX
  5
1B11D
  8
0
 62
     5
 10
385.74999999999989
 20
200.50499999999991
 30
0.0
 70
    32
  0
VERTEX
  5
1B11E
  8
0
 62
     5
 10
385.74900000000002
 20
200.5059999999998
 30
0.0
 70
    32
  0
VERTEX
  5
1B11F
  8
0
 62
     5
 10
385.74699999999962
 20
200.50699999999989
 30
0.0
 70
    32
  0
VERTEX
  5
1B120
  8
0
 62
     5
 10
385.74599999999998
 20
200.50899999999999
 30
0.0
 70
    32
  0
VERTEX
  5
1B121
  8
0
 62
     5
 10
385.74400000000003
 20
200.50999999999999
 30
0.0
 70
    32
  0
VERTEX
  5
1B122
  8
0
 62
     5
 10
385.74199999999962
 20
200.512
 30
0.0
 70
    32
  0
VERTEX
  5
1B123
  8
0
 62
     5
 10
385.74099999999981
 20
200.51300000000001
 30
0.0
 70
    32
  0
VERTEX
  5
1B124
  8
0
 62
     5
 10
385.73899999999992
 20
200.5139999999999
 30
0.0
 70
    32
  0
VERTEX
  5
1B125
  8
0
 62
     5
 10
385.738
 20
200.51599999999999
 30
0.0
 70
    32
  0
VERTEX
  5
1B126
  8
0
 62
     5
 10
385.73599999999982
 20
200.517
 30
0.0
 70
    32
  0
VERTEX
  5
1B127
  8
0
 62
     5
 10
385.73399999999992
 20
200.51900000000001
 30
0.0
 70
    32
  0
VERTEX
  5
1B128
  8
0
 62
     5
 10
385.733
 20
200.52000000000001
 30
0.0
 70
    32
  0
VERTEX
  5
1B129
  8
0
 62
     5
 10
385.73099999999999
 20
200.5209999999999
 30
0.0
 70
    32
  0
VERTEX
  5
1B12A
  8
0
 62
     5
 10
385.72899999999993
 20
200.523
 30
0.0
 70
    32
  0
VERTEX
  5
1B12B
  8
0
 62
     5
 10
385.72800000000001
 20
200.524
 30
0.0
 70
    32
  0
VERTEX
  5
1B12C
  8
0
 62
     5
 10
385.726
 20
200.52500000000001
 30
0.0
 70
    32
  0
VERTEX
  5
1B12D
  8
0
 62
     5
 10
385.72399999999999
 20
200.5269999999997
 30
0.0
 70
    32
  0
VERTEX
  5
1B12E
  8
0
 62
     5
 10
385.72300000000001
 20
200.52799999999991
 30
0.0
 70
    32
  0
VERTEX
  5
1B12F
  8
0
 62
     5
 10
385.721
 20
200.529
 30
0.0
 70
    32
  0
VERTEX
  5
1B130
  8
0
 62
     5
 10
385.72000000000003
 20
200.53099999999969
 30
0.0
 70
    32
  0
VERTEX
  5
1B131
  8
0
 62
     5
 10
385.71799999999962
 20
200.53200000000001
 30
0.0
 70
    32
  0
VERTEX
  5
1B132
  8
0
 62
     5
 10
385.71600000000001
 20
200.5329999999997
 30
0.0
 70
    32
  0
VERTEX
  5
1B133
  8
0
 62
     5
 10
385.71499999999992
 20
200.53499999999991
 30
0.0
 70
    32
  0
VERTEX
  5
1B134
  8
0
 62
     5
 10
385.71300000000002
 20
200.5359999999998
 30
0.0
 70
    32
  0
VERTEX
  5
1B135
  8
0
 62
     5
 10
385.71100000000001
 20
200.53700000000001
 30
0.0
 70
    32
  0
VERTEX
  5
1B136
  8
0
 62
     5
 10
385.70999999999992
 20
200.5389999999997
 30
0.0
 70
    32
  0
VERTEX
  5
1B137
  8
0
 62
     5
 10
385.70800000000003
 20
200.53999999999971
 30
0.0
 70
    32
  0
VERTEX
  5
1B138
  8
0
 62
     5
 10
385.70599999999968
 20
200.54099999999991
 30
0.0
 70
    32
  0
VERTEX
  5
1B139
  8
0
 62
     5
 10
385.70499999999998
 20
200.54300000000001
 30
0.0
 70
    32
  0
VERTEX
  5
1B13A
  8
0
 62
     5
 10
385.70299999999992
 20
200.54400000000001
 30
0.0
 70
    32
  0
VERTEX
  5
1B13B
  8
0
 62
     5
 10
385.70099999999991
 20
200.5449999999997
 30
0.0
 70
    32
  0
VERTEX
  5
1B13C
  8
0
 62
     5
 10
385.69999999999982
 20
200.5469999999998
 30
0.0
 70
    32
  0
VERTEX
  5
1B13D
  8
0
 62
     5
 10
385.69799999999998
 20
200.54799999999989
 30
0.0
 70
    32
  0
VERTEX
  5
1B13E
  8
0
 62
     5
 10
385.69599999999991
 20
200.54899999999989
 30
0.0
 70
    32
  0
VERTEX
  5
1B13F
  8
0
 62
     5
 10
385.69400000000002
 20
200.55099999999999
 30
0.0
 70
    32
  0
VERTEX
  5
1B140
  8
0
 62
     5
 10
385.69299999999993
 20
200.55199999999991
 30
0.0
 70
    32
  0
VERTEX
  5
1B141
  8
0
 62
     5
 10
385.69099999999992
 20
200.55299999999991
 30
0.0
 70
    32
  0
VERTEX
  5
1B142
  8
0
 62
     5
 10
385.68900000000002
 20
200.5539999999998
 30
0.0
 70
    32
  0
VERTEX
  5
1B143
  8
0
 62
     5
 10
385.68799999999982
 20
200.55600000000001
 30
0.0
 70
    32
  0
VERTEX
  5
1B144
  8
0
 62
     5
 10
385.68599999999992
 20
200.55699999999999
 30
0.0
 70
    32
  0
VERTEX
  5
1B145
  8
0
 62
     5
 10
385.68400000000003
 20
200.55799999999999
 30
0.0
 70
    32
  0
VERTEX
  5
1B146
  8
0
 62
     5
 10
385.68299999999988
 20
200.559
 30
0.0
 70
    32
  0
VERTEX
  5
1B147
  8
0
 62
     5
 10
385.68099999999993
 20
200.56099999999989
 30
0.0
 70
    32
  0
VERTEX
  5
1B148
  8
0
 62
     5
 10
385.67899999999992
 20
200.5619999999999
 30
0.0
 70
    32
  0
VERTEX
  5
1B149
  8
0
 62
     5
 10
385.67699999999991
 20
200.56299999999999
 30
0.0
 70
    32
  0
VERTEX
  5
1B14A
  8
0
 62
     5
 10
385.67599999999982
 20
200.56399999999999
 30
0.0
 70
    32
  0
VERTEX
  5
1B14B
  8
0
 62
     5
 10
385.67399999999992
 20
200.56599999999969
 30
0.0
 70
    32
  0
VERTEX
  5
1B14C
  8
0
 62
     5
 10
385.67199999999991
 20
200.56700000000001
 30
0.0
 70
    32
  0
VERTEX
  5
1B14D
  8
0
 62
     5
 10
385.67099999999982
 20
200.5679999999999
 30
0.0
 70
    32
  0
VERTEX
  5
1B14E
  8
0
 62
     5
 10
385.66899999999993
 20
200.5689999999999
 30
0.0
 70
    32
  0
VERTEX
  5
1B14F
  8
0
 62
     5
 10
385.66699999999992
 20
200.571
 30
0.0
 70
    32
  0
VERTEX
  5
1B150
  8
0
 62
     5
 10
385.66500000000002
 20
200.572
 30
0.0
 70
    32
  0
VERTEX
  5
1B151
  8
0
 62
     5
 10
385.66399999999999
 20
200.57299999999981
 30
0.0
 70
    32
  0
VERTEX
  5
1B152
  8
0
 62
     5
 10
385.66199999999992
 20
200.57400000000001
 30
0.0
 70
    32
  0
VERTEX
  5
1B153
  8
0
 62
     5
 10
385.66000000000003
 20
200.57599999999991
 30
0.0
 70
    32
  0
VERTEX
  5
1B154
  8
0
 62
     5
 10
385.65800000000002
 20
200.577
 30
0.0
 70
    32
  0
VERTEX
  5
1B155
  8
0
 62
     5
 10
385.65699999999993
 20
200.578
 30
0.0
 70
    32
  0
VERTEX
  5
1B156
  8
0
 62
     5
 10
385.6549999999998
 20
200.57900000000001
 30
0.0
 70
    32
  0
VERTEX
  5
1B157
  8
0
 62
     5
 10
385.65300000000002
 20
200.58000000000001
 30
0.0
 70
    32
  0
VERTEX
  5
1B158
  8
0
 62
     5
 10
385.65100000000001
 20
200.58199999999991
 30
0.0
 70
    32
  0
VERTEX
  5
1B159
  8
0
 62
     5
 10
385.64999999999998
 20
200.583
 30
0.0
 70
    32
  0
VERTEX
  5
1B15A
  8
0
 62
     5
 10
385.64800000000002
 20
200.584
 30
0.0
 70
    32
  0
VERTEX
  5
1B15B
  8
0
 62
     5
 10
385.64599999999979
 20
200.58500000000001
 30
0.0
 70
    32
  0
VERTEX
  5
1B15C
  8
0
 62
     5
 10
385.64400000000001
 20
200.5859999999997
 30
0.0
 70
    32
  0
VERTEX
  5
1B15D
  8
0
 62
     5
 10
385.64299999999992
 20
200.58799999999951
 30
0.0
 70
    32
  0
VERTEX
  5
1B15E
  8
0
 62
     5
 10
385.64099999999962
 20
200.58899999999991
 30
0.0
 70
    32
  0
VERTEX
  5
1B15F
  8
0
 62
     5
 10
385.63900000000001
 20
200.59
 30
0.0
 70
    32
  0
VERTEX
  5
1B160
  8
0
 62
     5
 10
385.63699999999989
 20
200.59099999999981
 30
0.0
 70
    32
  0
VERTEX
  5
1B161
  8
0
 62
     5
 10
385.63499999999982
 20
200.59200000000001
 30
0.0
 70
    32
  0
VERTEX
  5
1B162
  8
0
 62
     5
 10
385.63400000000001
 20
200.59299999999971
 30
0.0
 70
    32
  0
VERTEX
  5
1B163
  8
0
 62
     5
 10
385.63199999999989
 20
200.59499999999991
 30
0.0
 70
    32
  0
VERTEX
  5
1B164
  8
0
 62
     5
 10
385.63
 20
200.59599999999989
 30
0.0
 70
    32
  0
VERTEX
  5
1B165
  8
0
 62
     5
 10
385.62799999999982
 20
200.59700000000001
 30
0.0
 70
    32
  0
VERTEX
  5
1B166
  8
0
 62
     5
 10
385.62599999999992
 20
200.59800000000001
 30
0.0
 70
    32
  0
VERTEX
  5
1B167
  8
0
 62
     5
 10
385.625
 20
200.5989999999999
 30
0.0
 70
    32
  0
VERTEX
  5
1B168
  8
0
 62
     5
 10
385.62299999999999
 20
200.59999999999991
 30
0.0
 70
    32
  0
VERTEX
  5
1B169
  8
0
 62
     5
 10
385.62099999999992
 20
200.6009999999998
 30
0.0
 70
    32
  0
VERTEX
  5
1B16A
  8
0
 62
     5
 10
385.61900000000003
 20
200.60299999999981
 30
0.0
 70
    32
  0
VERTEX
  5
1B16B
  8
0
 62
     5
 10
385.61699999999962
 20
200.60400000000001
 30
0.0
 70
    32
  0
VERTEX
  5
1B16C
  8
0
 62
     5
 10
385.61599999999999
 20
200.60499999999999
 30
0.0
 70
    32
  0
VERTEX
  5
1B16D
  8
0
 62
     5
 10
385.61399999999992
 20
200.60599999999999
 30
0.0
 70
    32
  0
VERTEX
  5
1B16E
  8
0
 62
     5
 10
385.61199999999991
 20
200.607
 30
0.0
 70
    32
  0
VERTEX
  5
1B16F
  8
0
 62
     5
 10
385.60999999999962
 20
200.60799999999981
 30
0.0
 70
    32
  0
VERTEX
  5
1B170
  8
0
 62
     5
 10
385.60799999999989
 20
200.6089999999999
 30
0.0
 70
    32
  0
VERTEX
  5
1B171
  8
0
 62
     5
 10
385.60699999999991
 20
200.6099999999999
 30
0.0
 70
    32
  0
VERTEX
  5
1B172
  8
0
 62
     5
 10
385.60500000000002
 20
200.61099999999999
 30
0.0
 70
    32
  0
VERTEX
  5
1B173
  8
0
 62
     5
 10
385.60300000000001
 20
200.613
 30
0.0
 70
    32
  0
VERTEX
  5
1B174
  8
0
 62
     5
 10
385.60099999999989
 20
200.614
 30
0.0
 70
    32
  0
VERTEX
  5
1B175
  8
0
 62
     5
 10
385.59899999999982
 20
200.61500000000001
 30
0.0
 70
    32
  0
VERTEX
  5
1B176
  8
0
 62
     5
 10
385.59699999999992
 20
200.6159999999999
 30
0.0
 70
    32
  0
VERTEX
  5
1B177
  8
0
 62
     5
 10
385.59599999999989
 20
200.61699999999999
 30
0.0
 70
    32
  0
VERTEX
  5
1B178
  8
0
 62
     5
 10
385.59399999999988
 20
200.61799999999999
 30
0.0
 70
    32
  0
VERTEX
  5
1B179
  8
0
 62
     5
 10
385.59199999999993
 20
200.619
 30
0.0
 70
    32
  0
VERTEX
  5
1B17A
  8
0
 62
     5
 10
385.58999999999992
 20
200.62
 30
0.0
 70
    32
  0
VERTEX
  5
1B17B
  8
0
 62
     5
 10
385.58800000000002
 20
200.62099999999981
 30
0.0
 70
    32
  0
VERTEX
  5
1B17C
  8
0
 62
     5
 10
385.58600000000001
 20
200.62200000000001
 30
0.0
 70
    32
  0
VERTEX
  5
1B17D
  8
0
 62
     5
 10
385.58499999999992
 20
200.62299999999991
 30
0.0
 70
    32
  0
VERTEX
  5
1B17E
  8
0
 62
     5
 10
385.58300000000003
 20
200.624
 30
0.0
 70
    32
  0
VERTEX
  5
1B17F
  8
0
 62
     5
 10
385.58099999999962
 20
200.625
 30
0.0
 70
    32
  0
VERTEX
  5
1B180
  8
0
 62
     5
 10
385.57900000000001
 20
200.62599999999969
 30
0.0
 70
    32
  0
VERTEX
  5
1B181
  8
0
 62
     5
 10
385.577
 20
200.62700000000001
 30
0.0
 70
    32
  0
VERTEX
  5
1B182
  8
0
 62
     5
 10
385.57499999999999
 20
200.62899999999991
 30
0.0
 70
    32
  0
VERTEX
  5
1B183
  8
0
 62
     5
 10
385.57299999999992
 20
200.62999999999991
 30
0.0
 70
    32
  0
VERTEX
  5
1B184
  8
0
 62
     5
 10
385.57199999999989
 20
200.6309999999998
 30
0.0
 70
    32
  0
VERTEX
  5
1B185
  8
0
 62
     5
 10
385.56999999999999
 20
200.63200000000001
 30
0.0
 70
    32
  0
VERTEX
  5
1B186
  8
0
 62
     5
 10
385.56799999999993
 20
200.6329999999997
 30
0.0
 70
    32
  0
VERTEX
  5
1B187
  8
0
 62
     5
 10
385.56599999999992
 20
200.6339999999997
 30
0.0
 70
    32
  0
VERTEX
  5
1B188
  8
0
 62
     5
 10
385.56400000000002
 20
200.63499999999991
 30
0.0
 70
    32
  0
VERTEX
  5
1B189
  8
0
 62
     5
 10
385.56199999999961
 20
200.63599999999991
 30
0.0
 70
    32
  0
VERTEX
  5
1B18A
  8
0
 62
     5
 10
385.55999999999989
 20
200.63699999999989
 30
0.0
 70
    32
  0
VERTEX
  5
1B18B
  8
0
 62
     5
 10
385.55900000000003
 20
200.63800000000001
 30
0.0
 70
    32
  0
VERTEX
  5
1B18C
  8
0
 62
     5
 10
385.55699999999962
 20
200.63900000000001
 30
0.0
 70
    32
  0
VERTEX
  5
1B18D
  8
0
 62
     5
 10
385.55500000000001
 20
200.6399999999997
 30
0.0
 70
    32
  0
VERTEX
  5
1B18E
  8
0
 62
     5
 10
385.55299999999988
 20
200.64099999999971
 30
0.0
 70
    32
  0
VERTEX
  5
1B18F
  8
0
 62
     5
 10
385.55099999999982
 20
200.6419999999998
 30
0.0
 70
    32
  0
VERTEX
  5
1B190
  8
0
 62
     5
 10
385.54899999999992
 20
200.64299999999989
 30
0.0
 70
    32
  0
VERTEX
  5
1B191
  8
0
 62
     5
 10
385.54700000000003
 20
200.64400000000001
 30
0.0
 70
    32
  0
VERTEX
  5
1B192
  8
0
 62
     5
 10
385.54500000000002
 20
200.64500000000001
 30
0.0
 70
    32
  0
VERTEX
  5
1B193
  8
0
 62
     5
 10
385.54300000000001
 20
200.6459999999999
 30
0.0
 70
    32
  0
VERTEX
  5
1B194
  8
0
 62
     5
 10
385.54199999999992
 20
200.64699999999991
 30
0.0
 70
    32
  0
VERTEX
  5
1B195
  8
0
 62
     5
 10
385.54000000000002
 20
200.64699999999991
 30
0.0
 70
    32
  0
VERTEX
  5
1B196
  8
0
 62
     5
 10
385.53800000000001
 20
200.6479999999998
 30
0.0
 70
    32
  0
VERTEX
  5
1B197
  8
0
 62
     5
 10
385.536
 20
200.6489999999998
 30
0.0
 70
    32
  0
VERTEX
  5
1B198
  8
0
 62
     5
 10
385.53399999999982
 20
200.64999999999989
 30
0.0
 70
    32
  0
VERTEX
  5
1B199
  8
0
 62
     5
 10
385.53199999999993
 20
200.65100000000001
 30
0.0
 70
    32
  0
VERTEX
  5
1B19A
  8
0
 62
     5
 10
385.52999999999992
 20
200.65199999999999
 30
0.0
 70
    32
  0
VERTEX
  5
1B19B
  8
0
 62
     5
 10
385.52800000000002
 20
200.65299999999999
 30
0.0
 70
    32
  0
VERTEX
  5
1B19C
  8
0
 62
     5
 10
385.52600000000001
 20
200.654
 30
0.0
 70
    32
  0
VERTEX
  5
1B19D
  8
0
 62
     5
 10
385.524
 20
200.6549999999998
 30
0.0
 70
    32
  0
VERTEX
  5
1B19E
  8
0
 62
     5
 10
385.52199999999999
 20
200.65599999999989
 30
0.0
 70
    32
  0
VERTEX
  5
1B19F
  8
0
 62
     5
 10
385.52099999999962
 20
200.6569999999999
 30
0.0
 70
    32
  0
VERTEX
  5
1B1A0
  8
0
 62
     5
 10
385.51900000000001
 20
200.65799999999999
 30
0.0
 70
    32
  0
VERTEX
  5
1B1A1
  8
0
 62
     5
 10
385.517
 20
200.65899999999999
 30
0.0
 70
    32
  0
VERTEX
  5
1B1A2
  8
0
 62
     5
 10
385.51499999999999
 20
200.66
 30
0.0
 70
    32
  0
VERTEX
  5
1B1A3
  8
0
 62
     5
 10
385.51299999999992
 20
200.6609999999998
 30
0.0
 70
    32
  0
VERTEX
  5
1B1A4
  8
0
 62
     5
 10
385.51099999999991
 20
200.6609999999998
 30
0.0
 70
    32
  0
VERTEX
  5
1B1A5
  8
0
 62
     5
 10
385.50900000000001
 20
200.66200000000001
 30
0.0
 70
    32
  0
VERTEX
  5
1B1A6
  8
0
 62
     5
 10
385.50699999999989
 20
200.6629999999999
 30
0.0
 70
    32
  0
VERTEX
  5
1B1A7
  8
0
 62
     5
 10
385.50499999999982
 20
200.6639999999999
 30
0.0
 70
    32
  0
VERTEX
  5
1B1A8
  8
0
 62
     5
 10
385.50299999999982
 20
200.66499999999999
 30
0.0
 70
    32
  0
VERTEX
  5
1B1A9
  8
0
 62
     5
 10
385.50099999999998
 20
200.666
 30
0.0
 70
    32
  0
VERTEX
  5
1B1AA
  8
0
 62
     5
 10
385.49900000000002
 20
200.667
 30
0.0
 70
    32
  0
VERTEX
  5
1B1AB
  8
0
 62
     5
 10
385.49699999999979
 20
200.66800000000001
 30
0.0
 70
    32
  0
VERTEX
  5
1B1AC
  8
0
 62
     5
 10
385.495
 20
200.66800000000001
 30
0.0
 70
    32
  0
VERTEX
  5
1B1AD
  8
0
 62
     5
 10
385.49299999999982
 20
200.66900000000001
 30
0.0
 70
    32
  0
VERTEX
  5
1B1AE
  8
0
 62
     5
 10
385.49199999999962
 20
200.6699999999999
 30
0.0
 70
    32
  0
VERTEX
  5
1B1AF
  8
0
 62
     5
 10
385.49000000000001
 20
200.67099999999991
 30
0.0
 70
    32
  0
VERTEX
  5
1B1B0
  8
0
 62
     5
 10
385.488
 20
200.672
 30
0.0
 70
    32
  0
VERTEX
  5
1B1B1
  8
0
 62
     5
 10
385.48599999999988
 20
200.673
 30
0.0
 70
    32
  0
VERTEX
  5
1B1B2
  8
0
 62
     5
 10
385.48399999999992
 20
200.67400000000001
 30
0.0
 70
    32
  0
VERTEX
  5
1B1B3
  8
0
 62
     5
 10
385.48199999999991
 20
200.67400000000001
 30
0.0
 70
    32
  0
VERTEX
  5
1B1B4
  8
0
 62
     5
 10
385.48000000000002
 20
200.67500000000001
 30
0.0
 70
    32
  0
VERTEX
  5
1B1B5
  8
0
 62
     5
 10
385.47800000000001
 20
200.6759999999997
 30
0.0
 70
    32
  0
VERTEX
  5
1B1B6
  8
0
 62
     5
 10
385.476
 20
200.67699999999991
 30
0.0
 70
    32
  0
VERTEX
  5
1B1B7
  8
0
 62
     5
 10
385.47399999999982
 20
200.678
 30
0.0
 70
    32
  0
VERTEX
  5
1B1B8
  8
0
 62
     5
 10
385.47199999999992
 20
200.679
 30
0.0
 70
    32
  0
VERTEX
  5
1B1B9
  8
0
 62
     5
 10
385.47000000000003
 20
200.679
 30
0.0
 70
    32
  0
VERTEX
  5
1B1BA
  8
0
 62
     5
 10
385.46800000000002
 20
200.68000000000001
 30
0.0
 70
    32
  0
VERTEX
  5
1B1BB
  8
0
 62
     5
 10
385.46599999999989
 20
200.6809999999997
 30
0.0
 70
    32
  0
VERTEX
  5
1B1BC
  8
0
 62
     5
 10
385.464
 20
200.6819999999997
 30
0.0
 70
    32
  0
VERTEX
  5
1B1BD
  8
0
 62
     5
 10
385.46199999999999
 20
200.68299999999991
 30
0.0
 70
    32
  0
VERTEX
  5
1B1BE
  8
0
 62
     5
 10
385.45999999999992
 20
200.68299999999991
 30
0.0
 70
    32
  0
VERTEX
  5
1B1BF
  8
0
 62
     5
 10
385.45800000000003
 20
200.68399999999991
 30
0.0
 70
    32
  0
VERTEX
  5
1B1C0
  8
0
 62
     5
 10
385.45599999999962
 20
200.685
 30
0.0
 70
    32
  0
VERTEX
  5
1B1C1
  8
0
 62
     5
 10
385.45400000000001
 20
200.68599999999981
 30
0.0
 70
    32
  0
VERTEX
  5
1B1C2
  8
0
 62
     5
 10
385.45199999999983
 20
200.68700000000001
 30
0.0
 70
    32
  0
VERTEX
  5
1B1C3
  8
0
 62
     5
 10
385.44999999999982
 20
200.68700000000001
 30
0.0
 70
    32
  0
VERTEX
  5
1B1C4
  8
0
 62
     5
 10
385.44799999999992
 20
200.6879999999997
 30
0.0
 70
    32
  0
VERTEX
  5
1B1C5
  8
0
 62
     5
 10
385.44599999999991
 20
200.68899999999971
 30
0.0
 70
    32
  0
VERTEX
  5
1B1C6
  8
0
 62
     5
 10
385.44400000000002
 20
200.68999999999991
 30
0.0
 70
    32
  0
VERTEX
  5
1B1C7
  8
0
 62
     5
 10
385.44199999999972
 20
200.68999999999991
 30
0.0
 70
    32
  0
VERTEX
  5
1B1C8
  8
0
 62
     5
 10
385.44
 20
200.69099999999989
 30
0.0
 70
    32
  0
VERTEX
  5
1B1C9
  8
0
 62
     5
 10
385.43799999999987
 20
200.69200000000001
 30
0.0
 70
    32
  0
VERTEX
  5
1B1CA
  8
0
 62
     5
 10
385.43599999999992
 20
200.6929999999999
 30
0.0
 70
    32
  0
VERTEX
  5
1B1CB
  8
0
 62
     5
 10
385.43400000000003
 20
200.6929999999999
 30
0.0
 70
    32
  0
VERTEX
  5
1B1CC
  8
0
 62
     5
 10
385.43199999999962
 20
200.6939999999999
 30
0.0
 70
    32
  0
VERTEX
  5
1B1CD
  8
0
 62
     5
 10
385.43000000000001
 20
200.69499999999971
 30
0.0
 70
    32
  0
VERTEX
  5
1B1CE
  8
0
 62
     5
 10
385.428
 20
200.6959999999998
 30
0.0
 70
    32
  0
VERTEX
  5
1B1CF
  8
0
 62
     5
 10
385.42599999999999
 20
200.6959999999998
 30
0.0
 70
    32
  0
VERTEX
  5
1B1D0
  8
0
 62
     5
 10
385.42399999999992
 20
200.69699999999989
 30
0.0
 70
    32
  0
VERTEX
  5
1B1D1
  8
0
 62
     5
 10
385.42199999999991
 20
200.69799999999989
 30
0.0
 70
    32
  0
VERTEX
  5
1B1D2
  8
0
 62
     5
 10
385.42000000000002
 20
200.69799999999989
 30
0.0
 70
    32
  0
VERTEX
  5
1B1D3
  8
0
 62
     5
 10
385.41799999999989
 20
200.69900000000001
 30
0.0
 70
    32
  0
VERTEX
  5
1B1D4
  8
0
 62
     5
 10
385.416
 20
200.69999999999999
 30
0.0
 70
    32
  0
VERTEX
  5
1B1D5
  8
0
 62
     5
 10
385.41399999999999
 20
200.69999999999999
 30
0.0
 70
    32
  0
VERTEX
  5
1B1D6
  8
0
 62
     5
 10
385.41199999999992
 20
200.70099999999999
 30
0.0
 70
    32
  0
VERTEX
  5
1B1D7
  8
0
 62
     5
 10
385.41000000000003
 20
200.70199999999991
 30
0.0
 70
    32
  0
VERTEX
  5
1B1D8
  8
0
 62
     5
 10
385.40800000000002
 20
200.7029999999998
 30
0.0
 70
    32
  0
VERTEX
  5
1B1D9
  8
0
 62
     5
 10
385.40600000000001
 20
200.7029999999998
 30
0.0
 70
    32
  0
VERTEX
  5
1B1DA
  8
0
 62
     5
 10
385.40399999999983
 20
200.70399999999989
 30
0.0
 70
    32
  0
VERTEX
  5
1B1DB
  8
0
 62
     5
 10
385.40199999999982
 20
200.70500000000001
 30
0.0
 70
    32
  0
VERTEX
  5
1B1DC
  8
0
 62
     5
 10
385.39999999999992
 20
200.70500000000001
 30
0.0
 70
    32
  0
VERTEX
  5
1B1DD
  8
0
 62
     5
 10
385.39800000000002
 20
200.70599999999999
 30
0.0
 70
    32
  0
VERTEX
  5
1B1DE
  8
0
 62
     5
 10
385.39599999999979
 20
200.70699999999999
 30
0.0
 70
    32
  0
VERTEX
  5
1B1DF
  8
0
 62
     5
 10
385.39400000000001
 20
200.70699999999999
 30
0.0
 70
    32
  0
VERTEX
  5
1B1E0
  8
0
 62
     5
 10
385.392
 20
200.708
 30
0.0
 70
    32
  0
VERTEX
  5
1B1E1
  8
0
 62
     5
 10
385.38999999999987
 20
200.708
 30
0.0
 70
    32
  0
VERTEX
  5
1B1E2
  8
0
 62
     5
 10
385.38799999999992
 20
200.709
 30
0.0
 70
    32
  0
VERTEX
  5
1B1E3
  8
0
 62
     5
 10
385.38599999999991
 20
200.71000000000001
 30
0.0
 70
    32
  0
VERTEX
  5
1B1E4
  8
0
 62
     5
 10
385.38400000000001
 20
200.71000000000001
 30
0.0
 70
    32
  0
VERTEX
  5
1B1E5
  8
0
 62
     5
 10
385.38199999999989
 20
200.7109999999999
 30
0.0
 70
    32
  0
VERTEX
  5
1B1E6
  8
0
 62
     5
 10
385.38
 20
200.71199999999999
 30
0.0
 70
    32
  0
VERTEX
  5
1B1E7
  8
0
 62
     5
 10
385.37799999999987
 20
200.71199999999999
 30
0.0
 70
    32
  0
VERTEX
  5
1B1E8
  8
0
 62
     5
 10
385.37599999999992
 20
200.71299999999999
 30
0.0
 70
    32
  0
VERTEX
  5
1B1E9
  8
0
 62
     5
 10
385.37400000000002
 20
200.71299999999999
 30
0.0
 70
    32
  0
VERTEX
  5
1B1EA
  8
0
 62
     5
 10
385.37199999999928
 20
200.714
 30
0.0
 70
    32
  0
VERTEX
  5
1B1EB
  8
0
 62
     5
 10
385.37
 20
200.715
 30
0.0
 70
    32
  0
VERTEX
  5
1B1EC
  8
0
 62
     5
 10
385.36799999999999
 20
200.715
 30
0.0
 70
    32
  0
VERTEX
  5
1B1ED
  8
0
 62
     5
 10
385.36599999999981
 20
200.71599999999981
 30
0.0
 70
    32
  0
VERTEX
  5
1B1EE
  8
0
 62
     5
 10
385.36399999999981
 20
200.71599999999981
 30
0.0
 70
    32
  0
VERTEX
  5
1B1EF
  8
0
 62
     5
 10
385.36199999999991
 20
200.71700000000001
 30
0.0
 70
    32
  0
VERTEX
  5
1B1F0
  8
0
 62
     5
 10
385.35899999999998
 20
200.7179999999999
 30
0.0
 70
    32
  0
VERTEX
  5
1B1F1
  8
0
 62
     5
 10
385.35699999999991
 20
200.7179999999999
 30
0.0
 70
    32
  0
VERTEX
  5
1B1F2
  8
0
 62
     5
 10
385.35500000000002
 20
200.71899999999999
 30
0.0
 70
    32
  0
VERTEX
  5
1B1F3
  8
0
 62
     5
 10
385.35300000000001
 20
200.71899999999999
 30
0.0
 70
    32
  0
VERTEX
  5
1B1F4
  8
0
 62
     5
 10
385.35099999999989
 20
200.72
 30
0.0
 70
    32
  0
VERTEX
  5
1B1F5
  8
0
 62
     5
 10
385.34899999999982
 20
200.72
 30
0.0
 70
    32
  0
VERTEX
  5
1B1F6
  8
0
 62
     5
 10
385.34699999999992
 20
200.72099999999969
 30
0.0
 70
    32
  0
VERTEX
  5
1B1F7
  8
0
 62
     5
 10
385.34500000000003
 20
200.72200000000001
 30
0.0
 70
    32
  0
VERTEX
  5
1B1F8
  8
0
 62
     5
 10
385.34300000000002
 20
200.72200000000001
 30
0.0
 70
    32
  0
VERTEX
  5
1B1F9
  8
0
 62
     5
 10
385.34100000000001
 20
200.7229999999997
 30
0.0
 70
    32
  0
VERTEX
  5
1B1FA
  8
0
 62
     5
 10
385.339
 20
200.7229999999997
 30
0.0
 70
    32
  0
VERTEX
  5
1B1FB
  8
0
 62
     5
 10
385.33699999999982
 20
200.7239999999999
 30
0.0
 70
    32
  0
VERTEX
  5
1B1FC
  8
0
 62
     5
 10
385.33499999999992
 20
200.7239999999999
 30
0.0
 70
    32
  0
VERTEX
  5
1B1FD
  8
0
 62
     5
 10
385.33300000000003
 20
200.72499999999991
 30
0.0
 70
    32
  0
VERTEX
  5
1B1FE
  8
0
 62
     5
 10
385.33099999999962
 20
200.72499999999991
 30
0.0
 70
    32
  0
VERTEX
  5
1B1FF
  8
0
 62
     5
 10
385.32900000000001
 20
200.726
 30
0.0
 70
    32
  0
VERTEX
  5
1B200
  8
0
 62
     5
 10
385.327
 20
200.726
 30
0.0
 70
    32
  0
VERTEX
  5
1B201
  8
0
 62
     5
 10
385.32499999999999
 20
200.727
 30
0.0
 70
    32
  0
VERTEX
  5
1B202
  8
0
 62
     5
 10
385.32199999999989
 20
200.727
 30
0.0
 70
    32
  0
VERTEX
  5
1B203
  8
0
 62
     5
 10
385.31999999999999
 20
200.7279999999997
 30
0.0
 70
    32
  0
VERTEX
  5
1B204
  8
0
 62
     5
 10
385.31799999999998
 20
200.7279999999997
 30
0.0
 70
    32
  0
VERTEX
  5
1B205
  8
0
 62
     5
 10
385.31599999999992
 20
200.72900000000001
 30
0.0
 70
    32
  0
VERTEX
  5
1B206
  8
0
 62
     5
 10
385.31400000000002
 20
200.72900000000001
 30
0.0
 70
    32
  0
VERTEX
  5
1B207
  8
0
 62
     5
 10
385.31199999999961
 20
200.72999999999971
 30
0.0
 70
    32
  0
VERTEX
  5
1B208
  8
0
 62
     5
 10
385.30999999999989
 20
200.72999999999971
 30
0.0
 70
    32
  0
VERTEX
  5
1B209
  8
0
 62
     5
 10
385.30799999999982
 20
200.73099999999991
 30
0.0
 70
    32
  0
VERTEX
  5
1B20A
  8
0
 62
     5
 10
385.30599999999993
 20
200.73099999999991
 30
0.0
 70
    32
  0
VERTEX
  5
1B20B
  8
0
 62
     5
 10
385.30399999999997
 20
200.73199999999991
 30
0.0
 70
    32
  0
VERTEX
  5
1B20C
  8
0
 62
     5
 10
385.30199999999991
 20
200.73199999999991
 30
0.0
 70
    32
  0
VERTEX
  5
1B20D
  8
0
 62
     5
 10
385.30000000000001
 20
200.73199999999991
 30
0.0
 70
    32
  0
VERTEX
  5
1B20E
  8
0
 62
     5
 10
385.298
 20
200.733
 30
0.0
 70
    32
  0
VERTEX
  5
1B20F
  8
0
 62
     5
 10
385.29500000000002
 20
200.733
 30
0.0
 70
    32
  0
VERTEX
  5
1B210
  8
0
 62
     5
 10
385.29300000000001
 20
200.73400000000001
 30
0.0
 70
    32
  0
VERTEX
  5
1B211
  8
0
 62
     5
 10
385.29099999999983
 20
200.73400000000001
 30
0.0
 70
    32
  0
VERTEX
  5
1B212
  8
0
 62
     5
 10
385.28899999999987
 20
200.73500000000001
 30
0.0
 70
    32
  0
VERTEX
  5
1B213
  8
0
 62
     5
 10
385.28699999999992
 20
200.73500000000001
 30
0.0
 70
    32
  0
VERTEX
  5
1B214
  8
0
 62
     5
 10
385.28500000000003
 20
200.73599999999971
 30
0.0
 70
    32
  0
VERTEX
  5
1B215
  8
0
 62
     5
 10
385.28300000000002
 20
200.73599999999971
 30
0.0
 70
    32
  0
VERTEX
  5
1B216
  8
0
 62
     5
 10
385.28100000000001
 20
200.73599999999971
 30
0.0
 70
    32
  0
VERTEX
  5
1B217
  8
0
 62
     5
 10
385.279
 20
200.7369999999998
 30
0.0
 70
    32
  0
VERTEX
  5
1B218
  8
0
 62
     5
 10
385.27699999999982
 20
200.7369999999998
 30
0.0
 70
    32
  0
VERTEX
  5
1B219
  8
0
 62
     5
 10
385.27499999999992
 20
200.73799999999989
 30
0.0
 70
    32
  0
VERTEX
  5
1B21A
  8
0
 62
     5
 10
385.27300000000002
 20
200.73799999999989
 30
0.0
 70
    32
  0
VERTEX
  5
1B21B
  8
0
 62
     5
 10
385.26999999999998
 20
200.73799999999989
 30
0.0
 70
    32
  0
VERTEX
  5
1B21C
  8
0
 62
     5
 10
385.26799999999992
 20
200.739
 30
0.0
 70
    32
  0
VERTEX
  5
1B21D
  8
0
 62
     5
 10
385.26599999999991
 20
200.739
 30
0.0
 70
    32
  0
VERTEX
  5
1B21E
  8
0
 62
     5
 10
385.26400000000001
 20
200.74000000000001
 30
0.0
 70
    32
  0
VERTEX
  5
1B21F
  8
0
 62
     5
 10
385.26199999999989
 20
200.74000000000001
 30
0.0
 70
    32
  0
VERTEX
  5
1B220
  8
0
 62
     5
 10
385.25999999999982
 20
200.74000000000001
 30
0.0
 70
    32
  0
VERTEX
  5
1B221
  8
0
 62
     5
 10
385.25799999999998
 20
200.7409999999999
 30
0.0
 70
    32
  0
VERTEX
  5
1B222
  8
0
 62
     5
 10
385.25599999999991
 20
200.7409999999999
 30
0.0
 70
    32
  0
VERTEX
  5
1B223
  8
0
 62
     5
 10
385.25400000000002
 20
200.7409999999999
 30
0.0
 70
    32
  0
VERTEX
  5
1B224
  8
0
 62
     5
 10
385.25199999999961
 20
200.74199999999971
 30
0.0
 70
    32
  0
VERTEX
  5
1B225
  8
0
 62
     5
 10
385.24900000000002
 20
200.74199999999971
 30
0.0
 70
    32
  0
VERTEX
  5
1B226
  8
0
 62
     5
 10
385.24699999999979
 20
200.74199999999971
 30
0.0
 70
    32
  0
VERTEX
  5
1B227
  8
0
 62
     5
 10
385.245
 20
200.7429999999998
 30
0.0
 70
    32
  0
VERTEX
  5
1B228
  8
0
 62
     5
 10
385.24299999999999
 20
200.7429999999998
 30
0.0
 70
    32
  0
VERTEX
  5
1B229
  8
0
 62
     5
 10
385.24099999999987
 20
200.7429999999998
 30
0.0
 70
    32
  0
VERTEX
  5
1B22A
  8
0
 62
     5
 10
385.23899999999992
 20
200.74399999999989
 30
0.0
 70
    32
  0
VERTEX
  5
1B22B
  8
0
 62
     5
 10
385.23699999999991
 20
200.74399999999989
 30
0.0
 70
    32
  0
VERTEX
  5
1B22C
  8
0
 62
     5
 10
385.23500000000001
 20
200.74399999999989
 30
0.0
 70
    32
  0
VERTEX
  5
1B22D
  8
0
 62
     5
 10
385.233
 20
200.74499999999989
 30
0.0
 70
    32
  0
VERTEX
  5
1B22E
  8
0
 62
     5
 10
385.23099999999999
 20
200.74499999999989
 30
0.0
 70
    32
  0
VERTEX
  5
1B22F
  8
0
 62
     5
 10
385.22800000000001
 20
200.74499999999989
 30
0.0
 70
    32
  0
VERTEX
  5
1B230
  8
0
 62
     5
 10
385.226
 20
200.74600000000001
 30
0.0
 70
    32
  0
VERTEX
  5
1B231
  8
0
 62
     5
 10
385.22399999999999
 20
200.74600000000001
 30
0.0
 70
    32
  0
VERTEX
  5
1B232
  8
0
 62
     5
 10
385.22199999999992
 20
200.74600000000001
 30
0.0
 70
    32
  0
VERTEX
  5
1B233
  8
0
 62
     5
 10
385.22000000000003
 20
200.74600000000001
 30
0.0
 70
    32
  0
VERTEX
  5
1B234
  8
0
 62
     5
 10
385.21800000000002
 20
200.74700000000001
 30
0.0
 70
    32
  0
VERTEX
  5
1B235
  8
0
 62
     5
 10
385.21599999999989
 20
200.74700000000001
 30
0.0
 70
    32
  0
VERTEX
  5
1B236
  8
0
 62
     5
 10
385.21399999999983
 20
200.74700000000001
 30
0.0
 70
    32
  0
VERTEX
  5
1B237
  8
0
 62
     5
 10
385.21199999999982
 20
200.74799999999999
 30
0.0
 70
    32
  0
VERTEX
  5
1B238
  8
0
 62
     5
 10
385.209
 20
200.74799999999999
 30
0.0
 70
    32
  0
VERTEX
  5
1B239
  8
0
 62
     5
 10
385.20699999999982
 20
200.74799999999999
 30
0.0
 70
    32
  0
VERTEX
  5
1B23A
  8
0
 62
     5
 10
385.20499999999993
 20
200.74799999999999
 30
0.0
 70
    32
  0
VERTEX
  5
1B23B
  8
0
 62
     5
 10
385.20299999999992
 20
200.74899999999991
 30
0.0
 70
    32
  0
VERTEX
  5
1B23C
  8
0
 62
     5
 10
385.20099999999991
 20
200.74899999999991
 30
0.0
 70
    32
  0
VERTEX
  5
1B23D
  8
0
 62
     5
 10
385.19900000000001
 20
200.74899999999991
 30
0.0
 70
    32
  0
VERTEX
  5
1B23E
  8
0
 62
     5
 10
385.19699999999989
 20
200.74899999999991
 30
0.0
 70
    32
  0
VERTEX
  5
1B23F
  8
0
 62
     5
 10
385.19499999999988
 20
200.74899999999991
 30
0.0
 70
    32
  0
VERTEX
  5
1B240
  8
0
 62
     5
 10
385.19299999999993
 20
200.7499999999998
 30
0.0
 70
    32
  0
VERTEX
  5
1B241
  8
0
 62
     5
 10
385.19
 20
200.7499999999998
 30
0.0
 70
    32
  0
VERTEX
  5
1B242
  8
0
 62
     5
 10
385.18799999999982
 20
200.7499999999998
 30
0.0
 70
    32
  0
VERTEX
  5
1B243
  8
0
 62
     5
 10
385.18599999999992
 20
200.7499999999998
 30
0.0
 70
    32
  0
VERTEX
  5
1B244
  8
0
 62
     5
 10
385.18400000000003
 20
200.7499999999998
 30
0.0
 70
    32
  0
VERTEX
  5
1B245
  8
0
 62
     5
 10
385.18199999999962
 20
200.75099999999989
 30
0.0
 70
    32
  0
VERTEX
  5
1B246
  8
0
 62
     5
 10
385.18000000000001
 20
200.75099999999989
 30
0.0
 70
    32
  0
VERTEX
  5
1B247
  8
0
 62
     5
 10
385.178
 20
200.75099999999989
 30
0.0
 70
    32
  0
VERTEX
  5
1B248
  8
0
 62
     5
 10
385.17599999999999
 20
200.75099999999989
 30
0.0
 70
    32
  0
VERTEX
  5
1B249
  8
0
 62
     5
 10
385.173
 20
200.75099999999989
 30
0.0
 70
    32
  0
VERTEX
  5
1B24A
  8
0
 62
     5
 10
385.17099999999999
 20
200.75099999999989
 30
0.0
 70
    32
  0
VERTEX
  5
1B24B
  8
0
 62
     5
 10
385.16899999999993
 20
200.7519999999999
 30
0.0
 70
    32
  0
VERTEX
  5
1B24C
  8
0
 62
     5
 10
385.1669999999998
 20
200.7519999999999
 30
0.0
 70
    32
  0
VERTEX
  5
1B24D
  8
0
 62
     5
 10
385.16500000000002
 20
200.7519999999999
 30
0.0
 70
    32
  0
VERTEX
  5
1B24E
  8
0
 62
     5
 10
385.16300000000001
 20
200.7519999999999
 30
0.0
 70
    32
  0
VERTEX
  5
1B24F
  8
0
 62
     5
 10
385.16099999999989
 20
200.7519999999999
 30
0.0
 70
    32
  0
VERTEX
  5
1B250
  8
0
 62
     5
 10
385.15899999999982
 20
200.7519999999999
 30
0.0
 70
    32
  0
VERTEX
  5
1B251
  8
0
 62
     5
 10
385.15600000000001
 20
200.7519999999999
 30
0.0
 70
    32
  0
VERTEX
  5
1B252
  8
0
 62
     5
 10
385.15399999999983
 20
200.75299999999999
 30
0.0
 70
    32
  0
VERTEX
  5
1B253
  8
0
 62
     5
 10
385.15199999999982
 20
200.75299999999999
 30
0.0
 70
    32
  0
VERTEX
  5
1B254
  8
0
 62
     5
 10
385.14999999999992
 20
200.75299999999999
 30
0.0
 70
    32
  0
VERTEX
  5
1B255
  8
0
 62
     5
 10
385.14800000000002
 20
200.75299999999999
 30
0.0
 70
    32
  0
VERTEX
  5
1B256
  8
0
 62
     5
 10
385.14599999999979
 20
200.75299999999999
 30
0.0
 70
    32
  0
VERTEX
  5
1B257
  8
0
 62
     5
 10
385.14400000000001
 20
200.75299999999999
 30
0.0
 70
    32
  0
VERTEX
  5
1B258
  8
0
 62
     5
 10
385.142
 20
200.75299999999999
 30
0.0
 70
    32
  0
VERTEX
  5
1B259
  8
0
 62
     5
 10
385.13999999999982
 20
200.75299999999999
 30
0.0
 70
    32
  0
VERTEX
  5
1B25A
  8
0
 62
     5
 10
385.13699999999989
 20
200.75299999999999
 30
0.0
 70
    32
  0
VERTEX
  5
1B25B
  8
0
 62
     5
 10
385.13499999999999
 20
200.75299999999999
 30
0.0
 70
    32
  0
VERTEX
  5
1B25C
  8
0
 62
     5
 10
385.13299999999992
 20
200.75399999999999
 30
0.0
 70
    32
  0
VERTEX
  5
1B25D
  8
0
 62
     5
 10
385.13099999999991
 20
200.75399999999999
 30
0.0
 70
    32
  0
VERTEX
  5
1B25E
  8
0
 62
     5
 10
385.12900000000002
 20
200.75399999999999
 30
0.0
 70
    32
  0
VERTEX
  5
1B25F
  8
0
 62
     5
 10
385.12699999999961
 20
200.75399999999999
 30
0.0
 70
    32
  0
VERTEX
  5
1B260
  8
0
 62
     5
 10
385.125
 20
200.75399999999999
 30
0.0
 70
    32
  0
VERTEX
  5
1B261
  8
0
 62
     5
 10
385.12299999999999
 20
200.75399999999999
 30
0.0
 70
    32
  0
VERTEX
  5
1B262
  8
0
 62
     5
 10
385.11999999999989
 20
200.75399999999999
 30
0.0
 70
    32
  0
VERTEX
  5
1B263
  8
0
 62
     5
 10
385.11799999999982
 20
200.75399999999999
 30
0.0
 70
    32
  0
VERTEX
  5
1B264
  8
0
 62
     5
 10
385.11599999999999
 20
200.75399999999999
 30
0.0
 70
    32
  0
VERTEX
  5
1B265
  8
0
 62
     5
 10
385.11399999999998
 20
200.75399999999999
 30
0.0
 70
    32
  0
VERTEX
  5
1B266
  8
0
 62
     5
 10
385.1119999999998
 20
200.75399999999999
 30
0.0
 70
    32
  0
VERTEX
  5
1B267
  8
0
 62
     5
 10
385.11000000000001
 20
200.75399999999999
 30
0.0
 70
    32
  0
VERTEX
  5
1B268
  8
0
 62
     5
 10
385.10799999999989
 20
200.75399999999999
 30
0.0
 70
    32
  0
VERTEX
  5
1B269
  8
0
 62
     5
 10
385.10500000000002
 20
200.755
 30
0.0
 70
    32
  0
VERTEX
  5
1B26A
  8
0
 62
     5
 10
385.10300000000001
 20
200.755
 30
0.0
 70
    32
  0
VERTEX
  5
1B26B
  8
0
 62
     5
 10
385.101
 20
200.755
 30
0.0
 70
    32
  0
VERTEX
  5
1B26C
  8
0
 62
     5
 10
385.09899999999982
 20
200.755
 30
0.0
 70
    32
  0
VERTEX
  5
1B26D
  8
0
 62
     5
 10
385.09699999999992
 20
200.755
 30
0.0
 70
    32
  0
VERTEX
  5
1B26E
  8
0
 62
     5
 10
385.09500000000003
 20
200.755
 30
0.0
 70
    32
  0
VERTEX
  5
1B26F
  8
0
 62
     5
 10
385.09300000000002
 20
200.755
 30
0.0
 70
    32
  0
VERTEX
  5
1B270
  8
0
 62
     5
 10
385.09100000000001
 20
200.755
 30
0.0
 70
    32
  0
VERTEX
  5
1B271
  8
0
 62
     5
 10
385.08800000000002
 20
200.755
 30
0.0
 70
    32
  0
SEQEND
  5
1B272
  8
0
 62
     5
  0
ARC
  5
1B273
  8
0
 62
     5
 10
391.7077179589233
 20
195.98887999999991
 30
0.0
 40
4.5
 50
0.0
 51
90.0
  0
CIRCLE
  5
1B274
  8
0
 62
     5
 10
392.69642561082321
 20
186.78484167569991
 30
0.0
 40
1.25
  0
POLYLINE
  5
1B275
  8
HIDDEN
 66
     1
 10
0.0
 20
0.0
 30
0.0
 70
     2
  0
VERTEX
  5
1B276
  8
HIDDEN
 10
56.538981630050003
 20
128.88048020978701
 30
0.0
 42
0.023047173002238
  0
VERTEX
  5
1B277
  8
HIDDEN
 10
56.779834944083539
 20
127.8471593938439
 30
0.0
 42
0.0341764279388416
 70
     1
  0
VERTEX
  5
1B278
  8
HIDDEN
 10
57.020899999999997
 20
127.1729999999999
 30
0.0
 42
0.0050726433423536
  0
VERTEX
  5
1B279
  8
HIDDEN
 10
57.444458872615989
 20
126.2293079436034
 30
0.0
 42
0.024584003424004
 70
     1
  0
VERTEX
  5
1B27A
  8
HIDDEN
 10
57.543300000000002
 20
126.04000000000001
 30
0.0
 42
0.028780673486151
  0
VERTEX
  5
1B27B
  8
HIDDEN
 10
57.753770700978968
 20
125.7242160771941
 30
0.0
 42
0.0335767924881242
 70
     1
  0
VERTEX
  5
1B27C
  8
HIDDEN
 10
57.966500000000003
 20
125.47799999999999
 30
0.0
 42
0.0490384519478823
  0
VERTEX
  5
1B27D
  8
HIDDEN
 10
58.287740379482777
 20
125.21118644731931
 30
0.0
 42
0.0468295780117172
 70
     1
  0
VERTEX
  5
1B27E
  8
HIDDEN
 10
58.671100000000003
 20
125.001
 30
0.0
 42
0.017609547633626
  0
VERTEX
  5
1B27F
  8
HIDDEN
 10
58.84834820938886
 20
124.9316984480143
 30
0.0
 42
0.0052570284258905
 70
     1
  0
VERTEX
  5
1B280
  8
HIDDEN
 10
59.451900000000002
 20
124.727
 30
0.0
 42
0.0263580843747814
  0
VERTEX
  5
1B281
  8
HIDDEN
 10
59.861773872583171
 20
124.6163110283013
 30
0.0
 42
0.0177183252224049
 70
     1
  0
VERTEX
  5
1B282
  8
HIDDEN
 10
60.483400000000003
 20
124.506
 30
0.0
  0
SEQEND
  5
1B283
  8
HIDDEN
  0
POLYLINE
  5
1B284
  8
HIDDEN
 66
     1
 10
0.0
 20
0.0
 30
0.0
 70
     2
  0
VERTEX
  5
1B285
  8
HIDDEN
 10
56.15870000000001
 20
127.271
 30
0.0
 42
0.0271788397274705
  0
VERTEX
  5
1B286
  8
HIDDEN
 10
56.208133796860793
 20
126.66693382910201
 30
0.0
 42
0.0381915413469416
 70
     1
  0
VERTEX
  5
1B287
  8
HIDDEN
 10
56.299100000000003
 20
126.245
 30
0.0
 42
0.0221108230897841
  0
VERTEX
  5
1B288
  8
HIDDEN
 10
56.601225141393257
 20
125.3712317064517
 30
0.0
 42
0.0604155591726255
 70
     1
  0
VERTEX
  5
1B289
  8
HIDDEN
 10
56.763300000000001
 20
125.0729999999995
 30
0.0
 42
0.0640507842890995
  0
VERTEX
  5
1B28A
  8
HIDDEN
 10
57.140710921621178
 20
124.6649530854843
 30
0.0
 42
0.0469528800011152
 70
     1
  0
VERTEX
  5
1B28B
  8
HIDDEN
 10
57.764200000000002
 20
124.236
 30
0.0
 42
0.0147713159525265
  0
VERTEX
  5
1B28C
  8
HIDDEN
 10
58.36244061075444
 20
123.92512604661501
 30
0.0
 42
0.0258899891742558
 70
     1
  0
VERTEX
  5
1B28D
  8
HIDDEN
 10
58.717199999999991
 20
123.7759999999999
 30
0.0
 42
0.0209230337416431
  0
VERTEX
  5
1B28E
  8
HIDDEN
 10
59.017696797804533
 20
123.6816198068161
 30
0.0
 42
0.00775679969068
 70
     1
  0
VERTEX
  5
1B28F
  8
HIDDEN
 10
59.841200000000001
 20
123.4739999999999
 30
0.0
 42
0.0374066013935843
  0
VERTEX
  5
1B290
  8
HIDDEN
 10
60.215000703091619
 20
123.414949190888
 30
0.0
 42
0.0213090821910104
 70
     1
  0
VERTEX
  5
1B291
  8
HIDDEN
 10
60.87817975702346
 20
123.3888799999999
 30
0.0
  0
SEQEND
  5
1B292
  8
HIDDEN
  0
POLYLINE
  5
1B293
  8
HIDDEN
 66
     1
 10
0.0
 20
0.0
 30
0.0
 70
     2
  0
VERTEX
  5
1B294
  8
HIDDEN
 10
66.679500000000004
 20
124.492
 30
0.0
 42
0.0275934220926644
  0
VERTEX
  5
1B295
  8
HIDDEN
 10
67.191756455968857
 20
124.5185545167778
 30
0.0
 42
0.0415004032581352
 70
     1
  0
VERTEX
  5
1B296
  8
HIDDEN
 10
67.527000000000001
 20
124.5829999999999
 30
0.0
 42
0.0060917407902922
  0
VERTEX
  5
1B297
  8
HIDDEN
 10
67.952410388198572
 20
124.7076600644809
 30
0.0
 42
0.0154504834126012
 70
     1
  0
VERTEX
  5
1B298
  8
HIDDEN
 10
68.117900000000006
 20
124.764
 30
0.0
 42
0.0357941106819341
  0
VERTEX
  5
1B299
  8
HIDDEN
 10
68.55278973299535
 20
124.96376156598831
 30
0.0
 42
0.0308982260380283
 70
     1
  0
VERTEX
  5
1B29A
  8
HIDDEN
 10
69.021199999999993
 20
125.26000000000001
 30
0.0
 42
0.035383737666326
  0
VERTEX
  5
1B29B
  8
HIDDEN
 10
69.32725180746165
 20
125.51592785715211
 30
0.0
 42
0.0350613033138418
 70
     1
  0
VERTEX
  5
1B29C
  8
HIDDEN
 10
69.596800000000002
 20
125.815
 30
0.0
 42
0.0411631538010301
  0
VERTEX
  5
1B29D
  8
HIDDEN
 10
69.89546654908051
 20
126.2697216758757
 30
0.0
 42
0.042335267376875
 70
     1
  0
VERTEX
  5
1B29E
  8
HIDDEN
 10
70.108400000000003
 20
126.75399999999991
 30
0.0
 42
0.0156157514152113
  0
VERTEX
  5
1B29F
  8
HIDDEN
 10
70.268222683024192
 20
127.273606440748
 30
0.0
 42
0.0246482177330054
 70
     1
  0
VERTEX
  5
1B2A0
  8
HIDDEN
 10
70.342699999999994
 20
127.61
 30
0.0
 42
0.0089516506361964
  0
VERTEX
  5
1B2A1
  8
HIDDEN
 10
70.446875004219166
 20
128.2960544108073
 30
0.0
 42
0.0154146268565557
 70
     1
  0
VERTEX
  5
1B2A2
  8
HIDDEN
 10
70.487899999999996
 20
128.6969999999998
 30
0.0
 42
0.0014986820629013
  0
VERTEX
  5
1B2A3
  8
HIDDEN
 10
70.507195965234814
 20
128.9797362013814
 30
0.0
 42
0.0006767958303928
 70
     1
  0
VERTEX
  5
1B2A4
  8
HIDDEN
 10
70.547200000000004
 20
129.60599999999991
 30
0.0
 42
0.0032464752498292
  0
VERTEX
  5
1B2A5
  8
HIDDEN
 10
70.55097092375081
 20
129.673334869114
 30
0.0
 42
0.0009605957226234
 70
     1
  0
VERTEX
  5
1B2A6
  8
HIDDEN
 10
70.561800000000019
 20
129.90100000000001
 30
0.0
  0
SEQEND
  5
1B2A7
  8
HIDDEN
  0
POLYLINE
  5
1B2A8
  8
HIDDEN
 66
     1
 10
0.0
 20
0.0
 30
0.0
 70
     2
  0
VERTEX
  5
1B2A9
  8
HIDDEN
 10
66.485699999999994
 20
123.3899999999999
 30
0.0
 42
0.0111068623497209
  0
VERTEX
  5
1B2AA
  8
HIDDEN
 10
66.823540461521816
 20
123.4039228665273
 30
0.0
 42
0.0205329968366316
 70
     1
  0
VERTEX
  5
1B2AB
  8
HIDDEN
 10
67.005499999999984
 20
123.4229999999999
 30
0.0
 42
0.0031664165354417
  0
VERTEX
  5
1B2AC
  8
HIDDEN
 10
67.467155488046501
 20
123.4936481699703
 30
0.0
 42
0.011986849649545
 70
     1
  0
VERTEX
  5
1B2AD
  8
HIDDEN
 10
67.588499999999996
 20
123.51600000000001
 30
0.0
 42
0.0221782272136603
  0
VERTEX
  5
1B2AE
  8
HIDDEN
 10
67.919049753963691
 20
123.6005726708446
 30
0.0
 42
0.0221992008155189
 70
     1
  0
VERTEX
  5
1B2AF
  8
HIDDEN
 10
68.240500000000011
 20
123.7139999999999
 30
0.0
 42
0.015842310771953
  0
VERTEX
  5
1B2B0
  8
HIDDEN
 10
68.493933537872977
 20
123.82574912595111
 30
0.0
 42
0.0192749020167343
 70
     1
  0
VERTEX
  5
1B2B1
  8
HIDDEN
 10
68.695300000000003
 20
123.9319999999999
 30
0.0
 42
0.0136820115267245
  0
VERTEX
  5
1B2B2
  8
HIDDEN
 10
68.886267836687466
 20
124.0494591662476
 30
0.0
 42
0.0165393220209963
 70
     1
  0
VERTEX
  5
1B2B3
  8
HIDDEN
 10
69.0381
 20
124.15599999999991
 30
0.0
 42
0.0167053608675422
  0
VERTEX
  5
1B2B4
  8
HIDDEN
 10
69.113256122021539
 20
124.2165710430688
 30
0.0
 42
0.0026724976315244
 70
     1
  0
VERTEX
  5
1B2B5
  8
HIDDEN
 10
69.567899999999995
 20
124.6129999999999
 30
0.0
 42
0.0167724868583191
  0
VERTEX
  5
1B2B6
  8
HIDDEN
 10
69.713885257491711
 20
124.750641773542
 30
0.0
 42
0.0088262156473938
 70
     1
  0
VERTEX
  5
1B2B7
  8
HIDDEN
 10
69.977500000000006
 20
125.0259999999999
 30
0.0
  0
SEQEND
  5
1B2B8
  8
HIDDEN
  0
ARC
  5
1B2B9
  8
HIDDEN
 10
160.20375686064619
 20
136.44149018343731
 30
0.0
 40
1.6475102855721031
 50
53.919965313660931
 51
89.956767101425839
  0
ARC
  5
1B2BA
  8
HIDDEN
 10
160.2123743035294
 20
126.1100848097463
 30
0.0
 40
1.6211015824874071
 50
269.73936369512683
 51
306.38390388979161
  0
POLYLINE
  5
1B2BB
  8
HIDDEN
 66
     1
 10
0.0
 20
0.0
 30
0.0
 70
     2
  0
VERTEX
  5
1B2BC
  8
HIDDEN
 10
163.73699999999991
 20
136.88900000000001
 30
0.0
 42
-0.0335260817850413
  0
VERTEX
  5
1B2BD
  8
HIDDEN
 10
163.92078047604261
 20
136.87590016605159
 30
0.0
 42
-0.0508302374648153
 70
     1
  0
VERTEX
  5
1B2BE
  8
HIDDEN
 10
164.03899999999999
 20
136.84700000000001
 30
0.0
 42
-0.0110537805814228
  0
VERTEX
  5
1B2BF
  8
HIDDEN
 10
164.20375948608981
 20
136.78433628322171
 30
0.0
 42
-0.0238318815311959
 70
     1
  0
VERTEX
  5
1B2C0
  8
HIDDEN
 10
164.27799999999991
 20
136.7499999999994
 30
0.0
 42
-0.0416861108457239
  0
VERTEX
  5
1B2C1
  8
HIDDEN
 10
164.40098193786011
 20
136.6721786239099
 30
0.0
 42
-0.0295500571093346
 70
     1
  0
VERTEX
  5
1B2C2
  8
HIDDEN
 10
164.5569999999999
 20
136.53899999999939
 30
0.0
 42
-0.0505345095791682
  0
VERTEX
  5
1B2C3
  8
HIDDEN
 10
164.7125799304311
 20
136.35583488778551
 30
0.0
 42
-0.0414797566629207
 70
     1
  0
VERTEX
  5
1B2C4
  8
HIDDEN
 10
164.858
 20
136.102
 30
0.0
 42
-0.0322386097464868
  0
VERTEX
  5
1B2C5
  8
HIDDEN
 10
165.00793060651671
 20
135.7187246199484
 30
0.0
 42
-0.0257204648065921
 70
     1
  0
VERTEX
  5
1B2C6
  8
HIDDEN
 10
165.13900000000001
 20
135.22
 30
0.0
 42
-0.009524519139079
  0
VERTEX
  5
1B2C7
  8
HIDDEN
 10
165.256553102422
 20
134.59707993129811
 30
0.0
 42
-0.0141009283140961
 70
     1
  0
VERTEX
  5
1B2C8
  8
HIDDEN
 10
165.3159999999996
 20
134.173
 30
0.0
 42
-0.0094187067331823
  0
VERTEX
  5
1B2C9
  8
HIDDEN
 10
165.37888350621961
 20
133.49315350806131
 30
0.0
 42
-0.0085815897853403
 70
     1
  0
VERTEX
  5
1B2CA
  8
HIDDEN
 10
165.42099999999991
 20
132.745
 30
0.0
 42
-0.0088365096208508
  0
VERTEX
  5
1B2CB
  8
HIDDEN
 10
165.44527547143241
 20
131.6107655879311
 30
0.0
 42
-0.0078266366930997
 70
     1
  0
VERTEX
  5
1B2CC
  8
HIDDEN
 10
165.43000000000001
 20
130.33000000000001
 30
0.0
 42
-0.0065183291648692
  0
VERTEX
  5
1B2CD
  8
HIDDEN
 10
165.3903448876448
 20
129.3541873508029
 30
0.0
 42
-0.0098560477776148
 70
     1
  0
VERTEX
  5
1B2CE
  8
HIDDEN
 10
165.3429999999999
 20
128.71000000000001
 30
0.0
 42
-0.0117493209202472
  0
VERTEX
  5
1B2CF
  8
HIDDEN
 10
165.2811702675603
 20
128.18200812365831
 30
0.0
 42
-0.0103942432483439
 70
     1
  0
VERTEX
  5
1B2D0
  8
HIDDEN
 10
165.18492937871571
 20
127.5888799999999
 30
0.0
 42
-0.0141327482910312
  0
VERTEX
  5
1B2D1
  8
HIDDEN
 10
165.10776038435591
 20
127.22666522471491
 30
0.0
 42
-0.0136258283816748
 70
     1
  0
VERTEX
  5
1B2D2
  8
HIDDEN
 10
165.00700000000001
 20
126.8559999999999
 30
0.0
 42
-0.0306482129589695
  0
VERTEX
  5
1B2D3
  8
HIDDEN
 10
164.8963553402499
 20
126.5565649678793
 30
0.0
 42
-0.0335288872264231
 70
     1
  0
VERTEX
  5
1B2D4
  8
HIDDEN
 10
164.761
 20
126.2979999999999
 30
0.0
 42
-0.035324311625114
  0
VERTEX
  5
1B2D5
  8
HIDDEN
 10
164.6423756628171
 20
126.131807343483
 30
0.0
 42
-0.0374743488662774
 70
     1
  0
VERTEX
  5
1B2D6
  8
HIDDEN
 10
164.5089999999999
 20
125.9929999999995
 30
0.0
 42
-0.0350471169876038
  0
VERTEX
  5
1B2D7
  8
HIDDEN
 10
164.34322282346241
 20
125.8642405949366
 30
0.0
 42
-0.0483162157044475
 70
     1
  0
VERTEX
  5
1B2D8
  8
HIDDEN
 10
164.209
 20
125.792
 30
0.0
 42
-0.0223317096659595
  0
VERTEX
  5
1B2D9
  8
HIDDEN
 10
164.13116815508141
 20
125.7633652633735
 30
0.0
 42
-0.0110208004775677
 70
     1
  0
VERTEX
  5
1B2DA
  8
HIDDEN
 10
163.96999999999991
 20
125.71599999999999
 30
0.0
 42
-0.0371253844379943
  0
VERTEX
  5
1B2DB
  8
HIDDEN
 10
163.8810665150724
 20
125.6989348756132
 30
0.0
 42
-0.0232611687730111
 70
     1
  0
VERTEX
  5
1B2DC
  8
HIDDEN
 10
163.73699999999991
 20
125.68899999999999
 30
0.0
  0
SEQEND
  5
1B2DD
  8
HIDDEN
  0
POLYLINE
  5
1B2DE
  8
HIDDEN
 66
     1
 10
0.0
 20
0.0
 30
0.0
 70
     2
  0
VERTEX
  5
1B2DF
  8
HIDDEN
 10
182.63599999999991
 20
127.79300000000001
 30
0.0
 42
0.0115857670253692
  0
VERTEX
  5
1B2E0
  8
HIDDEN
 10
183.27748407530621
 20
126.8555943361352
 30
0.0
 42
0.0178917874057591
 70
     1
  0
VERTEX
  5
1B2E1
  8
HIDDEN
 10
183.72799999999981
 20
126.2739999999999
 30
0.0
 42
0.0016214282765662
  0
VERTEX
  5
1B2E2
  8
HIDDEN
 10
184.43678199901319
 20
125.42924637057691
 30
0.0
 42
0.0100759403610216
 70
     1
  0
VERTEX
  5
1B2E3
  8
HIDDEN
 10
184.55399999999929
 20
125.29600000000001
 30
0.0
 42
0.0231671949804011
  0
VERTEX
  5
1B2E4
  8
HIDDEN
 10
184.97072797554111
 20
124.8814083857288
 30
0.0
 42
0.0211748041591548
 70
     1
  0
VERTEX
  5
1B2E5
  8
HIDDEN
 10
185.465
 20
124.4699999999999
 30
0.0
 42
0.0257009530609255
  0
VERTEX
  5
1B2E6
  8
HIDDEN
 10
185.94248151307431
 20
124.143039277528
 30
0.0
 42
0.029875791126328
 70
     1
  0
VERTEX
  5
1B2E7
  8
HIDDEN
 10
186.38200000000001
 20
123.90900000000001
 30
0.0
 42
0.0163827816515317
  0
VERTEX
  5
1B2E8
  8
HIDDEN
 10
186.7645407740533
 20
123.748703463848
 30
0.0
 42
0.0229363702497634
 70
     1
  0
VERTEX
  5
1B2E9
  8
HIDDEN
 10
187.04599999999991
 20
123.65600000000001
 30
0.0
 42
0.0159515029285098
  0
VERTEX
  5
1B2EA
  8
HIDDEN
 10
187.501509859496
 20
123.5443302562891
 30
0.0
 42
0.0218067429849687
 70
     1
  0
VERTEX
  5
1B2EB
  8
HIDDEN
 10
187.84
 20
123.4879999999999
 30
0.0
 42
0.0062791669172214
  0
VERTEX
  5
1B2EC
  8
HIDDEN
 10
188.003138403219
 20
123.4701900337203
 30
0.0
 42
0.001699047793213
 70
     1
  0
VERTEX
  5
1B2ED
  8
HIDDEN
 10
188.607
 20
123.414
 30
0.0
 42
0.0100655607519151
  0
VERTEX
  5
1B2EE
  8
HIDDEN
 10
188.76931654584311
 20
123.40274068446691
 30
0.0
 42
0.0046936743411549
 70
     1
  0
VERTEX
  5
1B2EF
  8
HIDDEN
 10
189.1179368986968
 20
123.3888799999999
 30
0.0
  0
SEQEND
  5
1B2F0
  8
HIDDEN
  0
POLYLINE
  5
1B2F1
  8
HIDDEN
 66
     1
 10
0.0
 20
0.0
 30
0.0
 70
     2
  0
VERTEX
  5
1B2F2
  8
HIDDEN
 10
368.678
 20
125.0259999999999
 30
0.0
 42
0.0074056581353618
  0
VERTEX
  5
1B2F3
  8
HIDDEN
 10
368.91953273509512
 20
124.77452041532391
 30
0.0
 42
0.0144330169466004
 70
     1
  0
VERTEX
  5
1B2F4
  8
HIDDEN
 10
369.04899999999998
 20
124.651
 30
0.0
 42
0.002812151209456
  0
VERTEX
  5
1B2F5
  8
HIDDEN
 10
369.4794074221827
 20
124.2678255309644
 30
0.0
 42
0.0130142464298573
 70
     1
  0
VERTEX
  5
1B2F6
  8
HIDDEN
 10
369.57499999999982
 20
124.1879999999996
 30
0.0
 42
0.0238143623739325
  0
VERTEX
  5
1B2F7
  8
HIDDEN
 10
369.78081102012391
 20
124.0404131928414
 30
0.0
 42
0.0214643146595296
 70
     1
  0
VERTEX
  5
1B2F8
  8
HIDDEN
 10
370.02300000000002
 20
123.8979999999999
 30
0.0
 42
0.0200836804313519
  0
VERTEX
  5
1B2F9
  8
HIDDEN
 10
370.26004649226888
 20
123.783936420842
 30
0.0
 42
0.016956763338337
 70
     1
  0
VERTEX
  5
1B2FA
  8
HIDDEN
 10
370.55000000000001
 20
123.67
 30
0.0
 42
0.015045601669037
  0
VERTEX
  5
1B2FB
  8
HIDDEN
 10
370.8885220964662
 20
123.56140810002481
 30
0.0
 42
0.0209218287143455
 70
     1
  0
VERTEX
  5
1B2FC
  8
HIDDEN
 10
371.13699999999989
 20
123.501
 30
0.0
 42
0.0136886875217582
  0
VERTEX
  5
1B2FD
  8
HIDDEN
 10
371.2535155134488
 20
123.4810865427113
 30
0.0
 42
0.0033018593972361
 70
     1
  0
VERTEX
  5
1B2FE
  8
HIDDEN
 10
371.73899999999992
 20
123.41500000000001
 30
0.0
 42
0.0177138022590463
  0
VERTEX
  5
1B2FF
  8
HIDDEN
 10
371.88919342580652
 20
123.40095133745071
 30
0.0
 42
0.0089333730524782
 70
     1
  0
VERTEX
  5
1B300
  8
HIDDEN
 10
372.18799999999999
 20
123.3889999999999
 30
0.0
  0
SEQEND
  5
1B301
  8
HIDDEN
  0
POLYLINE
  5
1B302
  8
HIDDEN
 66
     1
 10
0.0
 20
0.0
 30
0.0
 70
     2
  0
VERTEX
  5
1B303
  8
HIDDEN
 10
377.81299999999982
 20
123.3899999999999
 30
0.0
 42
0.0177560954751909
  0
VERTEX
  5
1B304
  8
HIDDEN
 10
378.37415400433611
 20
123.4131682907454
 30
0.0
 42
0.0294368750214262
 70
     1
  0
VERTEX
  5
1B305
  8
HIDDEN
 10
378.70999999999992
 20
123.459
 30
0.0
 42
0.003634402088089
  0
VERTEX
  5
1B306
  8
HIDDEN
 10
379.32194687809562
 20
123.5841657412126
 30
0.0
 42
0.0150016099953344
 70
     1
  0
VERTEX
  5
1B307
  8
HIDDEN
 10
379.46899999999999
 20
123.61999999999991
 30
0.0
 42
0.0210081927256182
  0
VERTEX
  5
1B308
  8
HIDDEN
 10
379.84474417321292
 20
123.7407901719634
 30
0.0
 42
0.0164026512374381
 70
     1
  0
VERTEX
  5
1B309
  8
HIDDEN
 10
380.31299999999987
 20
123.9309999999999
 30
0.0
 42
0.0235702595081061
  0
VERTEX
  5
1B30A
  8
HIDDEN
 10
380.61152354719792
 20
124.0810590112209
 30
0.0
 42
0.0130805506555198
 70
     1
  0
VERTEX
  5
1B30B
  8
HIDDEN
 10
381.12799999999999
 20
124.39
 30
0.0
 42
0.0368065859479447
  0
VERTEX
  5
1B30C
  8
HIDDEN
 10
381.61711138922442
 20
124.75326307487271
 30
0.0
 42
0.0600602459202034
 70
     1
  0
VERTEX
  5
1B30D
  8
HIDDEN
 10
381.86900000000003
 20
125.0299999999999
 30
0.0
 42
0.0501798018487122
  0
VERTEX
  5
1B30E
  8
HIDDEN
 10
382.05678322182121
 20
125.35936245720239
 30
0.0
 42
0.0337549457037724
 70
     1
  0
VERTEX
  5
1B30F
  8
HIDDEN
 10
382.25
 20
125.88799999999991
 30
0.0
 42
0.0097871642060298
  0
VERTEX
  5
1B310
  8
HIDDEN
 10
382.41053992244463
 20
126.4834303096989
 30
0.0
 42
0.0308509532108774
 70
     1
  0
VERTEX
  5
1B311
  8
HIDDEN
 10
382.44599999999991
 20
126.676
 30
0.0
 42
0.0051286172504438
  0
VERTEX
  5
1B312
  8
HIDDEN
 10
382.46063523560622
 20
126.8083139794944
 30
0.0
 42
0.0023706181777072
 70
     1
  0
VERTEX
  5
1B313
  8
HIDDEN
 10
382.488
 20
127.095
 30
0.0
 42
0.0115589121976006
  0
VERTEX
  5
1B314
  8
HIDDEN
 10
382.49456075753062
 20
127.19232976417879
 30
0.0
 42
0.0057297016753507
 70
     1
  0
VERTEX
  5
1B315
  8
HIDDEN
 10
382.50099999999992
 20
127.3889999999999
 30
0.0
  0
SEQEND
  5
1B316
  8
HIDDEN
  0
LINE
  5
1B317
  8
0
 62
     5
 10
200.18351844539669
 20
190.24796937789981
 30
0.0
 11
239.28351844539671
 21
190.04824856159991
 31
0.0
  0
LINE
  5
1B318
  8
0
 62
     5
 10
200.18351844539669
 20
150.7297906220999
 30
0.0
 11
239.28351844539671
 21
150.92951143839991
 31
0.0
  0
ARC
  5
1B319
  8
0
 62
     5
 10
53.56340204979
 20
199.75531793262141
 30
0.0
 40
0.9996821117798372
 50
89.982923281721824
 51
175.58816552589741
  0
ARC
  5
1B31A
  8
0
 62
     5
 10
43.178839541584253
 20
189.3691040479527
 30
0.0
 40
1.0005610809562211
 50
94.455879469010313
 51
179.96976390684941
  0
ARC
  5
1B31B
  8
0
 62
     5
 10
43.177481246570132
 20
151.6073987215602
 30
0.0
 40
0.9992029127095738
 50
179.9581857225356
 51
265.61617090159001
  0
ARC
  5
1B31C
  8
0
 62
     5
 10
101.7101116713615
 20
151.6088025648294
 30
0.0
 40
1.0004959561373461
 50
274.92466071781911
 51
359.96136580763903
  0
ARC
  5
1B31D
  8
0
 62
     5
 10
91.324788703772668
 20
199.7546148938498
 30
0.0
 40
1.0004295887786581
 50
4.4489160619806301
 51
89.976727302575057
  0
ARC
  5
1B31E
  8
0
 62
     5
 10
101.7104438571339
 20
189.36907768605391
 30
0.0
 40
1.000556567960674
 50
0.0528153086527716
 51
85.566925639997649
  0
POLYLINE
  5
1B31F
  8
0
 62
     5
 66
     1
 10
0.0
 20
0.0
 30
0.0
 70
     2
  0
VERTEX
  5
1B320
  8
0
 62
     5
 10
153.73240742569681
 20
198.8275876518999
 30
0.0
 42
0.0096759593117837
  0
VERTEX
  5
1B321
  8
0
 62
     5
 10
153.65915987083781
 20
198.52880264428831
 30
0.0
 42
0.017647862981828
 70
     1
  0
VERTEX
  5
1B322
  8
0
 62
     5
 10
153.6279999999995
 20
198.3629999999998
 30
0.0
 42
0.0012911554709283
  0
VERTEX
  5
1B323
  8
0
 62
     5
 10
153.5705448241506
 20
197.97734322935941
 30
0.0
 42
0.0076399148363082
 70
     1
  0
VERTEX
  5
1B324
  8
0
 62
     5
 10
153.56200000000001
 20
197.91200000000001
 30
0.0
 42
0.0115052085355562
  0
VERTEX
  5
1B325
  8
0
 62
     5
 10
153.5454984329217
 20
197.73263474015431
 30
0.0
 42
0.0214450384194317
 70
     1
  0
VERTEX
  5
1B326
  8
0
 62
     5
 10
153.54300000000001
 20
197.63599999999991
 30
0.0
 42
0.0257741726022157
  0
VERTEX
  5
1B327
  8
0
 62
     5
 10
153.54608715629391
 20
197.59104980096981
 30
0.0
 42
0.0061502211381053
 70
     1
  0
VERTEX
  5
1B328
  8
0
 62
     5
 10
153.57099999999991
 20
197.404
 30
0.0
 42
0.0211037286892399
  0
VERTEX
  5
1B329
  8
0
 62
     5
 10
153.58038549598299
 20
197.3543722656058
 30
0.0
 42
0.0106659481460617
 70
     1
  0
VERTEX
  5
1B32A
  8
0
 62
     5
 10
153.6051443190965
 20
197.25758765189991
 30
0.0
  0
SEQEND
  5
1B32B
  8
0
 62
     5
  0
POLYLINE
  5
1B32C
  8
0
 62
     5
 66
     1
 10
0.0
 20
0.0
 30
0.0
 70
     2
  0
VERTEX
  5
1B32D
  8
0
 62
     5
 10
153.6039999999997
 20
196.69200000000001
 30
0.0
 42
0.0121189870002156
  0
VERTEX
  5
1B32E
  8
0
 62
     5
 10
153.57844815713889
 20
196.59469348497521
 30
0.0
 42
0.0219035018211993
 70
     1
  0
VERTEX
  5
1B32F
  8
0
 62
     5
 10
153.5679999999999
 20
196.53999999999991
 30
0.0
 42
0.0053099754769662
  0
VERTEX
  5
1B330
  8
0
 62
     5
 10
153.54793835748731
 20
196.3915613486227
 30
0.0
 42
0.0177847307840886
 70
     1
  0
VERTEX
  5
1B331
  8
0
 62
     5
 10
153.5439999999999
 20
196.34700000000001
 30
0.0
 42
0.0312846214309923
  0
VERTEX
  5
1B332
  8
0
 62
     5
 10
153.54543813788271
 20
196.2026572888135
 30
0.0
 42
0.0167033832737944
 70
     1
  0
VERTEX
  5
1B333
  8
0
 62
     5
 10
153.57399999999981
 20
195.934
 30
0.0
 42
0.0057199734243573
  0
VERTEX
  5
1B334
  8
0
 62
     5
 10
153.5854493663951
 20
195.85863141601101
 30
0.0
 42
0.0013891302583773
 70
     1
  0
VERTEX
  5
1B335
  8
0
 62
     5
 10
153.6369999999998
 20
195.54900000000001
 30
0.0
 42
0.016357571129644
  0
VERTEX
  5
1B336
  8
0
 62
     5
 10
153.66628756169871
 20
195.4048660791172
 30
0.0
 42
0.0091055805244444
 70
     1
  0
VERTEX
  5
1B337
  8
0
 62
     5
 10
153.732
 20
195.1489999999998
 30
0.0
  0
SEQEND
  5
1B338
  8
0
 62
     5
  0
LINE
  5
1B339
  8
0
 62
     5
 10
148.5749553103966
 20
144.36794157200001
 30
0.0
 11
148.5989999999999
 21
144.28
 31
0.0
  0
LINE
  5
1B33A
  8
0
 62
     5
 10
148.5989507625965
 20
143.72017234819941
 30
0.0
 11
148.5749553103966
 21
143.63240312429991
 31
0.0
  0
POLYLINE
  5
1B33B
  8
0
 62
     5
 66
     1
 10
0.0
 20
0.0
 30
0.0
 70
     2
  0
VERTEX
  5
1B33C
  8
0
 62
     5
 10
153.6051443190965
 20
153.91291832429991
 30
0.0
 42
0.0136437632331378
  0
VERTEX
  5
1B33D
  8
0
 62
     5
 10
153.576528647895
 20
153.79986260305401
 30
0.0
 42
0.0209207402116193
 70
     1
  0
VERTEX
  5
1B33E
  8
0
 62
     5
 10
153.5629999999999
 20
153.72499999999999
 30
0.0
 42
0.002933145596388
  0
VERTEX
  5
1B33F
  8
0
 62
     5
 10
153.54821455134001
 20
153.6128512346618
 30
0.0
 42
0.0106979017159975
 70
     1
  0
VERTEX
  5
1B340
  8
0
 62
     5
 10
153.5449999999999
 20
153.58199999999991
 30
0.0
 42
0.0364936535522589
  0
VERTEX
  5
1B341
  8
0
 62
     5
 10
153.54370435271281
 20
153.4451978399492
 30
0.0
 42
0.0182321864204249
 70
     1
  0
VERTEX
  5
1B342
  8
0
 62
     5
 10
153.57099999999991
 20
153.173
 30
0.0
 42
0.0102981745745382
  0
VERTEX
  5
1B343
  8
0
 62
     5
 10
153.58848434521491
 20
153.06255165569291
 30
0.0
 42
0.0023861881452019
 70
     1
  0
VERTEX
  5
1B344
  8
0
 62
     5
 10
153.6759999999999
 20
152.58799999999991
 30
0.0
 42
0.0159085021356003
  0
VERTEX
  5
1B345
  8
0
 62
     5
 10
153.70848040510279
 20
152.4420355133046
 30
0.0
 42
0.0078905052139446
 70
     1
  0
VERTEX
  5
1B346
  8
0
 62
     5
 10
153.7878780363103
 20
152.15125245744491
 30
0.0
  0
SEQEND
  5
1B347
  8
0
 62
     5
  0
POLYLINE
  5
1B348
  8
0
 62
     5
 66
     1
 10
0.0
 20
0.0
 30
0.0
 70
     2
  0
VERTEX
  5
1B349
  8
0
 62
     5
 10
153.6051443190965
 20
154.47291832429991
 30
0.0
 42
-0.0083441451023419
  0
VERTEX
  5
1B34A
  8
0
 62
     5
 10
153.58389619081601
 20
154.55614752853981
 30
0.0
 42
-0.0146701031659196
 70
     1
  0
VERTEX
  5
1B34B
  8
0
 62
     5
 10
153.57399999999981
 20
154.6039999999995
 30
0.0
 42
-0.000964520964698
  0
VERTEX
  5
1B34C
  8
0
 62
     5
 10
153.5567771076816
 20
154.70275464002941
 30
0.0
 42
-0.00553549796471
 70
     1
  0
VERTEX
  5
1B34D
  8
0
 62
     5
 10
153.554
 20
154.72
 30
0.0
 42
-0.0133086353830604
  0
VERTEX
  5
1B34E
  8
0
 62
     5
 10
153.5472757207819
 20
154.7748534226188
 30
0.0
 42
-0.0121971484991026
 70
     1
  0
VERTEX
  5
1B34F
  8
0
 62
     5
 10
153.54300000000001
 20
154.83500000000001
 30
0.0
 42
-0.0262167977448332
  0
VERTEX
  5
1B350
  8
0
 62
     5
 10
153.5433607467709
 20
154.89671060952591
 30
0.0
 42
-0.0090425599289452
 70
     1
  0
VERTEX
  5
1B351
  8
0
 62
     5
 10
153.5569999999997
 20
155.0749999999997
 30
0.0
 42
-0.0103905892032377
  0
VERTEX
  5
1B352
  8
0
 62
     5
 10
153.592510518121
 20
155.3818405637239
 30
0.0
 42
-0.0188039897435816
 70
     1
  0
VERTEX
  5
1B353
  8
0
 62
     5
 10
153.62200000000001
 20
155.55000000000001
 30
0.0
 42
-0.0050177835015739
  0
VERTEX
  5
1B354
  8
0
 62
     5
 10
153.6515792929124
 20
155.68150923865281
 30
0.0
 42
0.0026851252352689
 70
     1
  0
VERTEX
  5
1B355
  8
0
 62
     5
 10
153.708
 20
155.92699999999991
 30
0.0
 42
0.0032523375480073
  0
VERTEX
  5
1B356
  8
0
 62
     5
 10
153.7138360247435
 20
155.95384963704231
 30
0.0
 42
0.0009821729567866
 70
     1
  0
VERTEX
  5
1B357
  8
0
 62
     5
 10
153.73240742569681
 20
156.0429183242999
 30
0.0
  0
SEQEND
  5
1B358
  8
0
 62
     5
  0
ARC
  5
1B359
  8
0
 62
     5
 10
149.18282089114331
 20
151.35686032418499
 30
0.0
 40
0.499351694599095
 50
183.83780710718631
 51
270.0800376330663
  0
ARC
  5
1B35A
  8
0
 62
     5
 10
151.18415066323291
 20
151.35693028823971
 30
0.0
 40
0.4994215716024744
 50
269.92746924546992
 51
356.15468454703699
  0
LINE
  5
1B35B
  8
0
 62
     5
 10
148.5749553103966
 20
187.1526108994999
 30
0.0
 11
148.5989507625965
 21
187.06484167569991
 31
0.0
  0
LINE
  5
1B35C
  8
0
 62
     5
 10
148.5989507625965
 20
186.50484167569991
 30
0.0
 11
148.5749553103966
 21
186.4170724517999
 31
0.0
  0
ARC
  5
1B35D
  8
0
 62
     5
 10
91.766860317269646
 20
137.5891547066802
 30
0.0
 40
0.5002747821027314
 50
270.0314617780985
 51
359.9685382219111
  0
POLYLINE
  5
1B35E
  8
HIDDEN
 66
     1
 10
0.0
 20
0.0
 30
0.0
 70
     8
  0
VERTEX
  5
1B35F
  8
0
 10
173.61399999999981
 20
127.5889999999999
 30
0.0
 70
    32
  0
VERTEX
  5
1B360
  8
0
 10
173.667
 20
127.5909999999996
 30
0.0
 70
    32
  0
VERTEX
  5
1B361
  8
0
 10
173.72
 20
127.598
 30
0.0
 70
    32
  0
VERTEX
  5
1B362
  8
0
 10
173.77299999999991
 20
127.6089999999999
 30
0.0
 70
    32
  0
VERTEX
  5
1B363
  8
0
 10
173.82499999999979
 20
127.625
 30
0.0
 70
    32
  0
VERTEX
  5
1B364
  8
0
 10
173.87700000000001
 20
127.64400000000001
 30
0.0
 70
    32
  0
VERTEX
  5
1B365
  8
0
 10
173.92799999999991
 20
127.669
 30
0.0
 70
    32
  0
VERTEX
  5
1B366
  8
0
 10
173.97799999999981
 20
127.697
 30
0.0
 70
    32
  0
VERTEX
  5
1B367
  8
0
 10
174.0269999999999
 20
127.73
 30
0.0
 70
    32
  0
VERTEX
  5
1B368
  8
0
 10
174.07599999999991
 20
127.767
 30
0.0
 70
    32
  0
VERTEX
  5
1B369
  8
0
 10
174.12299999999991
 20
127.807
 30
0.0
 70
    32
  0
VERTEX
  5
1B36A
  8
0
 10
174.16900000000001
 20
127.852
 30
0.0
 70
    32
  0
VERTEX
  5
1B36B
  8
0
 10
174.214
 20
127.9009999999999
 30
0.0
 70
    32
  0
VERTEX
  5
1B36C
  8
0
 10
174.25700000000001
 20
127.9529999999999
 30
0.0
 70
    32
  0
VERTEX
  5
1B36D
  8
0
 10
174.29899999999981
 20
128.0089999999999
 30
0.0
 70
    32
  0
VERTEX
  5
1B36E
  8
0
 10
174.33899999999991
 20
128.0679999999995
 30
0.0
 70
    32
  0
VERTEX
  5
1B36F
  8
0
 10
174.37700000000001
 20
128.13099999999949
 30
0.0
 70
    32
  0
VERTEX
  5
1B370
  8
0
 10
174.4139999999999
 20
128.197
 30
0.0
 70
    32
  0
VERTEX
  5
1B371
  8
0
 10
174.44799999999981
 20
128.2649999999995
 30
0.0
 70
    32
  0
VERTEX
  5
1B372
  8
0
 10
174.48099999999991
 20
128.3369999999999
 30
0.0
 70
    32
  0
VERTEX
  5
1B373
  8
0
 10
174.51099999999991
 20
128.411
 30
0.0
 70
    32
  0
VERTEX
  5
1B374
  8
0
 10
174.53999999999999
 20
128.488
 30
0.0
 70
    32
  0
VERTEX
  5
1B375
  8
0
 10
174.5659999999998
 20
128.56700000000001
 30
0.0
 70
    32
  0
VERTEX
  5
1B376
  8
0
 10
174.58899999999991
 20
128.648
 30
0.0
 70
    32
  0
VERTEX
  5
1B377
  8
0
 10
174.6109999999999
 20
128.73099999999991
 30
0.0
 70
    32
  0
VERTEX
  5
1B378
  8
0
 10
174.62999999999991
 20
128.81599999999949
 30
0.0
 70
    32
  0
VERTEX
  5
1B379
  8
0
 10
174.64699999999991
 20
128.90199999999959
 30
0.0
 70
    32
  0
VERTEX
  5
1B37A
  8
0
 10
174.66099999999949
 20
128.98899999999949
 30
0.0
 70
    32
  0
VERTEX
  5
1B37B
  8
0
 10
174.672
 20
129.078
 30
0.0
 70
    32
  0
VERTEX
  5
1B37C
  8
0
 10
174.6809999999999
 20
129.16800000000001
 30
0.0
 70
    32
  0
VERTEX
  5
1B37D
  8
0
 10
174.6879999999999
 20
129.25799999999961
 30
0.0
 70
    32
  0
VERTEX
  5
1B37E
  8
0
 10
174.69200000000001
 20
129.3479999999999
 30
0.0
 70
    32
  0
VERTEX
  5
1B37F
  8
0
 10
174.69299999999981
 20
129.43899999999991
 30
0.0
 70
    32
  0
VERTEX
  5
1B380
  8
0
 10
174.69200000000001
 20
129.53
 30
0.0
 70
    32
  0
VERTEX
  5
1B381
  8
0
 10
174.6879999999999
 20
129.62
 30
0.0
 70
    32
  0
VERTEX
  5
1B382
  8
0
 10
174.6809999999999
 20
129.71000000000001
 30
0.0
 70
    32
  0
VERTEX
  5
1B383
  8
0
 10
174.672
 20
129.80000000000001
 30
0.0
 70
    32
  0
VERTEX
  5
1B384
  8
0
 10
174.66099999999949
 20
129.88900000000001
 30
0.0
 70
    32
  0
VERTEX
  5
1B385
  8
0
 10
174.64699999999991
 20
129.976
 30
0.0
 70
    32
  0
VERTEX
  5
1B386
  8
0
 10
174.62999999999991
 20
130.06200000000001
 30
0.0
 70
    32
  0
VERTEX
  5
1B387
  8
0
 10
174.6109999999999
 20
130.14699999999991
 30
0.0
 70
    32
  0
VERTEX
  5
1B388
  8
0
 10
174.58899999999991
 20
130.22999999999999
 30
0.0
 70
    32
  0
VERTEX
  5
1B389
  8
0
 10
174.5659999999998
 20
130.31099999999961
 30
0.0
 70
    32
  0
VERTEX
  5
1B38A
  8
0
 10
174.53999999999999
 20
130.3899999999995
 30
0.0
 70
    32
  0
VERTEX
  5
1B38B
  8
0
 10
174.51099999999991
 20
130.46700000000001
 30
0.0
 70
    32
  0
VERTEX
  5
1B38C
  8
0
 10
174.48099999999991
 20
130.54099999999991
 30
0.0
 70
    32
  0
VERTEX
  5
1B38D
  8
0
 10
174.44799999999981
 20
130.613
 30
0.0
 70
    32
  0
VERTEX
  5
1B38E
  8
0
 10
174.4139999999999
 20
130.68100000000001
 30
0.0
 70
    32
  0
VERTEX
  5
1B38F
  8
0
 10
174.37700000000001
 20
130.74700000000001
 30
0.0
 70
    32
  0
VERTEX
  5
1B390
  8
0
 10
174.33899999999991
 20
130.81
 30
0.0
 70
    32
  0
VERTEX
  5
1B391
  8
0
 10
174.29899999999981
 20
130.869
 30
0.0
 70
    32
  0
VERTEX
  5
1B392
  8
0
 10
174.25700000000001
 20
130.92500000000001
 30
0.0
 70
    32
  0
VERTEX
  5
1B393
  8
0
 10
174.214
 20
130.977
 30
0.0
 70
    32
  0
VERTEX
  5
1B394
  8
0
 10
174.16900000000001
 20
131.02600000000001
 30
0.0
 70
    32
  0
VERTEX
  5
1B395
  8
0
 10
174.12299999999991
 20
131.071
 30
0.0
 70
    32
  0
VERTEX
  5
1B396
  8
0
 10
174.07599999999991
 20
131.1109999999999
 30
0.0
 70
    32
  0
VERTEX
  5
1B397
  8
0
 10
174.0269999999999
 20
131.14799999999991
 30
0.0
 70
    32
  0
VERTEX
  5
1B398
  8
0
 10
173.97799999999981
 20
131.18100000000001
 30
0.0
 70
    32
  0
VERTEX
  5
1B399
  8
0
 10
173.92799999999991
 20
131.20899999999949
 30
0.0
 70
    32
  0
VERTEX
  5
1B39A
  8
0
 10
173.87700000000001
 20
131.23400000000001
 30
0.0
 70
    32
  0
VERTEX
  5
1B39B
  8
0
 10
173.82499999999979
 20
131.2529999999999
 30
0.0
 70
    32
  0
VERTEX
  5
1B39C
  8
0
 10
173.77299999999991
 20
131.26900000000001
 30
0.0
 70
    32
  0
VERTEX
  5
1B39D
  8
0
 10
173.72
 20
131.27999999999949
 30
0.0
 70
    32
  0
VERTEX
  5
1B39E
  8
0
 10
173.667
 20
131.28699999999961
 30
0.0
 70
    32
  0
VERTEX
  5
1B39F
  8
0
 10
173.61399999999981
 20
131.2889999999999
 30
0.0
 70
    32
  0
VERTEX
  5
1B3A0
  8
0
 10
173.56200000000001
 20
131.28699999999961
 30
0.0
 70
    32
  0
VERTEX
  5
1B3A1
  8
0
 10
173.5089999999999
 20
131.27999999999949
 30
0.0
 70
    32
  0
VERTEX
  5
1B3A2
  8
0
 10
173.45599999999979
 20
131.26900000000001
 30
0.0
 70
    32
  0
VERTEX
  5
1B3A3
  8
0
 10
173.404
 20
131.2529999999999
 30
0.0
 70
    32
  0
VERTEX
  5
1B3A4
  8
0
 10
173.352
 20
131.23400000000001
 30
0.0
 70
    32
  0
VERTEX
  5
1B3A5
  8
0
 10
173.3009999999999
 20
131.20899999999949
 30
0.0
 70
    32
  0
VERTEX
  5
1B3A6
  8
0
 10
173.25099999999949
 20
131.18100000000001
 30
0.0
 70
    32
  0
VERTEX
  5
1B3A7
  8
0
 10
173.202
 20
131.14799999999991
 30
0.0
 70
    32
  0
VERTEX
  5
1B3A8
  8
0
 10
173.15299999999999
 20
131.1109999999999
 30
0.0
 70
    32
  0
VERTEX
  5
1B3A9
  8
0
 10
173.10599999999999
 20
131.071
 30
0.0
 70
    32
  0
VERTEX
  5
1B3AA
  8
0
 10
173.06
 20
131.02600000000001
 30
0.0
 70
    32
  0
VERTEX
  5
1B3AB
  8
0
 10
173.01499999999979
 20
130.977
 30
0.0
 70
    32
  0
VERTEX
  5
1B3AC
  8
0
 10
172.97200000000001
 20
130.92500000000001
 30
0.0
 70
    32
  0
VERTEX
  5
1B3AD
  8
0
 10
172.93000000000001
 20
130.869
 30
0.0
 70
    32
  0
VERTEX
  5
1B3AE
  8
0
 10
172.88999999999979
 20
130.81
 30
0.0
 70
    32
  0
VERTEX
  5
1B3AF
  8
0
 10
172.852
 20
130.74700000000001
 30
0.0
 70
    32
  0
VERTEX
  5
1B3B0
  8
0
 10
172.815
 20
130.68100000000001
 30
0.0
 70
    32
  0
VERTEX
  5
1B3B1
  8
0
 10
172.78099999999981
 20
130.613
 30
0.0
 70
    32
  0
VERTEX
  5
1B3B2
  8
0
 10
172.74799999999991
 20
130.54099999999991
 30
0.0
 70
    32
  0
VERTEX
  5
1B3B3
  8
0
 10
172.7179999999999
 20
130.46700000000001
 30
0.0
 70
    32
  0
VERTEX
  5
1B3B4
  8
0
 10
172.68899999999999
 20
130.3899999999995
 30
0.0
 70
    32
  0
VERTEX
  5
1B3B5
  8
0
 10
172.66299999999981
 20
130.31099999999961
 30
0.0
 70
    32
  0
VERTEX
  5
1B3B6
  8
0
 10
172.6399999999999
 20
130.22999999999999
 30
0.0
 70
    32
  0
VERTEX
  5
1B3B7
  8
0
 10
172.61799999999999
 20
130.14699999999991
 30
0.0
 70
    32
  0
VERTEX
  5
1B3B8
  8
0
 10
172.5989999999999
 20
130.06200000000001
 30
0.0
 70
    32
  0
VERTEX
  5
1B3B9
  8
0
 10
172.58199999999991
 20
129.976
 30
0.0
 70
    32
  0
VERTEX
  5
1B3BA
  8
0
 10
172.56799999999981
 20
129.88900000000001
 30
0.0
 70
    32
  0
VERTEX
  5
1B3BB
  8
0
 10
172.5569999999999
 20
129.80000000000001
 30
0.0
 70
    32
  0
VERTEX
  5
1B3BC
  8
0
 10
172.548
 20
129.71000000000001
 30
0.0
 70
    32
  0
VERTEX
  5
1B3BD
  8
0
 10
172.541
 20
129.62
 30
0.0
 70
    32
  0
VERTEX
  5
1B3BE
  8
0
 10
172.53700000000001
 20
129.53
 30
0.0
 70
    32
  0
VERTEX
  5
1B3BF
  8
0
 10
172.5359999999998
 20
129.43899999999991
 30
0.0
 70
    32
  0
VERTEX
  5
1B3C0
  8
0
 10
172.53700000000001
 20
129.3479999999999
 30
0.0
 70
    32
  0
VERTEX
  5
1B3C1
  8
0
 10
172.541
 20
129.25799999999961
 30
0.0
 70
    32
  0
VERTEX
  5
1B3C2
  8
0
 10
172.548
 20
129.16800000000001
 30
0.0
 70
    32
  0
VERTEX
  5
1B3C3
  8
0
 10
172.5569999999999
 20
129.078
 30
0.0
 70
    32
  0
VERTEX
  5
1B3C4
  8
0
 10
172.56799999999981
 20
128.98899999999949
 30
0.0
 70
    32
  0
VERTEX
  5
1B3C5
  8
0
 10
172.58199999999991
 20
128.90199999999959
 30
0.0
 70
    32
  0
VERTEX
  5
1B3C6
  8
0
 10
172.5989999999999
 20
128.81599999999949
 30
0.0
 70
    32
  0
VERTEX
  5
1B3C7
  8
0
 10
172.61799999999999
 20
128.73099999999991
 30
0.0
 70
    32
  0
VERTEX
  5
1B3C8
  8
0
 10
172.6399999999999
 20
128.648
 30
0.0
 70
    32
  0
VERTEX
  5
1B3C9
  8
0
 10
172.66299999999981
 20
128.56700000000001
 30
0.0
 70
    32
  0
VERTEX
  5
1B3CA
  8
0
 10
172.68899999999999
 20
128.488
 30
0.0
 70
    32
  0
VERTEX
  5
1B3CB
  8
0
 10
172.7179999999999
 20
128.411
 30
0.0
 70
    32
  0
VERTEX
  5
1B3CC
  8
0
 10
172.74799999999991
 20
128.3369999999999
 30
0.0
 70
    32
  0
VERTEX
  5
1B3CD
  8
0
 10
172.78099999999981
 20
128.2649999999995
 30
0.0
 70
    32
  0
VERTEX
  5
1B3CE
  8
0
 10
172.815
 20
128.197
 30
0.0
 70
    32
  0
VERTEX
  5
1B3CF
  8
0
 10
172.852
 20
128.13099999999949
 30
0.0
 70
    32
  0
VERTEX
  5
1B3D0
  8
0
 10
172.88999999999979
 20
128.0679999999995
 30
0.0
 70
    32
  0
VERTEX
  5
1B3D1
  8
0
 10
172.93000000000001
 20
128.0089999999999
 30
0.0
 70
    32
  0
VERTEX
  5
1B3D2
  8
0
 10
172.97200000000001
 20
127.9529999999999
 30
0.0
 70
    32
  0
VERTEX
  5
1B3D3
  8
0
 10
173.01499999999979
 20
127.9009999999999
 30
0.0
 70
    32
  0
VERTEX
  5
1B3D4
  8
0
 10
173.06
 20
127.852
 30
0.0
 70
    32
  0
VERTEX
  5
1B3D5
  8
0
 10
173.10599999999999
 20
127.807
 30
0.0
 70
    32
  0
VERTEX
  5
1B3D6
  8
0
 10
173.15299999999999
 20
127.767
 30
0.0
 70
    32
  0
VERTEX
  5
1B3D7
  8
0
 10
173.202
 20
127.73
 30
0.0
 70
    32
  0
VERTEX
  5
1B3D8
  8
0
 10
173.25099999999949
 20
127.697
 30
0.0
 70
    32
  0
VERTEX
  5
1B3D9
  8
0
 10
173.3009999999999
 20
127.669
 30
0.0
 70
    32
  0
VERTEX
  5
1B3DA
  8
0
 10
173.352
 20
127.64400000000001
 30
0.0
 70
    32
  0
VERTEX
  5
1B3DB
  8
0
 10
173.404
 20
127.625
 30
0.0
 70
    32
  0
VERTEX
  5
1B3DC
  8
0
 10
173.45599999999979
 20
127.6089999999999
 30
0.0
 70
    32
  0
VERTEX
  5
1B3DD
  8
0
 10
173.5089999999999
 20
127.598
 30
0.0
 70
    32
  0
VERTEX
  5
1B3DE
  8
0
 10
173.56200000000001
 20
127.5909999999996
 30
0.0
 70
    32
  0
VERTEX
  5
1B3DF
  8
0
 10
173.61399999999981
 20
127.5889999999999
 30
0.0
 70
    32
  0
SEQEND
  5
1B3E0
  8
0
  0
POLYLINE
  5
1B3E1
  8
HIDDEN
 66
     1
 10
0.0
 20
0.0
 30
0.0
 70
     8
  0
VERTEX
  5
1B3E2
  8
HIDDEN
 10
173.61416866329671
 20
131.2910319744885
 30
0.0
 70
    32
  0
VERTEX
  5
1B3E3
  8
HIDDEN
 10
173.64099999999999
 20
131.28999999999991
 30
0.0
 70
    32
  0
VERTEX
  5
1B3E4
  8
HIDDEN
 10
173.69299999999981
 20
131.29300000000001
 30
0.0
 70
    32
  0
VERTEX
  5
1B3E5
  8
HIDDEN
 10
173.745
 20
131.30000000000001
 30
0.0
 70
    32
  0
VERTEX
  5
1B3E6
  8
HIDDEN
 10
173.79699999999991
 20
131.31099999999961
 30
0.0
 70
    32
  0
VERTEX
  5
1B3E7
  8
HIDDEN
 10
173.8489999999999
 20
131.32699999999991
 30
0.0
 70
    32
  0
VERTEX
  5
1B3E8
  8
HIDDEN
 10
173.899
 20
131.34700000000001
 30
0.0
 70
    32
  0
VERTEX
  5
1B3E9
  8
HIDDEN
 10
173.9499999999999
 20
131.37200000000001
 30
0.0
 70
    32
  0
VERTEX
  5
1B3EA
  8
HIDDEN
 10
173.99899999999971
 20
131.40100000000001
 30
0.0
 70
    32
  0
VERTEX
  5
1B3EB
  8
HIDDEN
 10
174.0479999999998
 20
131.434
 30
0.0
 70
    32
  0
VERTEX
  5
1B3EC
  8
HIDDEN
 10
174.09499999999991
 20
131.471
 30
0.0
 70
    32
  0
VERTEX
  5
1B3ED
  8
HIDDEN
 10
174.14199999999991
 20
131.512
 30
0.0
 70
    32
  0
VERTEX
  5
1B3EE
  8
HIDDEN
 10
174.18700000000001
 20
131.5569999999999
 30
0.0
 70
    32
  0
VERTEX
  5
1B3EF
  8
HIDDEN
 10
174.23099999999991
 20
131.60599999999999
 30
0.0
 70
    32
  0
VERTEX
  5
1B3F0
  8
HIDDEN
 10
174.27299999999991
 20
131.65899999999991
 30
0.0
 70
    32
  0
VERTEX
  5
1B3F1
  8
HIDDEN
 10
174.31399999999991
 20
131.715
 30
0.0
 70
    32
  0
VERTEX
  5
1B3F2
  8
HIDDEN
 10
174.35299999999981
 20
131.774
 30
0.0
 70
    32
  0
VERTEX
  5
1B3F3
  8
HIDDEN
 10
174.38999999999999
 20
131.8369999999999
 30
0.0
 70
    32
  0
VERTEX
  5
1B3F4
  8
HIDDEN
 10
174.4259999999999
 20
131.90299999999991
 30
0.0
 70
    32
  0
VERTEX
  5
1B3F5
  8
HIDDEN
 10
174.46000000000001
 20
131.97200000000001
 30
0.0
 70
    32
  0
VERTEX
  5
1B3F6
  8
HIDDEN
 10
174.4909999999999
 20
132.04399999999961
 30
0.0
 70
    32
  0
VERTEX
  5
1B3F7
  8
HIDDEN
 10
174.5209999999999
 20
132.11799999999999
 30
0.0
 70
    32
  0
VERTEX
  5
1B3F8
  8
HIDDEN
 10
174.548
 20
132.19499999999991
 30
0.0
 70
    32
  0
VERTEX
  5
1B3F9
  8
HIDDEN
 10
174.57299999999981
 20
132.274
 30
0.0
 70
    32
  0
VERTEX
  5
1B3FA
  8
HIDDEN
 10
174.5959999999998
 20
132.35599999999999
 30
0.0
 70
    32
  0
VERTEX
  5
1B3FB
  8
HIDDEN
 10
174.6169999999999
 20
132.43899999999991
 30
0.0
 70
    32
  0
VERTEX
  5
1B3FC
  8
HIDDEN
 10
174.63499999999991
 20
132.52399999999949
 30
0.0
 70
    32
  0
VERTEX
  5
1B3FD
  8
HIDDEN
 10
174.65099999999981
 20
132.61000000000001
 30
0.0
 70
    32
  0
VERTEX
  5
1B3FE
  8
HIDDEN
 10
174.6639999999999
 20
132.69799999999961
 30
0.0
 70
    32
  0
VERTEX
  5
1B3FF
  8
HIDDEN
 10
174.67500000000001
 20
132.786
 30
0.0
 70
    32
  0
VERTEX
  5
1B400
  8
HIDDEN
 10
174.68299999999991
 20
132.876
 30
0.0
 70
    32
  0
VERTEX
  5
1B401
  8
HIDDEN
 10
174.68899999999999
 20
132.96600000000001
 30
0.0
 70
    32
  0
VERTEX
  5
1B402
  8
HIDDEN
 10
174.69200000000001
 20
133.05600000000001
 30
0.0
 70
    32
  0
VERTEX
  5
1B403
  8
HIDDEN
 10
174.69299999999981
 20
133.14699999999991
 30
0.0
 70
    32
  0
VERTEX
  5
1B404
  8
HIDDEN
 10
174.69099999999949
 20
133.238
 30
0.0
 70
    32
  0
VERTEX
  5
1B405
  8
HIDDEN
 10
174.68700000000001
 20
133.328
 30
0.0
 70
    32
  0
VERTEX
  5
1B406
  8
HIDDEN
 10
174.679
 20
133.41800000000001
 30
0.0
 70
    32
  0
VERTEX
  5
1B407
  8
HIDDEN
 10
174.6699999999999
 20
133.50799999999961
 30
0.0
 70
    32
  0
VERTEX
  5
1B408
  8
HIDDEN
 10
174.6579999999999
 20
133.596
 30
0.0
 70
    32
  0
VERTEX
  5
1B409
  8
HIDDEN
 10
174.643
 20
133.684
 30
0.0
 70
    32
  0
VERTEX
  5
1B40A
  8
HIDDEN
 10
174.62599999999989
 20
133.77000000000001
 30
0.0
 70
    32
  0
VERTEX
  5
1B40B
  8
HIDDEN
 10
174.607
 20
133.8539999999995
 30
0.0
 70
    32
  0
VERTEX
  5
1B40C
  8
HIDDEN
 10
174.58500000000001
 20
133.93700000000001
 30
0.0
 70
    32
  0
VERTEX
  5
1B40D
  8
HIDDEN
 10
174.56099999999981
 20
134.0179999999998
 30
0.0
 70
    32
  0
VERTEX
  5
1B40E
  8
HIDDEN
 10
174.53499999999991
 20
134.09700000000001
 30
0.0
 70
    32
  0
VERTEX
  5
1B40F
  8
HIDDEN
 10
174.5059999999998
 20
134.173
 30
0.0
 70
    32
  0
VERTEX
  5
1B410
  8
HIDDEN
 10
174.47499999999991
 20
134.24700000000001
 30
0.0
 70
    32
  0
VERTEX
  5
1B411
  8
HIDDEN
 10
174.4429999999999
 20
134.31899999999951
 30
0.0
 70
    32
  0
VERTEX
  5
1B412
  8
HIDDEN
 10
174.40799999999979
 20
134.387
 30
0.0
 70
    32
  0
VERTEX
  5
1B413
  8
HIDDEN
 10
174.37099999999981
 20
134.453
 30
0.0
 70
    32
  0
VERTEX
  5
1B414
  8
HIDDEN
 10
174.333
 20
134.5149999999995
 30
0.0
 70
    32
  0
VERTEX
  5
1B415
  8
HIDDEN
 10
174.29300000000001
 20
134.5739999999999
 30
0.0
 70
    32
  0
VERTEX
  5
1B416
  8
HIDDEN
 10
174.25099999999981
 20
134.63
 30
0.0
 70
    32
  0
VERTEX
  5
1B417
  8
HIDDEN
 10
174.208
 20
134.68100000000001
 30
0.0
 70
    32
  0
VERTEX
  5
1B418
  8
HIDDEN
 10
174.1639999999999
 20
134.7299999999999
 30
0.0
 70
    32
  0
VERTEX
  5
1B419
  8
HIDDEN
 10
174.11799999999991
 20
134.7739999999996
 30
0.0
 70
    32
  0
VERTEX
  5
1B41A
  8
HIDDEN
 10
174.07099999999991
 20
134.81499999999991
 30
0.0
 70
    32
  0
VERTEX
  5
1B41B
  8
HIDDEN
 10
174.02299999999991
 20
134.851
 30
0.0
 70
    32
  0
VERTEX
  5
1B41C
  8
HIDDEN
 10
173.9739999999999
 20
134.8829999999999
 30
0.0
 70
    32
  0
VERTEX
  5
1B41D
  8
HIDDEN
 10
173.92400000000001
 20
134.911
 30
0.0
 70
    32
  0
VERTEX
  5
1B41E
  8
HIDDEN
 10
173.87299999999991
 20
134.935
 30
0.0
 70
    32
  0
VERTEX
  5
1B41F
  8
HIDDEN
 10
173.822
 20
134.95500000000001
 30
0.0
 70
    32
  0
VERTEX
  5
1B420
  8
HIDDEN
 10
173.77099999999979
 20
134.97
 30
0.0
 70
    32
  0
VERTEX
  5
1B421
  8
HIDDEN
 10
173.71899999999999
 20
134.98099999999991
 30
0.0
 70
    32
  0
VERTEX
  5
1B422
  8
HIDDEN
 10
173.666
 20
134.98699999999991
 30
0.0
 70
    32
  0
VERTEX
  5
1B423
  8
HIDDEN
 10
173.61399999999981
 20
134.989
 30
0.0
 70
    32
  0
SEQEND
  5
1B424
  8
HIDDEN
  0
ARC
  5
1B425
  8
0
 62
     5
 10
336.94234085178113
 20
151.60894071775729
 30
0.0
 40
1.0007876229544801
 50
180.0465322852202
 51
222.77344039862331
  0
ARC
  5
1B426
  8
0
 62
     5
 10
336.93955350836973
 20
189.37015271624111
 30
0.0
 40
0.9980000853076859
 50
137.16393906696251
 51
180.02989099119591
  0
ARC
  5
1B427
  8
0
 62
     5
 10
395.4699952838057
 20
189.36845633431599
 30
0.0
 40
1.0038877636602741
 50
0.0671034474016441
 51
42.704131612109812
  0
ARC
  5
1B428
  8
0
 62
     5
 10
395.4700596621808
 20
151.60951891909559
 30
0.0
 40
1.0038236605239881
 50
317.29441488696921
 51
359.92060612334183
  0
ARC
  5
1B429
  8
0
 62
     5
 10
385.09001262559912
 20
141.21896600013571
 30
0.0
 40
0.9962515945257091
 50
269.91128275931362
 51
312.8755805627053
  0
ARC
  5
1B42A
  8
0
 62
     5
 10
374.6515186889016
 20
139.7224008203423
 30
0.0
 40
0.5031791276965312
 50
90.605043880928278
 51
179.64174778053999
  0
ARC
  5
1B42B
  8
0
 62
     5
 10
346.88552052524261
 20
137.5894004410637
 30
0.0
 40
0.5005206854291063
 50
180.04583943484121
 51
269.9433830742048
  0
ARC
  5
1B42C
  8
0
 62
     5
 10
218.16384689984679
 20
140.4458885809652
 30
0.0
 40
0.0356866754091343
 50
57.540608215262289
 51
94.621312397305601
  0
LINE
  5
1B42D
  8
0
 62
     5
 10
218.18299999999999
 20
140.476
 30
0.0
 11
218.577
 21
140.24600000000001
 31
0.0
  0
ARC
  5
1B42E
  8
0
 62
     5
 10
219.3831973066824
 20
139.8458310921794
 30
0.0
 40
0.9000495831277303
 50
153.60176251830629
 51
178.35546391318181
  0
ARC
  5
1B42F
  8
0
 62
     5
 10
200.8431537022052
 20
140.41343287224191
 30
0.0
 40
0.0654642364406311
 50
96.537738761114881
 51
142.81372450652111
  0
ARC
  5
1B430
  8
0
 62
     5
 10
201.11755621535639
 20
140.20583157279981
 30
0.0
 40
0.4095499886371148
 50
142.87814104731851
 51
163.72120232144141
  0
ENDSEC
  0
EOF
