  0
SECTION
  2
HEADER
  9
$ACADVER
  1
AC1009
  9
$INSBASE
 10
0.0
 20
0.0
 30
0.0
  9
$EXTMIN
 10
23.481516925667961
 20
110.11107560239741
 30
-0.0000000000112498
  9
$EXTMAX
 10
376.42225857236139
 20
242.28281532697491
 30
0.0000000000002956
  9
$LIMMIN
 10
0.0
 20
0.0
  9
$LIMMAX
 10
12.0
 20
9.0
  9
$ORTHOMODE
 70
     0
  9
$REGENMODE
 70
     1
  9
$FILLMODE
 70
     1
  9
$QTEXTMODE
 70
     0
  9
$MIRRTEXT
 70
     1
  9
$DRAGMODE
 70
     2
  9
$LTSCALE
 40
0.5
  9
$OSMODE
 70
    37
  9
$ATTMODE
 70
     1
  9
$TEXTSIZE
 40
0.2
  9
$TRACEWID
 40
0.05
  9
$TEXTSTYLE
  7
STANDARD
  9
$CLAYER
  8
0
  9
$CELTYPE
  6
BYLAYER
  9
$CECOLOR
 62
   256
  9
$DIMSCALE
 40
1.0
  9
$DIMASZ
 40
0.18
  9
$DIMEXO
 40
0.0625
  9
$DIMDLI
 40
0.38
  9
$DIMRND
 40
0.0
  9
$DIMDLE
 40
0.0
  9
$DIMEXE
 40
0.18
  9
$DIMTP
 40
0.0
  9
$DIMTM
 40
0.0
  9
$DIMTXT
 40
0.18
  9
$DIMCEN
 40
0.09
  9
$DIMTSZ
 40
0.0
  9
$DIMTOL
 70
     0
  9
$DIMLIM
 70
     0
  9
$DIMTIH
 70
     1
  9
$DIMTOH
 70
     1
  9
$DIMSE1
 70
     0
  9
$DIMSE2
 70
     0
  9
$DIMTAD
 70
     0
  9
$DIMZIN
 70
     0
  9
$DIMBLK
  1

  9
$DIMASO
 70
     1
  9
$DIMSHO
 70
     1
  9
$DIMPOST
  1

  9
$DIMAPOST
  1

  9
$DIMALT
 70
     0
  9
$DIMALTD
 70
     2
  9
$DIMALTF
 40
25.399999999999999
  9
$DIMLFAC
 40
1.0
  9
$DIMTOFL
 70
     0
  9
$DIMTVP
 40
0.0
  9
$DIMTIX
 70
     0
  9
$DIMSOXD
 70
     0
  9
$DIMSAH
 70
     0
  9
$DIMBLK1
  1

  9
$DIMBLK2
  1

  9
$DIMSTYLE
  2
STANDARD
  9
$DIMCLRD
 70
     0
  9
$DIMCLRE
 70
     0
  9
$DIMCLRT
 70
     0
  9
$DIMTFAC
 40
1.0
  9
$DIMGAP
 40
0.09
  9
$LUNITS
 70
     2
  9
$LUPREC
 70
     4
  9
$SKETCHINC
 40
0.1
  9
$FILLETRAD
 40
0.0
  9
$AUNITS
 70
     0
  9
$AUPREC
 70
     0
  9
$MENU
  1
.
  9
$ELEVATION
 40
0.0
  9
$PELEVATION
 40
0.0
  9
$THICKNESS
 40
0.0
  9
$LIMCHECK
 70
     0
  9
$BLIPMODE
 70
     0
  9
$CHAMFERA
 40
0.0
  9
$CHAMFERB
 40
0.0
  9
$SKPOLY
 70
     0
  9
$TDCREATE
 40
2451614.5598203698
  9
$TDUPDATE
 40
2453362.5675119441
  9
$TDINDWG
 40
0.1067634491
  9
$TDUSRTIMER
 40
0.1067631019
  9
$USRTIMER
 70
     1
  9
$ANGBASE
 50
0.0
  9
$ANGDIR
 70
     0
  9
$PDMODE
 70
     0
  9
$PDSIZE
 40
0.0
  9
$PLINEWID
 40
0.0
  9
$COORDS
 70
     1
  9
$SPLFRAME
 70
     0
  9
$SPLINETYPE
 70
     6
  9
$SPLINESEGS
 70
     8
  9
$ATTDIA
 70
     0
  9
$ATTREQ
 70
     1
  9
$HANDLING
 70
 22529
  9
$HANDSEED
  5
10E76
  9
$SURFTAB1
 70
     6
  9
$SURFTAB2
 70
     6
  9
$SURFTYPE
 70
     6
  9
$SURFU
 70
     6
  9
$SURFV
 70
     6
  9
$UCSNAME
  2

  9
$UCSORG
 10
0.0
 20
0.0
 30
0.0
  9
$UCSXDIR
 10
1.0
 20
0.0
 30
0.0
  9
$UCSYDIR
 10
0.0
 20
1.0
 30
0.0
  9
$PUCSNAME
  2

  9
$PUCSORG
 10
0.0
 20
0.0
 30
0.0
  9
$PUCSXDIR
 10
1.0
 20
0.0
 30
0.0
  9
$PUCSYDIR
 10
0.0
 20
1.0
 30
0.0
  9
$USERI1
 70
     0
  9
$USERI2
 70
     0
  9
$USERI3
 70
     0
  9
$USERI4
 70
     0
  9
$USERI5
 70
     0
  9
$USERR1
 40
0.0
  9
$USERR2
 40
0.0
  9
$USERR3
 40
0.0
  9
$USERR4
 40
0.0
  9
$USERR5
 40
0.0
  9
$WORLDVIEW
 70
     1
  9
$SHADEDGE
 70
     3
  9
$SHADEDIF
 70
    70
  9
$TILEMODE
 70
     1
  9
$MAXACTVP
 70
    48
  9
$PLIMCHECK
 70
     0
  9
$PEXTMIN
 10
1.0000000000000000E+020
 20
1.0000000000000000E+020
 30
1.0000000000000000E+020
  9
$PEXTMAX
 10
-1.0000000000000000E+020
 20
-1.0000000000000000E+020
 30
-1.0000000000000000E+020
  9
$PLIMMIN
 10
0.0
 20
0.0
  9
$PLIMMAX
 10
12.0
 20
9.0
  9
$UNITMODE
 70
     0
  9
$VISRETAIN
 70
     1
  9
$PLINEGEN
 70
     0
  9
$PSLTSCALE
 70
     1
  0
ENDSEC
  0
SECTION
  2
TABLES
  0
TABLE
  2
VPORT
 70
     2
  0
VPORT
  2
*ACTIVE
 70
     0
 10
0.0
 20
0.0
 11
1.0
 21
1.0
 12
199.95188774901459
 22
176.19694546468619
 13
0.0
 23
0.0
 14
1.0
 24
1.0
 15
0.0
 25
0.0
 16
0.0
 26
0.0
 36
1.0
 17
0.0
 27
0.0
 37
0.0
 40
229.0847220206133
 41
1.548223350253807
 42
50.0
 43
0.0
 44
0.0
 50
0.0
 51
0.0
 71
     0
 72
   100
 73
     1
 74
     1
 75
     0
 76
     0
 77
     0
 78
     0
  0
ENDTAB
  0
TABLE
  2
LTYPE
 70
     3
  0
LTYPE
  2
CONTINUOUS
 70
     0
  3
Solid line
 72
    65
 73
     0
 40
0.0
  0
LTYPE
  2
CENTER
 70
     0
  3
____ _ ____ _ ____ _ ____ _ ____ _ ____ _ ____
 72
    65
 73
     4
 40
17.5
 49
13.0
 49
-1.5
 49
1.5
 49
-1.5
  0
LTYPE
  2
HIDDEN
 70
     0
  3
Hidden __ __ __ __ __ __ __ __ __ __ __ __ __ _
 72
    65
 73
     2
 40
9.5249999999999986
 49
6.349999999999997
 49
-3.174999999999998
  0
ENDTAB
  0
TABLE
  2
LAYER
 70
     4
  0
LAYER
  2
0
 70
     0
 62
     7
  6
CONTINUOUS
  0
LAYER
  2
CENTER
 70
     0
 62
     1
  6
CENTER
  0
LAYER
  2
1
 70
     0
 62
     7
  6
CONTINUOUS
  0
LAYER
  2
HIDDEN
 70
     0
 62
     6
  6
HIDDEN
  0
ENDTAB
  0
TABLE
  2
STYLE
 70
     1
  0
STYLE
  2
STANDARD
 70
     0
 40
0.0
 41
1.0
 50
0.0
 71
     0
 42
0.2
  3
txt
  4

  0
ENDTAB
  0
TABLE
  2
VIEW
 70
     0
  0
ENDTAB
  0
TABLE
  2
UCS
 70
     0
  0
ENDTAB
  0
TABLE
  2
APPID
 70
     1
  0
APPID
  2
ACAD
 70
     0
  0
ENDTAB
  0
TABLE
  2
DIMSTYLE
 70
     1
  0
DIMSTYLE
  2
STANDARD
 70
     0
  3

  4

  5

  6

  7

 40
1.0
 41
0.18
 42
0.0625
 43
0.38
 44
0.18
 45
0.0
 46
0.0
 47
0.0
 48
0.0
140
0.18
141
0.09
142
0.0
143
25.399999999999999
144
1.0
145
0.0
146
1.0
147
0.09
 71
     0
 72
     0
 73
     1
 74
     1
 75
     0
 76
     0
 77
     0
 78
     0
170
     0
171
     2
172
     0
173
     0
174
     0
175
     0
176
     0
177
     0
178
     0
  0
ENDTAB
  0
ENDSEC
  0
SECTION
  2
BLOCKS
  0
BLOCK
  8
0
  2
$MODEL_SPACE
 70
     0
 10
0.0
 20
0.0
 30
0.0
  3
$MODEL_SPACE
  1

  0
ENDBLK
  5
10DC5
  8
0
  0
BLOCK
 67
     1
  8
0
  2
$PAPER_SPACE
 70
     0
 10
0.0
 20
0.0
 30
0.0
  3
$PAPER_SPACE
  1

  0
ENDBLK
  5
10DC3
 67
     1
  8
0
  0
BLOCK
  8
0
  2
A$C3C4259C2
 70
     0
 10
0.0
 20
0.0
 30
0.0
  3
A$C3C4259C2
  1

  0
POLYLINE
  5
1016E
  8
HIDDEN
 66
     1
 10
0.0
 20
0.0
 30
0.0
 70
     8
  0
VERTEX
  5
1016F
  8
0
 10
0.0000000000000001
 20
4.1600000000000001
 30
0.0
 70
    32
  0
VERTEX
  5
10170
  8
0
 10
-0.0164102
 20
4.1596900000000003
 30
0.0
 70
    32
  0
VERTEX
  5
10171
  8
0
 10
-0.0328105
 20
4.1587500000000004
 30
0.0
 70
    32
  0
VERTEX
  5
10172
  8
0
 10
-0.049191
 20
4.1571800000000003
 30
0.0
 70
    32
  0
VERTEX
  5
10173
  8
0
 10
-0.0655419
 20
4.1549899999999971
 30
0.0
 70
    32
  0
VERTEX
  5
10174
  8
0
 10
-0.0818533
 20
4.1521800000000004
 30
0.0
 70
    32
  0
VERTEX
  5
10175
  8
0
 10
-0.0981154
 20
4.1487400000000001
 30
0.0
 70
    32
  0
VERTEX
  5
10176
  8
0
 10
-0.114318
 20
4.1446899999999971
 30
0.0
 70
    32
  0
VERTEX
  5
10177
  8
0
 10
-0.130453
 20
4.140019999999998
 30
0.0
 70
    32
  0
VERTEX
  5
10178
  8
0
 10
-0.146508
 20
4.1347300000000002
 30
0.0
 70
    32
  0
VERTEX
  5
10179
  8
0
 10
-0.162475
 20
4.128829999999998
 30
0.0
 70
    32
  0
VERTEX
  5
1017A
  8
0
 10
-0.178345
 20
4.1223299999999981
 30
0.0
 70
    32
  0
VERTEX
  5
1017B
  8
0
 10
-0.194107
 20
4.1152199999999981
 30
0.0
 70
    32
  0
VERTEX
  5
1017C
  8
0
 10
-0.209752
 20
4.1075099999999987
 30
0.0
 70
    32
  0
VERTEX
  5
1017D
  8
0
 10
-0.225271
 20
4.0992100000000002
 30
0.0
 70
    32
  0
VERTEX
  5
1017E
  8
0
 10
-0.240654
 20
4.090309999999997
 30
0.0
 70
    32
  0
VERTEX
  5
1017F
  8
0
 10
-0.255892
 20
4.0808299999999971
 30
0.0
 70
    32
  0
VERTEX
  5
10180
  8
0
 10
-0.270976
 20
4.0707800000000001
 30
0.0
 70
    32
  0
VERTEX
  5
10181
  8
0
 10
-0.2858969999999999
 20
4.0601500000000001
 30
0.0
 70
    32
  0
VERTEX
  5
10182
  8
0
 10
-0.300645
 20
4.0489499999999987
 30
0.0
 70
    32
  0
VERTEX
  5
10183
  8
0
 10
-0.315212
 20
4.0372000000000003
 30
0.0
 70
    32
  0
VERTEX
  5
10184
  8
0
 10
-0.32959
 20
4.0248900000000001
 30
0.0
 70
    32
  0
VERTEX
  5
10185
  8
0
 10
-0.343769
 20
4.0120399999999981
 30
0.0
 70
    32
  0
VERTEX
  5
10186
  8
0
 10
-0.3577409999999999
 20
3.9986499999999991
 30
0.0
 70
    32
  0
VERTEX
  5
10187
  8
0
 10
-0.371497
 20
3.9847299999999981
 30
0.0
 70
    32
  0
VERTEX
  5
10188
  8
0
 10
-0.38503
 20
3.9702899999999981
 30
0.0
 70
    32
  0
VERTEX
  5
10189
  8
0
 10
-0.398331
 20
3.9553399999999992
 30
0.0
 70
    32
  0
VERTEX
  5
1018A
  8
0
 10
-0.4113920000000002
 20
3.93988
 30
0.0
 70
    32
  0
VERTEX
  5
1018B
  8
0
 10
-0.424205
 20
3.9239299999999999
 30
0.0
 70
    32
  0
VERTEX
  5
1018C
  8
0
 10
-0.436762
 20
3.9075000000000002
 30
0.0
 70
    32
  0
VERTEX
  5
1018D
  8
0
 10
-0.4490560000000002
 20
3.8905899999999991
 30
0.0
 70
    32
  0
VERTEX
  5
1018E
  8
0
 10
-0.4610800000000002
 20
3.8732199999999981
 30
0.0
 70
    32
  0
VERTEX
  5
1018F
  8
0
 10
-0.4728260000000001
 20
3.8553899999999981
 30
0.0
 70
    32
  0
VERTEX
  5
10190
  8
0
 10
-0.484288
 20
3.8371199999999992
 30
0.0
 70
    32
  0
VERTEX
  5
10191
  8
0
 10
-0.495457
 20
3.8184199999999988
 30
0.0
 70
    32
  0
VERTEX
  5
10192
  8
0
 10
-0.5063290000000003
 20
3.7993000000000001
 30
0.0
 70
    32
  0
VERTEX
  5
10193
  8
0
 10
-0.516895
 20
3.7797699999999992
 30
0.0
 70
    32
  0
VERTEX
  5
10194
  8
0
 10
-0.52715
 20
3.7598400000000001
 30
0.0
 70
    32
  0
VERTEX
  5
10195
  8
0
 10
-0.537087
 20
3.7395299999999989
 30
0.0
 70
    32
  0
VERTEX
  5
10196
  8
0
 10
-0.5467010000000001
 20
3.7188400000000001
 30
0.0
 70
    32
  0
VERTEX
  5
10197
  8
0
 10
-0.5559850000000001
 20
3.697789999999999
 30
0.0
 70
    32
  0
VERTEX
  5
10198
  8
0
 10
-0.5649350000000001
 20
3.6764000000000001
 30
0.0
 70
    32
  0
VERTEX
  5
10199
  8
0
 10
-0.5735440000000001
 20
3.6546699999999981
 30
0.0
 70
    32
  0
VERTEX
  5
1019A
  8
0
 10
-0.5818080000000001
 20
3.6326099999999988
 30
0.0
 70
    32
  0
VERTEX
  5
1019B
  8
0
 10
-0.5897210000000001
 20
3.6102500000000002
 30
0.0
 70
    32
  0
VERTEX
  5
1019C
  8
0
 10
-0.597279
 20
3.5876000000000001
 30
0.0
 70
    32
  0
VERTEX
  5
1019D
  8
0
 10
-0.6044770000000002
 20
3.5646599999999991
 30
0.0
 70
    32
  0
VERTEX
  5
1019E
  8
0
 10
-0.611312
 20
3.5414500000000002
 30
0.0
 70
    32
  0
VERTEX
  5
1019F
  8
0
 10
-0.6177780000000001
 20
3.5179900000000002
 30
0.0
 70
    32
  0
VERTEX
  5
101A0
  8
0
 10
-0.623871
 20
3.494289999999999
 30
0.0
 70
    32
  0
VERTEX
  5
101A1
  8
0
 10
-0.6295890000000001
 20
3.4703699999999991
 30
0.0
 70
    32
  0
VERTEX
  5
101A2
  8
0
 10
-0.6349280000000001
 20
3.446229999999999
 30
0.0
 70
    32
  0
VERTEX
  5
101A3
  8
0
 10
-0.6398850000000002
 20
3.4218999999999991
 30
0.0
 70
    32
  0
VERTEX
  5
101A4
  8
0
 10
-0.644456
 20
3.3973800000000001
 30
0.0
 70
    32
  0
VERTEX
  5
101A5
  8
0
 10
-0.6486380000000001
 20
3.3727
 30
0.0
 70
    32
  0
VERTEX
  5
101A6
  8
0
 10
-0.6524300000000001
 20
3.347869999999999
 30
0.0
 70
    32
  0
VERTEX
  5
101A7
  8
0
 10
-0.655829
 20
3.3228900000000001
 30
0.0
 70
    32
  0
VERTEX
  5
101A8
  8
0
 10
-0.658833
 20
3.2978000000000001
 30
0.0
 70
    32
  0
VERTEX
  5
101A9
  8
0
 10
-0.6614399999999999
 20
3.2726000000000002
 30
0.0
 70
    32
  0
VERTEX
  5
101AA
  8
0
 10
-0.663649
 20
3.247309999999997
 30
0.0
 70
    32
  0
VERTEX
  5
101AB
  8
0
 10
-0.6654580000000001
 20
3.22194
 30
0.0
 70
    32
  0
VERTEX
  5
101AC
  8
0
 10
-0.666866
 20
3.1965099999999991
 30
0.0
 70
    32
  0
VERTEX
  5
101AD
  8
0
 10
-0.6678720000000001
 20
3.17103
 30
0.0
 70
    32
  0
VERTEX
  5
101AE
  8
0
 10
-0.6684760000000001
 20
3.1455199999999981
 30
0.0
 70
    32
  0
VERTEX
  5
101AF
  8
0
 10
-0.668678
 20
3.1200000000000001
 30
0.0
 70
    32
  0
VERTEX
  5
101B0
  8
0
 10
-0.6684760000000001
 20
3.094479999999999
 30
0.0
 70
    32
  0
VERTEX
  5
101B1
  8
0
 10
-0.6678720000000001
 20
3.0689700000000002
 30
0.0
 70
    32
  0
VERTEX
  5
101B2
  8
0
 10
-0.666866
 20
3.043489999999998
 30
0.0
 70
    32
  0
VERTEX
  5
101B3
  8
0
 10
-0.6654580000000001
 20
3.018059999999998
 30
0.0
 70
    32
  0
VERTEX
  5
101B4
  8
0
 10
-0.663649
 20
2.9926899999999992
 30
0.0
 70
    32
  0
VERTEX
  5
101B5
  8
0
 10
-0.6614399999999999
 20
2.9673999999999991
 30
0.0
 70
    32
  0
VERTEX
  5
101B6
  8
0
 10
-0.658833
 20
2.9422000000000001
 30
0.0
 70
    32
  0
VERTEX
  5
101B7
  8
0
 10
-0.655829
 20
2.9171099999999992
 30
0.0
 70
    32
  0
VERTEX
  5
101B8
  8
0
 10
-0.6524300000000001
 20
2.8921299999999981
 30
0.0
 70
    32
  0
VERTEX
  5
101B9
  8
0
 10
-0.6486380000000001
 20
2.8673000000000002
 30
0.0
 70
    32
  0
VERTEX
  5
101BA
  8
0
 10
-0.644456
 20
2.8426200000000001
 30
0.0
 70
    32
  0
VERTEX
  5
101BB
  8
0
 10
-0.6398850000000002
 20
2.8180999999999989
 30
0.0
 70
    32
  0
VERTEX
  5
101BC
  8
0
 10
-0.6349280000000001
 20
2.7937699999999981
 30
0.0
 70
    32
  0
VERTEX
  5
101BD
  8
0
 10
-0.6295890000000001
 20
2.769629999999998
 30
0.0
 70
    32
  0
VERTEX
  5
101BE
  8
0
 10
-0.623871
 20
2.7457099999999981
 30
0.0
 70
    32
  0
VERTEX
  5
101BF
  8
0
 10
-0.6177780000000001
 20
2.72201
 30
0.0
 70
    32
  0
VERTEX
  5
101C0
  8
0
 10
-0.611312
 20
2.69855
 30
0.0
 70
    32
  0
VERTEX
  5
101C1
  8
0
 10
-0.6044770000000002
 20
2.6753399999999981
 30
0.0
 70
    32
  0
VERTEX
  5
101C2
  8
0
 10
-0.597279
 20
2.6524000000000001
 30
0.0
 70
    32
  0
VERTEX
  5
101C3
  8
0
 10
-0.5897210000000001
 20
2.62975
 30
0.0
 70
    32
  0
VERTEX
  5
101C4
  8
0
 10
-0.5818080000000001
 20
2.6073900000000001
 30
0.0
 70
    32
  0
VERTEX
  5
101C5
  8
0
 10
-0.5735440000000001
 20
2.585329999999999
 30
0.0
 70
    32
  0
VERTEX
  5
101C6
  8
0
 10
-0.5649350000000001
 20
2.5636000000000001
 30
0.0
 70
    32
  0
VERTEX
  5
101C7
  8
0
 10
-0.5559850000000001
 20
2.5422099999999981
 30
0.0
 70
    32
  0
VERTEX
  5
101C8
  8
0
 10
-0.5467010000000001
 20
2.5211600000000001
 30
0.0
 70
    32
  0
VERTEX
  5
101C9
  8
0
 10
-0.537087
 20
2.5004699999999991
 30
0.0
 70
    32
  0
VERTEX
  5
101CA
  8
0
 10
-0.52715
 20
2.480159999999997
 30
0.0
 70
    32
  0
VERTEX
  5
101CB
  8
0
 10
-0.516895
 20
2.4602300000000001
 30
0.0
 70
    32
  0
VERTEX
  5
101CC
  8
0
 10
-0.5063290000000003
 20
2.4407000000000001
 30
0.0
 70
    32
  0
VERTEX
  5
101CD
  8
0
 10
-0.495457
 20
2.4215800000000001
 30
0.0
 70
    32
  0
VERTEX
  5
101CE
  8
0
 10
-0.484288
 20
2.4028800000000001
 30
0.0
 70
    32
  0
VERTEX
  5
101CF
  8
0
 10
-0.4728260000000001
 20
2.384609999999999
 30
0.0
 70
    32
  0
VERTEX
  5
101D0
  8
0
 10
-0.4610800000000002
 20
2.3667799999999981
 30
0.0
 70
    32
  0
VERTEX
  5
101D1
  8
0
 10
-0.4490560000000002
 20
2.3494099999999958
 30
0.0
 70
    32
  0
VERTEX
  5
101D2
  8
0
 10
-0.436762
 20
2.3325
 30
0.0
 70
    32
  0
VERTEX
  5
101D3
  8
0
 10
-0.424205
 20
2.3160699999999981
 30
0.0
 70
    32
  0
VERTEX
  5
101D4
  8
0
 10
-0.4113920000000002
 20
2.3001200000000002
 30
0.0
 70
    32
  0
VERTEX
  5
101D5
  8
0
 10
-0.398331
 20
2.284659999999997
 30
0.0
 70
    32
  0
VERTEX
  5
101D6
  8
0
 10
-0.38503
 20
2.269709999999999
 30
0.0
 70
    32
  0
VERTEX
  5
101D7
  8
0
 10
-0.371497
 20
2.2552699999999981
 30
0.0
 70
    32
  0
VERTEX
  5
101D8
  8
0
 10
-0.3577409999999999
 20
2.2413500000000002
 30
0.0
 70
    32
  0
VERTEX
  5
101D9
  8
0
 10
-0.343769
 20
2.2279599999999991
 30
0.0
 70
    32
  0
VERTEX
  5
101DA
  8
0
 10
-0.32959
 20
2.215109999999997
 30
0.0
 70
    32
  0
VERTEX
  5
101DB
  8
0
 10
-0.315212
 20
2.2027999999999981
 30
0.0
 70
    32
  0
VERTEX
  5
101DC
  8
0
 10
-0.300645
 20
2.1910500000000002
 30
0.0
 70
    32
  0
VERTEX
  5
101DD
  8
0
 10
-0.2858969999999999
 20
2.1798500000000001
 30
0.0
 70
    32
  0
VERTEX
  5
101DE
  8
0
 10
-0.270976
 20
2.1692200000000001
 30
0.0
 70
    32
  0
VERTEX
  5
101DF
  8
0
 10
-0.255892
 20
2.15917
 30
0.0
 70
    32
  0
VERTEX
  5
101E0
  8
0
 10
-0.240654
 20
2.1496900000000001
 30
0.0
 70
    32
  0
VERTEX
  5
101E1
  8
0
 10
-0.225271
 20
2.1407899999999991
 30
0.0
 70
    32
  0
VERTEX
  5
101E2
  8
0
 10
-0.209752
 20
2.1324900000000002
 30
0.0
 70
    32
  0
VERTEX
  5
101E3
  8
0
 10
-0.194107
 20
2.124779999999999
 30
0.0
 70
    32
  0
VERTEX
  5
101E4
  8
0
 10
-0.178345
 20
2.1176699999999991
 30
0.0
 70
    32
  0
VERTEX
  5
101E5
  8
0
 10
-0.162475
 20
2.1111699999999991
 30
0.0
 70
    32
  0
VERTEX
  5
101E6
  8
0
 10
-0.146508
 20
2.1052699999999991
 30
0.0
 70
    32
  0
VERTEX
  5
101E7
  8
0
 10
-0.130453
 20
2.0999799999999991
 30
0.0
 70
    32
  0
VERTEX
  5
101E8
  8
0
 10
-0.114318
 20
2.09531
 30
0.0
 70
    32
  0
VERTEX
  5
101E9
  8
0
 10
-0.0981154
 20
2.0912599999999961
 30
0.0
 70
    32
  0
VERTEX
  5
101EA
  8
0
 10
-0.0818533
 20
2.087819999999998
 30
0.0
 70
    32
  0
VERTEX
  5
101EB
  8
0
 10
-0.0655419
 20
2.08501
 30
0.0
 70
    32
  0
VERTEX
  5
101EC
  8
0
 10
-0.049191
 20
2.082819999999999
 30
0.0
 70
    32
  0
VERTEX
  5
101ED
  8
0
 10
-0.0328105
 20
2.081249999999998
 30
0.0
 70
    32
  0
VERTEX
  5
101EE
  8
0
 10
-0.0164102
 20
2.0803099999999981
 30
0.0
 70
    32
  0
VERTEX
  5
101EF
  8
0
 10
0.0
 20
2.0800000000000001
 30
0.0
 70
    32
  0
SEQEND
  5
101F0
  8
0
  0
POLYLINE
  5
101F1
  8
HIDDEN
 66
     1
 10
0.0
 20
0.0
 30
0.0
 70
     8
  0
VERTEX
  5
101F2
  8
0
 10
0.0
 20
0.000000000000014
 30
0.0
 70
    32
  0
VERTEX
  5
101F3
  8
0
 10
0.0328105
 20
0.00125273
 30
0.0
 70
    32
  0
VERTEX
  5
101F4
  8
0
 10
0.0655419
 20
0.00500788
 30
0.0
 70
    32
  0
VERTEX
  5
101F5
  8
0
 10
0.0981154
 20
0.0112564
 30
0.0
 70
    32
  0
VERTEX
  5
101F6
  8
0
 10
0.130453
 20
0.0199833
 30
0.0
 70
    32
  0
VERTEX
  5
101F7
  8
0
 10
0.162475
 20
0.0311675
 30
0.0
 70
    32
  0
VERTEX
  5
101F8
  8
0
 10
0.194107
 20
0.0447821
 30
0.0
 70
    32
  0
VERTEX
  5
101F9
  8
0
 10
0.225271
 20
0.0607942
 30
0.0
 70
    32
  0
VERTEX
  5
101FA
  8
0
 10
0.255892
 20
0.0791653
 30
0.0
 70
    32
  0
VERTEX
  5
101FB
  8
0
 10
0.2858969999999999
 20
0.0998511
 30
0.0
 70
    32
  0
VERTEX
  5
101FC
  8
0
 10
0.315212
 20
0.122802
 30
0.0
 70
    32
  0
VERTEX
  5
101FD
  8
0
 10
0.343769
 20
0.147962
 30
0.0
 70
    32
  0
VERTEX
  5
101FE
  8
0
 10
0.371497
 20
0.175272
 30
0.0
 70
    32
  0
VERTEX
  5
101FF
  8
0
 10
0.398331
 20
0.204664
 30
0.0
 70
    32
  0
VERTEX
  5
10200
  8
0
 10
0.424205
 20
0.236069
 30
0.0
 70
    32
  0
VERTEX
  5
10201
  8
0
 10
0.4490560000000002
 20
0.269411
 30
0.0
 70
    32
  0
VERTEX
  5
10202
  8
0
 10
0.4728260000000001
 20
0.304609
 30
0.0
 70
    32
  0
VERTEX
  5
10203
  8
0
 10
0.495457
 20
0.341579
 30
0.0
 70
    32
  0
VERTEX
  5
10204
  8
0
 10
0.516895
 20
0.380231
 30
0.0
 70
    32
  0
VERTEX
  5
10205
  8
0
 10
0.537087
 20
0.420473
 30
0.0
 70
    32
  0
VERTEX
  5
10206
  8
0
 10
0.5559850000000001
 20
0.462207
 30
0.0
 70
    32
  0
VERTEX
  5
10207
  8
0
 10
0.5735440000000001
 20
0.5053330000000003
 30
0.0
 70
    32
  0
VERTEX
  5
10208
  8
0
 10
0.5897210000000001
 20
0.549747
 30
0.0
 70
    32
  0
VERTEX
  5
10209
  8
0
 10
0.6044770000000002
 20
0.5953430000000001
 30
0.0
 70
    32
  0
VERTEX
  5
1020A
  8
0
 10
0.6177780000000001
 20
0.6420090000000001
 30
0.0
 70
    32
  0
VERTEX
  5
1020B
  8
0
 10
0.6295890000000001
 20
0.689635
 30
0.0
 70
    32
  0
VERTEX
  5
1020C
  8
0
 10
0.6398850000000002
 20
0.738104
 30
0.0
 70
    32
  0
VERTEX
  5
1020D
  8
0
 10
0.6486380000000001
 20
0.7873010000000003
 30
0.0
 70
    32
  0
VERTEX
  5
1020E
  8
0
 10
0.655829
 20
0.8371059999999999
 30
0.0
 70
    32
  0
VERTEX
  5
1020F
  8
0
 10
0.6614399999999999
 20
0.8873999999999997
 30
0.0
 70
    32
  0
VERTEX
  5
10210
  8
0
 10
0.6654580000000001
 20
0.938062
 30
0.0
 70
    32
  0
VERTEX
  5
10211
  8
0
 10
0.6678720000000001
 20
0.9889699999999999
 30
0.0
 70
    32
  0
VERTEX
  5
10212
  8
0
 10
0.668678
 20
1.04
 30
0.0
 70
    32
  0
VERTEX
  5
10213
  8
0
 10
0.6678720000000001
 20
1.0910299999999991
 30
0.0
 70
    32
  0
VERTEX
  5
10214
  8
0
 10
0.6654580000000001
 20
1.1419399999999991
 30
0.0
 70
    32
  0
VERTEX
  5
10215
  8
0
 10
0.6614399999999999
 20
1.1926000000000001
 30
0.0
 70
    32
  0
VERTEX
  5
10216
  8
0
 10
0.655829
 20
1.2428900000000001
 30
0.0
 70
    32
  0
VERTEX
  5
10217
  8
0
 10
0.6486380000000001
 20
1.2926999999999991
 30
0.0
 70
    32
  0
VERTEX
  5
10218
  8
0
 10
0.6398850000000002
 20
1.3419000000000001
 30
0.0
 70
    32
  0
VERTEX
  5
10219
  8
0
 10
0.6295890000000001
 20
1.3903700000000001
 30
0.0
 70
    32
  0
VERTEX
  5
1021A
  8
0
 10
0.6177780000000001
 20
1.437989999999999
 30
0.0
 70
    32
  0
VERTEX
  5
1021B
  8
0
 10
0.6044770000000002
 20
1.4846600000000001
 30
0.0
 70
    32
  0
VERTEX
  5
1021C
  8
0
 10
0.5897210000000001
 20
1.5302500000000001
 30
0.0
 70
    32
  0
VERTEX
  5
1021D
  8
0
 10
0.5735440000000001
 20
1.57467
 30
0.0
 70
    32
  0
VERTEX
  5
1021E
  8
0
 10
0.5559850000000001
 20
1.6177900000000001
 30
0.0
 70
    32
  0
VERTEX
  5
1021F
  8
0
 10
0.537087
 20
1.6595299999999991
 30
0.0
 70
    32
  0
VERTEX
  5
10220
  8
0
 10
0.516895
 20
1.69977
 30
0.0
 70
    32
  0
VERTEX
  5
10221
  8
0
 10
0.495457
 20
1.7384200000000001
 30
0.0
 70
    32
  0
VERTEX
  5
10222
  8
0
 10
0.4728260000000001
 20
1.77539
 30
0.0
 70
    32
  0
VERTEX
  5
10223
  8
0
 10
0.4490560000000002
 20
1.810589999999999
 30
0.0
 70
    32
  0
VERTEX
  5
10224
  8
0
 10
0.424205
 20
1.843929999999999
 30
0.0
 70
    32
  0
VERTEX
  5
10225
  8
0
 10
0.398331
 20
1.87534
 30
0.0
 70
    32
  0
VERTEX
  5
10226
  8
0
 10
0.371497
 20
1.904729999999996
 30
0.0
 70
    32
  0
VERTEX
  5
10227
  8
0
 10
0.343769
 20
1.93204
 30
0.0
 70
    32
  0
VERTEX
  5
10228
  8
0
 10
0.315212
 20
1.9572000000000001
 30
0.0
 70
    32
  0
VERTEX
  5
10229
  8
0
 10
0.2858969999999999
 20
1.9801500000000001
 30
0.0
 70
    32
  0
VERTEX
  5
1022A
  8
0
 10
0.255892
 20
2.0008300000000001
 30
0.0
 70
    32
  0
VERTEX
  5
1022B
  8
0
 10
0.225271
 20
2.0192099999999962
 30
0.0
 70
    32
  0
VERTEX
  5
1022C
  8
0
 10
0.194107
 20
2.035219999999998
 30
0.0
 70
    32
  0
VERTEX
  5
1022D
  8
0
 10
0.162475
 20
2.0488299999999962
 30
0.0
 70
    32
  0
VERTEX
  5
1022E
  8
0
 10
0.130453
 20
2.0600200000000002
 30
0.0
 70
    32
  0
VERTEX
  5
1022F
  8
0
 10
0.0981154
 20
2.06874
 30
0.0
 70
    32
  0
VERTEX
  5
10230
  8
0
 10
0.0655419
 20
2.0749900000000001
 30
0.0
 70
    32
  0
VERTEX
  5
10231
  8
0
 10
0.0328105
 20
2.0787499999999981
 30
0.0
 70
    32
  0
VERTEX
  5
10232
  8
0
 10
0.0000000000000001
 20
2.0800000000000001
 30
0.0
 70
    32
  0
VERTEX
  5
10233
  8
0
 10
-0.0328105
 20
2.0787499999999981
 30
0.0
 70
    32
  0
VERTEX
  5
10234
  8
0
 10
-0.0655419
 20
2.0749900000000001
 30
0.0
 70
    32
  0
VERTEX
  5
10235
  8
0
 10
-0.0981154
 20
2.06874
 30
0.0
 70
    32
  0
VERTEX
  5
10236
  8
0
 10
-0.130453
 20
2.0600200000000002
 30
0.0
 70
    32
  0
VERTEX
  5
10237
  8
0
 10
-0.162475
 20
2.0488299999999962
 30
0.0
 70
    32
  0
VERTEX
  5
10238
  8
0
 10
-0.194107
 20
2.035219999999998
 30
0.0
 70
    32
  0
VERTEX
  5
10239
  8
0
 10
-0.225271
 20
2.0192099999999962
 30
0.0
 70
    32
  0
VERTEX
  5
1023A
  8
0
 10
-0.255892
 20
2.0008300000000001
 30
0.0
 70
    32
  0
VERTEX
  5
1023B
  8
0
 10
-0.2858969999999999
 20
1.9801500000000001
 30
0.0
 70
    32
  0
VERTEX
  5
1023C
  8
0
 10
-0.315212
 20
1.9572000000000001
 30
0.0
 70
    32
  0
VERTEX
  5
1023D
  8
0
 10
-0.343769
 20
1.93204
 30
0.0
 70
    32
  0
VERTEX
  5
1023E
  8
0
 10
-0.371497
 20
1.904729999999996
 30
0.0
 70
    32
  0
VERTEX
  5
1023F
  8
0
 10
-0.398331
 20
1.87534
 30
0.0
 70
    32
  0
VERTEX
  5
10240
  8
0
 10
-0.424205
 20
1.843929999999999
 30
0.0
 70
    32
  0
VERTEX
  5
10241
  8
0
 10
-0.4490560000000002
 20
1.810589999999999
 30
0.0
 70
    32
  0
VERTEX
  5
10242
  8
0
 10
-0.4728260000000001
 20
1.77539
 30
0.0
 70
    32
  0
VERTEX
  5
10243
  8
0
 10
-0.495457
 20
1.7384200000000001
 30
0.0
 70
    32
  0
VERTEX
  5
10244
  8
0
 10
-0.516895
 20
1.69977
 30
0.0
 70
    32
  0
VERTEX
  5
10245
  8
0
 10
-0.537087
 20
1.6595299999999991
 30
0.0
 70
    32
  0
VERTEX
  5
10246
  8
0
 10
-0.5559850000000001
 20
1.6177900000000001
 30
0.0
 70
    32
  0
VERTEX
  5
10247
  8
0
 10
-0.5735440000000001
 20
1.57467
 30
0.0
 70
    32
  0
VERTEX
  5
10248
  8
0
 10
-0.5897210000000001
 20
1.5302500000000001
 30
0.0
 70
    32
  0
VERTEX
  5
10249
  8
0
 10
-0.6044770000000002
 20
1.4846600000000001
 30
0.0
 70
    32
  0
VERTEX
  5
1024A
  8
0
 10
-0.6177780000000001
 20
1.437989999999999
 30
0.0
 70
    32
  0
VERTEX
  5
1024B
  8
0
 10
-0.6295890000000001
 20
1.3903700000000001
 30
0.0
 70
    32
  0
VERTEX
  5
1024C
  8
0
 10
-0.6398850000000002
 20
1.3419000000000001
 30
0.0
 70
    32
  0
VERTEX
  5
1024D
  8
0
 10
-0.6486380000000001
 20
1.2926999999999991
 30
0.0
 70
    32
  0
VERTEX
  5
1024E
  8
0
 10
-0.655829
 20
1.2428900000000001
 30
0.0
 70
    32
  0
VERTEX
  5
1024F
  8
0
 10
-0.6614399999999999
 20
1.1926000000000001
 30
0.0
 70
    32
  0
VERTEX
  5
10250
  8
0
 10
-0.6654580000000001
 20
1.1419399999999991
 30
0.0
 70
    32
  0
VERTEX
  5
10251
  8
0
 10
-0.6678720000000001
 20
1.0910299999999991
 30
0.0
 70
    32
  0
VERTEX
  5
10252
  8
0
 10
-0.668678
 20
1.04
 30
0.0
 70
    32
  0
VERTEX
  5
10253
  8
0
 10
-0.6678720000000001
 20
0.9889699999999999
 30
0.0
 70
    32
  0
VERTEX
  5
10254
  8
0
 10
-0.6654580000000001
 20
0.938062
 30
0.0
 70
    32
  0
VERTEX
  5
10255
  8
0
 10
-0.6614399999999999
 20
0.8873999999999997
 30
0.0
 70
    32
  0
VERTEX
  5
10256
  8
0
 10
-0.655829
 20
0.8371059999999999
 30
0.0
 70
    32
  0
VERTEX
  5
10257
  8
0
 10
-0.6486380000000001
 20
0.7873010000000003
 30
0.0
 70
    32
  0
VERTEX
  5
10258
  8
0
 10
-0.6398850000000002
 20
0.738104
 30
0.0
 70
    32
  0
VERTEX
  5
10259
  8
0
 10
-0.6295890000000001
 20
0.689635
 30
0.0
 70
    32
  0
VERTEX
  5
1025A
  8
0
 10
-0.6177780000000001
 20
0.6420090000000001
 30
0.0
 70
    32
  0
VERTEX
  5
1025B
  8
0
 10
-0.6044770000000002
 20
0.5953430000000001
 30
0.0
 70
    32
  0
VERTEX
  5
1025C
  8
0
 10
-0.5897210000000001
 20
0.549747
 30
0.0
 70
    32
  0
VERTEX
  5
1025D
  8
0
 10
-0.5735440000000001
 20
0.5053330000000003
 30
0.0
 70
    32
  0
VERTEX
  5
1025E
  8
0
 10
-0.5559850000000001
 20
0.462207
 30
0.0
 70
    32
  0
VERTEX
  5
1025F
  8
0
 10
-0.537087
 20
0.420473
 30
0.0
 70
    32
  0
VERTEX
  5
10260
  8
0
 10
-0.516895
 20
0.380231
 30
0.0
 70
    32
  0
VERTEX
  5
10261
  8
0
 10
-0.495457
 20
0.341579
 30
0.0
 70
    32
  0
VERTEX
  5
10262
  8
0
 10
-0.4728260000000001
 20
0.304609
 30
0.0
 70
    32
  0
VERTEX
  5
10263
  8
0
 10
-0.4490560000000002
 20
0.269411
 30
0.0
 70
    32
  0
VERTEX
  5
10264
  8
0
 10
-0.424205
 20
0.236069
 30
0.0
 70
    32
  0
VERTEX
  5
10265
  8
0
 10
-0.398331
 20
0.204664
 30
0.0
 70
    32
  0
VERTEX
  5
10266
  8
0
 10
-0.371497
 20
0.175272
 30
0.0
 70
    32
  0
VERTEX
  5
10267
  8
0
 10
-0.343769
 20
0.147962
 30
0.0
 70
    32
  0
VERTEX
  5
10268
  8
0
 10
-0.315212
 20
0.122802
 30
0.0
 70
    32
  0
VERTEX
  5
10269
  8
0
 10
-0.2858969999999999
 20
0.0998511
 30
0.0
 70
    32
  0
VERTEX
  5
1026A
  8
0
 10
-0.255892
 20
0.0791653
 30
0.0
 70
    32
  0
VERTEX
  5
1026B
  8
0
 10
-0.225271
 20
0.0607942
 30
0.0
 70
    32
  0
VERTEX
  5
1026C
  8
0
 10
-0.194107
 20
0.0447821
 30
0.0
 70
    32
  0
VERTEX
  5
1026D
  8
0
 10
-0.162475
 20
0.0311675
 30
0.0
 70
    32
  0
VERTEX
  5
1026E
  8
0
 10
-0.130453
 20
0.0199833
 30
0.0
 70
    32
  0
VERTEX
  5
1026F
  8
0
 10
-0.0981154
 20
0.0112564
 30
0.0
 70
    32
  0
VERTEX
  5
10270
  8
0
 10
-0.0655419
 20
0.00500788
 30
0.0
 70
    32
  0
VERTEX
  5
10271
  8
0
 10
-0.0328105
 20
0.00125273
 30
0.0
 70
    32
  0
VERTEX
  5
10272
  8
0
 10
0.0
 20
0.000000000000014
 30
0.0
 70
    32
  0
SEQEND
  5
10273
  8
0
  0
ENDBLK
  5
10274
  8
0
  0
ENDSEC
  0
SECTION
  2
ENTITIES
  0
TEXT
  5
10275
  8
0
  6
CONTINUOUS
 62
     7
 10
23.507176000000001
 20
233.81245000000001
 30
0.0
 40
8.4666671999999998
  1
HF-MP43
  0
LINE
  5
10276
  8
CENTER
 10
274.10708826369881
 20
162.0437580642544
 30
0.0
 11
135.93186065764121
 21
162.0437580642544
 31
0.0
  0
LINE
  5
10277
  8
0
 62
     5
 10
243.64525340812409
 20
169.02222
 30
0.0
 11
269.84525340812422
 21
169.02222
 31
0.0
  0
LINE
  5
10278
  8
0
 62
     5
 10
243.64525340812409
 20
155.02221999999981
 30
0.0
 11
269.84525340812422
 21
155.02221999999981
 31
0.0
  0
POLYLINE
  5
10279
  8
HIDDEN
 66
     1
 10
0.0
 20
0.0
 30
0.0
  0
VERTEX
  5
10DE4
  8
HIDDEN
 10
198.2452534075243
 20
121.4886550423997
 30
0.0
  0
VERTEX
  5
10DE5
  8
HIDDEN
 10
197.99485322137431
 20
125.0292993491
 30
0.0
  0
VERTEX
  5
10DE6
  8
HIDDEN
 10
197.94636647387421
 20
125.2904187259
 30
0.0
  0
VERTEX
  5
10DE7
  8
HIDDEN
 10
197.89472652347439
 20
125.5070423496998
 30
0.0
  0
VERTEX
  5
10DE8
  8
HIDDEN
 10
197.84231885817439
 20
125.6719212556999
 30
0.0
  0
VERTEX
  5
10DE9
  8
HIDDEN
 10
197.78626622197439
 20
125.794107532
 30
0.0
  0
VERTEX
  5
10DEA
  8
HIDDEN
 10
197.7470411340243
 20
125.8611503061999
 30
0.0
  0
SEQEND
  5
10DEB
  8
HIDDEN
  0
LINE
  5
10282
  8
HIDDEN
 10
143.4335532173375
 20
120.3967775991688
 30
0.0
 11
143.4335532173244
 21
129.02222
 31
0.0
  0
INSERT
  5
10283
  8
1
  2
A$C3C4259C2
 10
213.8108922215458
 20
118.2246154193359
 30
0.0
 41
-1.5615775000000021
 42
1.5615774999999841
 43
1.5615775000000001
  0
LINE
  5
10284
  8
HIDDEN
 10
172.6952534081243
 20
120.9222199999999
 30
0.0
 11
172.6952534081243
 21
126.1222199999999
 31
0.0
  0
LINE
  5
10285
  8
HIDDEN
 10
83.438904999950012
 20
118.9222199999999
 30
0.0
 11
83.438904999950012
 21
126.1222199999999
 31
0.0
  0
LINE
  5
10286
  8
HIDDEN
 10
52.183443630050022
 20
123.0254452149869
 30
0.0
 11
52.183443630050022
 21
120.413820209787
 31
0.0
  0
LINE
  5
10287
  8
CENTER
 10
73.988904999999974
 20
134.0347482769242
 30
0.0
 11
73.988904999999974
 21
112.9666691681616
 31
0.0
  0
LINE
  5
10288
  8
CENTER
 10
58.088904999999997
 20
134.0347482769242
 30
0.0
 11
58.088904999999997
 21
113.6763035774954
 31
0.0
  0
LINE
  5
10289
  8
CENTER
 10
68.088905000000011
 20
195.73991167614511
 30
0.0
 11
68.088905000000011
 21
110.1267141867086
 31
0.0
  0
LINE
  5
1028A
  8
CENTER
 10
153.54525340812441
 20
118.235622121197
 30
0.0
 11
153.54525340812441
 21
135.237376850266
 31
0.0
  0
LINE
  5
1028B
  8
CENTER
 10
179.0452534081243
 20
120.5376262139707
 30
0.0
 11
179.0452534081243
 21
136.31261133017199
 31
0.0
  0
ARC
  5
1028C
  8
HIDDEN
 10
68.538904999950034
 20
118.9222199999999
 30
0.0
 40
4.0
 50
226.9037386681004
 51
270.0
  0
LINE
  5
1028D
  8
HIDDEN
 10
62.323997343549649
 20
116.0254452149869
 30
0.0
 11
56.200300861508723
 21
116.0254464841907
 31
0.0
  0
LINE
  5
1028E
  8
HIDDEN
 10
68.538904999950034
 20
114.9222199999999
 30
0.0
 11
79.438904998309397
 21
114.9222199999999
 31
0.0
  0
ARC
  5
1028F
  8
HIDDEN
 10
79.438904999950012
 20
118.9222199999999
 30
0.0
 40
4.0
 50
269.99999997649991
 51
0.0
  0
ARC
  5
10290
  8
HIDDEN
 10
150.02077862833221
 20
123.1684638604562
 30
0.0
 40
7.146592429001509
 50
202.8197457139016
 51
270.56775375275549
  0
LINE
  5
10291
  8
HIDDEN
 10
169.76696621172439
 20
116.0222199999999
 30
0.0
 11
150.09159428532431
 21
116.02222229659991
 31
0.0
  0
LINE
  5
10292
  8
HIDDEN
 10
198.01068489194239
 20
118.22221999999979
 30
0.0
 11
213.82163840752429
 21
118.22221999999979
 31
0.0
  0
LINE
  5
10293
  8
HIDDEN
 10
194.04120579759919
 20
114.9222199999999
 30
0.0
 11
178.6952534081243
 21
114.92222
 31
0.0
  0
ARC
  5
10294
  8
HIDDEN
 10
178.6952534081243
 20
120.9222199999999
 30
0.0
 40
6.0
 50
180.0
 51
269.99999999230062
  0
LINE
  5
10295
  8
HIDDEN
 10
173.2990202200244
 20
117.2222199999995
 30
0.0
 11
171.91625654322431
 21
117.2222199999995
 31
0.0
  0
LINE
  5
10296
  8
HIDDEN
 10
171.96538112022441
 20
117.2222199999995
 30
0.0
 11
170.73546797682431
 21
116.3376786101999
 31
0.0
  0
LINE
  5
10297
  8
HIDDEN
 10
197.7470411340243
 20
117.0832896937999
 30
0.0
 11
194.04120579759919
 21
114.9222199999999
 31
0.0
  0
POLYLINE
  5
10298
  8
HIDDEN
 66
     1
 10
0.0
 20
0.0
 30
0.0
  0
VERTEX
  5
10DEC
  8
HIDDEN
 10
197.7470411340243
 20
117.0832896937999
 30
0.0
  0
VERTEX
  5
10DED
  8
HIDDEN
 10
197.7835700880739
 20
117.1748118504
 30
0.0
  0
VERTEX
  5
10DEE
  8
HIDDEN
 10
197.83969841677441
 20
117.2946357477
 30
0.0
  0
VERTEX
  5
10DEF
  8
HIDDEN
 10
197.8939213493743
 20
117.4634991375999
 30
0.0
  0
VERTEX
  5
10DF0
  8
HIDDEN
 10
197.94398330227429
 20
117.6717510778
 30
0.0
  0
VERTEX
  5
10DF1
  8
HIDDEN
 10
197.9926327483744
 20
117.9308248981
 30
0.0
  0
VERTEX
  5
10DF2
  8
HIDDEN
 10
198.2452534075243
 20
121.4886550423997
 30
0.0
  0
SEQEND
  5
10DF3
  8
HIDDEN
  0
LINE
  5
102A1
  8
CENTER
 10
86.791386854023486
 20
143.3197381459764
 30
0.0
 11
98.53249765435045
 21
131.57862734564941
 31
0.0
  0
LINE
  5
102A2
  8
CENTER
 10
86.791386854023571
 20
180.72470185402341
 30
0.0
 11
98.532497654350493
 21
192.4658126543504
 31
0.0
  0
LINE
  5
102A3
  8
0
 62
     5
 10
87.648273561650015
 20
192.02221999999949
 30
0.0
 11
93.588904999950046
 21
192.02221999999949
 31
0.0
  0
ARC
  5
102A4
  8
0
 62
     5
 10
87.730349220149975
 20
184.02222
 30
0.0
 40
1.0
 50
28.289069654297659
 51
90.0
  0
ARC
  5
102A5
  8
0
 62
     5
 10
92.837642341549994
 20
186.77095734150001
 30
0.0
 40
4.5338355998999971
 50
183.68757177850171
 51
266.31242822149972
  0
ARC
  5
102A6
  8
0
 62
     5
 10
88.032883691450024
 20
140.52221999999969
 30
0.0
 40
1.0
 50
270.0
 51
325.93541006420128
  0
LINE
  5
102A7
  8
0
 62
     5
 10
93.588904999950046
 20
132.02221999999969
 30
0.0
 11
87.915022920049992
 21
132.02221999999969
 31
0.0
  0
ARC
  5
102A8
  8
0
 62
     5
 10
-291.16566493595002
 20
162.02221999999981
 30
0.0
 40
380.26616440010002
 50
355.43488272469767
 51
356.31242822149801
  0
ARC
  5
102A9
  8
0
 62
     5
 10
92.837642341549994
 20
137.2734826584998
 30
0.0
 40
4.5338355998999971
 50
93.687571778500185
 51
176.3124282214981
  0
ARC
  5
102AA
  8
0
 62
     5
 10
92.837642341549994
 20
137.2734826584998
 30
0.0
 40
4.799999999999998
 50
93.687571778500185
 51
176.3124282214981
  0
ARC
  5
102AB
  8
0
 62
     5
 10
92.837642341549994
 20
186.77095734150001
 30
0.0
 40
4.799999999999998
 50
183.68757177850171
 51
266.31242822149972
  0
LINE
  5
102AC
  8
CENTER
 10
49.386423145976487
 20
180.72470185402341
 30
0.0
 11
37.645312345649522
 21
192.4658126543504
 31
0.0
  0
LINE
  5
102AD
  8
0
 62
     5
 10
45.088904999950017
 20
181.66366422019971
 30
0.0
 11
45.088904999950017
 21
178.3222199999999
 31
0.0
  0
ARC
  5
102AE
  8
0
 62
     5
 10
39.08890499995001
 20
180.65652261790001
 30
0.0
 40
1.0
 50
94.388399157499776
 51
180.0
  0
ARC
  5
102AF
  8
0
 62
     5
 10
46.800113411831369
 20
135.02222
 30
0.0
 40
1.5
 50
270.0
 51
4.0584021088592062
  0
ARC
  5
102B0
  8
HIDDEN
 10
47.399070120350018
 20
124.5254452149869
 30
0.0
 40
1.5
 50
180.0
 51
270.0
  0
ARC
  5
102B1
  8
CENTER
 10
68.088905000000011
 20
162.02222
 30
0.0
 40
34.999999999958803
 50
216.25402293116221
 51
234.3810343967447
  0
LINE
  5
102B2
  8
CENTER
 10
49.386423145976408
 20
143.3197381459764
 30
0.0
 11
37.645312345649522
 21
131.57862734564941
 31
0.0
  0
ARC
  5
102B3
  8
0
 62
     5
 10
43.340167658450007
 20
137.2734826584998
 30
0.0
 40
4.5338355998999971
 50
3.6875717785018272
 51
86.3124282214998
  0
ARC
  5
102B4
  8
0
 62
     5
 10
43.340167658450007
 20
137.2734826584998
 30
0.0
 40
4.799999999999998
 50
3.6875717785018272
 51
86.3124282214998
  0
LINE
  5
102B5
  8
0
 62
     5
 10
45.899074705549999
 20
129.02222
 30
0.0
 11
70.278735294350014
 21
129.02222
 31
0.0
  0
LINE
  5
102B6
  8
0
 62
     5
 10
44.588904999950017
 20
130.02221999999961
 30
0.0
 11
72.588904999950003
 21
130.02221999999961
 31
0.0
  0
LINE
  5
102B7
  8
0
 62
     5
 10
37.822740599950009
 20
143.14146793659989
 30
0.0
 11
37.822740599950009
 21
180.9029720634
 31
0.0
  0
LINE
  5
102B8
  8
0
 62
     5
 10
38.08890499995001
 20
180.65652261790001
 30
0.0
 11
38.08890499995001
 21
143.3879173820998
 31
0.0
  0
LINE
  5
102B9
  8
0
 62
     5
 10
38.08890499995001
 20
136.52222
 30
0.0
 11
38.08890499995001
 21
142.46285143840001
 31
0.0
  0
CIRCLE
  5
102BA
  8
0
 62
     5
 10
43.340167658450007
 20
137.2734826584998
 30
0.0
 40
2.8999999999999999
  0
LINE
  5
102BB
  8
0
 62
     5
 10
45.899070120350018
 20
129.02222
 30
0.0
 11
45.899070120350018
 21
130.02221999999961
 31
0.0
  0
LINE
  5
102BC
  8
0
 62
     5
 10
45.94831675795001
 20
130.02221999999961
 30
0.0
 11
45.94831675795001
 21
129.02222
 31
0.0
  0
LINE
  5
102BD
  8
HIDDEN
 10
45.899070120350018
 20
124.5254452149869
 30
0.0
 11
45.899070120350018
 21
127.2754452149869
 31
0.0
  0
ARC
  5
102BE
  8
0
 62
     5
 10
42.58890499995001
 20
136.52222
 30
0.0
 40
4.5
 50
180.0
 51
270.0
  0
LINE
  5
102BF
  8
0
 62
     5
 10
47.020342078150009
 20
133.02377165870001
 30
0.0
 11
46.994230074649991
 21
133.52299583359991
 31
0.0
  0
POLYLINE
  5
102C0
  8
0
 62
     5
 66
     1
 10
0.0
 20
0.0
 30
0.0
 70
     8
  0
VERTEX
  5
102C1
  8
0
 62
     5
 10
46.994199999999992
 20
133.52299999999991
 30
0.0
 70
    32
  0
VERTEX
  5
102C2
  8
0
 62
     5
 10
46.9938
 20
133.52299999999991
 30
0.0
 70
    32
  0
VERTEX
  5
102C3
  8
0
 62
     5
 10
46.993299999999977
 20
133.52299999999991
 30
0.0
 70
    32
  0
VERTEX
  5
102C4
  8
0
 62
     5
 10
46.992899999999999
 20
133.52299999999991
 30
0.0
 70
    32
  0
VERTEX
  5
102C5
  8
0
 62
     5
 10
46.992400000000004
 20
133.52299999999991
 30
0.0
 70
    32
  0
VERTEX
  5
102C6
  8
0
 62
     5
 10
46.991999999999997
 20
133.52299999999991
 30
0.0
 70
    32
  0
VERTEX
  5
102C7
  8
0
 62
     5
 10
46.991500000000002
 20
133.52299999999991
 30
0.0
 70
    32
  0
VERTEX
  5
102C8
  8
0
 62
     5
 10
46.991100000000003
 20
133.52299999999991
 30
0.0
 70
    32
  0
VERTEX
  5
102C9
  8
0
 62
     5
 10
46.990600000000001
 20
133.52299999999991
 30
0.0
 70
    32
  0
VERTEX
  5
102CA
  8
0
 62
     5
 10
46.990199999999987
 20
133.52299999999991
 30
0.0
 70
    32
  0
VERTEX
  5
102CB
  8
0
 62
     5
 10
46.989699999999999
 20
133.52299999999991
 30
0.0
 70
    32
  0
VERTEX
  5
102CC
  8
0
 62
     5
 10
46.989299999999993
 20
133.52299999999991
 30
0.0
 70
    32
  0
VERTEX
  5
102CD
  8
0
 62
     5
 10
46.988799999999991
 20
133.52299999999991
 30
0.0
 70
    32
  0
VERTEX
  5
102CE
  8
0
 62
     5
 10
46.988399999999992
 20
133.52299999999991
 30
0.0
 70
    32
  0
VERTEX
  5
102CF
  8
0
 62
     5
 10
46.987900000000003
 20
133.52299999999991
 30
0.0
 70
    32
  0
VERTEX
  5
102D0
  8
0
 62
     5
 10
46.98749999999999
 20
133.52299999999991
 30
0.0
 70
    32
  0
VERTEX
  5
102D1
  8
0
 62
     5
 10
46.987000000000002
 20
133.52299999999991
 30
0.0
 70
    32
  0
VERTEX
  5
102D2
  8
0
 62
     5
 10
46.986600000000003
 20
133.52299999999991
 30
0.0
 70
    32
  0
VERTEX
  5
102D3
  8
0
 62
     5
 10
46.9861
 20
133.52299999999991
 30
0.0
 70
    32
  0
VERTEX
  5
102D4
  8
0
 62
     5
 10
46.985700000000001
 20
133.52299999999991
 30
0.0
 70
    32
  0
VERTEX
  5
102D5
  8
0
 62
     5
 10
46.985199999999999
 20
133.52299999999991
 30
0.0
 70
    32
  0
VERTEX
  5
102D6
  8
0
 62
     5
 10
46.984799999999993
 20
133.52299999999991
 30
0.0
 70
    32
  0
VERTEX
  5
102D7
  8
0
 62
     5
 10
46.984299999999998
 20
133.52299999999991
 30
0.0
 70
    32
  0
VERTEX
  5
102D8
  8
0
 62
     5
 10
46.983899999999977
 20
133.52299999999991
 30
0.0
 70
    32
  0
VERTEX
  5
102D9
  8
0
 62
     5
 10
46.983400000000003
 20
133.52299999999991
 30
0.0
 70
    32
  0
VERTEX
  5
102DA
  8
0
 62
     5
 10
46.982999999999983
 20
133.52299999999991
 30
0.0
 70
    32
  0
VERTEX
  5
102DB
  8
0
 62
     5
 10
46.982500000000002
 20
133.52299999999991
 30
0.0
 70
    32
  0
VERTEX
  5
102DC
  8
0
 62
     5
 10
46.982100000000003
 20
133.52299999999991
 30
0.0
 70
    32
  0
VERTEX
  5
102DD
  8
0
 62
     5
 10
46.9816
 20
133.52299999999991
 30
0.0
 70
    32
  0
VERTEX
  5
102DE
  8
0
 62
     5
 10
46.981200000000001
 20
133.52299999999991
 30
0.0
 70
    32
  0
VERTEX
  5
102DF
  8
0
 62
     5
 10
46.980699999999999
 20
133.52299999999991
 30
0.0
 70
    32
  0
VERTEX
  5
102E0
  8
0
 62
     5
 10
46.9803
 20
133.52299999999991
 30
0.0
 70
    32
  0
VERTEX
  5
102E1
  8
0
 62
     5
 10
46.979799999999997
 20
133.52299999999991
 30
0.0
 70
    32
  0
VERTEX
  5
102E2
  8
0
 62
     5
 10
46.979399999999998
 20
133.52299999999991
 30
0.0
 70
    32
  0
VERTEX
  5
102E3
  8
0
 62
     5
 10
46.978900000000003
 20
133.52299999999991
 30
0.0
 70
    32
  0
VERTEX
  5
102E4
  8
0
 62
     5
 10
46.978499999999983
 20
133.52299999999991
 30
0.0
 70
    32
  0
VERTEX
  5
102E5
  8
0
 62
     5
 10
46.977999999999987
 20
133.52299999999991
 30
0.0
 70
    32
  0
VERTEX
  5
102E6
  8
0
 62
     5
 10
46.977600000000002
 20
133.52299999999991
 30
0.0
 70
    32
  0
VERTEX
  5
102E7
  8
0
 62
     5
 10
46.977099999999993
 20
133.52299999999991
 30
0.0
 70
    32
  0
VERTEX
  5
102E8
  8
0
 62
     5
 10
46.976700000000001
 20
133.52299999999991
 30
0.0
 70
    32
  0
VERTEX
  5
102E9
  8
0
 62
     5
 10
46.976199999999992
 20
133.52299999999991
 30
0.0
 70
    32
  0
VERTEX
  5
102EA
  8
0
 62
     5
 10
46.9758
 20
133.52299999999991
 30
0.0
 70
    32
  0
VERTEX
  5
102EB
  8
0
 62
     5
 10
46.97529999999999
 20
133.52299999999991
 30
0.0
 70
    32
  0
VERTEX
  5
102EC
  8
0
 62
     5
 10
46.974899999999998
 20
133.52299999999991
 30
0.0
 70
    32
  0
VERTEX
  5
102ED
  8
0
 62
     5
 10
46.974400000000003
 20
133.52299999999991
 30
0.0
 70
    32
  0
VERTEX
  5
102EE
  8
0
 62
     5
 10
46.9739
 20
133.52299999999991
 30
0.0
 70
    32
  0
VERTEX
  5
102EF
  8
0
 62
     5
 10
46.973500000000001
 20
133.52299999999991
 30
0.0
 70
    32
  0
VERTEX
  5
102F0
  8
0
 62
     5
 10
46.972999999999999
 20
133.52299999999991
 30
0.0
 70
    32
  0
VERTEX
  5
102F1
  8
0
 62
     5
 10
46.972599999999993
 20
133.52299999999991
 30
0.0
 70
    32
  0
VERTEX
  5
102F2
  8
0
 62
     5
 10
46.972099999999998
 20
133.52299999999991
 30
0.0
 70
    32
  0
VERTEX
  5
102F3
  8
0
 62
     5
 10
46.971699999999977
 20
133.52299999999991
 30
0.0
 70
    32
  0
VERTEX
  5
102F4
  8
0
 62
     5
 10
46.971200000000003
 20
133.52299999999991
 30
0.0
 70
    32
  0
VERTEX
  5
102F5
  8
0
 62
     5
 10
46.970799999999983
 20
133.52299999999991
 30
0.0
 70
    32
  0
VERTEX
  5
102F6
  8
0
 62
     5
 10
46.970300000000002
 20
133.52299999999991
 30
0.0
 70
    32
  0
VERTEX
  5
102F7
  8
0
 62
     5
 10
46.969900000000003
 20
133.5239999999996
 30
0.0
 70
    32
  0
VERTEX
  5
102F8
  8
0
 62
     5
 10
46.9694
 20
133.5239999999996
 30
0.0
 70
    32
  0
VERTEX
  5
102F9
  8
0
 62
     5
 10
46.969000000000001
 20
133.5239999999996
 30
0.0
 70
    32
  0
VERTEX
  5
102FA
  8
0
 62
     5
 10
46.968499999999999
 20
133.5239999999996
 30
0.0
 70
    32
  0
VERTEX
  5
102FB
  8
0
 62
     5
 10
46.9681
 20
133.5239999999996
 30
0.0
 70
    32
  0
VERTEX
  5
102FC
  8
0
 62
     5
 10
46.967599999999997
 20
133.5239999999996
 30
0.0
 70
    32
  0
VERTEX
  5
102FD
  8
0
 62
     5
 10
46.967199999999998
 20
133.5239999999996
 30
0.0
 70
    32
  0
VERTEX
  5
102FE
  8
0
 62
     5
 10
46.966700000000003
 20
133.5239999999996
 30
0.0
 70
    32
  0
VERTEX
  5
102FF
  8
0
 62
     5
 10
46.966299999999983
 20
133.5239999999996
 30
0.0
 70
    32
  0
VERTEX
  5
10300
  8
0
 62
     5
 10
46.965799999999987
 20
133.5239999999996
 30
0.0
 70
    32
  0
VERTEX
  5
10301
  8
0
 62
     5
 10
46.965400000000002
 20
133.5239999999996
 30
0.0
 70
    32
  0
VERTEX
  5
10302
  8
0
 62
     5
 10
46.964899999999993
 20
133.5239999999996
 30
0.0
 70
    32
  0
VERTEX
  5
10303
  8
0
 62
     5
 10
46.964500000000001
 20
133.5239999999996
 30
0.0
 70
    32
  0
VERTEX
  5
10304
  8
0
 62
     5
 10
46.963999999999992
 20
133.5239999999996
 30
0.0
 70
    32
  0
VERTEX
  5
10305
  8
0
 62
     5
 10
46.9636
 20
133.5239999999996
 30
0.0
 70
    32
  0
VERTEX
  5
10306
  8
0
 62
     5
 10
46.96309999999999
 20
133.5239999999996
 30
0.0
 70
    32
  0
VERTEX
  5
10307
  8
0
 62
     5
 10
46.962699999999998
 20
133.5239999999996
 30
0.0
 70
    32
  0
VERTEX
  5
10308
  8
0
 62
     5
 10
46.962200000000003
 20
133.5239999999996
 30
0.0
 70
    32
  0
VERTEX
  5
10309
  8
0
 62
     5
 10
46.961799999999997
 20
133.5239999999996
 30
0.0
 70
    32
  0
VERTEX
  5
1030A
  8
0
 62
     5
 10
46.961300000000001
 20
133.5239999999996
 30
0.0
 70
    32
  0
VERTEX
  5
1030B
  8
0
 62
     5
 10
46.960900000000002
 20
133.5239999999996
 30
0.0
 70
    32
  0
VERTEX
  5
1030C
  8
0
 62
     5
 10
46.960399999999993
 20
133.5239999999996
 30
0.0
 70
    32
  0
VERTEX
  5
1030D
  8
0
 62
     5
 10
46.960000000000001
 20
133.5239999999996
 30
0.0
 70
    32
  0
VERTEX
  5
1030E
  8
0
 62
     5
 10
46.959499999999977
 20
133.5239999999996
 30
0.0
 70
    32
  0
VERTEX
  5
1030F
  8
0
 62
     5
 10
46.959099999999999
 20
133.5239999999996
 30
0.0
 70
    32
  0
VERTEX
  5
10310
  8
0
 62
     5
 10
46.958599999999983
 20
133.5239999999996
 30
0.0
 70
    32
  0
VERTEX
  5
10311
  8
0
 62
     5
 10
46.958199999999998
 20
133.5239999999996
 30
0.0
 70
    32
  0
VERTEX
  5
10312
  8
0
 62
     5
 10
46.957700000000003
 20
133.5239999999996
 30
0.0
 70
    32
  0
VERTEX
  5
10313
  8
0
 62
     5
 10
46.957299999999996
 20
133.5239999999996
 30
0.0
 70
    32
  0
VERTEX
  5
10314
  8
0
 62
     5
 10
46.956800000000001
 20
133.5239999999996
 30
0.0
 70
    32
  0
VERTEX
  5
10315
  8
0
 62
     5
 10
46.956400000000002
 20
133.5239999999996
 30
0.0
 70
    32
  0
VERTEX
  5
10316
  8
0
 62
     5
 10
46.9559
 20
133.5239999999996
 30
0.0
 70
    32
  0
VERTEX
  5
10317
  8
0
 62
     5
 10
46.955499999999986
 20
133.5239999999996
 30
0.0
 70
    32
  0
VERTEX
  5
10318
  8
0
 62
     5
 10
46.954999999999998
 20
133.5239999999996
 30
0.0
 70
    32
  0
VERTEX
  5
10319
  8
0
 62
     5
 10
46.954599999999992
 20
133.5239999999996
 30
0.0
 70
    32
  0
VERTEX
  5
1031A
  8
0
 62
     5
 10
46.954099999999983
 20
133.5239999999996
 30
0.0
 70
    32
  0
VERTEX
  5
1031B
  8
0
 62
     5
 10
46.953699999999991
 20
133.5239999999996
 30
0.0
 70
    32
  0
VERTEX
  5
1031C
  8
0
 62
     5
 10
46.953200000000002
 20
133.5239999999996
 30
0.0
 70
    32
  0
VERTEX
  5
1031D
  8
0
 62
     5
 10
46.952800000000003
 20
133.5239999999996
 30
0.0
 70
    32
  0
VERTEX
  5
1031E
  8
0
 62
     5
 10
46.952300000000001
 20
133.5239999999996
 30
0.0
 70
    32
  0
VERTEX
  5
1031F
  8
0
 62
     5
 10
46.951900000000002
 20
133.5239999999996
 30
0.0
 70
    32
  0
VERTEX
  5
10320
  8
0
 62
     5
 10
46.9514
 20
133.5239999999996
 30
0.0
 70
    32
  0
VERTEX
  5
10321
  8
0
 62
     5
 10
46.951000000000001
 20
133.5239999999996
 30
0.0
 70
    32
  0
VERTEX
  5
10322
  8
0
 62
     5
 10
46.950499999999998
 20
133.5239999999996
 30
0.0
 70
    32
  0
VERTEX
  5
10323
  8
0
 62
     5
 10
46.950099999999992
 20
133.5239999999996
 30
0.0
 70
    32
  0
VERTEX
  5
10324
  8
0
 62
     5
 10
46.949599999999997
 20
133.5239999999996
 30
0.0
 70
    32
  0
VERTEX
  5
10325
  8
0
 62
     5
 10
46.949100000000001
 20
133.5239999999996
 30
0.0
 70
    32
  0
VERTEX
  5
10326
  8
0
 62
     5
 10
46.948700000000002
 20
133.5239999999996
 30
0.0
 70
    32
  0
VERTEX
  5
10327
  8
0
 62
     5
 10
46.948199999999993
 20
133.5239999999996
 30
0.0
 70
    32
  0
VERTEX
  5
10328
  8
0
 62
     5
 10
46.947800000000001
 20
133.5239999999996
 30
0.0
 70
    32
  0
VERTEX
  5
10329
  8
0
 62
     5
 10
46.947299999999977
 20
133.5239999999996
 30
0.0
 70
    32
  0
VERTEX
  5
1032A
  8
0
 62
     5
 10
46.946899999999999
 20
133.5239999999996
 30
0.0
 70
    32
  0
VERTEX
  5
1032B
  8
0
 62
     5
 10
46.946399999999983
 20
133.5239999999996
 30
0.0
 70
    32
  0
VERTEX
  5
1032C
  8
0
 62
     5
 10
46.945999999999998
 20
133.5239999999996
 30
0.0
 70
    32
  0
VERTEX
  5
1032D
  8
0
 62
     5
 10
46.945500000000003
 20
133.5239999999996
 30
0.0
 70
    32
  0
VERTEX
  5
1032E
  8
0
 62
     5
 10
46.945099999999996
 20
133.5239999999996
 30
0.0
 70
    32
  0
VERTEX
  5
1032F
  8
0
 62
     5
 10
46.944600000000001
 20
133.5239999999996
 30
0.0
 70
    32
  0
VERTEX
  5
10330
  8
0
 62
     5
 10
46.944200000000002
 20
133.5239999999996
 30
0.0
 70
    32
  0
VERTEX
  5
10331
  8
0
 62
     5
 10
46.9437
 20
133.5239999999996
 30
0.0
 70
    32
  0
VERTEX
  5
10332
  8
0
 62
     5
 10
46.943299999999986
 20
133.5239999999996
 30
0.0
 70
    32
  0
VERTEX
  5
10333
  8
0
 62
     5
 10
46.942799999999998
 20
133.5239999999996
 30
0.0
 70
    32
  0
VERTEX
  5
10334
  8
0
 62
     5
 10
46.942399999999992
 20
133.5239999999996
 30
0.0
 70
    32
  0
VERTEX
  5
10335
  8
0
 62
     5
 10
46.941899999999983
 20
133.5239999999996
 30
0.0
 70
    32
  0
VERTEX
  5
10336
  8
0
 62
     5
 10
46.941499999999991
 20
133.5239999999996
 30
0.0
 70
    32
  0
VERTEX
  5
10337
  8
0
 62
     5
 10
46.941000000000003
 20
133.5239999999996
 30
0.0
 70
    32
  0
VERTEX
  5
10338
  8
0
 62
     5
 10
46.940600000000003
 20
133.5239999999996
 30
0.0
 70
    32
  0
VERTEX
  5
10339
  8
0
 62
     5
 10
46.940100000000001
 20
133.5239999999996
 30
0.0
 70
    32
  0
VERTEX
  5
1033A
  8
0
 62
     5
 10
46.939700000000002
 20
133.5239999999996
 30
0.0
 70
    32
  0
VERTEX
  5
1033B
  8
0
 62
     5
 10
46.9392
 20
133.5239999999996
 30
0.0
 70
    32
  0
VERTEX
  5
1033C
  8
0
 62
     5
 10
46.938800000000001
 20
133.5239999999996
 30
0.0
 70
    32
  0
VERTEX
  5
1033D
  8
0
 62
     5
 10
46.938299999999998
 20
133.5239999999996
 30
0.0
 70
    32
  0
VERTEX
  5
1033E
  8
0
 62
     5
 10
46.937899999999992
 20
133.5239999999996
 30
0.0
 70
    32
  0
VERTEX
  5
1033F
  8
0
 62
     5
 10
46.937399999999997
 20
133.5239999999996
 30
0.0
 70
    32
  0
VERTEX
  5
10340
  8
0
 62
     5
 10
46.936999999999983
 20
133.5239999999996
 30
0.0
 70
    32
  0
VERTEX
  5
10341
  8
0
 62
     5
 10
46.936500000000002
 20
133.5239999999996
 30
0.0
 70
    32
  0
VERTEX
  5
10342
  8
0
 62
     5
 10
46.936100000000003
 20
133.5239999999996
 30
0.0
 70
    32
  0
VERTEX
  5
10343
  8
0
 62
     5
 10
46.935600000000001
 20
133.5239999999996
 30
0.0
 70
    32
  0
VERTEX
  5
10344
  8
0
 62
     5
 10
46.935200000000002
 20
133.5239999999996
 30
0.0
 70
    32
  0
VERTEX
  5
10345
  8
0
 62
     5
 10
46.934699999999999
 20
133.5239999999996
 30
0.0
 70
    32
  0
VERTEX
  5
10346
  8
0
 62
     5
 10
46.9343
 20
133.5239999999996
 30
0.0
 70
    32
  0
VERTEX
  5
10347
  8
0
 62
     5
 10
46.933799999999998
 20
133.5239999999996
 30
0.0
 70
    32
  0
VERTEX
  5
10348
  8
0
 62
     5
 10
46.933399999999999
 20
133.5239999999996
 30
0.0
 70
    32
  0
VERTEX
  5
10349
  8
0
 62
     5
 10
46.932899999999997
 20
133.5239999999996
 30
0.0
 70
    32
  0
VERTEX
  5
1034A
  8
0
 62
     5
 10
46.93249999999999
 20
133.5239999999996
 30
0.0
 70
    32
  0
VERTEX
  5
1034B
  8
0
 62
     5
 10
46.932000000000002
 20
133.5239999999996
 30
0.0
 70
    32
  0
VERTEX
  5
1034C
  8
0
 62
     5
 10
46.931600000000003
 20
133.5239999999996
 30
0.0
 70
    32
  0
VERTEX
  5
1034D
  8
0
 62
     5
 10
46.931099999999986
 20
133.5239999999996
 30
0.0
 70
    32
  0
VERTEX
  5
1034E
  8
0
 62
     5
 10
46.930700000000002
 20
133.5239999999996
 30
0.0
 70
    32
  0
VERTEX
  5
1034F
  8
0
 62
     5
 10
46.930199999999992
 20
133.5239999999996
 30
0.0
 70
    32
  0
VERTEX
  5
10350
  8
0
 62
     5
 10
46.9298
 20
133.5239999999996
 30
0.0
 70
    32
  0
VERTEX
  5
10351
  8
0
 62
     5
 10
46.929299999999991
 20
133.5239999999996
 30
0.0
 70
    32
  0
VERTEX
  5
10352
  8
0
 62
     5
 10
46.928899999999999
 20
133.5239999999996
 30
0.0
 70
    32
  0
VERTEX
  5
10353
  8
0
 62
     5
 10
46.928400000000003
 20
133.5239999999996
 30
0.0
 70
    32
  0
VERTEX
  5
10354
  8
0
 62
     5
 10
46.927999999999997
 20
133.5239999999996
 30
0.0
 70
    32
  0
VERTEX
  5
10355
  8
0
 62
     5
 10
46.927500000000002
 20
133.5239999999996
 30
0.0
 70
    32
  0
VERTEX
  5
10356
  8
0
 62
     5
 10
46.927100000000003
 20
133.5239999999996
 30
0.0
 70
    32
  0
VERTEX
  5
10357
  8
0
 62
     5
 10
46.926600000000001
 20
133.5239999999996
 30
0.0
 70
    32
  0
VERTEX
  5
10358
  8
0
 62
     5
 10
46.926200000000001
 20
133.5239999999996
 30
0.0
 70
    32
  0
VERTEX
  5
10359
  8
0
 62
     5
 10
46.925699999999992
 20
133.5239999999996
 30
0.0
 70
    32
  0
VERTEX
  5
1035A
  8
0
 62
     5
 10
46.925199999999997
 20
133.5239999999996
 30
0.0
 70
    32
  0
VERTEX
  5
1035B
  8
0
 62
     5
 10
46.924799999999983
 20
133.5239999999996
 30
0.0
 70
    32
  0
VERTEX
  5
1035C
  8
0
 62
     5
 10
46.924300000000002
 20
133.5239999999996
 30
0.0
 70
    32
  0
VERTEX
  5
1035D
  8
0
 62
     5
 10
46.923900000000003
 20
133.5239999999996
 30
0.0
 70
    32
  0
VERTEX
  5
1035E
  8
0
 62
     5
 10
46.923400000000001
 20
133.5239999999996
 30
0.0
 70
    32
  0
VERTEX
  5
1035F
  8
0
 62
     5
 10
46.923000000000002
 20
133.5239999999996
 30
0.0
 70
    32
  0
VERTEX
  5
10360
  8
0
 62
     5
 10
46.922499999999999
 20
133.5239999999996
 30
0.0
 70
    32
  0
VERTEX
  5
10361
  8
0
 62
     5
 10
46.9221
 20
133.5239999999996
 30
0.0
 70
    32
  0
VERTEX
  5
10362
  8
0
 62
     5
 10
46.921599999999998
 20
133.5239999999996
 30
0.0
 70
    32
  0
VERTEX
  5
10363
  8
0
 62
     5
 10
46.921199999999999
 20
133.5239999999996
 30
0.0
 70
    32
  0
VERTEX
  5
10364
  8
0
 62
     5
 10
46.920699999999997
 20
133.5239999999996
 30
0.0
 70
    32
  0
VERTEX
  5
10365
  8
0
 62
     5
 10
46.92029999999999
 20
133.5239999999996
 30
0.0
 70
    32
  0
VERTEX
  5
10366
  8
0
 62
     5
 10
46.919800000000002
 20
133.5239999999996
 30
0.0
 70
    32
  0
VERTEX
  5
10367
  8
0
 62
     5
 10
46.919400000000003
 20
133.5239999999996
 30
0.0
 70
    32
  0
VERTEX
  5
10368
  8
0
 62
     5
 10
46.918899999999987
 20
133.5239999999996
 30
0.0
 70
    32
  0
VERTEX
  5
10369
  8
0
 62
     5
 10
46.918500000000002
 20
133.5239999999996
 30
0.0
 70
    32
  0
VERTEX
  5
1036A
  8
0
 62
     5
 10
46.917999999999992
 20
133.5239999999996
 30
0.0
 70
    32
  0
VERTEX
  5
1036B
  8
0
 62
     5
 10
46.9176
 20
133.5239999999996
 30
0.0
 70
    32
  0
VERTEX
  5
1036C
  8
0
 62
     5
 10
46.917099999999991
 20
133.5239999999996
 30
0.0
 70
    32
  0
VERTEX
  5
1036D
  8
0
 62
     5
 10
46.916699999999999
 20
133.5239999999996
 30
0.0
 70
    32
  0
VERTEX
  5
1036E
  8
0
 62
     5
 10
46.916200000000003
 20
133.5239999999996
 30
0.0
 70
    32
  0
VERTEX
  5
1036F
  8
0
 62
     5
 10
46.915799999999997
 20
133.5239999999996
 30
0.0
 70
    32
  0
VERTEX
  5
10370
  8
0
 62
     5
 10
46.915300000000002
 20
133.5239999999996
 30
0.0
 70
    32
  0
VERTEX
  5
10371
  8
0
 62
     5
 10
46.914900000000003
 20
133.5239999999996
 30
0.0
 70
    32
  0
VERTEX
  5
10372
  8
0
 62
     5
 10
46.914400000000001
 20
133.5239999999996
 30
0.0
 70
    32
  0
VERTEX
  5
10373
  8
0
 62
     5
 10
46.914000000000001
 20
133.5239999999996
 30
0.0
 70
    32
  0
VERTEX
  5
10374
  8
0
 62
     5
 10
46.913499999999992
 20
133.5239999999996
 30
0.0
 70
    32
  0
VERTEX
  5
10375
  8
0
 62
     5
 10
46.9131
 20
133.5239999999996
 30
0.0
 70
    32
  0
VERTEX
  5
10376
  8
0
 62
     5
 10
46.912599999999983
 20
133.52299999999991
 30
0.0
 70
    32
  0
VERTEX
  5
10377
  8
0
 62
     5
 10
46.912199999999999
 20
133.52299999999991
 30
0.0
 70
    32
  0
VERTEX
  5
10378
  8
0
 62
     5
 10
46.911700000000003
 20
133.52299999999991
 30
0.0
 70
    32
  0
VERTEX
  5
10379
  8
0
 62
     5
 10
46.911299999999997
 20
133.52299999999991
 30
0.0
 70
    32
  0
VERTEX
  5
1037A
  8
0
 62
     5
 10
46.910800000000002
 20
133.52299999999991
 30
0.0
 70
    32
  0
VERTEX
  5
1037B
  8
0
 62
     5
 10
46.910400000000003
 20
133.52299999999991
 30
0.0
 70
    32
  0
VERTEX
  5
1037C
  8
0
 62
     5
 10
46.9099
 20
133.52299999999991
 30
0.0
 70
    32
  0
VERTEX
  5
1037D
  8
0
 62
     5
 10
46.909499999999987
 20
133.52299999999991
 30
0.0
 70
    32
  0
VERTEX
  5
1037E
  8
0
 62
     5
 10
46.908999999999999
 20
133.52299999999991
 30
0.0
 70
    32
  0
VERTEX
  5
1037F
  8
0
 62
     5
 10
46.908599999999993
 20
133.52299999999991
 30
0.0
 70
    32
  0
VERTEX
  5
10380
  8
0
 62
     5
 10
46.90809999999999
 20
133.52299999999991
 30
0.0
 70
    32
  0
SEQEND
  5
10381
  8
0
 62
     5
  0
LINE
  5
10382
  8
0
 62
     5
 10
47.020342078150009
 20
133.02377089579991
 30
0.0
 11
47.020342078150009
 21
130.02221999999961
 31
0.0
  0
LINE
  5
10383
  8
0
 62
     5
 10
44.388904999949979
 20
132.02221999999969
 30
0.0
 11
42.58890499995001
 21
132.02221999999969
 31
0.0
  0
POLYLINE
  5
10384
  8
0
 62
     5
 66
     1
 10
0.0
 20
0.0
 30
0.0
  0
VERTEX
  5
10DF4
  8
0
 62
     5
 10
44.879847869150012
 20
133.51794243079991
 30
0.0
  0
VERTEX
  5
10DF5
  8
0
 62
     5
 10
44.912008513750003
 20
133.52114946169991
 30
0.0
  0
VERTEX
  5
10DF6
  8
0
 62
     5
 10
44.944307467350008
 20
133.52222
 30
0.0
  0
SEQEND
  5
10DF7
  8
0
 62
     5
  0
ARC
  5
10389
  8
0
 62
     5
 10
44.88890499995
 20
133.02221999999969
 30
0.0
 40
0.5
 50
90.0
 51
180.0
  0
ARC
  5
1038A
  8
0
 62
     5
 10
44.588904999950017
 20
130.22221999999991
 30
0.0
 40
0.2
 50
180.0
 51
270.0
  0
LINE
  5
1038B
  8
0
 62
     5
 10
44.388904999949979
 20
130.22221999999991
 30
0.0
 11
44.388904999949979
 21
133.02221999999969
 31
0.0
  0
LINE
  5
1038C
  8
0
 62
     5
 10
46.800113411831383
 20
133.52222
 30
0.0
 11
44.88890499995
 21
133.52222
 31
0.0
  0
LINE
  5
1038D
  8
0
 62
     5
 10
41.880197348149991
 20
144.5081694626999
 30
0.0
 11
41.740197348150012
 21
144.71137084189991
 31
0.0
  0
LINE
  5
1038E
  8
0
 62
     5
 10
41.32019734815001
 20
144.5081694626999
 30
0.0
 11
40.976832993750008
 21
145.10289397
 31
0.0
  0
LINE
  5
1038F
  8
0
 62
     5
 10
41.880197348149991
 20
143.94816946270001
 30
0.0
 11
41.740197348150012
 21
144.6553708418999
 31
0.0
  0
LINE
  5
10390
  8
0
 62
     5
 10
41.32019734815001
 20
143.94816946270001
 30
0.0
 11
41.460197348150011
 21
144.6553708418999
 31
0.0
  0
LINE
  5
10391
  8
0
 62
     5
 10
41.32019734815001
 20
144.5081694626999
 30
0.0
 11
41.460197348150011
 21
144.71137084189991
 31
0.0
  0
LINE
  5
10392
  8
0
 62
     5
 10
42.223561702549993
 20
145.10289397
 30
0.0
 11
41.880197348149991
 21
144.5081694626999
 31
0.0
  0
LINE
  5
10393
  8
0
 62
     5
 10
45.588904999949989
 20
146.02222
 30
0.0
 11
45.588904999949989
 21
142.07824130859979
 31
0.0
  0
CIRCLE
  5
10394
  8
0
 62
     5
 10
41.600197348149997
 20
145.72625832429981
 30
0.0
 40
2.75
  0
ARC
  5
10395
  8
0
 62
     5
 10
41.600197348149997
 20
145.72625832429981
 30
0.0
 40
2.9500000000000002
 50
276.8138543441998
 51
263.18614565579998
  0
CIRCLE
  5
10396
  8
0
 62
     5
 10
41.600197348149997
 20
145.72625832429981
 30
0.0
 40
3.0
  0
ARC
  5
10397
  8
0
 62
     5
 10
68.088904999950003
 20
521.27678993589984
 30
0.0
 40
380.26616440010002
 50
265.57435662750009
 51
266.31242822149972
  0
ARC
  5
10398
  8
0
 62
     5
 10
68.088904999950003
 20
521.27678993589984
 30
0.0
 40
380.0
 50
265.61160084250008
 51
266.31242822149972
  0
LINE
  5
10399
  8
0
 62
     5
 10
41.32019734815001
 20
143.94816946270001
 30
0.0
 11
41.32019734815001
 21
144.5081694626999
 31
0.0
  0
LINE
  5
1039A
  8
0
 62
     5
 10
41.880197348149991
 20
144.5081694626999
 30
0.0
 11
41.880197348149991
 21
143.94816946270001
 31
0.0
  0
ARC
  5
1039B
  8
0
 62
     5
 10
41.600197348149997
 20
145.72625832429981
 30
0.0
 40
1.8
 50
261.05098193469991
 51
278.94901806529992
  0
LINE
  5
1039C
  8
0
 62
     5
 10
41.250197348150003
 20
143.0009976595
 30
0.0
 11
41.250197348150003
 21
142.7970946211999
 31
0.0
  0
LINE
  5
1039D
  8
0
 62
     5
 10
41.95019734815002
 20
142.7970946211999
 30
0.0
 11
41.95019734815002
 21
143.0009976595
 31
0.0
  0
ARC
  5
1039E
  8
0
 62
     5
 10
39.08890499995001
 20
143.3879173820998
 30
0.0
 40
1.0
 50
180.0
 51
265.61160084250008
  0
ARC
  5
1039F
  8
0
 62
     5
 10
46.58890499995001
 20
142.07824130859979
 30
0.0
 40
1.0
 50
180.0
 51
235.93541006419881
  0
LINE
  5
103A0
  8
0
 62
     5
 10
42.223561702549993
 20
145.10289397
 30
0.0
 11
40.976832993750008
 21
146.3496226786998
 31
0.0
  0
LINE
  5
103A1
  8
0
 62
     5
 10
41.880197348149991
 20
146.9443471859999
 30
0.0
 11
42.223561702549993
 21
146.3496226786998
 31
0.0
  0
LINE
  5
103A2
  8
0
 62
     5
 10
42.615084830550011
 20
145.86625832429991
 30
0.0
 11
42.060428392150001
 21
146.1864893683998
 31
0.0
  0
LINE
  5
103A3
  8
0
 62
     5
 10
40.529309865750008
 20
145.86625832429991
 30
0.0
 11
42.671084830549987
 21
145.58625832429979
 31
0.0
  0
LINE
  5
103A4
  8
0
 62
     5
 10
40.585309865749991
 20
145.86625832429991
 30
0.0
 11
42.615084830550011
 21
145.58625832429979
 31
0.0
  0
LINE
  5
103A5
  8
0
 62
     5
 10
40.529309865750008
 20
145.58625832429979
 30
0.0
 11
42.671084830549987
 21
145.86625832429991
 31
0.0
  0
LINE
  5
103A6
  8
0
 62
     5
 10
40.585309865749991
 20
145.58625832429979
 30
0.0
 11
42.615084830550011
 21
145.86625832429991
 31
0.0
  0
LINE
  5
103A7
  8
0
 62
     5
 10
40.976832993750008
 20
145.10289397
 30
0.0
 11
42.223561702549993
 21
146.3496226786998
 31
0.0
  0
LINE
  5
103A8
  8
0
 62
     5
 10
42.060428392150001
 20
145.26602728029991
 30
0.0
 11
42.615084830550011
 21
145.58625832429979
 31
0.0
  0
ARC
  5
103A9
  8
0
 62
     5
 10
41.600197348149997
 20
145.72625832429981
 30
0.0
 40
1.1277213352999991
 50
289.03326855569981
 51
340.9667314443011
  0
ARC
  5
103AA
  8
0
 62
     5
 10
41.600197348149997
 20
145.72625832429981
 30
0.0
 40
1.1277213352999991
 50
19.033268555698768
 51
70.96673144430018
  0
ARC
  5
103AB
  8
0
 62
     5
 10
42.088904999950017
 20
146.02222
 30
0.0
 40
3.5
 50
0.0
 51
90.0
  0
LINE
  5
103AC
  8
0
 62
     5
 10
39.08890499995001
 20
149.52221999999981
 30
0.0
 11
42.088904999950017
 21
149.52221999999981
 31
0.0
  0
LINE
  5
103AD
  8
0
 62
     5
 10
40.382108486449987
 20
146.00625832430001
 30
0.0
 11
40.585309865749991
 21
145.86625832429991
 31
0.0
  0
LINE
  5
103AE
  8
0
 62
     5
 10
41.32019734815001
 20
146.9443471859999
 30
0.0
 11
41.460197348150011
 21
146.74114580679961
 31
0.0
  0
LINE
  5
103AF
  8
0
 62
     5
 10
41.139966304150001
 20
145.26602728029991
 30
0.0
 11
41.460197348150011
 21
144.71137084189991
 31
0.0
  0
LINE
  5
103B0
  8
0
 62
     5
 10
42.060428392150001
 20
146.1864893683998
 30
0.0
 11
41.740197348150012
 21
146.74114580679961
 31
0.0
  0
LINE
  5
103B1
  8
0
 62
     5
 10
41.32019734815001
 20
147.5043471859999
 30
0.0
 11
41.460197348150011
 21
146.7971458067999
 31
0.0
  0
LINE
  5
103B2
  8
0
 62
     5
 10
41.32019734815001
 20
146.9443471859999
 30
0.0
 11
41.32019734815001
 21
147.5043471859999
 31
0.0
  0
LINE
  5
103B3
  8
0
 62
     5
 10
41.460197348150011
 20
146.7971458067999
 30
0.0
 11
41.460197348150011
 21
146.74114580679961
 31
0.0
  0
LINE
  5
103B4
  8
0
 62
     5
 10
41.460197348150011
 20
144.71137084189991
 30
0.0
 11
41.460197348150011
 21
144.6553708418999
 31
0.0
  0
LINE
  5
103B5
  8
0
 62
     5
 10
41.740197348150012
 20
144.6553708418999
 30
0.0
 11
41.740197348150012
 21
144.71137084189991
 31
0.0
  0
LINE
  5
103B6
  8
0
 62
     5
 10
41.740197348150012
 20
146.74114580679961
 30
0.0
 11
41.740197348150012
 21
146.7971458067999
 31
0.0
  0
LINE
  5
103B7
  8
0
 62
     5
 10
41.880197348149991
 20
147.5043471859999
 30
0.0
 11
41.880197348149991
 21
146.9443471859999
 31
0.0
  0
LINE
  5
103B8
  8
0
 62
     5
 10
40.976832993750008
 20
145.10289397
 30
0.0
 11
40.382108486449987
 21
145.44625832429981
 31
0.0
  0
LINE
  5
103B9
  8
0
 62
     5
 10
40.585309865749991
 20
145.58625832429979
 30
0.0
 11
41.139966304150001
 21
145.26602728029991
 31
0.0
  0
LINE
  5
103BA
  8
0
 62
     5
 10
41.740197348150012
 20
144.71137084189991
 30
0.0
 11
41.460197348150011
 21
146.74114580679961
 31
0.0
  0
LINE
  5
103BB
  8
0
 62
     5
 10
41.740197348150012
 20
144.6553708418999
 30
0.0
 11
41.460197348150011
 21
146.7971458067999
 31
0.0
  0
LINE
  5
103BC
  8
0
 62
     5
 10
41.460197348150011
 20
144.6553708418999
 30
0.0
 11
41.740197348150012
 21
146.7971458067999
 31
0.0
  0
LINE
  5
103BD
  8
0
 62
     5
 10
41.460197348150011
 20
144.71137084189991
 30
0.0
 11
41.740197348150012
 21
146.74114580679961
 31
0.0
  0
LINE
  5
103BE
  8
0
 62
     5
 10
41.880197348149991
 20
147.5043471859999
 30
0.0
 11
41.740197348150012
 21
146.7971458067999
 31
0.0
  0
LINE
  5
103BF
  8
0
 62
     5
 10
39.822108486450013
 20
146.00625832430001
 30
0.0
 11
40.529309865750008
 21
145.86625832429991
 31
0.0
  0
LINE
  5
103C0
  8
0
 62
     5
 10
40.382108486449987
 20
145.44625832429981
 30
0.0
 11
39.822108486450013
 21
145.44625832429981
 31
0.0
  0
LINE
  5
103C1
  8
0
 62
     5
 10
40.529309865750008
 20
145.58625832429979
 30
0.0
 11
40.585309865749991
 21
145.58625832429979
 31
0.0
  0
LINE
  5
103C2
  8
0
 62
     5
 10
40.585309865749991
 20
145.86625832429991
 30
0.0
 11
40.529309865750008
 21
145.86625832429991
 31
0.0
  0
LINE
  5
103C3
  8
0
 62
     5
 10
39.822108486450013
 20
146.00625832430001
 30
0.0
 11
40.382108486449987
 21
146.00625832430001
 31
0.0
  0
LINE
  5
103C4
  8
0
 62
     5
 10
40.976832993750008
 20
146.3496226786998
 30
0.0
 11
41.32019734815001
 21
146.9443471859999
 31
0.0
  0
LINE
  5
103C5
  8
0
 62
     5
 10
41.460197348150011
 20
146.74114580679961
 30
0.0
 11
41.139966304150001
 21
146.1864893683998
 31
0.0
  0
LINE
  5
103C6
  8
0
 62
     5
 10
41.740197348150012
 20
144.71137084189991
 30
0.0
 11
42.060428392150001
 21
145.26602728029991
 31
0.0
  0
LINE
  5
103C7
  8
0
 62
     5
 10
41.880197348149991
 20
146.9443471859999
 30
0.0
 11
41.740197348150012
 21
146.74114580679961
 31
0.0
  0
LINE
  5
103C8
  8
0
 62
     5
 10
39.822108486450013
 20
145.44625832429981
 30
0.0
 11
40.529309865750008
 21
145.58625832429979
 31
0.0
  0
LINE
  5
103C9
  8
0
 62
     5
 10
40.382108486449987
 20
145.44625832429981
 30
0.0
 11
40.585309865749991
 21
145.58625832429979
 31
0.0
  0
LINE
  5
103CA
  8
0
 62
     5
 10
40.382108486449987
 20
146.00625832430001
 30
0.0
 11
40.976832993750008
 21
146.3496226786998
 31
0.0
  0
LINE
  5
103CB
  8
0
 62
     5
 10
41.139966304150001
 20
146.1864893683998
 30
0.0
 11
40.585309865749991
 21
145.86625832429991
 31
0.0
  0
ARC
  5
103CC
  8
0
 62
     5
 10
41.600197348149997
 20
145.72625832429981
 30
0.0
 40
1.1277213352999991
 50
109.03326855569981
 51
160.96673144430119
  0
ARC
  5
103CD
  8
0
 62
     5
 10
41.600197348149997
 20
145.72625832429981
 30
0.0
 40
1.0800000000000001
 50
172.55180943900211
 51
187.4481905609978
  0
ARC
  5
103CE
  8
0
 62
     5
 10
41.600197348149997
 20
145.72625832429981
 30
0.0
 40
1.0800000000000001
 50
262.55180943899973
 51
277.44819056100022
  0
ARC
  5
103CF
  8
0
 62
     5
 10
41.600197348149997
 20
145.72625832429981
 30
0.0
 40
1.0800000000000001
 50
82.551809438999697
 51
97.448190561000288
  0
ARC
  5
103D0
  8
0
 62
     5
 10
41.600197348149997
 20
145.72625832429981
 30
0.0
 40
1.1277213352999991
 50
199.0332685556983
 51
250.9667314443
  0
ARC
  5
103D1
  8
0
 62
     5
 10
41.600197348149997
 20
145.72625832429981
 30
0.0
 40
1.8
 50
171.05098193469971
 51
188.9490180652999
  0
ARC
  5
103D2
  8
0
 62
     5
 10
41.600197348149997
 20
145.72625832429981
 30
0.0
 40
1.8
 50
81.050981934699905
 51
98.949018065300081
  0
ARC
  5
103D3
  8
0
 62
     5
 10
39.08890499995001
 20
150.52221999999981
 30
0.0
 40
1.0
 50
180.0
 51
270.0
  0
LINE
  5
103D4
  8
0
 62
     5
 10
42.223561702549993
 20
146.3496226786998
 30
0.0
 11
42.818286209850008
 21
146.00625832430001
 31
0.0
  0
LINE
  5
103D5
  8
0
 62
     5
 10
42.818286209850008
 20
145.44625832429981
 30
0.0
 11
42.615084830550011
 21
145.58625832429979
 31
0.0
  0
LINE
  5
103D6
  8
0
 62
     5
 10
43.378286209850017
 20
145.44625832429981
 30
0.0
 11
42.671084830549987
 21
145.58625832429979
 31
0.0
  0
LINE
  5
103D7
  8
0
 62
     5
 10
43.378286209850017
 20
145.44625832429981
 30
0.0
 11
42.818286209850008
 21
145.44625832429981
 31
0.0
  0
LINE
  5
103D8
  8
0
 62
     5
 10
42.615084830550011
 20
145.58625832429979
 30
0.0
 11
42.671084830549987
 21
145.58625832429979
 31
0.0
  0
LINE
  5
103D9
  8
0
 62
     5
 10
42.671084830549987
 20
145.86625832429991
 30
0.0
 11
42.615084830550011
 21
145.86625832429991
 31
0.0
  0
LINE
  5
103DA
  8
0
 62
     5
 10
42.818286209850008
 20
146.00625832430001
 30
0.0
 11
43.378286209850017
 21
146.00625832430001
 31
0.0
  0
LINE
  5
103DB
  8
0
 62
     5
 10
43.378286209850017
 20
146.00625832430001
 30
0.0
 11
42.671084830549987
 21
145.86625832429991
 31
0.0
  0
LINE
  5
103DC
  8
0
 62
     5
 10
42.818286209850008
 20
146.00625832430001
 30
0.0
 11
42.615084830550011
 21
145.86625832429991
 31
0.0
  0
LINE
  5
103DD
  8
0
 62
     5
 10
42.818286209850008
 20
145.44625832429981
 30
0.0
 11
42.223561702549993
 21
145.10289397
 31
0.0
  0
ARC
  5
103DE
  8
0
 62
     5
 10
41.600197348149997
 20
145.72625832429981
 30
0.0
 40
1.0800000000000001
 50
352.551809439002
 51
7.4481905609978769
  0
ARC
  5
103DF
  8
0
 62
     5
 10
41.600197348149997
 20
145.72625832429981
 30
0.0
 40
1.8
 50
351.05098193469979
 51
8.9490180653002085
  0
ARC
  5
103E0
  8
0
 62
     5
 10
41.58890499995001
 20
178.3222199999999
 30
0.0
 40
3.5
 50
270.0
 51
0.0
  0
LINE
  5
103E1
  8
0
 62
     5
 10
41.58890499995001
 20
174.8222199999999
 30
0.0
 11
39.08890499995001
 21
174.8222199999999
 31
0.0
  0
ARC
  5
103E2
  8
0
 62
     5
 10
39.08890499995001
 20
173.8222199999999
 30
0.0
 40
1.0
 50
90.0
 51
180.0
  0
LINE
  5
103E3
  8
HIDDEN
 10
66.431367242250005
 20
123.01908770778699
 30
0.0
 11
68.778778298450021
 21
123.0254452149869
 31
0.0
  0
LINE
  5
103E4
  8
0
 62
     5
 10
67.873765689750002
 20
124.8222199999996
 30
0.0
 11
67.577459187550005
 21
124.5222199999999
 31
0.0
  0
LINE
  5
103E5
  8
0
 62
     5
 10
64.798126350150028
 20
125.1222199999999
 30
0.0
 11
68.178691415750023
 21
125.1222199999999
 31
0.0
  0
LINE
  5
103E6
  8
0
 62
     5
 10
66.630605222950024
 20
123.22221999999979
 30
0.0
 11
81.347204776950036
 21
123.22221999999979
 31
0.0
  0
ARC
  5
103E7
  8
0
 62
     5
 10
427.34347493905142
 20
162.02222000021891
 30
0.0
 40
380.26616440330889
 50
183.6875717785033
 51
184.18672164793401
  0
ARC
  5
103E8
  8
0
 62
     5
 10
427.3434749358496
 20
162.02221999999981
 30
0.0
 40
380.0
 50
183.68757177850171
 51
184.0584021088558
  0
LINE
  5
103E9
  8
0
 62
     5
 10
54.723705276050012
 20
127.8222199999996
 30
0.0
 11
63.61290034145
 21
127.8222199999996
 31
0.0
  0
LINE
  5
103EA
  8
0
 62
     5
 10
64.751196010650006
 20
124.5222199999999
 30
0.0
 11
48.60035081245001
 21
124.5222199999999
 31
0.0
  0
LINE
  5
103EB
  8
0
 62
     5
 10
52.089152630850009
 20
130.02221999999961
 30
0.0
 11
52.089152630850009
 21
129.02222
 31
0.0
  0
LINE
  5
103EC
  8
0
 62
     5
 10
47.512661408350013
 20
129.02222
 30
0.0
 11
47.512661408350013
 21
130.02221999999961
 31
0.0
  0
LINE
  5
103ED
  8
0
 62
     5
 10
49.30522488655
 20
125.1222199999999
 30
0.0
 11
53.538479267349992
 21
125.1222199999999
 31
0.0
  0
LINE
  5
103EE
  8
HIDDEN
 10
47.399031701550022
 20
123.0254452149869
 30
0.0
 11
52.183443630050022
 21
123.0254452149869
 31
0.0
  0
LINE
  5
103EF
  8
0
 62
     5
 10
51.181832733650012
 20
125.1222199999999
 30
0.0
 11
51.181832733650012
 21
124.5222199999999
 31
0.0
  0
LINE
  5
103F0
  8
0
 62
     5
 10
48.60035081245001
 20
124.5222199999999
 30
0.0
 11
48.304044310250021
 21
124.8222199999996
 31
0.0
  0
LINE
  5
103F1
  8
0
 62
     5
 10
48.304044310250021
 20
124.8222199999996
 30
0.0
 11
49.30522488655
 21
124.8222199999996
 31
0.0
  0
LINE
  5
103F2
  8
0
 62
     5
 10
48.304044310250021
 20
125.1222199999999
 30
0.0
 11
47.99911858425002
 21
125.1222199999999
 31
0.0
  0
LINE
  5
103F3
  8
0
 62
     5
 10
48.304044310250021
 20
125.1222199999999
 30
0.0
 11
48.304044310250021
 21
124.8222199999996
 31
0.0
  0
LINE
  5
103F4
  8
0
 62
     5
 10
49.30522488655
 20
124.8222199999996
 30
0.0
 11
49.30522488655
 21
125.1222199999999
 31
0.0
  0
LINE
  5
103F5
  8
0
 62
     5
 10
49.601531388749997
 20
124.5222199999999
 30
0.0
 11
49.30522488655
 21
124.8222199999996
 31
0.0
  0
LINE
  5
103F6
  8
0
 62
     5
 10
47.999070120349977
 20
129.02222
 30
0.0
 11
47.999070120349977
 21
125.1222199999999
 31
0.0
  0
LINE
  5
103F7
  8
0
 62
     5
 10
48.022462273150019
 20
129.02222
 30
0.0
 11
48.022462273150019
 21
125.1222199999999
 31
0.0
  0
LINE
  5
103F8
  8
0
 62
     5
 10
49.586806923650009
 20
125.1222199999999
 30
0.0
 11
49.586806923650009
 21
129.02222
 31
0.0
  0
LINE
  5
103F9
  8
0
 62
     5
 10
51.760640254350001
 20
129.02222
 30
0.0
 11
51.760640254350001
 21
125.1222199999999
 31
0.0
  0
LINE
  5
103FA
  8
0
 62
     5
 10
53.538479267349992
 20
124.8222199999996
 30
0.0
 11
54.723705276050012
 21
124.8222199999996
 31
0.0
  0
LINE
  5
103FB
  8
0
 62
     5
 10
53.538479267349992
 20
125.1222199999999
 30
0.0
 11
53.538479267349992
 21
124.8222199999996
 31
0.0
  0
LINE
  5
103FC
  8
0
 62
     5
 10
53.491548927850012
 20
124.5222199999999
 30
0.0
 11
53.538479267349992
 21
124.8222199999996
 31
0.0
  0
LINE
  5
103FD
  8
0
 62
     5
 10
54.67677493654999
 20
124.5222199999999
 30
0.0
 11
54.723705276050012
 21
124.8222199999996
 31
0.0
  0
LINE
  5
103FE
  8
0
 62
     5
 10
54.723705276050012
 20
124.8222199999996
 30
0.0
 11
54.723705276050012
 21
127.8222199999996
 31
0.0
  0
LINE
  5
103FF
  8
0
 62
     5
 10
53.241253783850013
 20
124.5222199999999
 30
0.0
 11
53.241253783850013
 21
125.1222199999999
 31
0.0
  0
LINE
  5
10400
  8
0
 62
     5
 10
66.904477739849995
 20
129.02222
 30
0.0
 11
66.904477739849995
 21
130.02221999999961
 31
0.0
  0
LINE
  5
10401
  8
0
 62
     5
 10
66.301387491150024
 20
124.5222199999999
 30
0.0
 11
66.318309831550025
 21
123.22221999999979
 31
0.0
  0
LINE
  5
10402
  8
0
 62
     5
 10
65.99715784255001
 20
124.5222199999999
 30
0.0
 11
65.99715784255001
 21
125.1222199999999
 31
0.0
  0
LINE
  5
10403
  8
0
 62
     5
 10
63.61290034145
 20
124.8222199999996
 30
0.0
 11
64.798126350150028
 21
124.8222199999996
 31
0.0
  0
LINE
  5
10404
  8
0
 62
     5
 10
65.63060522295001
 20
123.22221999999979
 30
0.0
 11
65.58975107714997
 21
124.5222199999999
 31
0.0
  0
LINE
  5
10405
  8
0
 62
     5
 10
64.798126350150028
 20
124.8222199999996
 30
0.0
 11
64.798126350150028
 21
125.1222199999999
 31
0.0
  0
LINE
  5
10406
  8
0
 62
     5
 10
63.61290034145
 20
124.8222199999996
 30
0.0
 11
63.565970001950021
 21
124.5222199999999
 31
0.0
  0
LINE
  5
10407
  8
0
 62
     5
 10
64.798126350150028
 20
124.8222199999996
 30
0.0
 11
64.751196010650006
 21
124.5222199999999
 31
0.0
  0
LINE
  5
10408
  8
0
 62
     5
 10
67.577459187550005
 20
124.5222199999999
 30
0.0
 11
64.822594898550008
 21
124.5222199999999
 31
0.0
  0
LINE
  5
10409
  8
0
 62
     5
 10
63.253101071849997
 20
124.5222199999999
 30
0.0
 11
63.253101071849997
 21
127.8222199999996
 31
0.0
  0
LINE
  5
1040A
  8
0
 62
     5
 10
63.61290034145
 20
127.8222199999996
 30
0.0
 11
63.61290034145
 21
124.8222199999996
 31
0.0
  0
LINE
  5
1040B
  8
0
 62
     5
 10
66.57596536325002
 20
125.1222199999999
 30
0.0
 11
66.57596536325002
 21
129.02222
 31
0.0
  0
ARC
  5
1040C
  8
0
 62
     5
 10
-291.16566493595002
 20
162.02221999999981
 30
0.0
 40
380.0
 50
355.6116008424986
 51
356.31242822149801
  0
LINE
  5
1040D
  8
0
 62
     5
 10
84.104866675650015
 20
137.3116012097999
 30
0.0
 11
84.244866675650044
 21
136.6043998305999
 31
0.0
  0
LINE
  5
1040E
  8
0
 62
     5
 10
84.104866675650015
 20
136.7516012097999
 30
0.0
 11
84.104866675650015
 21
137.3116012097999
 31
0.0
  0
LINE
  5
1040F
  8
0
 62
     5
 10
84.664866675650018
 20
137.3116012097999
 30
0.0
 11
84.664866675650018
 21
136.7516012097999
 31
0.0
  0
LINE
  5
10410
  8
0
 62
     5
 10
84.664866675650018
 20
137.3116012097999
 30
0.0
 11
84.524866675650017
 21
136.6043998305999
 31
0.0
  0
CIRCLE
  5
10411
  8
0
 62
     5
 10
84.384866675650017
 20
135.53351234819991
 30
0.0
 40
2.75
  0
ARC
  5
10412
  8
0
 62
     5
 10
84.088904999950003
 20
136.02222
 30
0.0
 40
3.5
 50
90.0
 51
180.0
  0
ARC
  5
10413
  8
0
 62
     5
 10
84.384866675650017
 20
135.53351234819991
 30
0.0
 40
2.9500000000000002
 50
276.8138543441998
 51
263.18614565579998
  0
CIRCLE
  5
10414
  8
0
 62
     5
 10
84.384866675650017
 20
135.53351234819991
 30
0.0
 40
3.0
  0
LINE
  5
10415
  8
0
 62
     5
 10
73.28890499995002
 20
132.02221999999969
 30
0.0
 11
86.723207617950024
 21
132.02221999999969
 31
0.0
  0
LINE
  5
10416
  8
0
 62
     5
 10
87.41159702394998
 20
128.62222
 30
0.0
 11
68.178739879649996
 21
128.62222
 31
0.0
  0
LINE
  5
10417
  8
0
 62
     5
 10
87.894112777350045
 20
131.7560555998997
 30
0.0
 11
72.847008333650024
 21
131.7560555998997
 31
0.0
  0
LINE
  5
10418
  8
0
 62
     5
 10
70.278739879650033
 20
129.02222
 30
0.0
 11
70.278739879650033
 21
130.02221999999961
 31
0.0
  0
LINE
  5
10419
  8
0
 62
     5
 10
77.48890499994998
 20
128.6452503992999
 30
0.0
 11
70.488904999950051
 21
128.6452503992999
 31
0.0
  0
LINE
  5
1041A
  8
0
 62
     5
 10
77.48890499994998
 20
128.9222199999999
 30
0.0
 11
70.488904999950051
 21
128.9222199999999
 31
0.0
  0
LINE
  5
1041B
  8
HIDDEN
 10
70.278739879650033
 20
124.5254452149869
 30
0.0
 11
70.278739879650033
 21
127.2754452149869
 31
0.0
  0
ARC
  5
1041C
  8
HIDDEN
 10
68.778739879650004
 20
124.5254452149869
 30
0.0
 40
1.5
 50
270.0
 51
0.0
  0
LINE
  5
1041D
  8
0
 62
     5
 10
70.488904999950051
 20
128.6452503992999
 30
0.0
 11
70.488904999950051
 21
128.9222199999999
 31
0.0
  0
LINE
  5
1041E
  8
0
 62
     5
 10
67.873765689750002
 20
125.1222199999999
 30
0.0
 11
67.873765689750002
 21
124.8222199999996
 31
0.0
  0
LINE
  5
1041F
  8
0
 62
     5
 10
68.178739879649996
 20
129.02222
 30
0.0
 11
68.178739879649996
 21
125.1222199999999
 31
0.0
  0
LINE
  5
10420
  8
0
 62
     5
 10
77.48890499994998
 20
128.6452503992999
 30
0.0
 11
77.48890499994998
 21
128.9222199999999
 31
0.0
  0
ARC
  5
10421
  8
0
 62
     5
 10
73.28890499995002
 20
131.52222
 30
0.0
 40
0.5
 50
90.0
 51
180.0
  0
LINE
  5
10422
  8
0
 62
     5
 10
72.788904999950006
 20
131.52222
 30
0.0
 11
72.788904999950006
 21
130.22221999999991
 31
0.0
  0
ARC
  5
10423
  8
0
 62
     5
 10
72.588904999950003
 20
130.22221999999991
 30
0.0
 40
0.2
 50
270.0
 51
0.0
  0
LINE
  5
10424
  8
0
 62
     5
 10
87.911597023950023
 20
131.9786119010999
 30
0.0
 11
87.911597023950023
 21
129.12221999999991
 31
0.0
  0
LINE
  5
10425
  8
0
 62
     5
 10
80.659500168449995
 20
123.22221999999979
 30
0.0
 11
80.729792967150019
 21
128.62222
 31
0.0
  0
LINE
  5
10426
  8
0
 62
     5
 10
81.516906613749953
 20
128.62222
 30
0.0
 11
81.347204776950036
 21
123.22221999999979
 31
0.0
  0
LINE
  5
10427
  8
HIDDEN
 10
85.738904999754254
 20
126.1222199999999
 30
0.0
 11
83.438904999950012
 21
126.1222199999999
 31
0.0
  0
ARC
  5
10428
  8
HIDDEN
 10
85.738904999899987
 20
126.6222199999996
 30
0.0
 40
0.5
 50
269.99999998330031
 51
0.0
  0
LINE
  5
10429
  8
HIDDEN
 10
86.238904999899944
 20
127.1722199999999
 30
0.0
 11
86.238904999899944
 21
126.6222199999996
 31
0.0
  0
LINE
  5
1042A
  8
0
 62
     5
 10
82.606777813950004
 20
135.25351234819999
 30
0.0
 11
83.31397919325002
 21
135.39351234819981
 31
0.0
  0
LINE
  5
1042B
  8
0
 62
     5
 10
82.606777813950004
 20
135.81351234819991
 30
0.0
 11
83.31397919325002
 21
135.67351234819981
 31
0.0
  0
LINE
  5
1042C
  8
0
 62
     5
 10
83.761502321249949
 20
134.91014799379991
 30
0.0
 11
83.166777813950006
 21
135.25351234819999
 31
0.0
  0
LINE
  5
1042D
  8
0
 62
     5
 10
83.166777813950006
 20
135.81351234819991
 30
0.0
 11
83.369979193250003
 21
135.67351234819981
 31
0.0
  0
LINE
  5
1042E
  8
0
 62
     5
 10
83.166777813950006
 20
135.25351234819999
 30
0.0
 11
83.369979193250003
 21
135.39351234819981
 31
0.0
  0
LINE
  5
1042F
  8
0
 62
     5
 10
83.166777813950006
 20
135.81351234819991
 30
0.0
 11
83.761502321249949
 21
136.1568767025
 31
0.0
  0
LINE
  5
10430
  8
0
 62
     5
 10
83.166777813950006
 20
135.25351234819999
 30
0.0
 11
82.606777813950004
 21
135.25351234819999
 31
0.0
  0
LINE
  5
10431
  8
0
 62
     5
 10
82.606777813950004
 20
135.81351234819991
 30
0.0
 11
83.166777813950006
 21
135.81351234819991
 31
0.0
  0
LINE
  5
10432
  8
0
 62
     5
 10
80.588904999949989
 20
133.02221999999969
 30
0.0
 11
80.588904999949989
 21
136.02222
 31
0.0
  0
ARC
  5
10433
  8
0
 62
     5
 10
84.384866675650017
 20
135.53351234819991
 30
0.0
 40
1.8
 50
171.05098193469971
 51
188.9490180652999
  0
ARC
  5
10434
  8
0
 62
     5
 10
79.588904999950017
 20
133.02221999999969
 30
0.0
 40
1.0
 50
270.0
 51
0.0
  0
LINE
  5
10435
  8
0
 62
     5
 10
86.162955537350001
 20
135.81351234819991
 30
0.0
 11
85.455754158050027
 21
135.67351234819981
 31
0.0
  0
LINE
  5
10436
  8
0
 62
     5
 10
83.369979193250003
 20
135.39351234819981
 30
0.0
 11
85.399754158050015
 21
135.67351234819981
 31
0.0
  0
LINE
  5
10437
  8
0
 62
     5
 10
83.31397919325002
 20
135.39351234819981
 30
0.0
 11
85.455754158050027
 21
135.67351234819981
 31
0.0
  0
LINE
  5
10438
  8
0
 62
     5
 10
86.162955537350001
 20
135.25351234819999
 30
0.0
 11
85.602955537349999
 21
135.25351234819999
 31
0.0
  0
LINE
  5
10439
  8
0
 62
     5
 10
83.31397919325002
 20
135.39351234819981
 30
0.0
 11
83.369979193250003
 21
135.39351234819981
 31
0.0
  0
LINE
  5
1043A
  8
0
 62
     5
 10
85.399754158050015
 20
135.39351234819981
 30
0.0
 11
85.455754158050027
 21
135.39351234819981
 31
0.0
  0
LINE
  5
1043B
  8
0
 62
     5
 10
85.455754158050027
 20
135.67351234819981
 30
0.0
 11
85.399754158050015
 21
135.67351234819981
 31
0.0
  0
LINE
  5
1043C
  8
0
 62
     5
 10
83.369979193250003
 20
135.67351234819981
 30
0.0
 11
83.31397919325002
 21
135.67351234819981
 31
0.0
  0
LINE
  5
1043D
  8
0
 62
     5
 10
85.602955537349999
 20
135.81351234819991
 30
0.0
 11
86.162955537350001
 21
135.81351234819991
 31
0.0
  0
LINE
  5
1043E
  8
0
 62
     5
 10
83.31397919325002
 20
135.67351234819981
 30
0.0
 11
85.455754158050027
 21
135.39351234819981
 31
0.0
  0
LINE
  5
1043F
  8
0
 62
     5
 10
83.369979193250003
 20
135.67351234819981
 30
0.0
 11
85.399754158050015
 21
135.39351234819981
 31
0.0
  0
LINE
  5
10440
  8
0
 62
     5
 10
86.162955537350001
 20
135.25351234819999
 30
0.0
 11
85.455754158050027
 21
135.39351234819981
 31
0.0
  0
LINE
  5
10441
  8
0
 62
     5
 10
83.369979193250003
 20
135.39351234819981
 30
0.0
 11
83.924635631650034
 21
135.07328130409991
 31
0.0
  0
LINE
  5
10442
  8
0
 62
     5
 10
85.399754158050015
 20
135.67351234819981
 30
0.0
 11
84.845097719650013
 21
135.9937433921998
 31
0.0
  0
LINE
  5
10443
  8
0
 62
     5
 10
85.008231030050027
 20
136.1568767025
 30
0.0
 11
85.602955537349999
 21
135.81351234819991
 31
0.0
  0
LINE
  5
10444
  8
0
 62
     5
 10
85.602955537349999
 20
135.25351234819999
 30
0.0
 11
85.399754158050015
 21
135.39351234819981
 31
0.0
  0
LINE
  5
10445
  8
0
 62
     5
 10
85.008231030050027
 20
134.91014799379991
 30
0.0
 11
83.761502321249949
 21
136.1568767025
 31
0.0
  0
LINE
  5
10446
  8
0
 62
     5
 10
84.664866675650018
 20
134.31542348650001
 30
0.0
 11
84.524866675650017
 21
134.51862486569991
 31
0.0
  0
LINE
  5
10447
  8
0
 62
     5
 10
84.104866675650015
 20
136.7516012097999
 30
0.0
 11
84.244866675650044
 21
136.54839983059981
 31
0.0
  0
LINE
  5
10448
  8
0
 62
     5
 10
84.104866675650015
 20
134.31542348650001
 30
0.0
 11
83.761502321249949
 21
134.91014799379991
 31
0.0
  0
LINE
  5
10449
  8
0
 62
     5
 10
83.924635631650034
 20
135.07328130409991
 30
0.0
 11
84.244866675650044
 21
134.51862486569991
 31
0.0
  0
LINE
  5
1044A
  8
0
 62
     5
 10
84.845097719650013
 20
135.9937433921998
 30
0.0
 11
84.524866675650017
 21
136.54839983059981
 31
0.0
  0
LINE
  5
1044B
  8
0
 62
     5
 10
84.664866675650018
 20
136.7516012097999
 30
0.0
 11
85.008231030050027
 21
136.1568767025
 31
0.0
  0
LINE
  5
1044C
  8
0
 62
     5
 10
84.664866675650018
 20
133.75542348649981
 30
0.0
 11
84.524866675650017
 21
134.46262486569981
 31
0.0
  0
LINE
  5
1044D
  8
0
 62
     5
 10
84.524866675650017
 20
134.51862486569991
 30
0.0
 11
84.244866675650044
 21
136.54839983059981
 31
0.0
  0
LINE
  5
1044E
  8
0
 62
     5
 10
84.524866675650017
 20
134.46262486569981
 30
0.0
 11
84.244866675650044
 21
136.6043998305999
 31
0.0
  0
LINE
  5
1044F
  8
0
 62
     5
 10
84.034866675650036
 20
132.80825168329949
 30
0.0
 11
84.034866675650036
 21
132.6043486449999
 31
0.0
  0
LINE
  5
10450
  8
0
 62
     5
 10
84.104866675650015
 20
133.75542348649981
 30
0.0
 11
84.104866675650015
 21
134.31542348650001
 31
0.0
  0
LINE
  5
10451
  8
0
 62
     5
 10
84.244866675650044
 20
136.6043998305999
 30
0.0
 11
84.244866675650044
 21
136.54839983059981
 31
0.0
  0
LINE
  5
10452
  8
0
 62
     5
 10
84.244866675650044
 20
134.51862486569991
 30
0.0
 11
84.244866675650044
 21
134.46262486569981
 31
0.0
  0
LINE
  5
10453
  8
0
 62
     5
 10
84.524866675650017
 20
134.46262486569981
 30
0.0
 11
84.524866675650017
 21
134.51862486569991
 31
0.0
  0
LINE
  5
10454
  8
0
 62
     5
 10
84.524866675650017
 20
136.54839983059981
 30
0.0
 11
84.524866675650017
 21
136.6043998305999
 31
0.0
  0
LINE
  5
10455
  8
0
 62
     5
 10
84.664866675650018
 20
134.31542348650001
 30
0.0
 11
84.664866675650018
 21
133.75542348649981
 31
0.0
  0
LINE
  5
10456
  8
0
 62
     5
 10
84.734866675650011
 20
132.6043486449999
 30
0.0
 11
84.734866675650011
 21
132.80825168329949
 31
0.0
  0
LINE
  5
10457
  8
0
 62
     5
 10
84.244866675650044
 20
134.46262486569981
 30
0.0
 11
84.524866675650017
 21
136.6043998305999
 31
0.0
  0
LINE
  5
10458
  8
0
 62
     5
 10
84.244866675650044
 20
134.51862486569991
 30
0.0
 11
84.524866675650017
 21
136.54839983059981
 31
0.0
  0
LINE
  5
10459
  8
0
 62
     5
 10
84.104866675650015
 20
133.75542348649981
 30
0.0
 11
84.244866675650044
 21
134.46262486569981
 31
0.0
  0
LINE
  5
1045A
  8
0
 62
     5
 10
83.761502321249949
 20
136.1568767025
 30
0.0
 11
84.104866675650015
 21
136.7516012097999
 31
0.0
  0
LINE
  5
1045B
  8
0
 62
     5
 10
84.244866675650044
 20
136.54839983059981
 30
0.0
 11
83.924635631650034
 21
135.9937433921998
 31
0.0
  0
LINE
  5
1045C
  8
0
 62
     5
 10
84.524866675650017
 20
134.51862486569991
 30
0.0
 11
84.845097719650013
 21
135.07328130409991
 31
0.0
  0
LINE
  5
1045D
  8
0
 62
     5
 10
85.008231030050027
 20
134.91014799379991
 30
0.0
 11
84.664866675650018
 21
134.31542348650001
 31
0.0
  0
LINE
  5
1045E
  8
0
 62
     5
 10
84.664866675650018
 20
136.7516012097999
 30
0.0
 11
84.524866675650017
 21
136.54839983059981
 31
0.0
  0
LINE
  5
1045F
  8
0
 62
     5
 10
84.104866675650015
 20
134.31542348650001
 30
0.0
 11
84.244866675650044
 21
134.51862486569991
 31
0.0
  0
LINE
  5
10460
  8
0
 62
     5
 10
83.761502321249949
 20
134.91014799379991
 30
0.0
 11
85.008231030050027
 21
136.1568767025
 31
0.0
  0
LINE
  5
10461
  8
0
 62
     5
 10
85.602955537349999
 20
135.81351234819991
 30
0.0
 11
85.399754158050015
 21
135.67351234819981
 31
0.0
  0
LINE
  5
10462
  8
0
 62
     5
 10
83.924635631650034
 20
135.9937433921998
 30
0.0
 11
83.369979193250003
 21
135.67351234819981
 31
0.0
  0
LINE
  5
10463
  8
0
 62
     5
 10
84.845097719650013
 20
135.07328130409991
 30
0.0
 11
85.399754158050015
 21
135.39351234819981
 31
0.0
  0
LINE
  5
10464
  8
0
 62
     5
 10
85.602955537349999
 20
135.25351234819999
 30
0.0
 11
85.008231030050027
 21
134.91014799379991
 31
0.0
  0
ARC
  5
10465
  8
0
 62
     5
 10
84.384866675650017
 20
135.53351234819991
 30
0.0
 40
1.1277213352999991
 50
109.03326855569981
 51
160.96673144430119
  0
ARC
  5
10466
  8
0
 62
     5
 10
84.384866675650017
 20
135.53351234819991
 30
0.0
 40
1.1277213352999991
 50
289.03326855569981
 51
340.9667314443011
  0
ARC
  5
10467
  8
0
 62
     5
 10
84.384866675650017
 20
135.53351234819991
 30
0.0
 40
1.1277213352999991
 50
19.033268555698768
 51
70.96673144430018
  0
ARC
  5
10468
  8
0
 62
     5
 10
84.384866675650017
 20
135.53351234819991
 30
0.0
 40
1.0800000000000001
 50
172.55180943900211
 51
187.4481905609978
  0
ARC
  5
10469
  8
0
 62
     5
 10
84.384866675650017
 20
135.53351234819991
 30
0.0
 40
1.0800000000000001
 50
262.55180943899973
 51
277.44819056100022
  0
ARC
  5
1046A
  8
0
 62
     5
 10
84.384866675650017
 20
135.53351234819991
 30
0.0
 40
1.0800000000000001
 50
352.551809439002
 51
7.4481905609978769
  0
ARC
  5
1046B
  8
0
 62
     5
 10
84.384866675650017
 20
135.53351234819991
 30
0.0
 40
1.0800000000000001
 50
82.551809438999697
 51
97.448190561000288
  0
ARC
  5
1046C
  8
0
 62
     5
 10
84.384866675650017
 20
135.53351234819991
 30
0.0
 40
1.8
 50
261.05098193469991
 51
278.94901806529992
  0
ARC
  5
1046D
  8
0
 62
     5
 10
84.384866675650017
 20
135.53351234819991
 30
0.0
 40
1.1277213352999991
 50
199.0332685556983
 51
250.9667314443
  0
ARC
  5
1046E
  8
0
 62
     5
 10
84.384866675650017
 20
135.53351234819991
 30
0.0
 40
1.8
 50
351.05098193469979
 51
8.9490180653002085
  0
ARC
  5
1046F
  8
0
 62
     5
 10
86.723207617950024
 20
133.02221999999969
 30
0.0
 40
1.0
 50
270.0
 51
355.6116008424986
  0
ARC
  5
10470
  8
0
 62
     5
 10
84.384866675650017
 20
135.53351234819991
 30
0.0
 40
1.8
 50
81.050981934699905
 51
98.949018065300081
  0
LINE
  5
10471
  8
0
 62
     5
 10
84.088904999950003
 20
139.52221999999961
 30
0.0
 11
88.032883691450024
 21
139.52221999999961
 31
0.0
  0
ARC
  5
10472
  8
CENTER
 10
68.08890499999994
 20
162.02222
 30
0.0
 40
34.999999999958803
 50
126.2540229311622
 51
144.38103439674359
  0
LINE
  5
10473
  8
0
 62
     5
 10
42.58890499995001
 20
192.02221999999949
 30
0.0
 11
48.529536438350021
 21
192.02221999999949
 31
0.0
  0
ARC
  5
10474
  8
0
 62
     5
 10
43.340167658450007
 20
186.77095734150001
 30
0.0
 40
4.5338355998999971
 50
273.68757177850023
 51
356.31242822149801
  0
ARC
  5
10475
  8
0
 62
     5
 10
48.144926308549991
 20
183.52222
 30
0.0
 40
1.0
 50
90.0
 51
145.93541006420131
  0
ARC
  5
10476
  8
0
 62
     5
 10
43.340167658450007
 20
186.77095734150001
 30
0.0
 40
4.799999999999998
 50
273.68757177850023
 51
356.31242822149801
  0
ARC
  5
10477
  8
0
 62
     5
 10
42.58890499995001
 20
187.52221999999981
 30
0.0
 40
4.5
 50
90.0
 51
180.0
  0
CIRCLE
  5
10478
  8
0
 62
     5
 10
43.340167658450007
 20
186.77095734150001
 30
0.0
 40
2.8999999999999999
  0
LINE
  5
10479
  8
0
 62
     5
 10
39.012387849550009
 20
181.65359088319991
 30
0.0
 11
43.648883716750007
 21
181.98089529649991
 31
0.0
  0
ARC
  5
1047A
  8
0
 62
     5
 10
68.088904999950003
 20
-197.2323499358998
 30
0.0
 40
380.26616440010002
 50
93.687571778500185
 51
94.425643372499863
  0
LINE
  5
1047B
  8
0
 62
     5
 10
38.08890499995001
 20
181.5815885615998
 30
0.0
 11
38.08890499995001
 21
187.52221999999981
 31
0.0
  0
ARC
  5
1047C
  8
0
 62
     5
 10
46.088904999950017
 20
181.66366422019971
 30
0.0
 40
1.0
 50
118.2890696542982
 51
180.0
  0
LINE
  5
1047D
  8
0
 62
     5
 10
86.723207617950024
 20
192.02221999999949
 30
0.0
 11
49.454602382050012
 21
192.02221999999949
 31
0.0
  0
LINE
  5
1047E
  8
0
 62
     5
 10
49.20815293655
 20
192.2883844000998
 30
0.0
 11
86.969657063450015
 21
192.2883844000998
 31
0.0
  0
LINE
  5
1047F
  8
0
 62
     5
 10
55.58890499995001
 20
191.02221999999949
 30
0.0
 11
55.58890499995001
 21
188.02221999999981
 31
0.0
  0
LINE
  5
10480
  8
0
 62
     5
 10
51.169578969950031
 20
187.8875632974999
 30
0.0
 11
52.41630767874998
 21
189.1342920061999
 31
0.0
  0
LINE
  5
10481
  8
0
 62
     5
 10
51.652943324349998
 20
187.44004016939951
 30
0.0
 11
51.93294332435002
 21
189.5818151343
 31
0.0
  0
LINE
  5
10482
  8
0
 62
     5
 10
51.652943324349998
 20
187.49604016939961
 30
0.0
 11
51.93294332435002
 21
189.52581513429999
 31
0.0
  0
LINE
  5
10483
  8
0
 62
     5
 10
51.93294332435002
 20
187.49604016939961
 30
0.0
 11
51.652943324349998
 21
189.52581513429999
 31
0.0
  0
LINE
  5
10484
  8
0
 62
     5
 10
51.93294332435002
 20
187.44004016939951
 30
0.0
 11
51.652943324349998
 21
189.5818151343
 31
0.0
  0
LINE
  5
10485
  8
0
 62
     5
 10
52.41630767874998
 20
187.8875632974999
 30
0.0
 11
51.169578969950031
 21
189.1342920061999
 31
0.0
  0
LINE
  5
10486
  8
0
 62
     5
 10
50.722055841950016
 20
188.65092765189991
 30
0.0
 11
52.863830806749988
 21
188.37092765189999
 31
0.0
  0
LINE
  5
10487
  8
0
 62
     5
 10
50.778055841950028
 20
188.65092765189991
 30
0.0
 11
52.807830806749998
 21
188.37092765189999
 31
0.0
  0
LINE
  5
10488
  8
0
 62
     5
 10
50.778055841950028
 20
188.37092765189999
 30
0.0
 11
52.807830806749998
 21
188.65092765189991
 31
0.0
  0
LINE
  5
10489
  8
0
 62
     5
 10
50.722055841950016
 20
188.37092765189999
 30
0.0
 11
52.863830806749988
 21
188.65092765189991
 31
0.0
  0
ARC
  5
1048A
  8
0
 62
     5
 10
51.792943324349999
 20
188.51092765189981
 30
0.0
 40
1.0800000000000001
 50
172.55180943900211
 51
187.4481905609978
  0
ARC
  5
1048B
  8
0
 62
     5
 10
51.792943324349999
 20
188.51092765189981
 30
0.0
 40
1.0800000000000001
 50
352.551809439002
 51
7.4481905609978769
  0
ARC
  5
1048C
  8
0
 62
     5
 10
51.792943324349999
 20
188.51092765189981
 30
0.0
 40
1.8
 50
351.05098193469979
 51
8.9490180653002085
  0
ARC
  5
1048D
  8
0
 62
     5
 10
51.792943324349999
 20
188.51092765189981
 30
0.0
 40
1.8
 50
171.05098193469971
 51
188.9490180652999
  0
LINE
  5
1048E
  8
0
 62
     5
 10
48.457534116750011
 20
191.09873715040001
 30
0.0
 11
48.13022970355
 21
186.4622412831998
 31
0.0
  0
ARC
  5
1048F
  8
0
 62
     5
 10
427.3434749358496
 20
162.02221999999981
 30
0.0
 40
380.26616440010002
 50
175.5743566274983
 51
176.3124282214981
  0
CIRCLE
  5
10490
  8
0
 62
     5
 10
51.792943324349999
 20
188.51092765189981
 30
0.0
 40
2.75
  0
ARC
  5
10491
  8
0
 62
     5
 10
51.792943324349999
 20
188.51092765189981
 30
0.0
 40
2.9500000000000002
 50
276.8138543441998
 51
263.18614565579998
  0
CIRCLE
  5
10492
  8
0
 62
     5
 10
51.792943324349999
 20
188.51092765189981
 30
0.0
 40
3.0
  0
LINE
  5
10493
  8
0
 62
     5
 10
52.253174368350017
 20
188.05069660779981
 30
0.0
 11
52.807830806749998
 21
188.37092765189999
 31
0.0
  0
LINE
  5
10494
  8
0
 62
     5
 10
53.011032185950008
 20
188.2309276518998
 30
0.0
 11
52.41630767874998
 21
187.8875632974999
 31
0.0
  0
ARC
  5
10495
  8
0
 62
     5
 10
51.792943324349999
 20
188.51092765189981
 30
0.0
 40
1.1277213352999991
 50
289.03326855569981
 51
340.9667314443011
  0
ARC
  5
10496
  8
0
 62
     5
 10
52.088904999950017
 20
188.02221999999981
 30
0.0
 40
3.5
 50
270.0
 51
0.0
  0
LINE
  5
10497
  8
0
 62
     5
 10
50.574854462650002
 20
188.2309276518998
 30
0.0
 11
50.778055841950028
 21
188.37092765189999
 31
0.0
  0
LINE
  5
10498
  8
0
 62
     5
 10
51.93294332435002
 20
187.49604016939961
 30
0.0
 11
52.253174368350017
 21
188.05069660779981
 31
0.0
  0
LINE
  5
10499
  8
0
 62
     5
 10
52.41630767874998
 20
187.8875632974999
 30
0.0
 11
52.072943324350007
 21
187.2928387901998
 31
0.0
  0
LINE
  5
1049A
  8
0
 62
     5
 10
51.512943324349997
 20
187.2928387901998
 30
0.0
 11
51.652943324349998
 21
187.49604016939961
 31
0.0
  0
LINE
  5
1049B
  8
0
 62
     5
 10
51.512943324349997
 20
186.73283879019971
 30
0.0
 11
51.652943324349998
 21
187.44004016939951
 31
0.0
  0
LINE
  5
1049C
  8
0
 62
     5
 10
51.442943324349997
 20
185.7856669869999
 30
0.0
 11
51.442943324349997
 21
185.5817639487
 31
0.0
  0
LINE
  5
1049D
  8
0
 62
     5
 10
51.512943324349997
 20
186.73283879019971
 30
0.0
 11
51.512943324349997
 21
187.2928387901998
 31
0.0
  0
LINE
  5
1049E
  8
0
 62
     5
 10
51.652943324349998
 20
187.49604016939961
 30
0.0
 11
51.652943324349998
 21
187.44004016939951
 31
0.0
  0
LINE
  5
1049F
  8
0
 62
     5
 10
51.93294332435002
 20
187.44004016939951
 30
0.0
 11
51.93294332435002
 21
187.49604016939961
 31
0.0
  0
LINE
  5
104A0
  8
0
 62
     5
 10
52.072943324350007
 20
187.2928387901998
 30
0.0
 11
52.072943324350007
 21
186.73283879019971
 31
0.0
  0
LINE
  5
104A1
  8
0
 62
     5
 10
52.142943324350007
 20
185.5817639487
 30
0.0
 11
52.142943324350007
 21
185.7856669869999
 31
0.0
  0
LINE
  5
104A2
  8
0
 62
     5
 10
52.072943324350007
 20
186.73283879019971
 30
0.0
 11
51.93294332435002
 21
187.44004016939951
 31
0.0
  0
LINE
  5
104A3
  8
0
 62
     5
 10
51.512943324349997
 20
187.2928387901998
 30
0.0
 11
51.169578969950031
 21
187.8875632974999
 31
0.0
  0
LINE
  5
104A4
  8
0
 62
     5
 10
51.332712280350009
 20
188.05069660779981
 30
0.0
 11
51.652943324349998
 21
187.49604016939961
 31
0.0
  0
LINE
  5
104A5
  8
0
 62
     5
 10
52.072943324350007
 20
187.2928387901998
 30
0.0
 11
51.93294332435002
 21
187.49604016939961
 31
0.0
  0
LINE
  5
104A6
  8
0
 62
     5
 10
51.169578969950031
 20
187.8875632974999
 30
0.0
 11
50.574854462650002
 21
188.2309276518998
 31
0.0
  0
LINE
  5
104A7
  8
0
 62
     5
 10
50.778055841950028
 20
188.37092765189999
 30
0.0
 11
51.332712280350009
 21
188.05069660779981
 31
0.0
  0
LINE
  5
104A8
  8
0
 62
     5
 10
50.722055841950016
 20
188.37092765189999
 30
0.0
 11
50.778055841950028
 21
188.37092765189999
 31
0.0
  0
ARC
  5
104A9
  8
0
 62
     5
 10
51.792943324349999
 20
188.51092765189981
 30
0.0
 40
1.0800000000000001
 50
262.55180943899973
 51
277.44819056100022
  0
ARC
  5
104AA
  8
0
 62
     5
 10
51.792943324349999
 20
188.51092765189981
 30
0.0
 40
1.8
 50
261.05098193469991
 51
278.94901806529992
  0
ARC
  5
104AB
  8
0
 62
     5
 10
51.792943324349999
 20
188.51092765189981
 30
0.0
 40
1.1277213352999991
 50
199.0332685556983
 51
250.9667314443
  0
LINE
  5
104AC
  8
0
 62
     5
 10
52.088904999950017
 20
184.52222
 30
0.0
 11
48.144926308549991
 21
184.52222
 31
0.0
  0
LINE
  5
104AD
  8
0
 62
     5
 10
50.574854462650002
 20
188.2309276518998
 30
0.0
 11
50.01485446265
 21
188.2309276518998
 31
0.0
  0
LINE
  5
104AE
  8
0
 62
     5
 10
50.01485446265
 20
188.2309276518998
 30
0.0
 11
50.722055841950016
 21
188.37092765189999
 31
0.0
  0
LINE
  5
104AF
  8
0
 62
     5
 10
53.011032185950008
 20
188.2309276518998
 30
0.0
 11
52.807830806749998
 21
188.37092765189999
 31
0.0
  0
LINE
  5
104B0
  8
0
 62
     5
 10
53.571032185950003
 20
188.2309276518998
 30
0.0
 11
52.863830806749988
 21
188.37092765189999
 31
0.0
  0
LINE
  5
104B1
  8
0
 62
     5
 10
53.571032185950003
 20
188.2309276518998
 30
0.0
 11
53.011032185950008
 21
188.2309276518998
 31
0.0
  0
LINE
  5
104B2
  8
0
 62
     5
 10
52.807830806749998
 20
188.37092765189999
 30
0.0
 11
52.863830806749988
 21
188.37092765189999
 31
0.0
  0
LINE
  5
104B3
  8
0
 62
     5
 10
52.807830806749998
 20
188.65092765189991
 30
0.0
 11
52.253174368350017
 21
188.9711586958999
 31
0.0
  0
LINE
  5
104B4
  8
0
 62
     5
 10
52.41630767874998
 20
189.1342920061999
 30
0.0
 11
53.011032185950008
 21
188.79092765189981
 31
0.0
  0
ARC
  5
104B5
  8
0
 62
     5
 10
51.792943324349999
 20
188.51092765189981
 30
0.0
 40
1.1277213352999991
 50
19.033268555698768
 51
70.96673144430018
  0
ARC
  5
104B6
  8
0
 62
     5
 10
51.792943324349999
 20
188.51092765189981
 30
0.0
 40
1.8
 50
81.050981934699905
 51
98.949018065300081
  0
ARC
  5
104B7
  8
0
 62
     5
 10
49.454602382050012
 20
191.02221999999949
 30
0.0
 40
1.0
 50
90.0
 51
175.6116008424984
  0
LINE
  5
104B8
  8
0
 62
     5
 10
50.574854462650002
 20
188.79092765189981
 30
0.0
 11
51.169578969950031
 21
189.1342920061999
 31
0.0
  0
LINE
  5
104B9
  8
0
 62
     5
 10
51.332712280350009
 20
188.9711586958999
 30
0.0
 11
50.778055841950028
 21
188.65092765189991
 31
0.0
  0
LINE
  5
104BA
  8
0
 62
     5
 10
51.169578969950031
 20
189.1342920061999
 30
0.0
 11
51.512943324349997
 21
189.7290165134998
 31
0.0
  0
LINE
  5
104BB
  8
0
 62
     5
 10
51.652943324349998
 20
189.52581513429999
 30
0.0
 11
51.332712280350009
 21
188.9711586958999
 31
0.0
  0
LINE
  5
104BC
  8
0
 62
     5
 10
52.072943324350007
 20
189.7290165134998
 30
0.0
 11
51.93294332435002
 21
189.52581513429999
 31
0.0
  0
LINE
  5
104BD
  8
0
 62
     5
 10
51.652943324349998
 20
189.5818151343
 30
0.0
 11
51.652943324349998
 21
189.52581513429999
 31
0.0
  0
LINE
  5
104BE
  8
0
 62
     5
 10
51.93294332435002
 20
189.52581513429999
 30
0.0
 11
51.93294332435002
 21
189.5818151343
 31
0.0
  0
LINE
  5
104BF
  8
0
 62
     5
 10
51.512943324349997
 20
189.7290165134998
 30
0.0
 11
51.652943324349998
 21
189.52581513429999
 31
0.0
  0
LINE
  5
104C0
  8
0
 62
     5
 10
52.253174368350017
 20
188.9711586958999
 30
0.0
 11
51.93294332435002
 21
189.52581513429999
 31
0.0
  0
LINE
  5
104C1
  8
0
 62
     5
 10
52.072943324350007
 20
189.7290165134998
 30
0.0
 11
52.41630767874998
 21
189.1342920061999
 31
0.0
  0
LINE
  5
104C2
  8
0
 62
     5
 10
50.574854462650002
 20
188.79092765189981
 30
0.0
 11
50.778055841950028
 21
188.65092765189991
 31
0.0
  0
LINE
  5
104C3
  8
0
 62
     5
 10
50.778055841950028
 20
188.65092765189991
 30
0.0
 11
50.722055841950016
 21
188.65092765189991
 31
0.0
  0
ARC
  5
104C4
  8
0
 62
     5
 10
51.792943324349999
 20
188.51092765189981
 30
0.0
 40
1.1277213352999991
 50
109.03326855569981
 51
160.96673144430119
  0
ARC
  5
104C5
  8
0
 62
     5
 10
51.792943324349999
 20
188.51092765189981
 30
0.0
 40
1.0800000000000001
 50
82.551809438999697
 51
97.448190561000288
  0
LINE
  5
104C6
  8
0
 62
     5
 10
50.01485446265
 20
188.79092765189981
 30
0.0
 11
50.722055841950016
 21
188.65092765189991
 31
0.0
  0
LINE
  5
104C7
  8
0
 62
     5
 10
50.01485446265
 20
188.79092765189981
 30
0.0
 11
50.574854462650002
 21
188.79092765189981
 31
0.0
  0
LINE
  5
104C8
  8
0
 62
     5
 10
52.072943324350007
 20
190.2890165134998
 30
0.0
 11
51.93294332435002
 21
189.5818151343
 31
0.0
  0
LINE
  5
104C9
  8
0
 62
     5
 10
51.512943324349997
 20
189.7290165134998
 30
0.0
 11
51.512943324349997
 21
190.2890165134998
 31
0.0
  0
LINE
  5
104CA
  8
0
 62
     5
 10
52.072943324350007
 20
190.2890165134998
 30
0.0
 11
52.072943324350007
 21
189.7290165134998
 31
0.0
  0
LINE
  5
104CB
  8
0
 62
     5
 10
51.512943324349997
 20
190.2890165134998
 30
0.0
 11
51.652943324349998
 21
189.5818151343
 31
0.0
  0
ARC
  5
104CC
  8
0
 62
     5
 10
56.58890499995001
 20
191.02221999999949
 30
0.0
 40
1.0
 50
90.0
 51
180.0
  0
LINE
  5
104CD
  8
0
 62
     5
 10
53.011032185950008
 20
188.79092765189981
 30
0.0
 11
52.807830806749998
 21
188.65092765189991
 31
0.0
  0
LINE
  5
104CE
  8
0
 62
     5
 10
53.571032185950003
 20
188.79092765189981
 30
0.0
 11
52.863830806749988
 21
188.65092765189991
 31
0.0
  0
LINE
  5
104CF
  8
0
 62
     5
 10
52.863830806749988
 20
188.65092765189991
 30
0.0
 11
52.807830806749998
 21
188.65092765189991
 31
0.0
  0
LINE
  5
104D0
  8
0
 62
     5
 10
53.011032185950008
 20
188.79092765189981
 30
0.0
 11
53.571032185950003
 21
188.79092765189981
 31
0.0
  0
LINE
  5
104D1
  8
0
 62
     5
 10
87.720275883249982
 20
191.09873715040001
 30
0.0
 11
88.047580296449979
 21
186.4622412831998
 31
0.0
  0
ARC
  5
104D2
  8
0
 62
     5
 10
-291.16566493595002
 20
162.02221999999981
 30
0.0
 40
380.26616440010002
 50
3.6875717785018272
 51
4.4256433725014768
  0
ARC
  5
104D3
  8
0
 62
     5
 10
84.388904999950014
 20
188.52222
 30
0.0
 40
3.5
 50
180.0
 51
270.0
  0
LINE
  5
104D4
  8
0
 62
     5
 10
87.730349220149975
 20
185.02221999999989
 30
0.0
 11
84.388904999950014
 21
185.02221999999989
 31
0.0
  0
ARC
  5
104D5
  8
0
 62
     5
 10
79.888904999950029
 20
191.02221999999949
 30
0.0
 40
1.0
 50
0.0
 51
90.0
  0
LINE
  5
104D6
  8
0
 62
     5
 10
80.888904999950014
 20
188.52222
 30
0.0
 11
80.888904999950014
 21
191.02221999999949
 31
0.0
  0
ARC
  5
104D7
  8
0
 62
     5
 10
86.723207617950024
 20
191.02221999999949
 30
0.0
 40
1.0
 50
4.3883991575014001
 51
90.0
  0
LINE
  5
104D8
  8
0
 62
     5
 10
170.75682196612439
 20
131.75828775299991
 30
0.0
 11
170.2452534081244
 21
131.7560555998997
 31
0.0
  0
ARC
  5
104D9
  8
0
 62
     5
 10
170.8952534081244
 20
129.12221999999991
 30
0.0
 40
0.5
 50
180.0
 51
270.0
  0
LINE
  5
104DA
  8
0
 62
     5
 10
231.24525340812431
 20
192.02221999999949
 30
0.0
 11
170.2452534081244
 21
192.2883844000998
 31
0.0
  0
POLYLINE
  5
104DB
  8
0
 62
     5
 66
     1
 10
0.0
 20
0.0
 30
0.0
 70
     8
  0
VERTEX
  5
104DC
  8
0
 62
     5
 10
170.24499999999981
 20
142.14400000000001
 30
0.0
 70
    32
  0
VERTEX
  5
104DD
  8
0
 62
     5
 10
170.565
 20
142.1459999999999
 30
0.0
 70
    32
  0
VERTEX
  5
104DE
  8
0
 62
     5
 10
170.8839999999999
 20
142.14699999999999
 30
0.0
 70
    32
  0
VERTEX
  5
104DF
  8
0
 62
     5
 10
171.203
 20
142.148
 30
0.0
 70
    32
  0
VERTEX
  5
104E0
  8
0
 62
     5
 10
171.523
 20
142.14999999999981
 30
0.0
 70
    32
  0
VERTEX
  5
104E1
  8
0
 62
     5
 10
171.84200000000001
 20
142.15100000000001
 30
0.0
 70
    32
  0
VERTEX
  5
104E2
  8
0
 62
     5
 10
172.16099999999989
 20
142.1519999999999
 30
0.0
 70
    32
  0
VERTEX
  5
104E3
  8
0
 62
     5
 10
172.48099999999991
 20
142.15299999999991
 30
0.0
 70
    32
  0
VERTEX
  5
104E4
  8
0
 62
     5
 10
172.80000000000001
 20
142.155
 30
0.0
 70
    32
  0
VERTEX
  5
104E5
  8
0
 62
     5
 10
173.12
 20
142.15600000000001
 30
0.0
 70
    32
  0
VERTEX
  5
104E6
  8
0
 62
     5
 10
173.43899999999991
 20
142.15700000000001
 30
0.0
 70
    32
  0
VERTEX
  5
104E7
  8
0
 62
     5
 10
173.7579999999999
 20
142.15899999999991
 30
0.0
 70
    32
  0
VERTEX
  5
104E8
  8
0
 62
     5
 10
174.0779999999998
 20
142.15999999999991
 30
0.0
 70
    32
  0
VERTEX
  5
104E9
  8
0
 62
     5
 10
174.39699999999999
 20
142.161
 30
0.0
 70
    32
  0
VERTEX
  5
104EA
  8
0
 62
     5
 10
174.71599999999981
 20
142.1629999999999
 30
0.0
 70
    32
  0
VERTEX
  5
104EB
  8
0
 62
     5
 10
175.0359999999998
 20
142.1639999999999
 30
0.0
 70
    32
  0
VERTEX
  5
104EC
  8
0
 62
     5
 10
175.3549999999999
 20
142.16499999999991
 30
0.0
 70
    32
  0
VERTEX
  5
104ED
  8
0
 62
     5
 10
175.67500000000001
 20
142.16599999999991
 30
0.0
 70
    32
  0
VERTEX
  5
104EE
  8
0
 62
     5
 10
175.994
 20
142.16800000000001
 30
0.0
 70
    32
  0
VERTEX
  5
104EF
  8
0
 62
     5
 10
176.3129999999999
 20
142.1689999999999
 30
0.0
 70
    32
  0
VERTEX
  5
104F0
  8
0
 62
     5
 10
176.6329999999999
 20
142.1699999999999
 30
0.0
 70
    32
  0
VERTEX
  5
104F1
  8
0
 62
     5
 10
176.95199999999991
 20
142.172
 30
0.0
 70
    32
  0
VERTEX
  5
104F2
  8
0
 62
     5
 10
177.27099999999999
 20
142.1729999999998
 30
0.0
 70
    32
  0
VERTEX
  5
104F3
  8
0
 62
     5
 10
177.59099999999981
 20
142.17399999999981
 30
0.0
 70
    32
  0
VERTEX
  5
104F4
  8
0
 62
     5
 10
177.90999999999991
 20
142.17500000000001
 30
0.0
 70
    32
  0
VERTEX
  5
104F5
  8
0
 62
     5
 10
178.22999999999999
 20
142.17699999999991
 30
0.0
 70
    32
  0
VERTEX
  5
104F6
  8
0
 62
     5
 10
178.54900000000001
 20
142.178
 30
0.0
 70
    32
  0
VERTEX
  5
104F7
  8
0
 62
     5
 10
178.86799999999999
 20
142.179
 30
0.0
 70
    32
  0
VERTEX
  5
104F8
  8
0
 62
     5
 10
179.1879999999999
 20
142.18100000000001
 30
0.0
 70
    32
  0
VERTEX
  5
104F9
  8
0
 62
     5
 10
179.50700000000001
 20
142.18199999999979
 30
0.0
 70
    32
  0
VERTEX
  5
104FA
  8
0
 62
     5
 10
179.82599999999991
 20
142.18299999999991
 30
0.0
 70
    32
  0
VERTEX
  5
104FB
  8
0
 62
     5
 10
180.1459999999999
 20
142.18399999999991
 30
0.0
 70
    32
  0
VERTEX
  5
104FC
  8
0
 62
     5
 10
180.465
 20
142.18600000000001
 30
0.0
 70
    32
  0
VERTEX
  5
104FD
  8
0
 62
     5
 10
180.785
 20
142.18700000000001
 30
0.0
 70
    32
  0
VERTEX
  5
104FE
  8
0
 62
     5
 10
181.10400000000001
 20
142.1879999999999
 30
0.0
 70
    32
  0
VERTEX
  5
104FF
  8
0
 62
     5
 10
181.423
 20
142.18999999999991
 30
0.0
 70
    32
  0
VERTEX
  5
10500
  8
0
 62
     5
 10
181.74299999999991
 20
142.191
 30
0.0
 70
    32
  0
VERTEX
  5
10501
  8
0
 62
     5
 10
182.06200000000001
 20
142.19200000000001
 30
0.0
 70
    32
  0
VERTEX
  5
10502
  8
0
 62
     5
 10
182.3809999999998
 20
142.19299999999981
 30
0.0
 70
    32
  0
VERTEX
  5
10503
  8
0
 62
     5
 10
182.70099999999991
 20
142.19499999999999
 30
0.0
 70
    32
  0
VERTEX
  5
10504
  8
0
 62
     5
 10
183.0199999999999
 20
142.196
 30
0.0
 70
    32
  0
VERTEX
  5
10505
  8
0
 62
     5
 10
183.339
 20
142.1969999999998
 30
0.0
 70
    32
  0
VERTEX
  5
10506
  8
0
 62
     5
 10
183.65899999999991
 20
142.1989999999999
 30
0.0
 70
    32
  0
VERTEX
  5
10507
  8
0
 62
     5
 10
183.97799999999989
 20
142.19999999999979
 30
0.0
 70
    32
  0
VERTEX
  5
10508
  8
0
 62
     5
 10
184.298
 20
142.20099999999999
 30
0.0
 70
    32
  0
VERTEX
  5
10509
  8
0
 62
     5
 10
184.6169999999999
 20
142.202
 30
0.0
 70
    32
  0
VERTEX
  5
1050A
  8
0
 62
     5
 10
184.93599999999989
 20
142.20400000000001
 30
0.0
 70
    32
  0
VERTEX
  5
1050B
  8
0
 62
     5
 10
185.2559999999996
 20
142.20500000000001
 30
0.0
 70
    32
  0
VERTEX
  5
1050C
  8
0
 62
     5
 10
185.57499999999999
 20
142.2059999999999
 30
0.0
 70
    32
  0
VERTEX
  5
1050D
  8
0
 62
     5
 10
185.89400000000001
 20
142.208
 30
0.0
 70
    32
  0
VERTEX
  5
1050E
  8
0
 62
     5
 10
186.214
 20
142.209
 30
0.0
 70
    32
  0
VERTEX
  5
1050F
  8
0
 62
     5
 10
186.5329999999999
 20
142.21000000000001
 30
0.0
 70
    32
  0
VERTEX
  5
10510
  8
0
 62
     5
 10
186.85299999999981
 20
142.2119999999999
 30
0.0
 70
    32
  0
VERTEX
  5
10511
  8
0
 62
     5
 10
187.172
 20
142.21299999999991
 30
0.0
 70
    32
  0
VERTEX
  5
10512
  8
0
 62
     5
 10
187.4909999999999
 20
142.21399999999991
 30
0.0
 70
    32
  0
VERTEX
  5
10513
  8
0
 62
     5
 10
187.81099999999989
 20
142.215
 30
0.0
 70
    32
  0
VERTEX
  5
10514
  8
0
 62
     5
 10
188.12999999999991
 20
142.21700000000001
 30
0.0
 70
    32
  0
VERTEX
  5
10515
  8
0
 62
     5
 10
188.44900000000001
 20
142.2179999999999
 30
0.0
 70
    32
  0
VERTEX
  5
10516
  8
0
 62
     5
 10
188.76900000000001
 20
142.21899999999999
 30
0.0
 70
    32
  0
VERTEX
  5
10517
  8
0
 62
     5
 10
189.08799999999991
 20
142.22099999999961
 30
0.0
 70
    32
  0
VERTEX
  5
10518
  8
0
 62
     5
 10
189.4079999999999
 20
142.22200000000001
 30
0.0
 70
    32
  0
VERTEX
  5
10519
  8
0
 62
     5
 10
189.7269999999998
 20
142.22299999999979
 30
0.0
 70
    32
  0
VERTEX
  5
1051A
  8
0
 62
     5
 10
190.04599999999991
 20
142.2239999999999
 30
0.0
 70
    32
  0
VERTEX
  5
1051B
  8
0
 62
     5
 10
190.3659999999999
 20
142.226
 30
0.0
 70
    32
  0
VERTEX
  5
1051C
  8
0
 62
     5
 10
190.685
 20
142.227
 30
0.0
 70
    32
  0
VERTEX
  5
1051D
  8
0
 62
     5
 10
191.00399999999999
 20
142.22799999999981
 30
0.0
 70
    32
  0
VERTEX
  5
1051E
  8
0
 62
     5
 10
191.32400000000001
 20
142.2299999999999
 30
0.0
 70
    32
  0
VERTEX
  5
1051F
  8
0
 62
     5
 10
191.643
 20
142.23099999999991
 30
0.0
 70
    32
  0
VERTEX
  5
10520
  8
0
 62
     5
 10
191.96299999999991
 20
142.232
 30
0.0
 70
    32
  0
VERTEX
  5
10521
  8
0
 62
     5
 10
192.28200000000001
 20
142.233
 30
0.0
 70
    32
  0
VERTEX
  5
10522
  8
0
 62
     5
 10
192.60099999999991
 20
142.23500000000001
 30
0.0
 70
    32
  0
VERTEX
  5
10523
  8
0
 62
     5
 10
192.92099999999991
 20
142.2359999999999
 30
0.0
 70
    32
  0
VERTEX
  5
10524
  8
0
 62
     5
 10
193.24000000000001
 20
142.23699999999991
 30
0.0
 70
    32
  0
VERTEX
  5
10525
  8
0
 62
     5
 10
193.559
 20
142.239
 30
0.0
 70
    32
  0
VERTEX
  5
10526
  8
0
 62
     5
 10
193.87899999999999
 20
142.24000000000001
 30
0.0
 70
    32
  0
VERTEX
  5
10527
  8
0
 62
     5
 10
194.19799999999981
 20
142.24100000000001
 30
0.0
 70
    32
  0
VERTEX
  5
10528
  8
0
 62
     5
 10
194.518
 20
142.2419999999999
 30
0.0
 70
    32
  0
VERTEX
  5
10529
  8
0
 62
     5
 10
194.8369999999999
 20
142.2439999999996
 30
0.0
 70
    32
  0
VERTEX
  5
1052A
  8
0
 62
     5
 10
195.15599999999989
 20
142.24499999999961
 30
0.0
 70
    32
  0
VERTEX
  5
1052B
  8
0
 62
     5
 10
195.476
 20
142.24600000000001
 30
0.0
 70
    32
  0
VERTEX
  5
1052C
  8
0
 62
     5
 10
195.7949999999999
 20
142.24799999999999
 30
0.0
 70
    32
  0
VERTEX
  5
1052D
  8
0
 62
     5
 10
196.114
 20
142.24899999999991
 30
0.0
 70
    32
  0
VERTEX
  5
1052E
  8
0
 62
     5
 10
196.434
 20
142.25
 30
0.0
 70
    32
  0
VERTEX
  5
1052F
  8
0
 62
     5
 10
196.75299999999999
 20
142.25200000000001
 30
0.0
 70
    32
  0
VERTEX
  5
10530
  8
0
 62
     5
 10
197.072
 20
142.2529999999999
 30
0.0
 70
    32
  0
VERTEX
  5
10531
  8
0
 62
     5
 10
197.39199999999991
 20
142.25399999999979
 30
0.0
 70
    32
  0
VERTEX
  5
10532
  8
0
 62
     5
 10
197.7109999999999
 20
142.255
 30
0.0
 70
    32
  0
VERTEX
  5
10533
  8
0
 62
     5
 10
198.03099999999961
 20
142.25700000000001
 30
0.0
 70
    32
  0
VERTEX
  5
10534
  8
0
 62
     5
 10
198.34999999999999
 20
142.2579999999999
 30
0.0
 70
    32
  0
VERTEX
  5
10535
  8
0
 62
     5
 10
198.66900000000001
 20
142.2589999999999
 30
0.0
 70
    32
  0
VERTEX
  5
10536
  8
0
 62
     5
 10
198.989
 20
142.26099999999971
 30
0.0
 70
    32
  0
VERTEX
  5
10537
  8
0
 62
     5
 10
199.30799999999991
 20
142.262
 30
0.0
 70
    32
  0
VERTEX
  5
10538
  8
0
 62
     5
 10
199.62700000000001
 20
142.26300000000001
 30
0.0
 70
    32
  0
VERTEX
  5
10539
  8
0
 62
     5
 10
199.947
 20
142.26400000000001
 30
0.0
 70
    32
  0
VERTEX
  5
1053A
  8
0
 62
     5
 10
200.26599999999999
 20
142.26599999999999
 30
0.0
 70
    32
  0
VERTEX
  5
1053B
  8
0
 62
     5
 10
200.5859999999999
 20
142.26699999999991
 30
0.0
 70
    32
  0
VERTEX
  5
1053C
  8
0
 62
     5
 10
200.905
 20
142.2679999999996
 30
0.0
 70
    32
  0
VERTEX
  5
1053D
  8
0
 62
     5
 10
201.2239999999999
 20
142.27000000000001
 30
0.0
 70
    32
  0
VERTEX
  5
1053E
  8
0
 62
     5
 10
201.54400000000001
 20
142.2709999999999
 30
0.0
 70
    32
  0
VERTEX
  5
1053F
  8
0
 62
     5
 10
201.86299999999989
 20
142.27199999999991
 30
0.0
 70
    32
  0
VERTEX
  5
10540
  8
0
 62
     5
 10
202.1819999999999
 20
142.273
 30
0.0
 70
    32
  0
VERTEX
  5
10541
  8
0
 62
     5
 10
202.50200000000001
 20
142.27500000000001
 30
0.0
 70
    32
  0
VERTEX
  5
10542
  8
0
 62
     5
 10
202.821
 20
142.27600000000001
 30
0.0
 70
    32
  0
VERTEX
  5
10543
  8
0
 62
     5
 10
203.14099999999999
 20
142.27699999999979
 30
0.0
 70
    32
  0
VERTEX
  5
10544
  8
0
 62
     5
 10
203.46000000000001
 20
142.27899999999991
 30
0.0
 70
    32
  0
VERTEX
  5
10545
  8
0
 62
     5
 10
203.779
 20
142.28
 30
0.0
 70
    32
  0
VERTEX
  5
10546
  8
0
 62
     5
 10
204.0989999999999
 20
142.28100000000001
 30
0.0
 70
    32
  0
VERTEX
  5
10547
  8
0
 62
     5
 10
204.41799999999981
 20
142.28200000000001
 30
0.0
 70
    32
  0
VERTEX
  5
10548
  8
0
 62
     5
 10
204.73699999999991
 20
142.28399999999979
 30
0.0
 70
    32
  0
VERTEX
  5
10549
  8
0
 62
     5
 10
205.05699999999999
 20
142.28499999999991
 30
0.0
 70
    32
  0
VERTEX
  5
1054A
  8
0
 62
     5
 10
205.37599999999989
 20
142.286
 30
0.0
 70
    32
  0
VERTEX
  5
1054B
  8
0
 62
     5
 10
205.696
 20
142.2879999999999
 30
0.0
 70
    32
  0
VERTEX
  5
1054C
  8
0
 62
     5
 10
206.0149999999999
 20
142.2889999999999
 30
0.0
 70
    32
  0
VERTEX
  5
1054D
  8
0
 62
     5
 10
206.334
 20
142.28999999999999
 30
0.0
 70
    32
  0
VERTEX
  5
1054E
  8
0
 62
     5
 10
206.654
 20
142.29099999999991
 30
0.0
 70
    32
  0
VERTEX
  5
1054F
  8
0
 62
     5
 10
206.9729999999999
 20
142.29300000000001
 30
0.0
 70
    32
  0
VERTEX
  5
10550
  8
0
 62
     5
 10
207.2919999999998
 20
142.29399999999981
 30
0.0
 70
    32
  0
VERTEX
  5
10551
  8
0
 62
     5
 10
207.61199999999991
 20
142.2949999999999
 30
0.0
 70
    32
  0
VERTEX
  5
10552
  8
0
 62
     5
 10
207.9309999999999
 20
142.297
 30
0.0
 70
    32
  0
VERTEX
  5
10553
  8
0
 62
     5
 10
208.25
 20
142.298
 30
0.0
 70
    32
  0
VERTEX
  5
10554
  8
0
 62
     5
 10
208.56999999999999
 20
142.29900000000001
 30
0.0
 70
    32
  0
VERTEX
  5
10555
  8
0
 62
     5
 10
208.88900000000001
 20
142.30099999999979
 30
0.0
 70
    32
  0
VERTEX
  5
10556
  8
0
 62
     5
 10
209.209
 20
142.30199999999991
 30
0.0
 70
    32
  0
VERTEX
  5
10557
  8
0
 62
     5
 10
209.52799999999991
 20
142.30299999999991
 30
0.0
 70
    32
  0
VERTEX
  5
10558
  8
0
 62
     5
 10
209.84700000000001
 20
142.304
 30
0.0
 70
    32
  0
VERTEX
  5
10559
  8
0
 62
     5
 10
210.16699999999989
 20
142.30600000000001
 30
0.0
 70
    32
  0
VERTEX
  5
1055A
  8
0
 62
     5
 10
210.4859999999999
 20
142.30699999999979
 30
0.0
 70
    32
  0
VERTEX
  5
1055B
  8
0
 62
     5
 10
210.80499999999989
 20
142.30799999999979
 30
0.0
 70
    32
  0
VERTEX
  5
1055C
  8
0
 62
     5
 10
211.125
 20
142.3099999999998
 30
0.0
 70
    32
  0
VERTEX
  5
1055D
  8
0
 62
     5
 10
211.44399999999999
 20
142.31100000000001
 30
0.0
 70
    32
  0
VERTEX
  5
1055E
  8
0
 62
     5
 10
211.76400000000001
 20
142.31200000000001
 30
0.0
 70
    32
  0
VERTEX
  5
1055F
  8
0
 62
     5
 10
212.083
 20
142.31299999999999
 30
0.0
 70
    32
  0
VERTEX
  5
10560
  8
0
 62
     5
 10
212.4019999999999
 20
142.31499999999991
 30
0.0
 70
    32
  0
VERTEX
  5
10561
  8
0
 62
     5
 10
212.72200000000001
 20
142.316
 30
0.0
 70
    32
  0
VERTEX
  5
10562
  8
0
 62
     5
 10
213.04099999999991
 20
142.31700000000001
 30
0.0
 70
    32
  0
VERTEX
  5
10563
  8
0
 62
     5
 10
213.36000000000001
 20
142.3189999999999
 30
0.0
 70
    32
  0
VERTEX
  5
10564
  8
0
 62
     5
 10
213.68000000000001
 20
142.31999999999999
 30
0.0
 70
    32
  0
VERTEX
  5
10565
  8
0
 62
     5
 10
213.999
 20
142.321
 30
0.0
 70
    32
  0
VERTEX
  5
10566
  8
0
 62
     5
 10
214.31899999999999
 20
142.322
 30
0.0
 70
    32
  0
VERTEX
  5
10567
  8
0
 62
     5
 10
214.63800000000001
 20
142.32399999999981
 30
0.0
 70
    32
  0
VERTEX
  5
10568
  8
0
 62
     5
 10
214.95699999999999
 20
142.3249999999999
 30
0.0
 70
    32
  0
VERTEX
  5
10569
  8
0
 62
     5
 10
215.2769999999999
 20
142.32599999999991
 30
0.0
 70
    32
  0
VERTEX
  5
1056A
  8
0
 62
     5
 10
215.5959999999998
 20
142.328
 30
0.0
 70
    32
  0
VERTEX
  5
1056B
  8
0
 62
     5
 10
215.91499999999991
 20
142.32900000000001
 30
0.0
 70
    32
  0
VERTEX
  5
1056C
  8
0
 62
     5
 10
216.2349999999999
 20
142.33000000000001
 30
0.0
 70
    32
  0
VERTEX
  5
1056D
  8
0
 62
     5
 10
216.554
 20
142.33099999999979
 30
0.0
 70
    32
  0
VERTEX
  5
1056E
  8
0
 62
     5
 10
216.874
 20
142.33299999999991
 30
0.0
 70
    32
  0
VERTEX
  5
1056F
  8
0
 62
     5
 10
217.1929999999999
 20
142.334
 30
0.0
 70
    32
  0
VERTEX
  5
10570
  8
0
 62
     5
 10
217.512
 20
142.33500000000001
 30
0.0
 70
    32
  0
VERTEX
  5
10571
  8
0
 62
     5
 10
217.83199999999991
 20
142.33699999999999
 30
0.0
 70
    32
  0
VERTEX
  5
10572
  8
0
 62
     5
 10
218.1509999999999
 20
142.33799999999991
 30
0.0
 70
    32
  0
VERTEX
  5
10573
  8
0
 62
     5
 10
218.4699999999998
 20
142.33899999999991
 30
0.0
 70
    32
  0
VERTEX
  5
10574
  8
0
 62
     5
 10
218.78999999999991
 20
142.34100000000001
 30
0.0
 70
    32
  0
VERTEX
  5
10575
  8
0
 62
     5
 10
219.1089999999999
 20
142.34200000000001
 30
0.0
 70
    32
  0
VERTEX
  5
10576
  8
0
 62
     5
 10
219.428
 20
142.3429999999999
 30
0.0
 70
    32
  0
VERTEX
  5
10577
  8
0
 62
     5
 10
219.74799999999999
 20
142.34399999999999
 30
0.0
 70
    32
  0
VERTEX
  5
10578
  8
0
 62
     5
 10
220.06700000000001
 20
142.346
 30
0.0
 70
    32
  0
VERTEX
  5
10579
  8
0
 62
     5
 10
220.387
 20
142.34700000000001
 30
0.0
 70
    32
  0
VERTEX
  5
1057A
  8
0
 62
     5
 10
220.7059999999999
 20
142.34799999999979
 30
0.0
 70
    32
  0
VERTEX
  5
1057B
  8
0
 62
     5
 10
221.02500000000001
 20
142.34999999999991
 30
0.0
 70
    32
  0
VERTEX
  5
1057C
  8
0
 62
     5
 10
221.34499999999991
 20
142.351
 30
0.0
 70
    32
  0
VERTEX
  5
1057D
  8
0
 62
     5
 10
221.6639999999999
 20
142.352
 30
0.0
 70
    32
  0
VERTEX
  5
1057E
  8
0
 62
     5
 10
221.98299999999989
 20
142.35299999999981
 30
0.0
 70
    32
  0
VERTEX
  5
1057F
  8
0
 62
     5
 10
222.303
 20
142.35499999999979
 30
0.0
 70
    32
  0
VERTEX
  5
10580
  8
0
 62
     5
 10
222.62200000000001
 20
142.35599999999991
 30
0.0
 70
    32
  0
VERTEX
  5
10581
  8
0
 62
     5
 10
222.94200000000001
 20
142.35699999999991
 30
0.0
 70
    32
  0
VERTEX
  5
10582
  8
0
 62
     5
 10
223.261
 20
142.35900000000001
 30
0.0
 70
    32
  0
VERTEX
  5
10583
  8
0
 62
     5
 10
223.58000000000001
 20
142.36000000000001
 30
0.0
 70
    32
  0
VERTEX
  5
10584
  8
0
 62
     5
 10
223.90000000000001
 20
142.3609999999999
 30
0.0
 70
    32
  0
VERTEX
  5
10585
  8
0
 62
     5
 10
224.21899999999991
 20
142.36199999999991
 30
0.0
 70
    32
  0
VERTEX
  5
10586
  8
0
 62
     5
 10
224.5379999999999
 20
142.36399999999981
 30
0.0
 70
    32
  0
VERTEX
  5
10587
  8
0
 62
     5
 10
224.858
 20
142.36500000000001
 30
0.0
 70
    32
  0
VERTEX
  5
10588
  8
0
 62
     5
 10
225.17699999999999
 20
142.36600000000001
 30
0.0
 70
    32
  0
VERTEX
  5
10589
  8
0
 62
     5
 10
225.49700000000001
 20
142.36799999999999
 30
0.0
 70
    32
  0
VERTEX
  5
1058A
  8
0
 62
     5
 10
225.81599999999969
 20
142.369
 30
0.0
 70
    32
  0
VERTEX
  5
1058B
  8
0
 62
     5
 10
226.13499999999991
 20
142.37
 30
0.0
 70
    32
  0
VERTEX
  5
1058C
  8
0
 62
     5
 10
226.45500000000001
 20
142.37099999999981
 30
0.0
 70
    32
  0
VERTEX
  5
1058D
  8
0
 62
     5
 10
226.7739999999998
 20
142.37299999999991
 30
0.0
 70
    32
  0
VERTEX
  5
1058E
  8
0
 62
     5
 10
227.0929999999999
 20
142.374
 30
0.0
 70
    32
  0
VERTEX
  5
1058F
  8
0
 62
     5
 10
227.4129999999999
 20
142.375
 30
0.0
 70
    32
  0
VERTEX
  5
10590
  8
0
 62
     5
 10
227.732
 20
142.37700000000001
 30
0.0
 70
    32
  0
VERTEX
  5
10591
  8
0
 62
     5
 10
228.05199999999999
 20
142.37799999999979
 30
0.0
 70
    32
  0
VERTEX
  5
10592
  8
0
 62
     5
 10
228.3709999999999
 20
142.37899999999991
 30
0.0
 70
    32
  0
VERTEX
  5
10593
  8
0
 62
     5
 10
228.69
 20
142.381
 30
0.0
 70
    32
  0
VERTEX
  5
10594
  8
0
 62
     5
 10
229.00999999999991
 20
142.38200000000001
 30
0.0
 70
    32
  0
VERTEX
  5
10595
  8
0
 62
     5
 10
229.32900000000001
 20
142.38299999999981
 30
0.0
 70
    32
  0
VERTEX
  5
10596
  8
0
 62
     5
 10
229.6479999999998
 20
142.38399999999999
 30
0.0
 70
    32
  0
VERTEX
  5
10597
  8
0
 62
     5
 10
229.9679999999999
 20
142.38599999999991
 30
0.0
 70
    32
  0
VERTEX
  5
10598
  8
0
 62
     5
 10
230.28699999999989
 20
142.3869999999998
 30
0.0
 70
    32
  0
VERTEX
  5
10599
  8
0
 62
     5
 10
230.607
 20
142.38800000000001
 30
0.0
 70
    32
  0
VERTEX
  5
1059A
  8
0
 62
     5
 10
230.92599999999999
 20
142.3899999999999
 30
0.0
 70
    32
  0
VERTEX
  5
1059B
  8
0
 62
     5
 10
231.245
 20
142.39099999999999
 30
0.0
 70
    32
  0
SEQEND
  5
1059C
  8
0
 62
     5
  0
POLYLINE
  5
1059D
  8
0
 62
     5
 66
     1
 10
0.0
 20
0.0
 30
0.0
 70
     8
  0
VERTEX
  5
1059E
  8
0
 62
     5
 10
231.245
 20
181.654
 30
0.0
 70
    32
  0
VERTEX
  5
1059F
  8
0
 62
     5
 10
230.92599999999999
 20
181.655
 30
0.0
 70
    32
  0
VERTEX
  5
105A0
  8
0
 62
     5
 10
230.607
 20
181.65599999999989
 30
0.0
 70
    32
  0
VERTEX
  5
105A1
  8
0
 62
     5
 10
230.28699999999989
 20
181.65700000000001
 30
0.0
 70
    32
  0
VERTEX
  5
105A2
  8
0
 62
     5
 10
229.9679999999999
 20
181.65899999999991
 30
0.0
 70
    32
  0
VERTEX
  5
105A3
  8
0
 62
     5
 10
229.6479999999998
 20
181.66
 30
0.0
 70
    32
  0
VERTEX
  5
105A4
  8
0
 62
     5
 10
229.32900000000001
 20
181.6609999999998
 30
0.0
 70
    32
  0
VERTEX
  5
105A5
  8
0
 62
     5
 10
229.00999999999991
 20
181.6629999999999
 30
0.0
 70
    32
  0
VERTEX
  5
105A6
  8
0
 62
     5
 10
228.69
 20
181.6639999999999
 30
0.0
 70
    32
  0
VERTEX
  5
105A7
  8
0
 62
     5
 10
228.3709999999999
 20
181.66499999999991
 30
0.0
 70
    32
  0
VERTEX
  5
105A8
  8
0
 62
     5
 10
228.05199999999999
 20
181.66599999999991
 30
0.0
 70
    32
  0
VERTEX
  5
105A9
  8
0
 62
     5
 10
227.732
 20
181.66800000000001
 30
0.0
 70
    32
  0
VERTEX
  5
105AA
  8
0
 62
     5
 10
227.4129999999999
 20
181.66900000000001
 30
0.0
 70
    32
  0
VERTEX
  5
105AB
  8
0
 62
     5
 10
227.0929999999999
 20
181.6699999999999
 30
0.0
 70
    32
  0
VERTEX
  5
105AC
  8
0
 62
     5
 10
226.7739999999998
 20
181.672
 30
0.0
 70
    32
  0
VERTEX
  5
105AD
  8
0
 62
     5
 10
226.45500000000001
 20
181.6729999999996
 30
0.0
 70
    32
  0
VERTEX
  5
105AE
  8
0
 62
     5
 10
226.13499999999991
 20
181.67400000000001
 30
0.0
 70
    32
  0
VERTEX
  5
105AF
  8
0
 62
     5
 10
225.81599999999969
 20
181.67599999999999
 30
0.0
 70
    32
  0
VERTEX
  5
105B0
  8
0
 62
     5
 10
225.49700000000001
 20
181.67699999999991
 30
0.0
 70
    32
  0
VERTEX
  5
105B1
  8
0
 62
     5
 10
225.17699999999999
 20
181.67799999999991
 30
0.0
 70
    32
  0
VERTEX
  5
105B2
  8
0
 62
     5
 10
224.858
 20
181.679
 30
0.0
 70
    32
  0
VERTEX
  5
105B3
  8
0
 62
     5
 10
224.5379999999999
 20
181.6809999999999
 30
0.0
 70
    32
  0
VERTEX
  5
105B4
  8
0
 62
     5
 10
224.21899999999991
 20
181.6819999999999
 30
0.0
 70
    32
  0
VERTEX
  5
105B5
  8
0
 62
     5
 10
223.90000000000001
 20
181.68299999999991
 30
0.0
 70
    32
  0
VERTEX
  5
105B6
  8
0
 62
     5
 10
223.58000000000001
 20
181.685
 30
0.0
 70
    32
  0
VERTEX
  5
105B7
  8
0
 62
     5
 10
223.261
 20
181.68599999999989
 30
0.0
 70
    32
  0
VERTEX
  5
105B8
  8
0
 62
     5
 10
222.94200000000001
 20
181.68700000000001
 30
0.0
 70
    32
  0
VERTEX
  5
105B9
  8
0
 62
     5
 10
222.62200000000001
 20
181.6879999999999
 30
0.0
 70
    32
  0
VERTEX
  5
105BA
  8
0
 62
     5
 10
222.303
 20
181.69
 30
0.0
 70
    32
  0
VERTEX
  5
105BB
  8
0
 62
     5
 10
221.98299999999989
 20
181.6909999999998
 30
0.0
 70
    32
  0
VERTEX
  5
105BC
  8
0
 62
     5
 10
221.6639999999999
 20
181.69200000000001
 30
0.0
 70
    32
  0
VERTEX
  5
105BD
  8
0
 62
     5
 10
221.34499999999991
 20
181.6939999999999
 30
0.0
 70
    32
  0
VERTEX
  5
105BE
  8
0
 62
     5
 10
221.02500000000001
 20
181.69499999999999
 30
0.0
 70
    32
  0
VERTEX
  5
105BF
  8
0
 62
     5
 10
220.7059999999999
 20
181.69599999999991
 30
0.0
 70
    32
  0
VERTEX
  5
105C0
  8
0
 62
     5
 10
220.387
 20
181.6969999999996
 30
0.0
 70
    32
  0
VERTEX
  5
105C1
  8
0
 62
     5
 10
220.06700000000001
 20
181.69900000000001
 30
0.0
 70
    32
  0
VERTEX
  5
105C2
  8
0
 62
     5
 10
219.74799999999999
 20
181.6999999999999
 30
0.0
 70
    32
  0
VERTEX
  5
105C3
  8
0
 62
     5
 10
219.428
 20
181.70099999999991
 30
0.0
 70
    32
  0
VERTEX
  5
105C4
  8
0
 62
     5
 10
219.1089999999999
 20
181.703
 30
0.0
 70
    32
  0
VERTEX
  5
105C5
  8
0
 62
     5
 10
218.78999999999991
 20
181.70400000000001
 30
0.0
 70
    32
  0
VERTEX
  5
105C6
  8
0
 62
     5
 10
218.4699999999998
 20
181.70500000000001
 30
0.0
 70
    32
  0
VERTEX
  5
105C7
  8
0
 62
     5
 10
218.1509999999999
 20
181.7059999999999
 30
0.0
 70
    32
  0
VERTEX
  5
105C8
  8
0
 62
     5
 10
217.83199999999991
 20
181.70799999999991
 30
0.0
 70
    32
  0
VERTEX
  5
105C9
  8
0
 62
     5
 10
217.512
 20
181.709
 30
0.0
 70
    32
  0
VERTEX
  5
105CA
  8
0
 62
     5
 10
217.1929999999999
 20
181.71000000000001
 30
0.0
 70
    32
  0
VERTEX
  5
105CB
  8
0
 62
     5
 10
216.874
 20
181.7119999999999
 30
0.0
 70
    32
  0
VERTEX
  5
105CC
  8
0
 62
     5
 10
216.554
 20
181.71299999999991
 30
0.0
 70
    32
  0
VERTEX
  5
105CD
  8
0
 62
     5
 10
216.2349999999999
 20
181.714
 30
0.0
 70
    32
  0
VERTEX
  5
105CE
  8
0
 62
     5
 10
215.91499999999991
 20
181.71599999999989
 30
0.0
 70
    32
  0
VERTEX
  5
105CF
  8
0
 62
     5
 10
215.5959999999998
 20
181.71700000000001
 30
0.0
 70
    32
  0
VERTEX
  5
105D0
  8
0
 62
     5
 10
215.2769999999999
 20
181.71799999999999
 30
0.0
 70
    32
  0
VERTEX
  5
105D1
  8
0
 62
     5
 10
214.95699999999999
 20
181.71899999999999
 30
0.0
 70
    32
  0
VERTEX
  5
105D2
  8
0
 62
     5
 10
214.63800000000001
 20
181.72099999999961
 30
0.0
 70
    32
  0
VERTEX
  5
105D3
  8
0
 62
     5
 10
214.31899999999999
 20
181.72200000000001
 30
0.0
 70
    32
  0
VERTEX
  5
105D4
  8
0
 62
     5
 10
213.999
 20
181.7229999999999
 30
0.0
 70
    32
  0
VERTEX
  5
105D5
  8
0
 62
     5
 10
213.68000000000001
 20
181.72499999999991
 30
0.0
 70
    32
  0
VERTEX
  5
105D6
  8
0
 62
     5
 10
213.36000000000001
 20
181.726
 30
0.0
 70
    32
  0
VERTEX
  5
105D7
  8
0
 62
     5
 10
213.04099999999991
 20
181.727
 30
0.0
 70
    32
  0
VERTEX
  5
105D8
  8
0
 62
     5
 10
212.72200000000001
 20
181.72799999999981
 30
0.0
 70
    32
  0
VERTEX
  5
105D9
  8
0
 62
     5
 10
212.4019999999999
 20
181.7299999999999
 30
0.0
 70
    32
  0
VERTEX
  5
105DA
  8
0
 62
     5
 10
212.083
 20
181.73099999999991
 30
0.0
 70
    32
  0
VERTEX
  5
105DB
  8
0
 62
     5
 10
211.76400000000001
 20
181.732
 30
0.0
 70
    32
  0
VERTEX
  5
105DC
  8
0
 62
     5
 10
211.44399999999999
 20
181.73400000000001
 30
0.0
 70
    32
  0
VERTEX
  5
105DD
  8
0
 62
     5
 10
211.125
 20
181.73500000000001
 30
0.0
 70
    32
  0
VERTEX
  5
105DE
  8
0
 62
     5
 10
210.80499999999989
 20
181.7359999999999
 30
0.0
 70
    32
  0
VERTEX
  5
105DF
  8
0
 62
     5
 10
210.4859999999999
 20
181.73699999999999
 30
0.0
 70
    32
  0
VERTEX
  5
105E0
  8
0
 62
     5
 10
210.16699999999989
 20
181.73899999999981
 30
0.0
 70
    32
  0
VERTEX
  5
105E1
  8
0
 62
     5
 10
209.84700000000001
 20
181.74000000000001
 30
0.0
 70
    32
  0
VERTEX
  5
105E2
  8
0
 62
     5
 10
209.52799999999991
 20
181.7409999999999
 30
0.0
 70
    32
  0
VERTEX
  5
105E3
  8
0
 62
     5
 10
209.209
 20
181.74299999999991
 30
0.0
 70
    32
  0
VERTEX
  5
105E4
  8
0
 62
     5
 10
208.88900000000001
 20
181.744
 30
0.0
 70
    32
  0
VERTEX
  5
105E5
  8
0
 62
     5
 10
208.56999999999999
 20
181.745
 30
0.0
 70
    32
  0
VERTEX
  5
105E6
  8
0
 62
     5
 10
208.25
 20
181.7459999999999
 30
0.0
 70
    32
  0
VERTEX
  5
105E7
  8
0
 62
     5
 10
207.9309999999999
 20
181.74799999999991
 30
0.0
 70
    32
  0
VERTEX
  5
105E8
  8
0
 62
     5
 10
207.61199999999991
 20
181.749
 30
0.0
 70
    32
  0
VERTEX
  5
105E9
  8
0
 62
     5
 10
207.2919999999998
 20
181.75
 30
0.0
 70
    32
  0
VERTEX
  5
105EA
  8
0
 62
     5
 10
206.9729999999999
 20
181.75200000000001
 30
0.0
 70
    32
  0
VERTEX
  5
105EB
  8
0
 62
     5
 10
206.654
 20
181.7529999999999
 30
0.0
 70
    32
  0
VERTEX
  5
105EC
  8
0
 62
     5
 10
206.334
 20
181.75399999999991
 30
0.0
 70
    32
  0
VERTEX
  5
105ED
  8
0
 62
     5
 10
206.0149999999999
 20
181.7559999999998
 30
0.0
 70
    32
  0
VERTEX
  5
105EE
  8
0
 62
     5
 10
205.696
 20
181.75700000000001
 30
0.0
 70
    32
  0
VERTEX
  5
105EF
  8
0
 62
     5
 10
205.37599999999989
 20
181.7579999999999
 30
0.0
 70
    32
  0
VERTEX
  5
105F0
  8
0
 62
     5
 10
205.05699999999999
 20
181.7589999999999
 30
0.0
 70
    32
  0
VERTEX
  5
105F1
  8
0
 62
     5
 10
204.73699999999991
 20
181.76099999999991
 30
0.0
 70
    32
  0
VERTEX
  5
105F2
  8
0
 62
     5
 10
204.41799999999981
 20
181.7619999999998
 30
0.0
 70
    32
  0
VERTEX
  5
105F3
  8
0
 62
     5
 10
204.0989999999999
 20
181.76300000000001
 30
0.0
 70
    32
  0
VERTEX
  5
105F4
  8
0
 62
     5
 10
203.779
 20
181.76499999999999
 30
0.0
 70
    32
  0
VERTEX
  5
105F5
  8
0
 62
     5
 10
203.46000000000001
 20
181.76599999999999
 30
0.0
 70
    32
  0
VERTEX
  5
105F6
  8
0
 62
     5
 10
203.14099999999999
 20
181.76699999999991
 30
0.0
 70
    32
  0
VERTEX
  5
105F7
  8
0
 62
     5
 10
202.821
 20
181.768
 30
0.0
 70
    32
  0
VERTEX
  5
105F8
  8
0
 62
     5
 10
202.50200000000001
 20
181.77000000000001
 30
0.0
 70
    32
  0
VERTEX
  5
105F9
  8
0
 62
     5
 10
202.1819999999999
 20
181.7709999999999
 30
0.0
 70
    32
  0
VERTEX
  5
105FA
  8
0
 62
     5
 10
201.86299999999989
 20
181.77199999999991
 30
0.0
 70
    32
  0
VERTEX
  5
105FB
  8
0
 62
     5
 10
201.54400000000001
 20
181.774
 30
0.0
 70
    32
  0
VERTEX
  5
105FC
  8
0
 62
     5
 10
201.2239999999999
 20
181.77500000000001
 30
0.0
 70
    32
  0
VERTEX
  5
105FD
  8
0
 62
     5
 10
200.905
 20
181.7759999999999
 30
0.0
 70
    32
  0
VERTEX
  5
105FE
  8
0
 62
     5
 10
200.5859999999999
 20
181.7769999999999
 30
0.0
 70
    32
  0
VERTEX
  5
105FF
  8
0
 62
     5
 10
200.26599999999999
 20
181.779
 30
0.0
 70
    32
  0
VERTEX
  5
10600
  8
0
 62
     5
 10
199.947
 20
181.78
 30
0.0
 70
    32
  0
VERTEX
  5
10601
  8
0
 62
     5
 10
199.62700000000001
 20
181.78099999999981
 30
0.0
 70
    32
  0
VERTEX
  5
10602
  8
0
 62
     5
 10
199.30799999999991
 20
181.7829999999999
 30
0.0
 70
    32
  0
VERTEX
  5
10603
  8
0
 62
     5
 10
198.989
 20
181.78399999999991
 30
0.0
 70
    32
  0
VERTEX
  5
10604
  8
0
 62
     5
 10
198.66900000000001
 20
181.78499999999991
 30
0.0
 70
    32
  0
VERTEX
  5
10605
  8
0
 62
     5
 10
198.34999999999999
 20
181.7859999999996
 30
0.0
 70
    32
  0
VERTEX
  5
10606
  8
0
 62
     5
 10
198.03099999999961
 20
181.7879999999999
 30
0.0
 70
    32
  0
VERTEX
  5
10607
  8
0
 62
     5
 10
197.7109999999999
 20
181.78899999999999
 30
0.0
 70
    32
  0
VERTEX
  5
10608
  8
0
 62
     5
 10
197.39199999999991
 20
181.78999999999991
 30
0.0
 70
    32
  0
VERTEX
  5
10609
  8
0
 62
     5
 10
197.072
 20
181.7919999999998
 30
0.0
 70
    32
  0
VERTEX
  5
1060A
  8
0
 62
     5
 10
196.75299999999999
 20
181.79300000000001
 30
0.0
 70
    32
  0
VERTEX
  5
1060B
  8
0
 62
     5
 10
196.434
 20
181.79400000000001
 30
0.0
 70
    32
  0
VERTEX
  5
1060C
  8
0
 62
     5
 10
196.114
 20
181.79599999999999
 30
0.0
 70
    32
  0
VERTEX
  5
1060D
  8
0
 62
     5
 10
195.7949999999999
 20
181.797
 30
0.0
 70
    32
  0
VERTEX
  5
1060E
  8
0
 62
     5
 10
195.476
 20
181.798
 30
0.0
 70
    32
  0
VERTEX
  5
1060F
  8
0
 62
     5
 10
195.15599999999989
 20
181.79899999999981
 30
0.0
 70
    32
  0
VERTEX
  5
10610
  8
0
 62
     5
 10
194.8369999999999
 20
181.8009999999999
 30
0.0
 70
    32
  0
VERTEX
  5
10611
  8
0
 62
     5
 10
194.518
 20
181.80199999999991
 30
0.0
 70
    32
  0
VERTEX
  5
10612
  8
0
 62
     5
 10
194.19799999999981
 20
181.803
 30
0.0
 70
    32
  0
VERTEX
  5
10613
  8
0
 62
     5
 10
193.87899999999999
 20
181.80500000000001
 30
0.0
 70
    32
  0
VERTEX
  5
10614
  8
0
 62
     5
 10
193.559
 20
181.8059999999999
 30
0.0
 70
    32
  0
VERTEX
  5
10615
  8
0
 62
     5
 10
193.24000000000001
 20
181.8069999999999
 30
0.0
 70
    32
  0
VERTEX
  5
10616
  8
0
 62
     5
 10
192.92099999999991
 20
181.80799999999991
 30
0.0
 70
    32
  0
VERTEX
  5
10617
  8
0
 62
     5
 10
192.60099999999991
 20
181.81
 30
0.0
 70
    32
  0
VERTEX
  5
10618
  8
0
 62
     5
 10
192.28200000000001
 20
181.81099999999989
 30
0.0
 70
    32
  0
VERTEX
  5
10619
  8
0
 62
     5
 10
191.96299999999991
 20
181.81200000000001
 30
0.0
 70
    32
  0
VERTEX
  5
1061A
  8
0
 62
     5
 10
191.643
 20
181.81399999999991
 30
0.0
 70
    32
  0
VERTEX
  5
1061B
  8
0
 62
     5
 10
191.32400000000001
 20
181.81499999999991
 30
0.0
 70
    32
  0
VERTEX
  5
1061C
  8
0
 62
     5
 10
191.00399999999999
 20
181.8159999999996
 30
0.0
 70
    32
  0
VERTEX
  5
1061D
  8
0
 62
     5
 10
190.685
 20
181.81700000000001
 30
0.0
 70
    32
  0
VERTEX
  5
1061E
  8
0
 62
     5
 10
190.3659999999999
 20
181.8189999999999
 30
0.0
 70
    32
  0
VERTEX
  5
1061F
  8
0
 62
     5
 10
190.04599999999991
 20
181.81999999999999
 30
0.0
 70
    32
  0
VERTEX
  5
10620
  8
0
 62
     5
 10
189.7269999999998
 20
181.821
 30
0.0
 70
    32
  0
VERTEX
  5
10621
  8
0
 62
     5
 10
189.4079999999999
 20
181.82299999999981
 30
0.0
 70
    32
  0
VERTEX
  5
10622
  8
0
 62
     5
 10
189.08799999999991
 20
181.82400000000001
 30
0.0
 70
    32
  0
VERTEX
  5
10623
  8
0
 62
     5
 10
188.76900000000001
 20
181.8249999999999
 30
0.0
 70
    32
  0
VERTEX
  5
10624
  8
0
 62
     5
 10
188.44900000000001
 20
181.82599999999999
 30
0.0
 70
    32
  0
VERTEX
  5
10625
  8
0
 62
     5
 10
188.12999999999991
 20
181.828
 30
0.0
 70
    32
  0
VERTEX
  5
10626
  8
0
 62
     5
 10
187.81099999999989
 20
181.82900000000001
 30
0.0
 70
    32
  0
VERTEX
  5
10627
  8
0
 62
     5
 10
187.4909999999999
 20
181.83000000000001
 30
0.0
 70
    32
  0
VERTEX
  5
10628
  8
0
 62
     5
 10
187.172
 20
181.83199999999991
 30
0.0
 70
    32
  0
VERTEX
  5
10629
  8
0
 62
     5
 10
186.85299999999981
 20
181.83299999999991
 30
0.0
 70
    32
  0
VERTEX
  5
1062A
  8
0
 62
     5
 10
186.5329999999999
 20
181.834
 30
0.0
 70
    32
  0
VERTEX
  5
1062B
  8
0
 62
     5
 10
186.214
 20
181.83500000000001
 30
0.0
 70
    32
  0
VERTEX
  5
1062C
  8
0
 62
     5
 10
185.89400000000001
 20
181.8369999999999
 30
0.0
 70
    32
  0
VERTEX
  5
1062D
  8
0
 62
     5
 10
185.57499999999999
 20
181.83799999999991
 30
0.0
 70
    32
  0
VERTEX
  5
1062E
  8
0
 62
     5
 10
185.2559999999996
 20
181.839
 30
0.0
 70
    32
  0
VERTEX
  5
1062F
  8
0
 62
     5
 10
184.93599999999989
 20
181.84099999999989
 30
0.0
 70
    32
  0
VERTEX
  5
10630
  8
0
 62
     5
 10
184.6169999999999
 20
181.84200000000001
 30
0.0
 70
    32
  0
VERTEX
  5
10631
  8
0
 62
     5
 10
184.298
 20
181.84299999999999
 30
0.0
 70
    32
  0
VERTEX
  5
10632
  8
0
 62
     5
 10
183.97799999999989
 20
181.845
 30
0.0
 70
    32
  0
VERTEX
  5
10633
  8
0
 62
     5
 10
183.65899999999991
 20
181.8459999999998
 30
0.0
 70
    32
  0
VERTEX
  5
10634
  8
0
 62
     5
 10
183.339
 20
181.84699999999961
 30
0.0
 70
    32
  0
VERTEX
  5
10635
  8
0
 62
     5
 10
183.0199999999999
 20
181.8479999999999
 30
0.0
 70
    32
  0
VERTEX
  5
10636
  8
0
 62
     5
 10
182.70099999999991
 20
181.84999999999999
 30
0.0
 70
    32
  0
VERTEX
  5
10637
  8
0
 62
     5
 10
182.3809999999998
 20
181.851
 30
0.0
 70
    32
  0
VERTEX
  5
10638
  8
0
 62
     5
 10
182.06200000000001
 20
181.852
 30
0.0
 70
    32
  0
VERTEX
  5
10639
  8
0
 62
     5
 10
181.74299999999991
 20
181.85400000000001
 30
0.0
 70
    32
  0
VERTEX
  5
1063A
  8
0
 62
     5
 10
181.423
 20
181.8549999999999
 30
0.0
 70
    32
  0
VERTEX
  5
1063B
  8
0
 62
     5
 10
181.10400000000001
 20
181.85599999999991
 30
0.0
 70
    32
  0
VERTEX
  5
1063C
  8
0
 62
     5
 10
180.785
 20
181.857
 30
0.0
 70
    32
  0
VERTEX
  5
1063D
  8
0
 62
     5
 10
180.465
 20
181.85900000000001
 30
0.0
 70
    32
  0
VERTEX
  5
1063E
  8
0
 62
     5
 10
180.1459999999999
 20
181.86000000000001
 30
0.0
 70
    32
  0
VERTEX
  5
1063F
  8
0
 62
     5
 10
179.82599999999991
 20
181.8609999999999
 30
0.0
 70
    32
  0
VERTEX
  5
10640
  8
0
 62
     5
 10
179.50700000000001
 20
181.8629999999996
 30
0.0
 70
    32
  0
VERTEX
  5
10641
  8
0
 62
     5
 10
179.1879999999999
 20
181.864
 30
0.0
 70
    32
  0
VERTEX
  5
10642
  8
0
 62
     5
 10
178.86799999999999
 20
181.86500000000001
 30
0.0
 70
    32
  0
VERTEX
  5
10643
  8
0
 62
     5
 10
178.54900000000001
 20
181.8659999999999
 30
0.0
 70
    32
  0
VERTEX
  5
10644
  8
0
 62
     5
 10
178.22999999999999
 20
181.86799999999999
 30
0.0
 70
    32
  0
VERTEX
  5
10645
  8
0
 62
     5
 10
177.90999999999991
 20
181.869
 30
0.0
 70
    32
  0
VERTEX
  5
10646
  8
0
 62
     5
 10
177.59099999999981
 20
181.86999999999961
 30
0.0
 70
    32
  0
VERTEX
  5
10647
  8
0
 62
     5
 10
177.27099999999999
 20
181.87200000000001
 30
0.0
 70
    32
  0
VERTEX
  5
10648
  8
0
 62
     5
 10
176.95199999999991
 20
181.87299999999999
 30
0.0
 70
    32
  0
VERTEX
  5
10649
  8
0
 62
     5
 10
176.6329999999999
 20
181.874
 30
0.0
 70
    32
  0
VERTEX
  5
1064A
  8
0
 62
     5
 10
176.3129999999999
 20
181.875
 30
0.0
 70
    32
  0
VERTEX
  5
1064B
  8
0
 62
     5
 10
175.994
 20
181.87700000000001
 30
0.0
 70
    32
  0
VERTEX
  5
1064C
  8
0
 62
     5
 10
175.67500000000001
 20
181.8779999999999
 30
0.0
 70
    32
  0
VERTEX
  5
1064D
  8
0
 62
     5
 10
175.3549999999999
 20
181.87899999999991
 30
0.0
 70
    32
  0
VERTEX
  5
1064E
  8
0
 62
     5
 10
175.0359999999998
 20
181.8809999999998
 30
0.0
 70
    32
  0
VERTEX
  5
1064F
  8
0
 62
     5
 10
174.71599999999981
 20
181.88200000000001
 30
0.0
 70
    32
  0
VERTEX
  5
10650
  8
0
 62
     5
 10
174.39699999999999
 20
181.8829999999999
 30
0.0
 70
    32
  0
VERTEX
  5
10651
  8
0
 62
     5
 10
174.0779999999998
 20
181.88499999999991
 30
0.0
 70
    32
  0
VERTEX
  5
10652
  8
0
 62
     5
 10
173.7579999999999
 20
181.88599999999991
 30
0.0
 70
    32
  0
VERTEX
  5
10653
  8
0
 62
     5
 10
173.43899999999991
 20
181.887
 30
0.0
 70
    32
  0
VERTEX
  5
10654
  8
0
 62
     5
 10
173.12
 20
181.88800000000001
 30
0.0
 70
    32
  0
VERTEX
  5
10655
  8
0
 62
     5
 10
172.80000000000001
 20
181.88999999999999
 30
0.0
 70
    32
  0
VERTEX
  5
10656
  8
0
 62
     5
 10
172.48099999999991
 20
181.89099999999991
 30
0.0
 70
    32
  0
VERTEX
  5
10657
  8
0
 62
     5
 10
172.16099999999989
 20
181.892
 30
0.0
 70
    32
  0
VERTEX
  5
10658
  8
0
 62
     5
 10
171.84200000000001
 20
181.89399999999961
 30
0.0
 70
    32
  0
VERTEX
  5
10659
  8
0
 62
     5
 10
171.523
 20
181.89500000000001
 30
0.0
 70
    32
  0
VERTEX
  5
1065A
  8
0
 62
     5
 10
171.203
 20
181.8959999999999
 30
0.0
 70
    32
  0
VERTEX
  5
1065B
  8
0
 62
     5
 10
170.8839999999999
 20
181.89699999999999
 30
0.0
 70
    32
  0
VERTEX
  5
1065C
  8
0
 62
     5
 10
170.565
 20
181.899
 30
0.0
 70
    32
  0
VERTEX
  5
1065D
  8
0
 62
     5
 10
170.24499999999981
 20
181.90000000000001
 30
0.0
 70
    32
  0
SEQEND
  5
1065E
  8
0
 62
     5
  0
LINE
  5
1065F
  8
0
 62
     5
 10
161.2452534081244
 20
175.02221999999981
 30
0.0
 11
161.2452534081244
 21
181.9661986914
 31
0.0
  0
ARC
  5
10660
  8
0
 62
     5
 10
160.04525340812441
 20
179.1343581463
 30
0.0
 40
1.9338235293999959
 50
90.0
 51
149.4197126253006
  0
LINE
  5
10661
  8
0
 62
     5
 10
160.04525340812441
 20
175.38901797249949
 30
0.0
 11
160.04525340812441
 21
181.26637960169981
 31
0.0
  0
LINE
  5
10662
  8
0
 62
     5
 10
160.74525340812431
 20
181.31537657339999
 30
0.0
 11
160.74525340812431
 21
175.32098677799971
 31
0.0
  0
LINE
  5
10663
  8
0
 62
     5
 10
165.7452534081244
 20
191.8222199999999
 30
0.0
 11
165.7452534081244
 21
132.02221999999969
 31
0.0
  0
LINE
  5
10664
  8
0
 62
     5
 10
170.2452534081244
 20
131.7560555998997
 30
0.0
 11
170.2452534081244
 21
192.2883844000998
 31
0.0
  0
ARC
  5
10665
  8
0
 62
     5
 10
97.088904999950003
 20
180.65652261790001
 30
0.0
 40
1.0
 50
0.0
 51
85.611600842500224
  0
LINE
  5
10666
  8
0
 62
     5
 10
90.588904999949989
 20
178.02221999999981
 30
0.0
 11
90.588904999949989
 21
181.9661986914
 31
0.0
  0
ARC
  5
10667
  8
0
 62
     5
 10
94.577612651850046
 20
178.3181816757
 30
0.0
 40
2.9500000000000002
 50
276.8138543441998
 51
263.18614565579998
  0
CIRCLE
  5
10668
  8
0
 62
     5
 10
94.577612651850046
 20
178.3181816757
 30
0.0
 40
3.0
  0
LINE
  5
10669
  8
0
 62
     5
 10
141.7452534081244
 20
130.22221999999991
 30
0.0
 11
141.7452534081244
 21
191.02221999999949
 31
0.0
  0
LINE
  5
1066A
  8
0
 62
     5
 10
98.088904999950003
 20
143.3879173820998
 30
0.0
 11
98.088904999950003
 21
180.65652261790001
 31
0.0
  0
LINE
  5
1066B
  8
0
 62
     5
 10
98.355069400049985
 20
180.9029720634
 30
0.0
 11
98.355069400049985
 21
143.14146793659989
 31
0.0
  0
ARC
  5
1066C
  8
CENTER
 10
68.088905000000011
 20
162.02222
 30
0.0
 40
34.999999999958803
 50
306.25402293116213
 51
324.38103439674359
  0
LINE
  5
1066D
  8
0
 62
     5
 10
98.088904999950003
 20
142.46285143840001
 30
0.0
 11
98.088904999950003
 21
136.52222
 31
0.0
  0
CIRCLE
  5
1066E
  8
0
 62
     5
 10
92.837642341549994
 20
137.2734826584998
 30
0.0
 40
2.8999999999999999
  0
ARC
  5
1066F
  8
0
 62
     5
 10
93.588904999950046
 20
136.52222
 30
0.0
 40
4.5
 50
270.0
 51
0.0
  0
LINE
  5
10670
  8
0
 62
     5
 10
91.088904999950046
 20
142.3807757797999
 30
0.0
 11
91.088904999950046
 21
145.72221999999991
 31
0.0
  0
LINE
  5
10671
  8
0
 62
     5
 10
92.528926283250001
 20
142.0635447034999
 30
0.0
 11
97.165422150349997
 21
142.3908491167999
 31
0.0
  0
ARC
  5
10672
  8
0
 62
     5
 10
68.088904999950003
 20
521.27678993589984
 30
0.0
 40
380.26616440010002
 50
273.68757177850023
 51
274.42564337249951
  0
ARC
  5
10673
  8
0
 62
     5
 10
90.088904999950003
 20
142.3807757797999
 30
0.0
 40
1.0
 50
298.28906965429837
 51
0.0
  0
ARC
  5
10674
  8
0
 62
     5
 10
97.088904999950003
 20
143.3879173820998
 30
0.0
 40
1.0
 50
274.38839915749969
 51
0.0
  0
ARC
  5
10675
  8
0
 62
     5
 10
94.588904999950003
 20
145.72221999999991
 30
0.0
 40
3.5
 50
90.0
 51
180.0
  0
LINE
  5
10676
  8
0
 62
     5
 10
94.588904999950003
 20
149.22221999999991
 30
0.0
 11
97.088904999950003
 21
149.22221999999991
 31
0.0
  0
ARC
  5
10677
  8
0
 62
     5
 10
97.088904999950003
 20
150.22221999999991
 30
0.0
 40
1.0
 50
270.0
 51
0.0
  0
ARC
  5
10678
  8
0
 62
     5
 10
97.088904999950003
 20
173.52222
 30
0.0
 40
1.0
 50
0.0
 51
90.0
  0
LINE
  5
10679
  8
0
 62
     5
 10
93.359523790150035
 20
178.5981816757
 30
0.0
 11
93.954248297450007
 21
178.9415460299999
 31
0.0
  0
LINE
  5
1067A
  8
0
 62
     5
 10
92.799523790149962
 20
178.5981816757
 30
0.0
 11
93.506725169449993
 21
178.45818167569999
 31
0.0
  0
LINE
  5
1067B
  8
0
 62
     5
 10
93.359523790150035
 20
178.5981816757
 30
0.0
 11
93.562725169450019
 21
178.45818167569999
 31
0.0
  0
ARC
  5
1067C
  8
0
 62
     5
 10
94.577612651850046
 20
178.3181816757
 30
0.0
 40
1.1277213352999991
 50
109.03326855569981
 51
160.96673144430119
  0
LINE
  5
1067D
  8
0
 62
     5
 10
93.359523790150035
 20
178.0381816756998
 30
0.0
 11
93.562725169450019
 21
178.1781816756999
 31
0.0
  0
LINE
  5
1067E
  8
0
 62
     5
 10
92.799523790149962
 20
178.0381816756998
 30
0.0
 11
93.506725169449993
 21
178.1781816756999
 31
0.0
  0
LINE
  5
1067F
  8
0
 62
     5
 10
93.954248297450007
 20
177.69481732130001
 30
0.0
 11
93.359523790150035
 21
178.0381816756998
 31
0.0
  0
ARC
  5
10680
  8
0
 62
     5
 10
94.577612651850046
 20
178.3181816757
 30
0.0
 40
1.1277213352999991
 50
199.0332685556983
 51
250.9667314443
  0
ARC
  5
10681
  8
0
 62
     5
 10
94.088904999950003
 20
178.02221999999981
 30
0.0
 40
3.5
 50
180.0
 51
270.0
  0
CIRCLE
  5
10682
  8
0
 62
     5
 10
94.577612651850046
 20
178.3181816757
 30
0.0
 40
2.75
  0
LINE
  5
10683
  8
0
 62
     5
 10
92.799523790149962
 20
178.5981816757
 30
0.0
 11
93.359523790150035
 21
178.5981816757
 31
0.0
  0
LINE
  5
10684
  8
0
 62
     5
 10
93.359523790150035
 20
178.0381816756998
 30
0.0
 11
92.799523790149962
 21
178.0381816756998
 31
0.0
  0
ARC
  5
10685
  8
0
 62
     5
 10
94.577612651850046
 20
178.3181816757
 30
0.0
 40
1.8
 50
171.05098193469971
 51
188.9490180652999
  0
LINE
  5
10686
  8
0
 62
     5
 10
95.79570151355
 20
178.5981816757
 30
0.0
 11
95.59250013424996
 21
178.45818167569999
 31
0.0
  0
LINE
  5
10687
  8
0
 62
     5
 10
96.355701513550002
 20
178.5981816757
 30
0.0
 11
95.648500134249986
 21
178.45818167569999
 31
0.0
  0
LINE
  5
10688
  8
0
 62
     5
 10
95.648500134249986
 20
178.45818167569999
 30
0.0
 11
95.59250013424996
 21
178.45818167569999
 31
0.0
  0
LINE
  5
10689
  8
0
 62
     5
 10
95.79570151355
 20
178.5981816757
 30
0.0
 11
96.355701513550002
 21
178.5981816757
 31
0.0
  0
LINE
  5
1068A
  8
0
 62
     5
 10
96.355701513550002
 20
178.0381816756998
 30
0.0
 11
95.79570151355
 21
178.0381816756998
 31
0.0
  0
LINE
  5
1068B
  8
0
 62
     5
 10
95.59250013424996
 20
178.1781816756999
 30
0.0
 11
95.648500134249986
 21
178.1781816756999
 31
0.0
  0
LINE
  5
1068C
  8
0
 62
     5
 10
96.355701513550002
 20
178.0381816756998
 30
0.0
 11
95.648500134249986
 21
178.1781816756999
 31
0.0
  0
LINE
  5
1068D
  8
0
 62
     5
 10
95.79570151355
 20
178.0381816756998
 30
0.0
 11
95.59250013424996
 21
178.1781816756999
 31
0.0
  0
ARC
  5
1068E
  8
0
 62
     5
 10
94.577612651850046
 20
178.3181816757
 30
0.0
 40
1.0800000000000001
 50
352.551809439002
 51
7.4481905609978769
  0
ARC
  5
1068F
  8
0
 62
     5
 10
94.577612651850046
 20
178.3181816757
 30
0.0
 40
1.8
 50
351.05098193469979
 51
8.9490180653002085
  0
LINE
  5
10690
  8
0
 62
     5
 10
94.117381607849993
 20
178.77841271969999
 30
0.0
 11
93.562725169450019
 21
178.45818167569999
 31
0.0
  0
LINE
  5
10691
  8
0
 62
     5
 10
94.857612651850019
 20
179.53627053729991
 30
0.0
 11
94.717612651850047
 21
179.33306915809999
 31
0.0
  0
LINE
  5
10692
  8
0
 62
     5
 10
93.954248297450007
 20
178.9415460299999
 30
0.0
 11
94.29761265184996
 21
179.53627053729991
 31
0.0
  0
LINE
  5
10693
  8
0
 62
     5
 10
94.437612651849989
 20
179.33306915809999
 30
0.0
 11
94.117381607849993
 21
178.77841271969999
 31
0.0
  0
LINE
  5
10694
  8
0
 62
     5
 10
93.562725169450019
 20
178.45818167569999
 30
0.0
 11
93.506725169449993
 21
178.45818167569999
 31
0.0
  0
LINE
  5
10695
  8
0
 62
     5
 10
94.857612651850019
 20
180.09627053729949
 30
0.0
 11
94.717612651850047
 21
179.3890691580998
 31
0.0
  0
LINE
  5
10696
  8
0
 62
     5
 10
94.29761265184996
 20
179.53627053729991
 30
0.0
 11
94.29761265184996
 21
180.09627053729949
 31
0.0
  0
LINE
  5
10697
  8
0
 62
     5
 10
94.437612651849989
 20
179.3890691580998
 30
0.0
 11
94.437612651849989
 21
179.33306915809999
 31
0.0
  0
LINE
  5
10698
  8
0
 62
     5
 10
94.717612651850047
 20
179.33306915809999
 30
0.0
 11
94.717612651850047
 21
179.3890691580998
 31
0.0
  0
LINE
  5
10699
  8
0
 62
     5
 10
94.857612651850019
 20
180.09627053729949
 30
0.0
 11
94.857612651850019
 21
179.53627053729991
 31
0.0
  0
LINE
  5
1069A
  8
0
 62
     5
 10
94.29761265184996
 20
180.09627053729949
 30
0.0
 11
94.437612651849989
 21
179.3890691580998
 31
0.0
  0
LINE
  5
1069B
  8
0
 62
     5
 10
94.29761265184996
 20
179.53627053729991
 30
0.0
 11
94.437612651849989
 21
179.33306915809999
 31
0.0
  0
LINE
  5
1069C
  8
0
 62
     5
 10
95.037843695850029
 20
178.77841271969999
 30
0.0
 11
94.717612651850047
 21
179.33306915809999
 31
0.0
  0
LINE
  5
1069D
  8
0
 62
     5
 10
94.857612651850019
 20
179.53627053729991
 30
0.0
 11
95.200977006249985
 21
178.9415460299999
 31
0.0
  0
ARC
  5
1069E
  8
0
 62
     5
 10
94.577612651850046
 20
178.3181816757
 30
0.0
 40
1.0800000000000001
 50
82.551809438999697
 51
97.448190561000288
  0
ARC
  5
1069F
  8
0
 62
     5
 10
94.577612651850046
 20
178.3181816757
 30
0.0
 40
1.8
 50
81.050981934699905
 51
98.949018065300081
  0
LINE
  5
106A0
  8
0
 62
     5
 10
94.717612651850047
 20
177.30329419329991
 30
0.0
 11
95.037843695850029
 21
177.85795063169999
 31
0.0
  0
LINE
  5
106A1
  8
0
 62
     5
 10
95.200977006249985
 20
177.69481732130001
 30
0.0
 11
94.857612651850019
 21
177.10009281399991
 31
0.0
  0
LINE
  5
106A2
  8
0
 62
     5
 10
94.29761265184996
 20
177.10009281399991
 30
0.0
 11
94.437612651849989
 21
177.30329419329991
 31
0.0
  0
LINE
  5
106A3
  8
0
 62
     5
 10
93.506725169449993
 20
178.1781816756999
 30
0.0
 11
93.562725169450019
 21
178.1781816756999
 31
0.0
  0
LINE
  5
106A4
  8
0
 62
     5
 10
94.29761265184996
 20
176.54009281399999
 30
0.0
 11
94.437612651849989
 21
177.24729419329981
 31
0.0
  0
LINE
  5
106A5
  8
0
 62
     5
 10
94.227612651849995
 20
175.5929210107999
 30
0.0
 11
94.227612651849995
 21
175.38901797249949
 31
0.0
  0
LINE
  5
106A6
  8
0
 62
     5
 10
94.29761265184996
 20
176.54009281399999
 30
0.0
 11
94.29761265184996
 21
177.10009281399991
 31
0.0
  0
LINE
  5
106A7
  8
0
 62
     5
 10
94.437612651849989
 20
177.30329419329991
 30
0.0
 11
94.437612651849989
 21
177.24729419329981
 31
0.0
  0
LINE
  5
106A8
  8
0
 62
     5
 10
94.717612651850047
 20
177.24729419329981
 30
0.0
 11
94.717612651850047
 21
177.30329419329991
 31
0.0
  0
LINE
  5
106A9
  8
0
 62
     5
 10
94.857612651850019
 20
177.10009281399991
 30
0.0
 11
94.857612651850019
 21
176.54009281399999
 31
0.0
  0
LINE
  5
106AA
  8
0
 62
     5
 10
94.927612651850055
 20
175.38901797249949
 30
0.0
 11
94.927612651850055
 21
175.5929210107999
 31
0.0
  0
LINE
  5
106AB
  8
0
 62
     5
 10
93.562725169450019
 20
178.1781816756999
 30
0.0
 11
94.117381607849993
 21
177.85795063169999
 31
0.0
  0
LINE
  5
106AC
  8
0
 62
     5
 10
94.857612651850019
 20
177.10009281399991
 30
0.0
 11
94.717612651850047
 21
177.30329419329991
 31
0.0
  0
LINE
  5
106AD
  8
0
 62
     5
 10
94.29761265184996
 20
177.10009281399991
 30
0.0
 11
93.954248297450007
 21
177.69481732130001
 31
0.0
  0
LINE
  5
106AE
  8
0
 62
     5
 10
94.117381607849993
 20
177.85795063169999
 30
0.0
 11
94.437612651849989
 21
177.30329419329991
 31
0.0
  0
LINE
  5
106AF
  8
0
 62
     5
 10
94.857612651850019
 20
176.54009281399999
 30
0.0
 11
94.717612651850047
 21
177.24729419329981
 31
0.0
  0
ARC
  5
106B0
  8
0
 62
     5
 10
94.577612651850046
 20
178.3181816757
 30
0.0
 40
1.0800000000000001
 50
262.55180943899973
 51
277.44819056100022
  0
ARC
  5
106B1
  8
0
 62
     5
 10
94.577612651850046
 20
178.3181816757
 30
0.0
 40
1.8
 50
261.05098193469991
 51
278.94901806529992
  0
LINE
  5
106B2
  8
0
 62
     5
 10
93.954248297450007
 20
177.69481732130001
 30
0.0
 11
95.200977006249985
 21
178.9415460299999
 31
0.0
  0
LINE
  5
106B3
  8
0
 62
     5
 10
94.437612651849989
 20
177.24729419329981
 30
0.0
 11
94.717612651850047
 21
179.3890691580998
 31
0.0
  0
LINE
  5
106B4
  8
0
 62
     5
 10
94.437612651849989
 20
177.30329419329991
 30
0.0
 11
94.717612651850047
 21
179.33306915809999
 31
0.0
  0
LINE
  5
106B5
  8
0
 62
     5
 10
95.200977006249985
 20
177.69481732130001
 30
0.0
 11
93.954248297450007
 21
178.9415460299999
 31
0.0
  0
LINE
  5
106B6
  8
0
 62
     5
 10
94.717612651850047
 20
177.30329419329991
 30
0.0
 11
94.437612651849989
 21
179.33306915809999
 31
0.0
  0
LINE
  5
106B7
  8
0
 62
     5
 10
94.717612651850047
 20
177.24729419329981
 30
0.0
 11
94.437612651849989
 21
179.3890691580998
 31
0.0
  0
ARC
  5
106B8
  8
0
 62
     5
 10
94.577612651850046
 20
178.3181816757
 30
0.0
 40
1.0800000000000001
 50
172.55180943900211
 51
187.4481905609978
  0
LINE
  5
106B9
  8
0
 62
     5
 10
95.037843695850029
 20
177.85795063169999
 30
0.0
 11
95.59250013424996
 21
178.1781816756999
 31
0.0
  0
LINE
  5
106BA
  8
0
 62
     5
 10
95.79570151355
 20
178.0381816756998
 30
0.0
 11
95.200977006249985
 21
177.69481732130001
 31
0.0
  0
LINE
  5
106BB
  8
0
 62
     5
 10
93.562725169450019
 20
178.1781816756999
 30
0.0
 11
95.59250013424996
 21
178.45818167569999
 31
0.0
  0
LINE
  5
106BC
  8
0
 62
     5
 10
93.506725169449993
 20
178.1781816756999
 30
0.0
 11
95.648500134249986
 21
178.45818167569999
 31
0.0
  0
LINE
  5
106BD
  8
0
 62
     5
 10
97.088904999950003
 20
174.52222
 30
0.0
 11
94.088904999950003
 21
174.52222
 31
0.0
  0
LINE
  5
106BE
  8
0
 62
     5
 10
93.506725169449993
 20
178.45818167569999
 30
0.0
 11
95.648500134249986
 21
178.1781816756999
 31
0.0
  0
LINE
  5
106BF
  8
0
 62
     5
 10
93.562725169450019
 20
178.45818167569999
 30
0.0
 11
95.59250013424996
 21
178.1781816756999
 31
0.0
  0
LINE
  5
106C0
  8
0
 62
     5
 10
95.59250013424996
 20
178.45818167569999
 30
0.0
 11
95.037843695850029
 21
178.77841271969999
 31
0.0
  0
LINE
  5
106C1
  8
0
 62
     5
 10
95.200977006249985
 20
178.9415460299999
 30
0.0
 11
95.79570151355
 21
178.5981816757
 31
0.0
  0
ARC
  5
106C2
  8
0
 62
     5
 10
94.577612651850046
 20
178.3181816757
 30
0.0
 40
1.1277213352999991
 50
289.03326855569981
 51
340.9667314443011
  0
ARC
  5
106C3
  8
0
 62
     5
 10
94.577612651850046
 20
178.3181816757
 30
0.0
 40
1.1277213352999991
 50
19.033268555698768
 51
70.96673144430018
  0
LINE
  5
106C4
  8
0
 62
     5
 10
141.7452534081244
 20
142.3807757797999
 30
0.0
 11
157.7461469296243
 21
142.3807757797999
 31
0.0
  0
LINE
  5
106C5
  8
0
 62
     5
 10
142.7452534081244
 20
149.22221999999991
 30
0.0
 11
157.7452534081244
 21
149.22221999999991
 31
0.0
  0
LINE
  5
106C6
  8
0
 62
     5
 10
147.6218803087244
 20
125.1222199999999
 30
0.0
 11
151.85513468962429
 21
125.1222199999999
 31
0.0
  0
LINE
  5
106C7
  8
0
 62
     5
 10
160.9556729068243
 20
124.5222199999999
 30
0.0
 11
146.1348339094244
 21
124.5222199999999
 31
0.0
  0
LINE
  5
106C8
  8
0
 62
     5
 10
143.43355780262411
 20
129.02222
 30
0.0
 11
163.6569490136244
 21
129.02222
 31
0.0
  0
LINE
  5
106C9
  8
0
 62
     5
 10
141.94525340812439
 20
130.02221999999961
 30
0.0
 11
165.04525340812441
 21
130.02221999999961
 31
0.0
  0
LINE
  5
106CA
  8
0
 62
     5
 10
142.7452534081244
 20
132.02221999999969
 30
0.0
 11
165.7452534081244
 21
132.02221999999969
 31
0.0
  0
LINE
  5
106CB
  8
0
 62
     5
 10
160.74525340812431
 20
139.52221999999961
 30
0.0
 11
142.7452534081244
 21
139.52221999999961
 31
0.0
  0
LINE
  5
106CC
  8
0
  6
CONTINUOUS
 62
     5
 10
143.4335532173244
 20
129.62221999999991
 30
0.0
 11
143.4335532173244
 21
130.02221999999961
 31
0.0
  0
LINE
  5
106CD
  8
0
 62
     5
 10
143.4335532173244
 20
129.02222
 30
0.0
 11
143.4335532173244
 21
130.02221999999961
 31
0.0
  0
LINE
  5
106CE
  8
0
 62
     5
 10
146.0262487653244
 20
127.8222199999996
 30
0.0
 11
147.43415895072431
 21
127.8222199999996
 31
0.0
  0
LINE
  5
106CF
  8
0
 62
     5
 10
146.1348339094244
 20
124.5222199999999
 30
0.0
 11
145.83852740732439
 21
124.8222199999996
 31
0.0
  0
LINE
  5
106D0
  8
0
 62
     5
 10
146.32255526752439
 20
124.5222199999999
 30
0.0
 11
146.0262487653244
 21
124.8222199999996
 31
0.0
  0
LINE
  5
106D1
  8
0
 62
     5
 10
147.43415895072431
 20
124.8222199999996
 30
0.0
 11
147.73046545292431
 21
124.5222199999999
 31
0.0
  0
LINE
  5
106D2
  8
0
 62
     5
 10
147.6218803087244
 20
124.8222199999996
 30
0.0
 11
147.91818681092431
 21
124.5222199999999
 31
0.0
  0
LINE
  5
106D3
  8
0
 62
     5
 10
145.83852740732439
 20
125.1222199999999
 30
0.0
 11
145.83852740732439
 21
124.8222199999996
 31
0.0
  0
LINE
  5
106D4
  8
0
 62
     5
 10
147.6218803087244
 20
124.8222199999996
 30
0.0
 11
147.6218803087244
 21
125.1222199999999
 31
0.0
  0
LINE
  5
106D5
  8
0
 62
     5
 10
149.49848815592441
 20
125.1222199999999
 30
0.0
 11
149.49848815592441
 21
124.5222199999999
 31
0.0
  0
LINE
  5
106D6
  8
0
 62
     5
 10
145.83852740732439
 20
124.8222199999996
 30
0.0
 11
146.0262487653244
 21
124.8222199999996
 31
0.0
  0
LINE
  5
106D7
  8
0
 62
     5
 10
147.43415895072431
 20
124.8222199999996
 30
0.0
 11
147.6218803087244
 21
124.8222199999996
 31
0.0
  0
LINE
  5
106D8
  8
0
 62
     5
 10
145.5336016813244
 20
125.1222199999999
 30
0.0
 11
145.83852740732439
 21
125.1222199999999
 31
0.0
  0
LINE
  5
106D9
  8
0
 62
     5
 10
145.53355321732431
 20
129.02222
 30
0.0
 11
145.53355321732431
 21
125.1222199999999
 31
0.0
  0
LINE
  5
106DA
  8
0
 62
     5
 10
145.55694537022441
 20
129.02222
 30
0.0
 11
145.55694537022441
 21
125.1222199999999
 31
0.0
  0
LINE
  5
106DB
  8
0
 62
     5
 10
146.0262487653244
 20
124.8222199999996
 30
0.0
 11
146.0262487653244
 21
127.8222199999996
 31
0.0
  0
LINE
  5
106DC
  8
0
 62
     5
 10
147.43415895072431
 20
127.8222199999996
 30
0.0
 11
147.43415895072431
 21
124.8222199999996
 31
0.0
  0
LINE
  5
106DD
  8
0
 62
     5
 10
147.9034623458239
 20
125.1222199999999
 30
0.0
 11
147.9034623458239
 21
129.02222
 31
0.0
  0
POLYLINE
  5
106DE
  8
0
 62
     5
 66
     1
 10
0.0
 20
0.0
 30
0.0
 70
     8
  0
VERTEX
  5
106DF
  8
0
 62
     5
 10
141.74600000000001
 20
132.96700000000001
 30
0.0
 70
    32
  0
VERTEX
  5
106E0
  8
0
 62
     5
 10
141.74600000000001
 20
132.9679999999999
 30
0.0
 70
    32
  0
VERTEX
  5
106E1
  8
0
 62
     5
 10
141.74600000000001
 20
132.9679999999999
 30
0.0
 70
    32
  0
VERTEX
  5
106E2
  8
0
 62
     5
 10
141.74600000000001
 20
132.9679999999999
 30
0.0
 70
    32
  0
VERTEX
  5
106E3
  8
0
 62
     5
 10
141.74600000000001
 20
132.96899999999999
 30
0.0
 70
    32
  0
VERTEX
  5
106E4
  8
0
 62
     5
 10
141.74600000000001
 20
132.96899999999999
 30
0.0
 70
    32
  0
VERTEX
  5
106E5
  8
0
 62
     5
 10
141.74600000000001
 20
132.97
 30
0.0
 70
    32
  0
VERTEX
  5
106E6
  8
0
 62
     5
 10
141.74600000000001
 20
132.97
 30
0.0
 70
    32
  0
VERTEX
  5
106E7
  8
0
 62
     5
 10
141.74600000000001
 20
132.971
 30
0.0
 70
    32
  0
VERTEX
  5
106E8
  8
0
 62
     5
 10
141.74600000000001
 20
132.971
 30
0.0
 70
    32
  0
VERTEX
  5
106E9
  8
0
 62
     5
 10
141.74600000000001
 20
132.97200000000001
 30
0.0
 70
    32
  0
VERTEX
  5
106EA
  8
0
 62
     5
 10
141.74600000000001
 20
132.97200000000001
 30
0.0
 70
    32
  0
VERTEX
  5
106EB
  8
0
 62
     5
 10
141.74600000000001
 20
132.97200000000001
 30
0.0
 70
    32
  0
VERTEX
  5
106EC
  8
0
 62
     5
 10
141.74600000000001
 20
132.97299999999959
 30
0.0
 70
    32
  0
VERTEX
  5
106ED
  8
0
 62
     5
 10
141.74600000000001
 20
132.97299999999959
 30
0.0
 70
    32
  0
VERTEX
  5
106EE
  8
0
 62
     5
 10
141.74600000000001
 20
132.9739999999999
 30
0.0
 70
    32
  0
VERTEX
  5
106EF
  8
0
 62
     5
 10
141.74600000000001
 20
132.9739999999999
 30
0.0
 70
    32
  0
VERTEX
  5
106F0
  8
0
 62
     5
 10
141.74600000000001
 20
132.97499999999991
 30
0.0
 70
    32
  0
VERTEX
  5
106F1
  8
0
 62
     5
 10
141.74600000000001
 20
132.97499999999991
 30
0.0
 70
    32
  0
VERTEX
  5
106F2
  8
0
 62
     5
 10
141.74600000000001
 20
132.97499999999991
 30
0.0
 70
    32
  0
VERTEX
  5
106F3
  8
0
 62
     5
 10
141.74600000000001
 20
132.976
 30
0.0
 70
    32
  0
VERTEX
  5
106F4
  8
0
 62
     5
 10
141.74600000000001
 20
132.976
 30
0.0
 70
    32
  0
VERTEX
  5
106F5
  8
0
 62
     5
 10
141.74600000000001
 20
132.977
 30
0.0
 70
    32
  0
VERTEX
  5
106F6
  8
0
 62
     5
 10
141.74600000000001
 20
132.977
 30
0.0
 70
    32
  0
VERTEX
  5
106F7
  8
0
 62
     5
 10
141.74600000000001
 20
132.9779999999997
 30
0.0
 70
    32
  0
VERTEX
  5
106F8
  8
0
 62
     5
 10
141.74600000000001
 20
132.9779999999997
 30
0.0
 70
    32
  0
VERTEX
  5
106F9
  8
0
 62
     5
 10
141.74600000000001
 20
132.9779999999997
 30
0.0
 70
    32
  0
VERTEX
  5
106FA
  8
0
 62
     5
 10
141.74600000000001
 20
132.9789999999997
 30
0.0
 70
    32
  0
VERTEX
  5
106FB
  8
0
 62
     5
 10
141.74600000000001
 20
132.9789999999997
 30
0.0
 70
    32
  0
VERTEX
  5
106FC
  8
0
 62
     5
 10
141.74600000000001
 20
132.97999999999959
 30
0.0
 70
    32
  0
VERTEX
  5
106FD
  8
0
 62
     5
 10
141.74600000000001
 20
132.97999999999959
 30
0.0
 70
    32
  0
VERTEX
  5
106FE
  8
0
 62
     5
 10
141.74600000000001
 20
132.98099999999991
 30
0.0
 70
    32
  0
VERTEX
  5
106FF
  8
0
 62
     5
 10
141.74600000000001
 20
132.98099999999991
 30
0.0
 70
    32
  0
VERTEX
  5
10700
  8
0
 62
     5
 10
141.74600000000001
 20
132.98099999999991
 30
0.0
 70
    32
  0
VERTEX
  5
10701
  8
0
 62
     5
 10
141.74600000000001
 20
132.982
 30
0.0
 70
    32
  0
VERTEX
  5
10702
  8
0
 62
     5
 10
141.74600000000001
 20
132.982
 30
0.0
 70
    32
  0
VERTEX
  5
10703
  8
0
 62
     5
 10
141.74600000000001
 20
132.983
 30
0.0
 70
    32
  0
VERTEX
  5
10704
  8
0
 62
     5
 10
141.74600000000001
 20
132.983
 30
0.0
 70
    32
  0
VERTEX
  5
10705
  8
0
 62
     5
 10
141.74600000000001
 20
132.98400000000001
 30
0.0
 70
    32
  0
VERTEX
  5
10706
  8
0
 62
     5
 10
141.74600000000001
 20
132.98400000000001
 30
0.0
 70
    32
  0
VERTEX
  5
10707
  8
0
 62
     5
 10
141.74600000000001
 20
132.98500000000001
 30
0.0
 70
    32
  0
VERTEX
  5
10708
  8
0
 62
     5
 10
141.74600000000001
 20
132.98500000000001
 30
0.0
 70
    32
  0
VERTEX
  5
10709
  8
0
 62
     5
 10
141.74600000000001
 20
132.98500000000001
 30
0.0
 70
    32
  0
VERTEX
  5
1070A
  8
0
 62
     5
 10
141.74600000000001
 20
132.9859999999999
 30
0.0
 70
    32
  0
VERTEX
  5
1070B
  8
0
 62
     5
 10
141.74600000000001
 20
132.9859999999999
 30
0.0
 70
    32
  0
VERTEX
  5
1070C
  8
0
 62
     5
 10
141.74600000000001
 20
132.98699999999991
 30
0.0
 70
    32
  0
VERTEX
  5
1070D
  8
0
 62
     5
 10
141.74600000000001
 20
132.98699999999991
 30
0.0
 70
    32
  0
VERTEX
  5
1070E
  8
0
 62
     5
 10
141.74600000000001
 20
132.9879999999996
 30
0.0
 70
    32
  0
VERTEX
  5
1070F
  8
0
 62
     5
 10
141.74600000000001
 20
132.9879999999996
 30
0.0
 70
    32
  0
VERTEX
  5
10710
  8
0
 62
     5
 10
141.74600000000001
 20
132.9879999999996
 30
0.0
 70
    32
  0
VERTEX
  5
10711
  8
0
 62
     5
 10
141.74600000000001
 20
132.989
 30
0.0
 70
    32
  0
VERTEX
  5
10712
  8
0
 62
     5
 10
141.74600000000001
 20
132.989
 30
0.0
 70
    32
  0
VERTEX
  5
10713
  8
0
 62
     5
 10
141.74600000000001
 20
132.99000000000001
 30
0.0
 70
    32
  0
VERTEX
  5
10714
  8
0
 62
     5
 10
141.74600000000001
 20
132.99000000000001
 30
0.0
 70
    32
  0
VERTEX
  5
10715
  8
0
 62
     5
 10
141.74600000000001
 20
132.99100000000001
 30
0.0
 70
    32
  0
VERTEX
  5
10716
  8
0
 62
     5
 10
141.74600000000001
 20
132.99100000000001
 30
0.0
 70
    32
  0
VERTEX
  5
10717
  8
0
 62
     5
 10
141.74600000000001
 20
132.99100000000001
 30
0.0
 70
    32
  0
VERTEX
  5
10718
  8
0
 62
     5
 10
141.74600000000001
 20
132.9919999999999
 30
0.0
 70
    32
  0
VERTEX
  5
10719
  8
0
 62
     5
 10
141.74600000000001
 20
132.9919999999999
 30
0.0
 70
    32
  0
VERTEX
  5
1071A
  8
0
 62
     5
 10
141.74600000000001
 20
132.99299999999999
 30
0.0
 70
    32
  0
VERTEX
  5
1071B
  8
0
 62
     5
 10
141.74600000000001
 20
132.99299999999999
 30
0.0
 70
    32
  0
VERTEX
  5
1071C
  8
0
 62
     5
 10
141.74600000000001
 20
132.994
 30
0.0
 70
    32
  0
VERTEX
  5
1071D
  8
0
 62
     5
 10
141.74600000000001
 20
132.994
 30
0.0
 70
    32
  0
VERTEX
  5
1071E
  8
0
 62
     5
 10
141.74600000000001
 20
132.994
 30
0.0
 70
    32
  0
VERTEX
  5
1071F
  8
0
 62
     5
 10
141.74600000000001
 20
132.99499999999961
 30
0.0
 70
    32
  0
VERTEX
  5
10720
  8
0
 62
     5
 10
141.74600000000001
 20
132.99499999999961
 30
0.0
 70
    32
  0
VERTEX
  5
10721
  8
0
 62
     5
 10
141.74600000000001
 20
132.99600000000001
 30
0.0
 70
    32
  0
VERTEX
  5
10722
  8
0
 62
     5
 10
141.74600000000001
 20
132.99600000000001
 30
0.0
 70
    32
  0
VERTEX
  5
10723
  8
0
 62
     5
 10
141.74600000000001
 20
132.99700000000001
 30
0.0
 70
    32
  0
VERTEX
  5
10724
  8
0
 62
     5
 10
141.74600000000001
 20
132.99700000000001
 30
0.0
 70
    32
  0
VERTEX
  5
10725
  8
0
 62
     5
 10
141.74600000000001
 20
132.99799999999991
 30
0.0
 70
    32
  0
VERTEX
  5
10726
  8
0
 62
     5
 10
141.74600000000001
 20
132.99799999999991
 30
0.0
 70
    32
  0
VERTEX
  5
10727
  8
0
 62
     5
 10
141.74600000000001
 20
132.99799999999991
 30
0.0
 70
    32
  0
VERTEX
  5
10728
  8
0
 62
     5
 10
141.74600000000001
 20
132.999
 30
0.0
 70
    32
  0
VERTEX
  5
10729
  8
0
 62
     5
 10
141.74600000000001
 20
132.999
 30
0.0
 70
    32
  0
VERTEX
  5
1072A
  8
0
 62
     5
 10
141.74600000000001
 20
133.0
 30
0.0
 70
    32
  0
VERTEX
  5
1072B
  8
0
 62
     5
 10
141.74600000000001
 20
133.0
 30
0.0
 70
    32
  0
VERTEX
  5
1072C
  8
0
 62
     5
 10
141.74600000000001
 20
133.001
 30
0.0
 70
    32
  0
VERTEX
  5
1072D
  8
0
 62
     5
 10
141.74600000000001
 20
133.001
 30
0.0
 70
    32
  0
VERTEX
  5
1072E
  8
0
 62
     5
 10
141.74600000000001
 20
133.001
 30
0.0
 70
    32
  0
VERTEX
  5
1072F
  8
0
 62
     5
 10
141.74600000000001
 20
133.00200000000001
 30
0.0
 70
    32
  0
VERTEX
  5
10730
  8
0
 62
     5
 10
141.74600000000001
 20
133.00200000000001
 30
0.0
 70
    32
  0
VERTEX
  5
10731
  8
0
 62
     5
 10
141.74600000000001
 20
133.00299999999959
 30
0.0
 70
    32
  0
VERTEX
  5
10732
  8
0
 62
     5
 10
141.74600000000001
 20
133.00299999999959
 30
0.0
 70
    32
  0
VERTEX
  5
10733
  8
0
 62
     5
 10
141.74600000000001
 20
133.00399999999991
 30
0.0
 70
    32
  0
VERTEX
  5
10734
  8
0
 62
     5
 10
141.74600000000001
 20
133.00399999999991
 30
0.0
 70
    32
  0
VERTEX
  5
10735
  8
0
 62
     5
 10
141.74600000000001
 20
133.00399999999991
 30
0.0
 70
    32
  0
VERTEX
  5
10736
  8
0
 62
     5
 10
141.74600000000001
 20
133.00499999999991
 30
0.0
 70
    32
  0
VERTEX
  5
10737
  8
0
 62
     5
 10
141.74600000000001
 20
133.00499999999991
 30
0.0
 70
    32
  0
VERTEX
  5
10738
  8
0
 62
     5
 10
141.74600000000001
 20
133.006
 30
0.0
 70
    32
  0
VERTEX
  5
10739
  8
0
 62
     5
 10
141.74600000000001
 20
133.006
 30
0.0
 70
    32
  0
VERTEX
  5
1073A
  8
0
 62
     5
 10
141.745
 20
133.00700000000001
 30
0.0
 70
    32
  0
VERTEX
  5
1073B
  8
0
 62
     5
 10
141.745
 20
133.00700000000001
 30
0.0
 70
    32
  0
VERTEX
  5
1073C
  8
0
 62
     5
 10
141.745
 20
133.00700000000001
 30
0.0
 70
    32
  0
VERTEX
  5
1073D
  8
0
 62
     5
 10
141.745
 20
133.0079999999999
 30
0.0
 70
    32
  0
VERTEX
  5
1073E
  8
0
 62
     5
 10
141.745
 20
133.0079999999999
 30
0.0
 70
    32
  0
VERTEX
  5
1073F
  8
0
 62
     5
 10
141.745
 20
133.0089999999999
 30
0.0
 70
    32
  0
VERTEX
  5
10740
  8
0
 62
     5
 10
141.745
 20
133.0089999999999
 30
0.0
 70
    32
  0
VERTEX
  5
10741
  8
0
 62
     5
 10
141.745
 20
133.00999999999991
 30
0.0
 70
    32
  0
VERTEX
  5
10742
  8
0
 62
     5
 10
141.745
 20
133.00999999999991
 30
0.0
 70
    32
  0
VERTEX
  5
10743
  8
0
 62
     5
 10
141.745
 20
133.01099999999991
 30
0.0
 70
    32
  0
VERTEX
  5
10744
  8
0
 62
     5
 10
141.745
 20
133.01099999999991
 30
0.0
 70
    32
  0
VERTEX
  5
10745
  8
0
 62
     5
 10
141.745
 20
133.01099999999991
 30
0.0
 70
    32
  0
VERTEX
  5
10746
  8
0
 62
     5
 10
141.745
 20
133.0119999999996
 30
0.0
 70
    32
  0
VERTEX
  5
10747
  8
0
 62
     5
 10
141.745
 20
133.0119999999996
 30
0.0
 70
    32
  0
VERTEX
  5
10748
  8
0
 62
     5
 10
141.745
 20
133.01300000000001
 30
0.0
 70
    32
  0
VERTEX
  5
10749
  8
0
 62
     5
 10
141.745
 20
133.01300000000001
 30
0.0
 70
    32
  0
VERTEX
  5
1074A
  8
0
 62
     5
 10
141.745
 20
133.01400000000001
 30
0.0
 70
    32
  0
VERTEX
  5
1074B
  8
0
 62
     5
 10
141.745
 20
133.01400000000001
 30
0.0
 70
    32
  0
VERTEX
  5
1074C
  8
0
 62
     5
 10
141.745
 20
133.01400000000001
 30
0.0
 70
    32
  0
VERTEX
  5
1074D
  8
0
 62
     5
 10
141.745
 20
133.0149999999999
 30
0.0
 70
    32
  0
VERTEX
  5
1074E
  8
0
 62
     5
 10
141.745
 20
133.0149999999999
 30
0.0
 70
    32
  0
VERTEX
  5
1074F
  8
0
 62
     5
 10
141.745
 20
133.01599999999999
 30
0.0
 70
    32
  0
VERTEX
  5
10750
  8
0
 62
     5
 10
141.745
 20
133.01599999999999
 30
0.0
 70
    32
  0
VERTEX
  5
10751
  8
0
 62
     5
 10
141.745
 20
133.017
 30
0.0
 70
    32
  0
VERTEX
  5
10752
  8
0
 62
     5
 10
141.745
 20
133.017
 30
0.0
 70
    32
  0
VERTEX
  5
10753
  8
0
 62
     5
 10
141.745
 20
133.017
 30
0.0
 70
    32
  0
VERTEX
  5
10754
  8
0
 62
     5
 10
141.745
 20
133.018
 30
0.0
 70
    32
  0
VERTEX
  5
10755
  8
0
 62
     5
 10
141.745
 20
133.018
 30
0.0
 70
    32
  0
VERTEX
  5
10756
  8
0
 62
     5
 10
141.745
 20
133.01899999999961
 30
0.0
 70
    32
  0
VERTEX
  5
10757
  8
0
 62
     5
 10
141.745
 20
133.01899999999961
 30
0.0
 70
    32
  0
VERTEX
  5
10758
  8
0
 62
     5
 10
141.745
 20
133.02000000000001
 30
0.0
 70
    32
  0
VERTEX
  5
10759
  8
0
 62
     5
 10
141.745
 20
133.02000000000001
 30
0.0
 70
    32
  0
VERTEX
  5
1075A
  8
0
 62
     5
 10
141.745
 20
133.02000000000001
 30
0.0
 70
    32
  0
VERTEX
  5
1075B
  8
0
 62
     5
 10
141.745
 20
133.0209999999999
 30
0.0
 70
    32
  0
VERTEX
  5
1075C
  8
0
 62
     5
 10
141.745
 20
133.0209999999999
 30
0.0
 70
    32
  0
VERTEX
  5
1075D
  8
0
 62
     5
 10
141.745
 20
133.02199999999991
 30
0.0
 70
    32
  0
VERTEX
  5
1075E
  8
0
 62
     5
 10
141.745
 20
133.02199999999991
 30
0.0
 70
    32
  0
SEQEND
  5
1075F
  8
0
 62
     5
  0
ARC
  5
10760
  8
0
 62
     5
 10
141.94525340812439
 20
130.22221999999991
 30
0.0
 40
0.2
 50
180.0
 51
270.0
  0
ARC
  5
10761
  8
0
 62
     5
 10
142.7452534081244
 20
133.02221999999969
 30
0.0
 40
1.0
 50
180.0
 51
270.0
  0
ARC
  5
10762
  8
0
 62
     5
 10
142.7452534081244
 20
140.52221999999969
 30
0.0
 40
1.0
 50
180.0
 51
270.0
  0
ARC
  5
10763
  8
0
 62
     5
 10
142.7452534081244
 20
150.22221999999991
 30
0.0
 40
1.0
 50
180.0
 51
270.0
  0
LINE
  5
10764
  8
0
 62
     5
 10
160.04525340812441
 20
132.6043486449999
 30
0.0
 11
160.04525340812441
 21
138.48171027419991
 31
0.0
  0
LINE
  5
10765
  8
0
 62
     5
 10
160.74525340812431
 20
138.5307072457997
 30
0.0
 11
160.74525340812431
 21
132.53631745049981
 31
0.0
  0
LINE
  5
10766
  8
0
 62
     5
 10
161.2452534081244
 20
132.22221999999991
 30
0.0
 11
161.2452534081244
 21
139.02722302859999
 31
0.0
  0
LINE
  5
10767
  8
0
 62
     5
 10
160.74525340812431
 20
132.6043486449999
 30
0.0
 11
160.04525340812441
 21
132.6043486449999
 31
0.0
  0
LINE
  5
10768
  8
0
 62
     5
 10
161.55690513492439
 20
125.1222199999999
 30
0.0
 11
158.1763400694239
 21
125.1222199999999
 31
0.0
  0
LINE
  5
10769
  8
0
 62
     5
 10
151.85513468962429
 20
124.8222199999996
 30
0.0
 11
158.1763400694239
 21
124.8222199999996
 31
0.0
  0
LINE
  5
1076A
  8
0
 62
     5
 10
151.55790920602411
 20
124.5222199999999
 30
0.0
 11
151.55790920602411
 21
125.1222199999999
 31
0.0
  0
LINE
  5
1076B
  8
0
 62
     5
 10
151.85513468962429
 20
125.1222199999999
 30
0.0
 11
151.85513468962429
 21
124.8222199999996
 31
0.0
  0
LINE
  5
1076C
  8
0
 62
     5
 10
151.85513468962429
 20
124.8222199999996
 30
0.0
 11
151.8082043501243
 21
124.5222199999999
 31
0.0
  0
LINE
  5
1076D
  8
0
 62
     5
 10
150.0772956765243
 20
129.02222
 30
0.0
 11
150.0772956765243
 21
125.1222199999999
 31
0.0
  0
LINE
  5
1076E
  8
0
 62
     5
 10
158.1763400694239
 20
124.8222199999996
 30
0.0
 11
158.1763400694239
 21
125.1222199999999
 31
0.0
  0
LINE
  5
1076F
  8
0
 62
     5
 10
159.37537156182441
 20
124.5222199999999
 30
0.0
 11
159.37537156182441
 21
125.1222199999999
 31
0.0
  0
LINE
  5
10770
  8
0
 62
     5
 10
158.12940972992439
 20
124.5222199999999
 30
0.0
 11
158.1763400694239
 21
124.8222199999996
 31
0.0
  0
LINE
  5
10771
  8
0
 62
     5
 10
159.95417908252401
 20
125.1222199999999
 30
0.0
 11
159.95417908252401
 21
129.02222
 31
0.0
  0
LINE
  5
10772
  8
0
 62
     5
 10
158.1366902731244
 20
135.16574312430001
 30
0.0
 11
158.1366902731244
 21
134.4674442415
 31
0.0
  0
LINE
  5
10773
  8
0
 62
     5
 10
158.1366902731244
 20
135.90128157199999
 30
0.0
 11
158.1366902731244
 21
136.59958045479991
 31
0.0
  0
LINE
  5
10774
  8
0
 62
     5
 10
158.38039164032401
 20
135.81351234819991
 30
0.0
 11
158.38039164032401
 21
135.25351234819999
 31
0.0
  0
LINE
  5
10775
  8
0
 62
     5
 10
158.38039164032401
 20
133.75542348649981
 30
0.0
 11
158.38039164032401
 21
133.73351234819989
 31
0.0
  0
LINE
  5
10776
  8
0
 62
     5
 10
158.38039164032401
 20
135.25351234819999
 30
0.0
 11
158.16068572532441
 21
135.25351234819999
 31
0.0
  0
LINE
  5
10777
  8
0
 62
     5
 10
158.16068572532441
 20
135.81351234819991
 30
0.0
 11
158.38039164032401
 21
135.81351234819991
 31
0.0
  0
ARC
  5
10778
  8
0
 62
     5
 10
160.04525340812441
 20
134.71733587759991
 30
0.0
 40
1.9338235293999959
 50
210.58028737469911
 51
270.0
  0
LINE
  5
10779
  8
0
 62
     5
 10
163.65695359892439
 20
129.02222
 30
0.0
 11
163.65695359892439
 21
130.02221999999961
 31
0.0
  0
LINE
  5
1077A
  8
HIDDEN
 10
169.76696621172439
 20
129.62221999999991
 30
0.0
 11
163.65695359892439
 21
129.62221999999991
 31
0.0
  0
LINE
  5
1077B
  8
0
 62
     5
 10
161.25197940892431
 20
125.1222199999999
 30
0.0
 11
161.25197940892431
 21
124.8222199999996
 31
0.0
  0
LINE
  5
1077C
  8
0
 62
     5
 10
160.9556729068243
 20
124.5222199999999
 30
0.0
 11
161.25197940892431
 21
124.8222199999996
 31
0.0
  0
LINE
  5
1077D
  8
0
 62
     5
 10
161.55695359892431
 20
129.02222
 30
0.0
 11
161.55695359892431
 21
125.1222199999999
 31
0.0
  0
ARC
  5
1077E
  8
0
 62
     5
 10
165.04525340812441
 20
130.22221999999991
 30
0.0
 40
0.2
 50
270.0
 51
0.0
  0
LINE
  5
1077F
  8
0
 62
     5
 10
160.74525340812431
 20
132.53351234819991
 30
0.0
 11
161.2452534081244
 21
132.53351234819991
 31
0.0
  0
ARC
  5
10780
  8
0
 62
     5
 10
161.44525340812439
 20
132.22221999999991
 30
0.0
 40
0.2
 50
180.0
 51
270.0
  0
ARC
  5
10781
  8
0
 62
     5
 10
170.04525340812441
 20
132.22221999999991
 30
0.0
 40
0.2
 50
270.0
 51
0.0
  0
ARC
  5
10782
  8
0
 62
     5
 10
165.94525340812439
 20
132.22221999999991
 30
0.0
 40
0.2
 50
180.0
 51
270.0
  0
LINE
  5
10783
  8
0
 62
     5
 10
165.24525340812431
 20
132.02221999999969
 30
0.0
 11
165.24525340812431
 21
130.22221999999991
 31
0.0
  0
LINE
  5
10784
  8
0
 62
     5
 10
170.04525340812441
 20
132.02221999999969
 30
0.0
 11
165.94525340812439
 21
132.02221999999969
 31
0.0
  0
LINE
  5
10785
  8
0
 62
     5
 10
160.74525340812431
 20
138.48351234819981
 30
0.0
 11
160.04525340812441
 21
138.48351234819981
 31
0.0
  0
LINE
  5
10786
  8
0
 62
     5
 10
158.74525340812431
 20
142.3908491167999
 30
0.0
 11
160.74525340812431
 21
142.3908491167999
 31
0.0
  0
LINE
  5
10787
  8
0
 62
     5
 10
158.2452534081244
 20
142.42427435019991
 30
0.0
 11
158.2452534081244
 21
148.72221999999991
 31
0.0
  0
POLYLINE
  5
10788
  8
0
 62
     5
 66
     1
 10
0.0
 20
0.0
 30
0.0
  0
VERTEX
  5
10DF8
  8
0
 62
     5
 10
158.2452534081244
 20
142.88938324939991
 30
0.0
  0
VERTEX
  5
10DF9
  8
0
 62
     5
 10
158.24632394562431
 20
142.8567775698998
 30
0.0
  0
VERTEX
  5
10DFA
  8
0
 62
     5
 10
158.2495309742244
 20
142.82431151189991
 30
0.0
  0
VERTEX
  5
10DFB
  8
0
 62
     5
 10
158.25486076092409
 20
142.79212409999991
 30
0.0
  0
VERTEX
  5
10DFC
  8
0
 62
     5
 10
158.2622904831243
 20
142.76035316539981
 30
0.0
  0
VERTEX
  5
10DFD
  8
0
 62
     5
 10
158.271788325724
 20
142.7291347561999
 30
0.0
  0
VERTEX
  5
10DFE
  8
0
 62
     5
 10
158.28331361792431
 20
142.69860255409981
 30
0.0
  0
VERTEX
  5
10DFF
  8
0
 62
     5
 10
158.2968170067243
 20
142.66888730269949
 30
0.0
  0
VERTEX
  5
10E00
  8
0
 62
     5
 10
158.31224066902431
 20
142.64011624739979
 30
0.0
  0
VERTEX
  5
10E01
  8
0
 62
     5
 10
158.32951855842441
 20
142.61241259019991
 30
0.0
  0
VERTEX
  5
10E02
  8
0
 62
     5
 10
158.34857668862441
 20
142.58589496249991
 30
0.0
  0
VERTEX
  5
10E03
  8
0
 62
     5
 10
158.369333450124
 20
142.5606769170999
 30
0.0
  0
VERTEX
  5
10E04
  8
0
 62
     5
 10
158.3916999594243
 20
142.53686644149991
 30
0.0
  0
VERTEX
  5
10E05
  8
0
 62
     5
 10
158.41558043982431
 20
142.51456549619991
 30
0.0
  0
VERTEX
  5
10E06
  8
0
 62
     5
 10
158.44087263162439
 20
142.49386957749991
 30
0.0
  0
VERTEX
  5
10E07
  8
0
 62
     5
 10
158.46746822992441
 20
142.4748673085
 30
0.0
  0
VERTEX
  5
10E08
  8
0
 62
     5
 10
158.49525334822431
 20
142.45764006039991
 30
0.0
  0
VERTEX
  5
10E09
  8
0
 62
     5
 10
158.5241090065243
 20
142.4422616029
 30
0.0
  0
VERTEX
  5
10E0A
  8
0
 62
     5
 10
158.5539116403244
 20
142.42879778929981
 30
0.0
  0
VERTEX
  5
10E0B
  8
0
 62
     5
 10
158.5845336301243
 20
142.41730627399991
 30
0.0
  0
VERTEX
  5
10E0C
  8
0
 62
     5
 10
158.61584384772439
 20
142.40783626549981
 30
0.0
  0
VERTEX
  5
10E0D
  8
0
 62
     5
 10
158.6477082177243
 20
142.40042831619999
 30
0.0
  0
VERTEX
  5
10E0E
  8
0
 62
     5
 10
158.67999029192441
 20
142.39511414799989
 30
0.0
  0
VERTEX
  5
10E0F
  8
0
 62
     5
 10
158.7125518332243
 20
142.39191651729951
 30
0.0
  0
VERTEX
  5
10E10
  8
0
 62
     5
 10
158.74525340812431
 20
142.3908491167999
 30
0.0
  0
SEQEND
  5
10E11
  8
0
 62
     5
  0
POLYLINE
  5
107A3
  8
0
 62
     5
 66
     1
 10
0.0
 20
0.0
 30
0.0
 70
     8
  0
VERTEX
  5
107A4
  8
0
 62
     5
 10
158.24600000000001
 20
142.40100000000001
 30
0.0
 70
    32
  0
VERTEX
  5
107A5
  8
0
 62
     5
 10
158.24600000000001
 20
142.40100000000001
 30
0.0
 70
    32
  0
VERTEX
  5
107A6
  8
0
 62
     5
 10
158.24600000000001
 20
142.40199999999979
 30
0.0
 70
    32
  0
VERTEX
  5
107A7
  8
0
 62
     5
 10
158.24600000000001
 20
142.40199999999979
 30
0.0
 70
    32
  0
VERTEX
  5
107A8
  8
0
 62
     5
 10
158.24600000000001
 20
142.40199999999979
 30
0.0
 70
    32
  0
VERTEX
  5
107A9
  8
0
 62
     5
 10
158.24600000000001
 20
142.40199999999979
 30
0.0
 70
    32
  0
VERTEX
  5
107AA
  8
0
 62
     5
 10
158.24600000000001
 20
142.40199999999979
 30
0.0
 70
    32
  0
VERTEX
  5
107AB
  8
0
 62
     5
 10
158.24600000000001
 20
142.40199999999979
 30
0.0
 70
    32
  0
VERTEX
  5
107AC
  8
0
 62
     5
 10
158.24600000000001
 20
142.40199999999979
 30
0.0
 70
    32
  0
VERTEX
  5
107AD
  8
0
 62
     5
 10
158.24600000000001
 20
142.40299999999991
 30
0.0
 70
    32
  0
VERTEX
  5
107AE
  8
0
 62
     5
 10
158.24600000000001
 20
142.40299999999991
 30
0.0
 70
    32
  0
VERTEX
  5
107AF
  8
0
 62
     5
 10
158.24600000000001
 20
142.40299999999991
 30
0.0
 70
    32
  0
VERTEX
  5
107B0
  8
0
 62
     5
 10
158.24600000000001
 20
142.40299999999991
 30
0.0
 70
    32
  0
VERTEX
  5
107B1
  8
0
 62
     5
 10
158.24600000000001
 20
142.40299999999991
 30
0.0
 70
    32
  0
VERTEX
  5
107B2
  8
0
 62
     5
 10
158.24600000000001
 20
142.40299999999991
 30
0.0
 70
    32
  0
VERTEX
  5
107B3
  8
0
 62
     5
 10
158.24600000000001
 20
142.40299999999991
 30
0.0
 70
    32
  0
VERTEX
  5
107B4
  8
0
 62
     5
 10
158.24600000000001
 20
142.40399999999991
 30
0.0
 70
    32
  0
VERTEX
  5
107B5
  8
0
 62
     5
 10
158.24600000000001
 20
142.40399999999991
 30
0.0
 70
    32
  0
VERTEX
  5
107B6
  8
0
 62
     5
 10
158.24600000000001
 20
142.40399999999991
 30
0.0
 70
    32
  0
VERTEX
  5
107B7
  8
0
 62
     5
 10
158.24600000000001
 20
142.40399999999991
 30
0.0
 70
    32
  0
VERTEX
  5
107B8
  8
0
 62
     5
 10
158.24600000000001
 20
142.40399999999991
 30
0.0
 70
    32
  0
VERTEX
  5
107B9
  8
0
 62
     5
 10
158.24600000000001
 20
142.40399999999991
 30
0.0
 70
    32
  0
VERTEX
  5
107BA
  8
0
 62
     5
 10
158.24600000000001
 20
142.40399999999991
 30
0.0
 70
    32
  0
VERTEX
  5
107BB
  8
0
 62
     5
 10
158.24600000000001
 20
142.405
 30
0.0
 70
    32
  0
VERTEX
  5
107BC
  8
0
 62
     5
 10
158.24600000000001
 20
142.405
 30
0.0
 70
    32
  0
VERTEX
  5
107BD
  8
0
 62
     5
 10
158.24600000000001
 20
142.405
 30
0.0
 70
    32
  0
VERTEX
  5
107BE
  8
0
 62
     5
 10
158.24600000000001
 20
142.405
 30
0.0
 70
    32
  0
VERTEX
  5
107BF
  8
0
 62
     5
 10
158.24600000000001
 20
142.405
 30
0.0
 70
    32
  0
VERTEX
  5
107C0
  8
0
 62
     5
 10
158.24600000000001
 20
142.405
 30
0.0
 70
    32
  0
VERTEX
  5
107C1
  8
0
 62
     5
 10
158.24600000000001
 20
142.405
 30
0.0
 70
    32
  0
VERTEX
  5
107C2
  8
0
 62
     5
 10
158.24600000000001
 20
142.40600000000001
 30
0.0
 70
    32
  0
VERTEX
  5
107C3
  8
0
 62
     5
 10
158.24600000000001
 20
142.40600000000001
 30
0.0
 70
    32
  0
VERTEX
  5
107C4
  8
0
 62
     5
 10
158.24600000000001
 20
142.40600000000001
 30
0.0
 70
    32
  0
VERTEX
  5
107C5
  8
0
 62
     5
 10
158.24600000000001
 20
142.40600000000001
 30
0.0
 70
    32
  0
VERTEX
  5
107C6
  8
0
 62
     5
 10
158.24600000000001
 20
142.40600000000001
 30
0.0
 70
    32
  0
VERTEX
  5
107C7
  8
0
 62
     5
 10
158.24600000000001
 20
142.40600000000001
 30
0.0
 70
    32
  0
VERTEX
  5
107C8
  8
0
 62
     5
 10
158.24600000000001
 20
142.40700000000001
 30
0.0
 70
    32
  0
VERTEX
  5
107C9
  8
0
 62
     5
 10
158.24600000000001
 20
142.40700000000001
 30
0.0
 70
    32
  0
VERTEX
  5
107CA
  8
0
 62
     5
 10
158.24600000000001
 20
142.40700000000001
 30
0.0
 70
    32
  0
VERTEX
  5
107CB
  8
0
 62
     5
 10
158.24600000000001
 20
142.40700000000001
 30
0.0
 70
    32
  0
VERTEX
  5
107CC
  8
0
 62
     5
 10
158.24600000000001
 20
142.40700000000001
 30
0.0
 70
    32
  0
VERTEX
  5
107CD
  8
0
 62
     5
 10
158.24600000000001
 20
142.40700000000001
 30
0.0
 70
    32
  0
VERTEX
  5
107CE
  8
0
 62
     5
 10
158.24600000000001
 20
142.40700000000001
 30
0.0
 70
    32
  0
VERTEX
  5
107CF
  8
0
 62
     5
 10
158.245
 20
142.4079999999999
 30
0.0
 70
    32
  0
VERTEX
  5
107D0
  8
0
 62
     5
 10
158.245
 20
142.4079999999999
 30
0.0
 70
    32
  0
VERTEX
  5
107D1
  8
0
 62
     5
 10
158.245
 20
142.4079999999999
 30
0.0
 70
    32
  0
VERTEX
  5
107D2
  8
0
 62
     5
 10
158.245
 20
142.4079999999999
 30
0.0
 70
    32
  0
VERTEX
  5
107D3
  8
0
 62
     5
 10
158.245
 20
142.4079999999999
 30
0.0
 70
    32
  0
VERTEX
  5
107D4
  8
0
 62
     5
 10
158.245
 20
142.4079999999999
 30
0.0
 70
    32
  0
VERTEX
  5
107D5
  8
0
 62
     5
 10
158.245
 20
142.4079999999999
 30
0.0
 70
    32
  0
VERTEX
  5
107D6
  8
0
 62
     5
 10
158.245
 20
142.40899999999991
 30
0.0
 70
    32
  0
VERTEX
  5
107D7
  8
0
 62
     5
 10
158.245
 20
142.40899999999991
 30
0.0
 70
    32
  0
VERTEX
  5
107D8
  8
0
 62
     5
 10
158.245
 20
142.40899999999991
 30
0.0
 70
    32
  0
VERTEX
  5
107D9
  8
0
 62
     5
 10
158.245
 20
142.40899999999991
 30
0.0
 70
    32
  0
VERTEX
  5
107DA
  8
0
 62
     5
 10
158.245
 20
142.40899999999991
 30
0.0
 70
    32
  0
VERTEX
  5
107DB
  8
0
 62
     5
 10
158.245
 20
142.40899999999991
 30
0.0
 70
    32
  0
VERTEX
  5
107DC
  8
0
 62
     5
 10
158.245
 20
142.40899999999991
 30
0.0
 70
    32
  0
VERTEX
  5
107DD
  8
0
 62
     5
 10
158.245
 20
142.40999999999991
 30
0.0
 70
    32
  0
VERTEX
  5
107DE
  8
0
 62
     5
 10
158.245
 20
142.40999999999991
 30
0.0
 70
    32
  0
VERTEX
  5
107DF
  8
0
 62
     5
 10
158.245
 20
142.40999999999991
 30
0.0
 70
    32
  0
VERTEX
  5
107E0
  8
0
 62
     5
 10
158.245
 20
142.40999999999991
 30
0.0
 70
    32
  0
VERTEX
  5
107E1
  8
0
 62
     5
 10
158.245
 20
142.40999999999991
 30
0.0
 70
    32
  0
VERTEX
  5
107E2
  8
0
 62
     5
 10
158.245
 20
142.40999999999991
 30
0.0
 70
    32
  0
VERTEX
  5
107E3
  8
0
 62
     5
 10
158.245
 20
142.40999999999991
 30
0.0
 70
    32
  0
VERTEX
  5
107E4
  8
0
 62
     5
 10
158.245
 20
142.4109999999996
 30
0.0
 70
    32
  0
VERTEX
  5
107E5
  8
0
 62
     5
 10
158.245
 20
142.4109999999996
 30
0.0
 70
    32
  0
VERTEX
  5
107E6
  8
0
 62
     5
 10
158.245
 20
142.4109999999996
 30
0.0
 70
    32
  0
VERTEX
  5
107E7
  8
0
 62
     5
 10
158.245
 20
142.4109999999996
 30
0.0
 70
    32
  0
VERTEX
  5
107E8
  8
0
 62
     5
 10
158.245
 20
142.4109999999996
 30
0.0
 70
    32
  0
VERTEX
  5
107E9
  8
0
 62
     5
 10
158.245
 20
142.4109999999996
 30
0.0
 70
    32
  0
VERTEX
  5
107EA
  8
0
 62
     5
 10
158.245
 20
142.4109999999996
 30
0.0
 70
    32
  0
VERTEX
  5
107EB
  8
0
 62
     5
 10
158.245
 20
142.41200000000001
 30
0.0
 70
    32
  0
VERTEX
  5
107EC
  8
0
 62
     5
 10
158.245
 20
142.41200000000001
 30
0.0
 70
    32
  0
VERTEX
  5
107ED
  8
0
 62
     5
 10
158.245
 20
142.41200000000001
 30
0.0
 70
    32
  0
VERTEX
  5
107EE
  8
0
 62
     5
 10
158.245
 20
142.41200000000001
 30
0.0
 70
    32
  0
VERTEX
  5
107EF
  8
0
 62
     5
 10
158.245
 20
142.41200000000001
 30
0.0
 70
    32
  0
VERTEX
  5
107F0
  8
0
 62
     5
 10
158.245
 20
142.41200000000001
 30
0.0
 70
    32
  0
VERTEX
  5
107F1
  8
0
 62
     5
 10
158.245
 20
142.41200000000001
 30
0.0
 70
    32
  0
VERTEX
  5
107F2
  8
0
 62
     5
 10
158.245
 20
142.4129999999999
 30
0.0
 70
    32
  0
VERTEX
  5
107F3
  8
0
 62
     5
 10
158.245
 20
142.4129999999999
 30
0.0
 70
    32
  0
VERTEX
  5
107F4
  8
0
 62
     5
 10
158.245
 20
142.4129999999999
 30
0.0
 70
    32
  0
VERTEX
  5
107F5
  8
0
 62
     5
 10
158.245
 20
142.4129999999999
 30
0.0
 70
    32
  0
VERTEX
  5
107F6
  8
0
 62
     5
 10
158.245
 20
142.4129999999999
 30
0.0
 70
    32
  0
VERTEX
  5
107F7
  8
0
 62
     5
 10
158.245
 20
142.4129999999999
 30
0.0
 70
    32
  0
VERTEX
  5
107F8
  8
0
 62
     5
 10
158.245
 20
142.4129999999999
 30
0.0
 70
    32
  0
VERTEX
  5
107F9
  8
0
 62
     5
 10
158.245
 20
142.4139999999999
 30
0.0
 70
    32
  0
VERTEX
  5
107FA
  8
0
 62
     5
 10
158.245
 20
142.4139999999999
 30
0.0
 70
    32
  0
VERTEX
  5
107FB
  8
0
 62
     5
 10
158.245
 20
142.4139999999999
 30
0.0
 70
    32
  0
VERTEX
  5
107FC
  8
0
 62
     5
 10
158.245
 20
142.4139999999999
 30
0.0
 70
    32
  0
VERTEX
  5
107FD
  8
0
 62
     5
 10
158.245
 20
142.4139999999999
 30
0.0
 70
    32
  0
VERTEX
  5
107FE
  8
0
 62
     5
 10
158.245
 20
142.4139999999999
 30
0.0
 70
    32
  0
VERTEX
  5
107FF
  8
0
 62
     5
 10
158.245
 20
142.4139999999999
 30
0.0
 70
    32
  0
VERTEX
  5
10800
  8
0
 62
     5
 10
158.245
 20
142.41499999999999
 30
0.0
 70
    32
  0
VERTEX
  5
10801
  8
0
 62
     5
 10
158.245
 20
142.41499999999999
 30
0.0
 70
    32
  0
VERTEX
  5
10802
  8
0
 62
     5
 10
158.245
 20
142.41499999999999
 30
0.0
 70
    32
  0
VERTEX
  5
10803
  8
0
 62
     5
 10
158.245
 20
142.41499999999999
 30
0.0
 70
    32
  0
VERTEX
  5
10804
  8
0
 62
     5
 10
158.245
 20
142.41499999999999
 30
0.0
 70
    32
  0
VERTEX
  5
10805
  8
0
 62
     5
 10
158.245
 20
142.41499999999999
 30
0.0
 70
    32
  0
VERTEX
  5
10806
  8
0
 62
     5
 10
158.245
 20
142.41499999999999
 30
0.0
 70
    32
  0
VERTEX
  5
10807
  8
0
 62
     5
 10
158.245
 20
142.416
 30
0.0
 70
    32
  0
VERTEX
  5
10808
  8
0
 62
     5
 10
158.245
 20
142.416
 30
0.0
 70
    32
  0
VERTEX
  5
10809
  8
0
 62
     5
 10
158.245
 20
142.416
 30
0.0
 70
    32
  0
VERTEX
  5
1080A
  8
0
 62
     5
 10
158.245
 20
142.416
 30
0.0
 70
    32
  0
VERTEX
  5
1080B
  8
0
 62
     5
 10
158.245
 20
142.416
 30
0.0
 70
    32
  0
VERTEX
  5
1080C
  8
0
 62
     5
 10
158.245
 20
142.416
 30
0.0
 70
    32
  0
VERTEX
  5
1080D
  8
0
 62
     5
 10
158.245
 20
142.416
 30
0.0
 70
    32
  0
VERTEX
  5
1080E
  8
0
 62
     5
 10
158.245
 20
142.4169999999998
 30
0.0
 70
    32
  0
VERTEX
  5
1080F
  8
0
 62
     5
 10
158.245
 20
142.4169999999998
 30
0.0
 70
    32
  0
VERTEX
  5
10810
  8
0
 62
     5
 10
158.245
 20
142.4169999999998
 30
0.0
 70
    32
  0
VERTEX
  5
10811
  8
0
 62
     5
 10
158.245
 20
142.4169999999998
 30
0.0
 70
    32
  0
VERTEX
  5
10812
  8
0
 62
     5
 10
158.245
 20
142.4169999999998
 30
0.0
 70
    32
  0
VERTEX
  5
10813
  8
0
 62
     5
 10
158.245
 20
142.4169999999998
 30
0.0
 70
    32
  0
VERTEX
  5
10814
  8
0
 62
     5
 10
158.245
 20
142.4169999999998
 30
0.0
 70
    32
  0
VERTEX
  5
10815
  8
0
 62
     5
 10
158.245
 20
142.41799999999981
 30
0.0
 70
    32
  0
VERTEX
  5
10816
  8
0
 62
     5
 10
158.245
 20
142.41799999999981
 30
0.0
 70
    32
  0
VERTEX
  5
10817
  8
0
 62
     5
 10
158.245
 20
142.41799999999981
 30
0.0
 70
    32
  0
VERTEX
  5
10818
  8
0
 62
     5
 10
158.245
 20
142.41799999999981
 30
0.0
 70
    32
  0
VERTEX
  5
10819
  8
0
 62
     5
 10
158.245
 20
142.41799999999981
 30
0.0
 70
    32
  0
VERTEX
  5
1081A
  8
0
 62
     5
 10
158.245
 20
142.41799999999981
 30
0.0
 70
    32
  0
VERTEX
  5
1081B
  8
0
 62
     5
 10
158.245
 20
142.41799999999981
 30
0.0
 70
    32
  0
VERTEX
  5
1081C
  8
0
 62
     5
 10
158.245
 20
142.41899999999981
 30
0.0
 70
    32
  0
VERTEX
  5
1081D
  8
0
 62
     5
 10
158.245
 20
142.41899999999981
 30
0.0
 70
    32
  0
VERTEX
  5
1081E
  8
0
 62
     5
 10
158.245
 20
142.41899999999981
 30
0.0
 70
    32
  0
VERTEX
  5
1081F
  8
0
 62
     5
 10
158.245
 20
142.41899999999981
 30
0.0
 70
    32
  0
VERTEX
  5
10820
  8
0
 62
     5
 10
158.245
 20
142.41899999999981
 30
0.0
 70
    32
  0
VERTEX
  5
10821
  8
0
 62
     5
 10
158.245
 20
142.41899999999981
 30
0.0
 70
    32
  0
VERTEX
  5
10822
  8
0
 62
     5
 10
158.245
 20
142.4199999999999
 30
0.0
 70
    32
  0
VERTEX
  5
10823
  8
0
 62
     5
 10
158.245
 20
142.4199999999999
 30
0.0
 70
    32
  0
VERTEX
  5
10824
  8
0
 62
     5
 10
158.245
 20
142.4199999999999
 30
0.0
 70
    32
  0
VERTEX
  5
10825
  8
0
 62
     5
 10
158.245
 20
142.4199999999999
 30
0.0
 70
    32
  0
VERTEX
  5
10826
  8
0
 62
     5
 10
158.245
 20
142.4199999999999
 30
0.0
 70
    32
  0
VERTEX
  5
10827
  8
0
 62
     5
 10
158.245
 20
142.4199999999999
 30
0.0
 70
    32
  0
VERTEX
  5
10828
  8
0
 62
     5
 10
158.245
 20
142.4199999999999
 30
0.0
 70
    32
  0
VERTEX
  5
10829
  8
0
 62
     5
 10
158.245
 20
142.42099999999991
 30
0.0
 70
    32
  0
VERTEX
  5
1082A
  8
0
 62
     5
 10
158.245
 20
142.42099999999991
 30
0.0
 70
    32
  0
VERTEX
  5
1082B
  8
0
 62
     5
 10
158.245
 20
142.42099999999991
 30
0.0
 70
    32
  0
VERTEX
  5
1082C
  8
0
 62
     5
 10
158.245
 20
142.42099999999991
 30
0.0
 70
    32
  0
VERTEX
  5
1082D
  8
0
 62
     5
 10
158.245
 20
142.42099999999991
 30
0.0
 70
    32
  0
VERTEX
  5
1082E
  8
0
 62
     5
 10
158.245
 20
142.42099999999991
 30
0.0
 70
    32
  0
VERTEX
  5
1082F
  8
0
 62
     5
 10
158.245
 20
142.42099999999991
 30
0.0
 70
    32
  0
VERTEX
  5
10830
  8
0
 62
     5
 10
158.245
 20
142.422
 30
0.0
 70
    32
  0
VERTEX
  5
10831
  8
0
 62
     5
 10
158.245
 20
142.422
 30
0.0
 70
    32
  0
VERTEX
  5
10832
  8
0
 62
     5
 10
158.245
 20
142.422
 30
0.0
 70
    32
  0
VERTEX
  5
10833
  8
0
 62
     5
 10
158.245
 20
142.422
 30
0.0
 70
    32
  0
VERTEX
  5
10834
  8
0
 62
     5
 10
158.245
 20
142.422
 30
0.0
 70
    32
  0
VERTEX
  5
10835
  8
0
 62
     5
 10
158.245
 20
142.422
 30
0.0
 70
    32
  0
VERTEX
  5
10836
  8
0
 62
     5
 10
158.245
 20
142.422
 30
0.0
 70
    32
  0
VERTEX
  5
10837
  8
0
 62
     5
 10
158.245
 20
142.423
 30
0.0
 70
    32
  0
VERTEX
  5
10838
  8
0
 62
     5
 10
158.245
 20
142.423
 30
0.0
 70
    32
  0
VERTEX
  5
10839
  8
0
 62
     5
 10
158.245
 20
142.423
 30
0.0
 70
    32
  0
VERTEX
  5
1083A
  8
0
 62
     5
 10
158.245
 20
142.423
 30
0.0
 70
    32
  0
VERTEX
  5
1083B
  8
0
 62
     5
 10
158.245
 20
142.423
 30
0.0
 70
    32
  0
VERTEX
  5
1083C
  8
0
 62
     5
 10
158.245
 20
142.423
 30
0.0
 70
    32
  0
VERTEX
  5
1083D
  8
0
 62
     5
 10
158.245
 20
142.423
 30
0.0
 70
    32
  0
VERTEX
  5
1083E
  8
0
 62
     5
 10
158.245
 20
142.42400000000001
 30
0.0
 70
    32
  0
VERTEX
  5
1083F
  8
0
 62
     5
 10
158.245
 20
142.42400000000001
 30
0.0
 70
    32
  0
VERTEX
  5
10840
  8
0
 62
     5
 10
158.245
 20
142.42400000000001
 30
0.0
 70
    32
  0
VERTEX
  5
10841
  8
0
 62
     5
 10
158.245
 20
142.42400000000001
 30
0.0
 70
    32
  0
VERTEX
  5
10842
  8
0
 62
     5
 10
158.245
 20
142.42400000000001
 30
0.0
 70
    32
  0
VERTEX
  5
10843
  8
0
 62
     5
 10
158.245
 20
142.42400000000001
 30
0.0
 70
    32
  0
SEQEND
  5
10844
  8
0
 62
     5
  0
LINE
  5
10845
  8
0
 62
     5
 10
158.38039164032401
 20
137.3335123482
 30
0.0
 11
158.38039164032401
 21
137.3116012097999
 31
0.0
  0
ARC
  5
10846
  8
0
 62
     5
 10
160.04525340812441
 20
136.34968881869949
 30
0.0
 40
1.9338235293999959
 50
90.0
 51
149.4197126253006
  0
LINE
  5
10847
  8
0
 62
     5
 10
158.24570017112401
 20
142.4013031107998
 30
0.0
 11
157.7461469296243
 21
142.3807757797999
 31
0.0
  0
ARC
  5
10848
  8
0
 62
     5
 10
157.7452534081244
 20
148.72221999999991
 30
0.0
 40
0.5
 50
0.0
 51
90.0
  0
LINE
  5
10849
  8
0
 62
     5
 10
161.2452534081244
 20
148.9222199999999
 30
0.0
 11
161.2452534081244
 21
142.37162613389981
 31
0.0
  0
LINE
  5
1084A
  8
0
 62
     5
 10
165.04525340812441
 20
142.7970946211999
 30
0.0
 11
165.04525340812441
 21
148.67445625039991
 31
0.0
  0
LINE
  5
1084B
  8
0
 62
     5
 10
165.7452534081244
 20
142.7970946211999
 30
0.0
 11
165.04525340812441
 21
142.7970946211999
 31
0.0
  0
LINE
  5
1084C
  8
0
 62
     5
 10
161.2452534081244
 20
142.3807757797999
 30
0.0
 11
165.7452534081244
 21
142.3807757797999
 31
0.0
  0
LINE
  5
1084D
  8
0
 62
     5
 10
163.2941423884244
 20
143.8762583242999
 30
0.0
 11
163.34961299902389
 21
143.6845924574998
 31
0.0
  0
LINE
  5
1084E
  8
0
 62
     5
 10
163.2941423884244
 20
143.89757026999979
 30
0.0
 11
163.2941423884244
 21
143.8762583242999
 31
0.0
  0
LINE
  5
1084F
  8
0
 62
     5
 10
164.3061330274239
 20
142.97625832429981
 30
0.0
 11
165.04525340812441
 21
142.97625832429981
 31
0.0
  0
LINE
  5
10850
  8
0
 62
     5
 10
160.74525340812431
 20
138.53351234819991
 30
0.0
 11
160.74525340812431
 21
139.52555535239961
 31
0.0
  0
POLYLINE
  5
10851
  8
0
 62
     5
 66
     1
 10
0.0
 20
0.0
 30
0.0
  0
VERTEX
  5
10E12
  8
0
 62
     5
 10
161.2452534081244
 20
142.88938324939991
 30
0.0
  0
VERTEX
  5
10E13
  8
0
 62
     5
 10
161.24418286972431
 20
142.8567775570998
 30
0.0
  0
VERTEX
  5
10E14
  8
0
 62
     5
 10
161.2409758388244
 20
142.8243114874
 30
0.0
  0
VERTEX
  5
10E15
  8
0
 62
     5
 10
161.2356460483243
 20
142.79212406490001
 30
0.0
  0
VERTEX
  5
10E16
  8
0
 62
     5
 10
161.22821632122441
 20
142.7603531212998
 30
0.0
  0
VERTEX
  5
10E17
  8
0
 62
     5
 10
161.21871847282409
 20
142.7291347044
 30
0.0
  0
VERTEX
  5
10E18
  8
0
 62
     5
 10
161.2071931744243
 20
142.6986024963999
 30
0.0
  0
VERTEX
  5
10E19
  8
0
 62
     5
 10
161.19368977892441
 20
142.66888724090001
 30
0.0
  0
VERTEX
  5
10E1A
  8
0
 62
     5
 10
161.1782661100244
 20
142.64011618309991
 30
0.0
  0
VERTEX
  5
10E1B
  8
0
 62
     5
 10
161.16098821432431
 20
142.6124125252
 30
0.0
  0
VERTEX
  5
10E1C
  8
0
 62
     5
 10
161.14193007822431
 20
142.58589489839991
 30
0.0
  0
VERTEX
  5
10E1D
  8
0
 62
     5
 10
161.12117331182441
 20
142.5606768554
 30
0.0
  0
VERTEX
  5
10E1E
  8
0
 62
     5
 10
161.09880679872441
 20
142.5368663835998
 30
0.0
  0
VERTEX
  5
10E1F
  8
0
 62
     5
 10
161.0749263157243
 20
142.51456544309991
 30
0.0
  0
VERTEX
  5
10E20
  8
0
 62
     5
 10
161.04963412262441
 20
142.49386953000001
 30
0.0
  0
VERTEX
  5
10E21
  8
0
 62
     5
 10
161.02303852462401
 20
142.47486726739999
 30
0.0
  0
VERTEX
  5
10E22
  8
0
 62
     5
 10
160.99525340812431
 20
142.45764002589999
 30
0.0
  0
VERTEX
  5
10E23
  8
0
 62
     5
 10
160.9663977532243
 20
142.44226157509991
 30
0.0
  0
VERTEX
  5
10E24
  8
0
 62
     5
 10
160.9365951243243
 20
142.42879776799981
 30
0.0
  0
VERTEX
  5
10E25
  8
0
 62
     5
 10
160.90597314082439
 20
142.41730625859981
 30
0.0
  0
VERTEX
  5
10E26
  8
0
 62
     5
 10
160.87466293072441
 20
142.40783625540001
 30
0.0
  0
VERTEX
  5
10E27
  8
0
 62
     5
 10
160.8427985691244
 20
142.40042831029999
 30
0.0
  0
VERTEX
  5
10E28
  8
0
 62
     5
 10
160.8105165042243
 20
142.3951141453999
 30
0.0
  0
VERTEX
  5
10E29
  8
0
 62
     5
 10
160.77795497272439
 20
142.39191651659979
 30
0.0
  0
VERTEX
  5
10E2A
  8
0
 62
     5
 10
160.74525340812431
 20
142.3908491167999
 30
0.0
  0
SEQEND
  5
10E2B
  8
0
 62
     5
  0
LINE
  5
1086C
  8
0
 62
     5
 10
160.74525340812431
 20
138.53351234819991
 30
0.0
 11
161.2452534081244
 21
138.53351234819991
 31
0.0
  0
ARC
  5
1086D
  8
0
 62
     5
 10
160.74525340812431
 20
139.02221999999961
 30
0.0
 40
0.5
 50
0.0
 51
90.0
  0
POLYLINE
  5
1086E
  8
0
 62
     5
 66
     1
 10
0.0
 20
0.0
 30
0.0
 70
     8
  0
VERTEX
  5
1086F
  8
0
 62
     5
 10
161.5449999999999
 20
142.374
 30
0.0
 70
    32
  0
VERTEX
  5
10870
  8
0
 62
     5
 10
161.5449999999999
 20
142.374
 30
0.0
 70
    32
  0
VERTEX
  5
10871
  8
0
 62
     5
 10
161.5439999999999
 20
142.374
 30
0.0
 70
    32
  0
VERTEX
  5
10872
  8
0
 62
     5
 10
161.54300000000001
 20
142.374
 30
0.0
 70
    32
  0
VERTEX
  5
10873
  8
0
 62
     5
 10
161.54300000000001
 20
142.374
 30
0.0
 70
    32
  0
VERTEX
  5
10874
  8
0
 62
     5
 10
161.542
 20
142.374
 30
0.0
 70
    32
  0
VERTEX
  5
10875
  8
0
 62
     5
 10
161.54099999999991
 20
142.374
 30
0.0
 70
    32
  0
VERTEX
  5
10876
  8
0
 62
     5
 10
161.54099999999991
 20
142.374
 30
0.0
 70
    32
  0
VERTEX
  5
10877
  8
0
 62
     5
 10
161.53999999999991
 20
142.374
 30
0.0
 70
    32
  0
VERTEX
  5
10878
  8
0
 62
     5
 10
161.53899999999979
 20
142.374
 30
0.0
 70
    32
  0
VERTEX
  5
10879
  8
0
 62
     5
 10
161.53899999999979
 20
142.374
 30
0.0
 70
    32
  0
VERTEX
  5
1087A
  8
0
 62
     5
 10
161.53799999999981
 20
142.374
 30
0.0
 70
    32
  0
VERTEX
  5
1087B
  8
0
 62
     5
 10
161.53700000000001
 20
142.374
 30
0.0
 70
    32
  0
VERTEX
  5
1087C
  8
0
 62
     5
 10
161.53700000000001
 20
142.374
 30
0.0
 70
    32
  0
VERTEX
  5
1087D
  8
0
 62
     5
 10
161.536
 20
142.374
 30
0.0
 70
    32
  0
VERTEX
  5
1087E
  8
0
 62
     5
 10
161.535
 20
142.374
 30
0.0
 70
    32
  0
VERTEX
  5
1087F
  8
0
 62
     5
 10
161.535
 20
142.374
 30
0.0
 70
    32
  0
VERTEX
  5
10880
  8
0
 62
     5
 10
161.53399999999991
 20
142.374
 30
0.0
 70
    32
  0
VERTEX
  5
10881
  8
0
 62
     5
 10
161.5329999999999
 20
142.374
 30
0.0
 70
    32
  0
VERTEX
  5
10882
  8
0
 62
     5
 10
161.5329999999999
 20
142.374
 30
0.0
 70
    32
  0
VERTEX
  5
10883
  8
0
 62
     5
 10
161.53200000000001
 20
142.374
 30
0.0
 70
    32
  0
VERTEX
  5
10884
  8
0
 62
     5
 10
161.53100000000001
 20
142.374
 30
0.0
 70
    32
  0
VERTEX
  5
10885
  8
0
 62
     5
 10
161.53100000000001
 20
142.374
 30
0.0
 70
    32
  0
VERTEX
  5
10886
  8
0
 62
     5
 10
161.5299999999996
 20
142.374
 30
0.0
 70
    32
  0
VERTEX
  5
10887
  8
0
 62
     5
 10
161.52899999999991
 20
142.374
 30
0.0
 70
    32
  0
VERTEX
  5
10888
  8
0
 62
     5
 10
161.52899999999991
 20
142.374
 30
0.0
 70
    32
  0
VERTEX
  5
10889
  8
0
 62
     5
 10
161.52799999999999
 20
142.374
 30
0.0
 70
    32
  0
VERTEX
  5
1088A
  8
0
 62
     5
 10
161.5269999999999
 20
142.374
 30
0.0
 70
    32
  0
VERTEX
  5
1088B
  8
0
 62
     5
 10
161.5269999999999
 20
142.374
 30
0.0
 70
    32
  0
VERTEX
  5
1088C
  8
0
 62
     5
 10
161.52600000000001
 20
142.374
 30
0.0
 70
    32
  0
VERTEX
  5
1088D
  8
0
 62
     5
 10
161.52500000000001
 20
142.374
 30
0.0
 70
    32
  0
VERTEX
  5
1088E
  8
0
 62
     5
 10
161.524
 20
142.374
 30
0.0
 70
    32
  0
VERTEX
  5
1088F
  8
0
 62
     5
 10
161.524
 20
142.374
 30
0.0
 70
    32
  0
VERTEX
  5
10890
  8
0
 62
     5
 10
161.52299999999991
 20
142.374
 30
0.0
 70
    32
  0
VERTEX
  5
10891
  8
0
 62
     5
 10
161.52199999999979
 20
142.374
 30
0.0
 70
    32
  0
VERTEX
  5
10892
  8
0
 62
     5
 10
161.52199999999979
 20
142.374
 30
0.0
 70
    32
  0
VERTEX
  5
10893
  8
0
 62
     5
 10
161.5209999999999
 20
142.374
 30
0.0
 70
    32
  0
VERTEX
  5
10894
  8
0
 62
     5
 10
161.52000000000001
 20
142.374
 30
0.0
 70
    32
  0
VERTEX
  5
10895
  8
0
 62
     5
 10
161.52000000000001
 20
142.374
 30
0.0
 70
    32
  0
VERTEX
  5
10896
  8
0
 62
     5
 10
161.51900000000001
 20
142.374
 30
0.0
 70
    32
  0
VERTEX
  5
10897
  8
0
 62
     5
 10
161.518
 20
142.374
 30
0.0
 70
    32
  0
VERTEX
  5
10898
  8
0
 62
     5
 10
161.518
 20
142.374
 30
0.0
 70
    32
  0
VERTEX
  5
10899
  8
0
 62
     5
 10
161.51699999999991
 20
142.374
 30
0.0
 70
    32
  0
VERTEX
  5
1089A
  8
0
 62
     5
 10
161.51599999999991
 20
142.374
 30
0.0
 70
    32
  0
VERTEX
  5
1089B
  8
0
 62
     5
 10
161.51599999999991
 20
142.374
 30
0.0
 70
    32
  0
VERTEX
  5
1089C
  8
0
 62
     5
 10
161.51499999999979
 20
142.374
 30
0.0
 70
    32
  0
VERTEX
  5
1089D
  8
0
 62
     5
 10
161.51400000000001
 20
142.374
 30
0.0
 70
    32
  0
VERTEX
  5
1089E
  8
0
 62
     5
 10
161.51400000000001
 20
142.374
 30
0.0
 70
    32
  0
VERTEX
  5
1089F
  8
0
 62
     5
 10
161.51300000000001
 20
142.374
 30
0.0
 70
    32
  0
VERTEX
  5
108A0
  8
0
 62
     5
 10
161.512
 20
142.374
 30
0.0
 70
    32
  0
VERTEX
  5
108A1
  8
0
 62
     5
 10
161.512
 20
142.374
 30
0.0
 70
    32
  0
VERTEX
  5
108A2
  8
0
 62
     5
 10
161.511
 20
142.374
 30
0.0
 70
    32
  0
VERTEX
  5
108A3
  8
0
 62
     5
 10
161.50999999999991
 20
142.374
 30
0.0
 70
    32
  0
VERTEX
  5
108A4
  8
0
 62
     5
 10
161.50999999999991
 20
142.374
 30
0.0
 70
    32
  0
VERTEX
  5
108A5
  8
0
 62
     5
 10
161.5089999999999
 20
142.374
 30
0.0
 70
    32
  0
VERTEX
  5
108A6
  8
0
 62
     5
 10
161.50799999999981
 20
142.374
 30
0.0
 70
    32
  0
VERTEX
  5
108A7
  8
0
 62
     5
 10
161.50799999999981
 20
142.374
 30
0.0
 70
    32
  0
VERTEX
  5
108A8
  8
0
 62
     5
 10
161.50700000000001
 20
142.374
 30
0.0
 70
    32
  0
VERTEX
  5
108A9
  8
0
 62
     5
 10
161.5059999999996
 20
142.374
 30
0.0
 70
    32
  0
VERTEX
  5
108AA
  8
0
 62
     5
 10
161.5059999999996
 20
142.374
 30
0.0
 70
    32
  0
VERTEX
  5
108AB
  8
0
 62
     5
 10
161.505
 20
142.374
 30
0.0
 70
    32
  0
VERTEX
  5
108AC
  8
0
 62
     5
 10
161.50399999999999
 20
142.374
 30
0.0
 70
    32
  0
VERTEX
  5
108AD
  8
0
 62
     5
 10
161.50399999999999
 20
142.374
 30
0.0
 70
    32
  0
VERTEX
  5
108AE
  8
0
 62
     5
 10
161.5029999999999
 20
142.374
 30
0.0
 70
    32
  0
VERTEX
  5
108AF
  8
0
 62
     5
 10
161.50200000000001
 20
142.374
 30
0.0
 70
    32
  0
VERTEX
  5
108B0
  8
0
 62
     5
 10
161.50200000000001
 20
142.374
 30
0.0
 70
    32
  0
VERTEX
  5
108B1
  8
0
 62
     5
 10
161.501
 20
142.374
 30
0.0
 70
    32
  0
VERTEX
  5
108B2
  8
0
 62
     5
 10
161.5
 20
142.374
 30
0.0
 70
    32
  0
VERTEX
  5
108B3
  8
0
 62
     5
 10
161.5
 20
142.374
 30
0.0
 70
    32
  0
VERTEX
  5
108B4
  8
0
 62
     5
 10
161.49899999999971
 20
142.374
 30
0.0
 70
    32
  0
VERTEX
  5
108B5
  8
0
 62
     5
 10
161.49799999999991
 20
142.374
 30
0.0
 70
    32
  0
VERTEX
  5
108B6
  8
0
 62
     5
 10
161.49799999999991
 20
142.374
 30
0.0
 70
    32
  0
VERTEX
  5
108B7
  8
0
 62
     5
 10
161.49700000000001
 20
142.374
 30
0.0
 70
    32
  0
VERTEX
  5
108B8
  8
0
 62
     5
 10
161.49600000000001
 20
142.374
 30
0.0
 70
    32
  0
VERTEX
  5
108B9
  8
0
 62
     5
 10
161.49600000000001
 20
142.374
 30
0.0
 70
    32
  0
VERTEX
  5
108BA
  8
0
 62
     5
 10
161.495
 20
142.374
 30
0.0
 70
    32
  0
VERTEX
  5
108BB
  8
0
 62
     5
 10
161.4939999999998
 20
142.374
 30
0.0
 70
    32
  0
VERTEX
  5
108BC
  8
0
 62
     5
 10
161.4939999999998
 20
142.374
 30
0.0
 70
    32
  0
VERTEX
  5
108BD
  8
0
 62
     5
 10
161.49299999999999
 20
142.374
 30
0.0
 70
    32
  0
VERTEX
  5
108BE
  8
0
 62
     5
 10
161.49199999999979
 20
142.374
 30
0.0
 70
    32
  0
VERTEX
  5
108BF
  8
0
 62
     5
 10
161.49199999999979
 20
142.374
 30
0.0
 70
    32
  0
VERTEX
  5
108C0
  8
0
 62
     5
 10
161.49100000000001
 20
142.374
 30
0.0
 70
    32
  0
VERTEX
  5
108C1
  8
0
 62
     5
 10
161.49000000000001
 20
142.374
 30
0.0
 70
    32
  0
VERTEX
  5
108C2
  8
0
 62
     5
 10
161.49000000000001
 20
142.374
 30
0.0
 70
    32
  0
VERTEX
  5
108C3
  8
0
 62
     5
 10
161.489
 20
142.374
 30
0.0
 70
    32
  0
VERTEX
  5
108C4
  8
0
 62
     5
 10
161.488
 20
142.374
 30
0.0
 70
    32
  0
VERTEX
  5
108C5
  8
0
 62
     5
 10
161.488
 20
142.374
 30
0.0
 70
    32
  0
VERTEX
  5
108C6
  8
0
 62
     5
 10
161.48699999999991
 20
142.374
 30
0.0
 70
    32
  0
VERTEX
  5
108C7
  8
0
 62
     5
 10
161.48599999999999
 20
142.374
 30
0.0
 70
    32
  0
VERTEX
  5
108C8
  8
0
 62
     5
 10
161.48599999999999
 20
142.374
 30
0.0
 70
    32
  0
VERTEX
  5
108C9
  8
0
 62
     5
 10
161.48500000000001
 20
142.374
 30
0.0
 70
    32
  0
VERTEX
  5
108CA
  8
0
 62
     5
 10
161.48400000000001
 20
142.374
 30
0.0
 70
    32
  0
VERTEX
  5
108CB
  8
0
 62
     5
 10
161.48400000000001
 20
142.374
 30
0.0
 70
    32
  0
VERTEX
  5
108CC
  8
0
 62
     5
 10
161.48299999999961
 20
142.374
 30
0.0
 70
    32
  0
VERTEX
  5
108CD
  8
0
 62
     5
 10
161.48199999999991
 20
142.374
 30
0.0
 70
    32
  0
VERTEX
  5
108CE
  8
0
 62
     5
 10
161.48199999999991
 20
142.374
 30
0.0
 70
    32
  0
VERTEX
  5
108CF
  8
0
 62
     5
 10
161.48099999999999
 20
142.374
 30
0.0
 70
    32
  0
VERTEX
  5
108D0
  8
0
 62
     5
 10
161.4799999999999
 20
142.374
 30
0.0
 70
    32
  0
VERTEX
  5
108D1
  8
0
 62
     5
 10
161.4799999999999
 20
142.374
 30
0.0
 70
    32
  0
VERTEX
  5
108D2
  8
0
 62
     5
 10
161.4789999999999
 20
142.374
 30
0.0
 70
    32
  0
VERTEX
  5
108D3
  8
0
 62
     5
 10
161.47799999999981
 20
142.374
 30
0.0
 70
    32
  0
VERTEX
  5
108D4
  8
0
 62
     5
 10
161.47799999999981
 20
142.374
 30
0.0
 70
    32
  0
VERTEX
  5
108D5
  8
0
 62
     5
 10
161.477
 20
142.374
 30
0.0
 70
    32
  0
VERTEX
  5
108D6
  8
0
 62
     5
 10
161.47599999999991
 20
142.374
 30
0.0
 70
    32
  0
VERTEX
  5
108D7
  8
0
 62
     5
 10
161.47599999999991
 20
142.374
 30
0.0
 70
    32
  0
VERTEX
  5
108D8
  8
0
 62
     5
 10
161.47499999999991
 20
142.374
 30
0.0
 70
    32
  0
VERTEX
  5
108D9
  8
0
 62
     5
 10
161.4739999999999
 20
142.374
 30
0.0
 70
    32
  0
VERTEX
  5
108DA
  8
0
 62
     5
 10
161.4739999999999
 20
142.374
 30
0.0
 70
    32
  0
VERTEX
  5
108DB
  8
0
 62
     5
 10
161.4729999999999
 20
142.374
 30
0.0
 70
    32
  0
VERTEX
  5
108DC
  8
0
 62
     5
 10
161.47200000000001
 20
142.374
 30
0.0
 70
    32
  0
VERTEX
  5
108DD
  8
0
 62
     5
 10
161.47200000000001
 20
142.374
 30
0.0
 70
    32
  0
VERTEX
  5
108DE
  8
0
 62
     5
 10
161.471
 20
142.374
 30
0.0
 70
    32
  0
VERTEX
  5
108DF
  8
0
 62
     5
 10
161.47
 20
142.374
 30
0.0
 70
    32
  0
VERTEX
  5
108E0
  8
0
 62
     5
 10
161.47
 20
142.374
 30
0.0
 70
    32
  0
VERTEX
  5
108E1
  8
0
 62
     5
 10
161.46899999999991
 20
142.374
 30
0.0
 70
    32
  0
VERTEX
  5
108E2
  8
0
 62
     5
 10
161.4679999999999
 20
142.374
 30
0.0
 70
    32
  0
VERTEX
  5
108E3
  8
0
 62
     5
 10
161.4679999999999
 20
142.374
 30
0.0
 70
    32
  0
VERTEX
  5
108E4
  8
0
 62
     5
 10
161.46700000000001
 20
142.374
 30
0.0
 70
    32
  0
VERTEX
  5
108E5
  8
0
 62
     5
 10
161.46600000000001
 20
142.374
 30
0.0
 70
    32
  0
VERTEX
  5
108E6
  8
0
 62
     5
 10
161.46600000000001
 20
142.374
 30
0.0
 70
    32
  0
VERTEX
  5
108E7
  8
0
 62
     5
 10
161.465
 20
142.374
 30
0.0
 70
    32
  0
VERTEX
  5
108E8
  8
0
 62
     5
 10
161.464
 20
142.374
 30
0.0
 70
    32
  0
VERTEX
  5
108E9
  8
0
 62
     5
 10
161.464
 20
142.374
 30
0.0
 70
    32
  0
VERTEX
  5
108EA
  8
0
 62
     5
 10
161.46299999999999
 20
142.374
 30
0.0
 70
    32
  0
VERTEX
  5
108EB
  8
0
 62
     5
 10
161.4619999999999
 20
142.374
 30
0.0
 70
    32
  0
VERTEX
  5
108EC
  8
0
 62
     5
 10
161.4619999999999
 20
142.374
 30
0.0
 70
    32
  0
VERTEX
  5
108ED
  8
0
 62
     5
 10
161.46100000000001
 20
142.374
 30
0.0
 70
    32
  0
VERTEX
  5
108EE
  8
0
 62
     5
 10
161.46000000000001
 20
142.374
 30
0.0
 70
    32
  0
VERTEX
  5
108EF
  8
0
 62
     5
 10
161.46000000000001
 20
142.374
 30
0.0
 70
    32
  0
VERTEX
  5
108F0
  8
0
 62
     5
 10
161.45899999999961
 20
142.374
 30
0.0
 70
    32
  0
VERTEX
  5
108F1
  8
0
 62
     5
 10
161.458
 20
142.374
 30
0.0
 70
    32
  0
VERTEX
  5
108F2
  8
0
 62
     5
 10
161.458
 20
142.374
 30
0.0
 70
    32
  0
VERTEX
  5
108F3
  8
0
 62
     5
 10
161.45699999999999
 20
142.374
 30
0.0
 70
    32
  0
VERTEX
  5
108F4
  8
0
 62
     5
 10
161.4559999999999
 20
142.374
 30
0.0
 70
    32
  0
VERTEX
  5
108F5
  8
0
 62
     5
 10
161.4559999999999
 20
142.374
 30
0.0
 70
    32
  0
VERTEX
  5
108F6
  8
0
 62
     5
 10
161.45500000000001
 20
142.374
 30
0.0
 70
    32
  0
VERTEX
  5
108F7
  8
0
 62
     5
 10
161.45400000000001
 20
142.374
 30
0.0
 70
    32
  0
VERTEX
  5
108F8
  8
0
 62
     5
 10
161.45400000000001
 20
142.374
 30
0.0
 70
    32
  0
VERTEX
  5
108F9
  8
0
 62
     5
 10
161.453
 20
142.374
 30
0.0
 70
    32
  0
VERTEX
  5
108FA
  8
0
 62
     5
 10
161.45199999999991
 20
142.374
 30
0.0
 70
    32
  0
VERTEX
  5
108FB
  8
0
 62
     5
 10
161.45199999999991
 20
142.374
 30
0.0
 70
    32
  0
VERTEX
  5
108FC
  8
0
 62
     5
 10
161.45099999999991
 20
142.374
 30
0.0
 70
    32
  0
VERTEX
  5
108FD
  8
0
 62
     5
 10
161.4499999999999
 20
142.374
 30
0.0
 70
    32
  0
VERTEX
  5
108FE
  8
0
 62
     5
 10
161.4499999999999
 20
142.374
 30
0.0
 70
    32
  0
VERTEX
  5
108FF
  8
0
 62
     5
 10
161.4489999999999
 20
142.374
 30
0.0
 70
    32
  0
VERTEX
  5
10900
  8
0
 62
     5
 10
161.44799999999981
 20
142.374
 30
0.0
 70
    32
  0
VERTEX
  5
10901
  8
0
 62
     5
 10
161.447
 20
142.374
 30
0.0
 70
    32
  0
VERTEX
  5
10902
  8
0
 62
     5
 10
161.447
 20
142.374
 30
0.0
 70
    32
  0
VERTEX
  5
10903
  8
0
 62
     5
 10
161.446
 20
142.374
 30
0.0
 70
    32
  0
VERTEX
  5
10904
  8
0
 62
     5
 10
161.44499999999991
 20
142.374
 30
0.0
 70
    32
  0
VERTEX
  5
10905
  8
0
 62
     5
 10
161.44499999999991
 20
142.374
 30
0.0
 70
    32
  0
VERTEX
  5
10906
  8
0
 62
     5
 10
161.4439999999999
 20
142.374
 30
0.0
 70
    32
  0
VERTEX
  5
10907
  8
0
 62
     5
 10
161.44299999999981
 20
142.374
 30
0.0
 70
    32
  0
VERTEX
  5
10908
  8
0
 62
     5
 10
161.44299999999981
 20
142.374
 30
0.0
 70
    32
  0
VERTEX
  5
10909
  8
0
 62
     5
 10
161.44200000000001
 20
142.374
 30
0.0
 70
    32
  0
VERTEX
  5
1090A
  8
0
 62
     5
 10
161.441
 20
142.374
 30
0.0
 70
    32
  0
VERTEX
  5
1090B
  8
0
 62
     5
 10
161.441
 20
142.374
 30
0.0
 70
    32
  0
VERTEX
  5
1090C
  8
0
 62
     5
 10
161.44
 20
142.374
 30
0.0
 70
    32
  0
VERTEX
  5
1090D
  8
0
 62
     5
 10
161.43899999999999
 20
142.374
 30
0.0
 70
    32
  0
VERTEX
  5
1090E
  8
0
 62
     5
 10
161.43899999999999
 20
142.374
 30
0.0
 70
    32
  0
VERTEX
  5
1090F
  8
0
 62
     5
 10
161.43799999999979
 20
142.374
 30
0.0
 70
    32
  0
VERTEX
  5
10910
  8
0
 62
     5
 10
161.43700000000001
 20
142.374
 30
0.0
 70
    32
  0
VERTEX
  5
10911
  8
0
 62
     5
 10
161.43700000000001
 20
142.374
 30
0.0
 70
    32
  0
VERTEX
  5
10912
  8
0
 62
     5
 10
161.43600000000001
 20
142.374
 30
0.0
 70
    32
  0
VERTEX
  5
10913
  8
0
 62
     5
 10
161.4349999999998
 20
142.374
 30
0.0
 70
    32
  0
VERTEX
  5
10914
  8
0
 62
     5
 10
161.4349999999998
 20
142.374
 30
0.0
 70
    32
  0
VERTEX
  5
10915
  8
0
 62
     5
 10
161.434
 20
142.374
 30
0.0
 70
    32
  0
VERTEX
  5
10916
  8
0
 62
     5
 10
161.43299999999991
 20
142.374
 30
0.0
 70
    32
  0
VERTEX
  5
10917
  8
0
 62
     5
 10
161.43299999999991
 20
142.374
 30
0.0
 70
    32
  0
VERTEX
  5
10918
  8
0
 62
     5
 10
161.43199999999999
 20
142.374
 30
0.0
 70
    32
  0
VERTEX
  5
10919
  8
0
 62
     5
 10
161.43100000000001
 20
142.374
 30
0.0
 70
    32
  0
VERTEX
  5
1091A
  8
0
 62
     5
 10
161.43100000000001
 20
142.374
 30
0.0
 70
    32
  0
VERTEX
  5
1091B
  8
0
 62
     5
 10
161.43000000000001
 20
142.374
 30
0.0
 70
    32
  0
VERTEX
  5
1091C
  8
0
 62
     5
 10
161.429
 20
142.374
 30
0.0
 70
    32
  0
VERTEX
  5
1091D
  8
0
 62
     5
 10
161.429
 20
142.374
 30
0.0
 70
    32
  0
VERTEX
  5
1091E
  8
0
 62
     5
 10
161.42799999999991
 20
142.374
 30
0.0
 70
    32
  0
VERTEX
  5
1091F
  8
0
 62
     5
 10
161.42699999999991
 20
142.374
 30
0.0
 70
    32
  0
VERTEX
  5
10920
  8
0
 62
     5
 10
161.42699999999991
 20
142.374
 30
0.0
 70
    32
  0
VERTEX
  5
10921
  8
0
 62
     5
 10
161.4259999999999
 20
142.374
 30
0.0
 70
    32
  0
VERTEX
  5
10922
  8
0
 62
     5
 10
161.42500000000001
 20
142.374
 30
0.0
 70
    32
  0
VERTEX
  5
10923
  8
0
 62
     5
 10
161.42500000000001
 20
142.374
 30
0.0
 70
    32
  0
VERTEX
  5
10924
  8
0
 62
     5
 10
161.42400000000001
 20
142.374
 30
0.0
 70
    32
  0
VERTEX
  5
10925
  8
0
 62
     5
 10
161.423
 20
142.374
 30
0.0
 70
    32
  0
VERTEX
  5
10926
  8
0
 62
     5
 10
161.423
 20
142.374
 30
0.0
 70
    32
  0
VERTEX
  5
10927
  8
0
 62
     5
 10
161.42199999999991
 20
142.374
 30
0.0
 70
    32
  0
VERTEX
  5
10928
  8
0
 62
     5
 10
161.42099999999991
 20
142.374
 30
0.0
 70
    32
  0
VERTEX
  5
10929
  8
0
 62
     5
 10
161.42099999999991
 20
142.374
 30
0.0
 70
    32
  0
VERTEX
  5
1092A
  8
0
 62
     5
 10
161.41999999999979
 20
142.374
 30
0.0
 70
    32
  0
VERTEX
  5
1092B
  8
0
 62
     5
 10
161.41899999999981
 20
142.374
 30
0.0
 70
    32
  0
VERTEX
  5
1092C
  8
0
 62
     5
 10
161.41899999999981
 20
142.374
 30
0.0
 70
    32
  0
VERTEX
  5
1092D
  8
0
 62
     5
 10
161.41800000000001
 20
142.374
 30
0.0
 70
    32
  0
VERTEX
  5
1092E
  8
0
 62
     5
 10
161.417
 20
142.374
 30
0.0
 70
    32
  0
VERTEX
  5
1092F
  8
0
 62
     5
 10
161.417
 20
142.374
 30
0.0
 70
    32
  0
VERTEX
  5
10930
  8
0
 62
     5
 10
161.416
 20
142.374
 30
0.0
 70
    32
  0
VERTEX
  5
10931
  8
0
 62
     5
 10
161.41499999999991
 20
142.374
 30
0.0
 70
    32
  0
VERTEX
  5
10932
  8
0
 62
     5
 10
161.41499999999991
 20
142.374
 30
0.0
 70
    32
  0
VERTEX
  5
10933
  8
0
 62
     5
 10
161.4139999999999
 20
142.374
 30
0.0
 70
    32
  0
VERTEX
  5
10934
  8
0
 62
     5
 10
161.41299999999981
 20
142.374
 30
0.0
 70
    32
  0
VERTEX
  5
10935
  8
0
 62
     5
 10
161.41299999999981
 20
142.374
 30
0.0
 70
    32
  0
VERTEX
  5
10936
  8
0
 62
     5
 10
161.41199999999981
 20
142.374
 30
0.0
 70
    32
  0
VERTEX
  5
10937
  8
0
 62
     5
 10
161.411
 20
142.374
 30
0.0
 70
    32
  0
VERTEX
  5
10938
  8
0
 62
     5
 10
161.411
 20
142.374
 30
0.0
 70
    32
  0
VERTEX
  5
10939
  8
0
 62
     5
 10
161.41
 20
142.374
 30
0.0
 70
    32
  0
VERTEX
  5
1093A
  8
0
 62
     5
 10
161.40899999999999
 20
142.374
 30
0.0
 70
    32
  0
VERTEX
  5
1093B
  8
0
 62
     5
 10
161.40899999999999
 20
142.374
 30
0.0
 70
    32
  0
VERTEX
  5
1093C
  8
0
 62
     5
 10
161.4079999999999
 20
142.374
 30
0.0
 70
    32
  0
VERTEX
  5
1093D
  8
0
 62
     5
 10
161.40700000000001
 20
142.374
 30
0.0
 70
    32
  0
VERTEX
  5
1093E
  8
0
 62
     5
 10
161.40700000000001
 20
142.37299999999991
 30
0.0
 70
    32
  0
VERTEX
  5
1093F
  8
0
 62
     5
 10
161.40600000000001
 20
142.37299999999991
 30
0.0
 70
    32
  0
VERTEX
  5
10940
  8
0
 62
     5
 10
161.4049999999996
 20
142.37299999999991
 30
0.0
 70
    32
  0
VERTEX
  5
10941
  8
0
 62
     5
 10
161.4049999999996
 20
142.37299999999991
 30
0.0
 70
    32
  0
VERTEX
  5
10942
  8
0
 62
     5
 10
161.40399999999991
 20
142.37299999999991
 30
0.0
 70
    32
  0
VERTEX
  5
10943
  8
0
 62
     5
 10
161.40299999999991
 20
142.37299999999991
 30
0.0
 70
    32
  0
VERTEX
  5
10944
  8
0
 62
     5
 10
161.40299999999991
 20
142.37299999999991
 30
0.0
 70
    32
  0
VERTEX
  5
10945
  8
0
 62
     5
 10
161.40199999999999
 20
142.37299999999991
 30
0.0
 70
    32
  0
VERTEX
  5
10946
  8
0
 62
     5
 10
161.40100000000001
 20
142.37299999999991
 30
0.0
 70
    32
  0
VERTEX
  5
10947
  8
0
 62
     5
 10
161.40100000000001
 20
142.37299999999991
 30
0.0
 70
    32
  0
VERTEX
  5
10948
  8
0
 62
     5
 10
161.40000000000001
 20
142.37299999999991
 30
0.0
 70
    32
  0
VERTEX
  5
10949
  8
0
 62
     5
 10
161.399
 20
142.37299999999991
 30
0.0
 70
    32
  0
VERTEX
  5
1094A
  8
0
 62
     5
 10
161.399
 20
142.37299999999991
 30
0.0
 70
    32
  0
VERTEX
  5
1094B
  8
0
 62
     5
 10
161.39799999999991
 20
142.37299999999991
 30
0.0
 70
    32
  0
VERTEX
  5
1094C
  8
0
 62
     5
 10
161.39699999999991
 20
142.37299999999991
 30
0.0
 70
    32
  0
VERTEX
  5
1094D
  8
0
 62
     5
 10
161.39699999999991
 20
142.37299999999991
 30
0.0
 70
    32
  0
VERTEX
  5
1094E
  8
0
 62
     5
 10
161.39599999999979
 20
142.37299999999991
 30
0.0
 70
    32
  0
VERTEX
  5
1094F
  8
0
 62
     5
 10
161.39500000000001
 20
142.37299999999991
 30
0.0
 70
    32
  0
VERTEX
  5
10950
  8
0
 62
     5
 10
161.39500000000001
 20
142.37299999999991
 30
0.0
 70
    32
  0
VERTEX
  5
10951
  8
0
 62
     5
 10
161.39400000000001
 20
142.37299999999991
 30
0.0
 70
    32
  0
VERTEX
  5
10952
  8
0
 62
     5
 10
161.393
 20
142.37299999999991
 30
0.0
 70
    32
  0
VERTEX
  5
10953
  8
0
 62
     5
 10
161.393
 20
142.37299999999991
 30
0.0
 70
    32
  0
VERTEX
  5
10954
  8
0
 62
     5
 10
161.392
 20
142.37299999999991
 30
0.0
 70
    32
  0
VERTEX
  5
10955
  8
0
 62
     5
 10
161.39099999999991
 20
142.37299999999991
 30
0.0
 70
    32
  0
VERTEX
  5
10956
  8
0
 62
     5
 10
161.39099999999991
 20
142.37299999999991
 30
0.0
 70
    32
  0
VERTEX
  5
10957
  8
0
 62
     5
 10
161.3899999999999
 20
142.37299999999991
 30
0.0
 70
    32
  0
VERTEX
  5
10958
  8
0
 62
     5
 10
161.38900000000001
 20
142.37299999999991
 30
0.0
 70
    32
  0
VERTEX
  5
10959
  8
0
 62
     5
 10
161.38900000000001
 20
142.37299999999991
 30
0.0
 70
    32
  0
VERTEX
  5
1095A
  8
0
 62
     5
 10
161.38799999999981
 20
142.37299999999991
 30
0.0
 70
    32
  0
VERTEX
  5
1095B
  8
0
 62
     5
 10
161.387
 20
142.37299999999991
 30
0.0
 70
    32
  0
VERTEX
  5
1095C
  8
0
 62
     5
 10
161.387
 20
142.37299999999991
 30
0.0
 70
    32
  0
VERTEX
  5
1095D
  8
0
 62
     5
 10
161.386
 20
142.37299999999991
 30
0.0
 70
    32
  0
VERTEX
  5
1095E
  8
0
 62
     5
 10
161.38499999999999
 20
142.37299999999991
 30
0.0
 70
    32
  0
VERTEX
  5
1095F
  8
0
 62
     5
 10
161.38499999999999
 20
142.37299999999991
 30
0.0
 70
    32
  0
VERTEX
  5
10960
  8
0
 62
     5
 10
161.3839999999999
 20
142.37299999999991
 30
0.0
 70
    32
  0
VERTEX
  5
10961
  8
0
 62
     5
 10
161.3829999999999
 20
142.37299999999991
 30
0.0
 70
    32
  0
VERTEX
  5
10962
  8
0
 62
     5
 10
161.3829999999999
 20
142.37299999999991
 30
0.0
 70
    32
  0
VERTEX
  5
10963
  8
0
 62
     5
 10
161.38200000000001
 20
142.37299999999991
 30
0.0
 70
    32
  0
VERTEX
  5
10964
  8
0
 62
     5
 10
161.3809999999998
 20
142.37299999999991
 30
0.0
 70
    32
  0
VERTEX
  5
10965
  8
0
 62
     5
 10
161.3809999999998
 20
142.37299999999991
 30
0.0
 70
    32
  0
VERTEX
  5
10966
  8
0
 62
     5
 10
161.37999999999991
 20
142.37299999999991
 30
0.0
 70
    32
  0
VERTEX
  5
10967
  8
0
 62
     5
 10
161.37899999999991
 20
142.37299999999991
 30
0.0
 70
    32
  0
VERTEX
  5
10968
  8
0
 62
     5
 10
161.37899999999991
 20
142.37299999999991
 30
0.0
 70
    32
  0
VERTEX
  5
10969
  8
0
 62
     5
 10
161.37799999999999
 20
142.37299999999991
 30
0.0
 70
    32
  0
VERTEX
  5
1096A
  8
0
 62
     5
 10
161.37700000000001
 20
142.37299999999991
 30
0.0
 70
    32
  0
VERTEX
  5
1096B
  8
0
 62
     5
 10
161.37700000000001
 20
142.37299999999991
 30
0.0
 70
    32
  0
VERTEX
  5
1096C
  8
0
 62
     5
 10
161.376
 20
142.37299999999991
 30
0.0
 70
    32
  0
VERTEX
  5
1096D
  8
0
 62
     5
 10
161.375
 20
142.37299999999991
 30
0.0
 70
    32
  0
VERTEX
  5
1096E
  8
0
 62
     5
 10
161.375
 20
142.37299999999991
 30
0.0
 70
    32
  0
VERTEX
  5
1096F
  8
0
 62
     5
 10
161.37399999999991
 20
142.37299999999991
 30
0.0
 70
    32
  0
VERTEX
  5
10970
  8
0
 62
     5
 10
161.37299999999979
 20
142.37299999999991
 30
0.0
 70
    32
  0
VERTEX
  5
10971
  8
0
 62
     5
 10
161.37200000000001
 20
142.37299999999991
 30
0.0
 70
    32
  0
VERTEX
  5
10972
  8
0
 62
     5
 10
161.37200000000001
 20
142.37299999999991
 30
0.0
 70
    32
  0
VERTEX
  5
10973
  8
0
 62
     5
 10
161.37100000000001
 20
142.37299999999991
 30
0.0
 70
    32
  0
VERTEX
  5
10974
  8
0
 62
     5
 10
161.37
 20
142.37299999999991
 30
0.0
 70
    32
  0
VERTEX
  5
10975
  8
0
 62
     5
 10
161.37
 20
142.37299999999991
 30
0.0
 70
    32
  0
VERTEX
  5
10976
  8
0
 62
     5
 10
161.369
 20
142.37299999999991
 30
0.0
 70
    32
  0
VERTEX
  5
10977
  8
0
 62
     5
 10
161.36799999999999
 20
142.37299999999991
 30
0.0
 70
    32
  0
VERTEX
  5
10978
  8
0
 62
     5
 10
161.36799999999999
 20
142.37299999999991
 30
0.0
 70
    32
  0
VERTEX
  5
10979
  8
0
 62
     5
 10
161.3669999999999
 20
142.37299999999991
 30
0.0
 70
    32
  0
VERTEX
  5
1097A
  8
0
 62
     5
 10
161.36600000000001
 20
142.37299999999991
 30
0.0
 70
    32
  0
VERTEX
  5
1097B
  8
0
 62
     5
 10
161.36600000000001
 20
142.37299999999991
 30
0.0
 70
    32
  0
VERTEX
  5
1097C
  8
0
 62
     5
 10
161.36499999999981
 20
142.37299999999991
 30
0.0
 70
    32
  0
VERTEX
  5
1097D
  8
0
 62
     5
 10
161.364
 20
142.37299999999991
 30
0.0
 70
    32
  0
VERTEX
  5
1097E
  8
0
 62
     5
 10
161.364
 20
142.37299999999991
 30
0.0
 70
    32
  0
VERTEX
  5
1097F
  8
0
 62
     5
 10
161.363
 20
142.37299999999991
 30
0.0
 70
    32
  0
VERTEX
  5
10980
  8
0
 62
     5
 10
161.36199999999999
 20
142.37299999999991
 30
0.0
 70
    32
  0
VERTEX
  5
10981
  8
0
 62
     5
 10
161.36199999999999
 20
142.37299999999991
 30
0.0
 70
    32
  0
VERTEX
  5
10982
  8
0
 62
     5
 10
161.3609999999999
 20
142.37299999999991
 30
0.0
 70
    32
  0
VERTEX
  5
10983
  8
0
 62
     5
 10
161.36000000000001
 20
142.37299999999991
 30
0.0
 70
    32
  0
VERTEX
  5
10984
  8
0
 62
     5
 10
161.36000000000001
 20
142.37299999999991
 30
0.0
 70
    32
  0
VERTEX
  5
10985
  8
0
 62
     5
 10
161.35900000000001
 20
142.37299999999991
 30
0.0
 70
    32
  0
VERTEX
  5
10986
  8
0
 62
     5
 10
161.35799999999981
 20
142.37299999999991
 30
0.0
 70
    32
  0
VERTEX
  5
10987
  8
0
 62
     5
 10
161.35799999999981
 20
142.37299999999991
 30
0.0
 70
    32
  0
VERTEX
  5
10988
  8
0
 62
     5
 10
161.35699999999991
 20
142.37299999999991
 30
0.0
 70
    32
  0
VERTEX
  5
10989
  8
0
 62
     5
 10
161.35599999999991
 20
142.37299999999991
 30
0.0
 70
    32
  0
VERTEX
  5
1098A
  8
0
 62
     5
 10
161.35599999999991
 20
142.37299999999991
 30
0.0
 70
    32
  0
VERTEX
  5
1098B
  8
0
 62
     5
 10
161.35499999999999
 20
142.37299999999991
 30
0.0
 70
    32
  0
VERTEX
  5
1098C
  8
0
 62
     5
 10
161.3539999999999
 20
142.37299999999991
 30
0.0
 70
    32
  0
VERTEX
  5
1098D
  8
0
 62
     5
 10
161.3539999999999
 20
142.37299999999991
 30
0.0
 70
    32
  0
VERTEX
  5
1098E
  8
0
 62
     5
 10
161.35299999999981
 20
142.37299999999991
 30
0.0
 70
    32
  0
VERTEX
  5
1098F
  8
0
 62
     5
 10
161.352
 20
142.37299999999991
 30
0.0
 70
    32
  0
VERTEX
  5
10990
  8
0
 62
     5
 10
161.352
 20
142.37299999999991
 30
0.0
 70
    32
  0
VERTEX
  5
10991
  8
0
 62
     5
 10
161.35099999999991
 20
142.37299999999991
 30
0.0
 70
    32
  0
VERTEX
  5
10992
  8
0
 62
     5
 10
161.34999999999991
 20
142.37299999999991
 30
0.0
 70
    32
  0
VERTEX
  5
10993
  8
0
 62
     5
 10
161.34999999999991
 20
142.37299999999991
 30
0.0
 70
    32
  0
VERTEX
  5
10994
  8
0
 62
     5
 10
161.34899999999979
 20
142.37299999999991
 30
0.0
 70
    32
  0
VERTEX
  5
10995
  8
0
 62
     5
 10
161.3479999999999
 20
142.37299999999991
 30
0.0
 70
    32
  0
VERTEX
  5
10996
  8
0
 62
     5
 10
161.3479999999999
 20
142.37299999999991
 30
0.0
 70
    32
  0
VERTEX
  5
10997
  8
0
 62
     5
 10
161.34700000000001
 20
142.37299999999991
 30
0.0
 70
    32
  0
VERTEX
  5
10998
  8
0
 62
     5
 10
161.346
 20
142.37299999999991
 30
0.0
 70
    32
  0
VERTEX
  5
10999
  8
0
 62
     5
 10
161.346
 20
142.37299999999991
 30
0.0
 70
    32
  0
VERTEX
  5
1099A
  8
0
 62
     5
 10
161.345
 20
142.37299999999991
 30
0.0
 70
    32
  0
VERTEX
  5
1099B
  8
0
 62
     5
 10
161.34399999999991
 20
142.37299999999991
 30
0.0
 70
    32
  0
VERTEX
  5
1099C
  8
0
 62
     5
 10
161.34399999999991
 20
142.37299999999991
 30
0.0
 70
    32
  0
VERTEX
  5
1099D
  8
0
 62
     5
 10
161.3429999999999
 20
142.37299999999991
 30
0.0
 70
    32
  0
VERTEX
  5
1099E
  8
0
 62
     5
 10
161.34200000000001
 20
142.37299999999991
 30
0.0
 70
    32
  0
VERTEX
  5
1099F
  8
0
 62
     5
 10
161.34200000000001
 20
142.37299999999991
 30
0.0
 70
    32
  0
VERTEX
  5
109A0
  8
0
 62
     5
 10
161.34100000000001
 20
142.37299999999991
 30
0.0
 70
    32
  0
VERTEX
  5
109A1
  8
0
 62
     5
 10
161.34
 20
142.37299999999991
 30
0.0
 70
    32
  0
VERTEX
  5
109A2
  8
0
 62
     5
 10
161.34
 20
142.37299999999991
 30
0.0
 70
    32
  0
VERTEX
  5
109A3
  8
0
 62
     5
 10
161.339
 20
142.37299999999991
 30
0.0
 70
    32
  0
VERTEX
  5
109A4
  8
0
 62
     5
 10
161.33799999999999
 20
142.37299999999991
 30
0.0
 70
    32
  0
VERTEX
  5
109A5
  8
0
 62
     5
 10
161.33799999999999
 20
142.37299999999991
 30
0.0
 70
    32
  0
VERTEX
  5
109A6
  8
0
 62
     5
 10
161.3369999999999
 20
142.37299999999991
 30
0.0
 70
    32
  0
VERTEX
  5
109A7
  8
0
 62
     5
 10
161.33600000000001
 20
142.37299999999991
 30
0.0
 70
    32
  0
VERTEX
  5
109A8
  8
0
 62
     5
 10
161.33600000000001
 20
142.37299999999991
 30
0.0
 70
    32
  0
VERTEX
  5
109A9
  8
0
 62
     5
 10
161.33500000000001
 20
142.37299999999991
 30
0.0
 70
    32
  0
VERTEX
  5
109AA
  8
0
 62
     5
 10
161.3339999999998
 20
142.37299999999991
 30
0.0
 70
    32
  0
VERTEX
  5
109AB
  8
0
 62
     5
 10
161.3339999999998
 20
142.37299999999991
 30
0.0
 70
    32
  0
VERTEX
  5
109AC
  8
0
 62
     5
 10
161.33299999999991
 20
142.37299999999991
 30
0.0
 70
    32
  0
VERTEX
  5
109AD
  8
0
 62
     5
 10
161.33199999999991
 20
142.37299999999991
 30
0.0
 70
    32
  0
VERTEX
  5
109AE
  8
0
 62
     5
 10
161.33199999999991
 20
142.37299999999991
 30
0.0
 70
    32
  0
VERTEX
  5
109AF
  8
0
 62
     5
 10
161.33099999999999
 20
142.37299999999991
 30
0.0
 70
    32
  0
VERTEX
  5
109B0
  8
0
 62
     5
 10
161.33000000000001
 20
142.37299999999991
 30
0.0
 70
    32
  0
VERTEX
  5
109B1
  8
0
 62
     5
 10
161.33000000000001
 20
142.37299999999991
 30
0.0
 70
    32
  0
VERTEX
  5
109B2
  8
0
 62
     5
 10
161.32900000000001
 20
142.37299999999991
 30
0.0
 70
    32
  0
VERTEX
  5
109B3
  8
0
 62
     5
 10
161.328
 20
142.37299999999991
 30
0.0
 70
    32
  0
VERTEX
  5
109B4
  8
0
 62
     5
 10
161.328
 20
142.37299999999991
 30
0.0
 70
    32
  0
VERTEX
  5
109B5
  8
0
 62
     5
 10
161.32699999999991
 20
142.37299999999991
 30
0.0
 70
    32
  0
VERTEX
  5
109B6
  8
0
 62
     5
 10
161.32599999999991
 20
142.37299999999991
 30
0.0
 70
    32
  0
VERTEX
  5
109B7
  8
0
 62
     5
 10
161.32599999999991
 20
142.37299999999991
 30
0.0
 70
    32
  0
VERTEX
  5
109B8
  8
0
 62
     5
 10
161.32499999999979
 20
142.37299999999991
 30
0.0
 70
    32
  0
VERTEX
  5
109B9
  8
0
 62
     5
 10
161.3239999999999
 20
142.37299999999991
 30
0.0
 70
    32
  0
VERTEX
  5
109BA
  8
0
 62
     5
 10
161.3239999999999
 20
142.37299999999991
 30
0.0
 70
    32
  0
VERTEX
  5
109BB
  8
0
 62
     5
 10
161.32299999999981
 20
142.37299999999991
 30
0.0
 70
    32
  0
VERTEX
  5
109BC
  8
0
 62
     5
 10
161.322
 20
142.37299999999991
 30
0.0
 70
    32
  0
VERTEX
  5
109BD
  8
0
 62
     5
 10
161.322
 20
142.37299999999991
 30
0.0
 70
    32
  0
VERTEX
  5
109BE
  8
0
 62
     5
 10
161.321
 20
142.37299999999991
 30
0.0
 70
    32
  0
VERTEX
  5
109BF
  8
0
 62
     5
 10
161.31999999999991
 20
142.37299999999991
 30
0.0
 70
    32
  0
VERTEX
  5
109C0
  8
0
 62
     5
 10
161.31999999999991
 20
142.37299999999991
 30
0.0
 70
    32
  0
VERTEX
  5
109C1
  8
0
 62
     5
 10
161.3189999999999
 20
142.37299999999991
 30
0.0
 70
    32
  0
VERTEX
  5
109C2
  8
0
 62
     5
 10
161.31799999999981
 20
142.37299999999991
 30
0.0
 70
    32
  0
VERTEX
  5
109C3
  8
0
 62
     5
 10
161.31799999999981
 20
142.37299999999991
 30
0.0
 70
    32
  0
VERTEX
  5
109C4
  8
0
 62
     5
 10
161.31700000000001
 20
142.37299999999991
 30
0.0
 70
    32
  0
VERTEX
  5
109C5
  8
0
 62
     5
 10
161.316
 20
142.37299999999991
 30
0.0
 70
    32
  0
VERTEX
  5
109C6
  8
0
 62
     5
 10
161.316
 20
142.37299999999991
 30
0.0
 70
    32
  0
VERTEX
  5
109C7
  8
0
 62
     5
 10
161.315
 20
142.37299999999991
 30
0.0
 70
    32
  0
VERTEX
  5
109C8
  8
0
 62
     5
 10
161.31399999999999
 20
142.37299999999991
 30
0.0
 70
    32
  0
VERTEX
  5
109C9
  8
0
 62
     5
 10
161.31399999999999
 20
142.37299999999991
 30
0.0
 70
    32
  0
VERTEX
  5
109CA
  8
0
 62
     5
 10
161.3129999999999
 20
142.37299999999991
 30
0.0
 70
    32
  0
VERTEX
  5
109CB
  8
0
 62
     5
 10
161.31200000000001
 20
142.37299999999991
 30
0.0
 70
    32
  0
VERTEX
  5
109CC
  8
0
 62
     5
 10
161.31200000000001
 20
142.37299999999991
 30
0.0
 70
    32
  0
VERTEX
  5
109CD
  8
0
 62
     5
 10
161.31099999999981
 20
142.37299999999991
 30
0.0
 70
    32
  0
VERTEX
  5
109CE
  8
0
 62
     5
 10
161.31
 20
142.37299999999991
 30
0.0
 70
    32
  0
VERTEX
  5
109CF
  8
0
 62
     5
 10
161.31
 20
142.37299999999991
 30
0.0
 70
    32
  0
VERTEX
  5
109D0
  8
0
 62
     5
 10
161.30899999999991
 20
142.37299999999991
 30
0.0
 70
    32
  0
VERTEX
  5
109D1
  8
0
 62
     5
 10
161.30799999999999
 20
142.37299999999991
 30
0.0
 70
    32
  0
VERTEX
  5
109D2
  8
0
 62
     5
 10
161.30799999999999
 20
142.37299999999991
 30
0.0
 70
    32
  0
VERTEX
  5
109D3
  8
0
 62
     5
 10
161.30699999999999
 20
142.37299999999991
 30
0.0
 70
    32
  0
VERTEX
  5
109D4
  8
0
 62
     5
 10
161.30600000000001
 20
142.37299999999991
 30
0.0
 70
    32
  0
VERTEX
  5
109D5
  8
0
 62
     5
 10
161.30600000000001
 20
142.37299999999991
 30
0.0
 70
    32
  0
VERTEX
  5
109D6
  8
0
 62
     5
 10
161.30500000000001
 20
142.37299999999991
 30
0.0
 70
    32
  0
VERTEX
  5
109D7
  8
0
 62
     5
 10
161.3039999999998
 20
142.37299999999991
 30
0.0
 70
    32
  0
VERTEX
  5
109D8
  8
0
 62
     5
 10
161.3039999999998
 20
142.37299999999991
 30
0.0
 70
    32
  0
VERTEX
  5
109D9
  8
0
 62
     5
 10
161.303
 20
142.37299999999991
 30
0.0
 70
    32
  0
VERTEX
  5
109DA
  8
0
 62
     5
 10
161.30199999999979
 20
142.37299999999991
 30
0.0
 70
    32
  0
VERTEX
  5
109DB
  8
0
 62
     5
 10
161.30199999999979
 20
142.37299999999991
 30
0.0
 70
    32
  0
VERTEX
  5
109DC
  8
0
 62
     5
 10
161.3009999999999
 20
142.37299999999991
 30
0.0
 70
    32
  0
VERTEX
  5
109DD
  8
0
 62
     5
 10
161.30000000000001
 20
142.37299999999991
 30
0.0
 70
    32
  0
VERTEX
  5
109DE
  8
0
 62
     5
 10
161.30000000000001
 20
142.37299999999991
 30
0.0
 70
    32
  0
VERTEX
  5
109DF
  8
0
 62
     5
 10
161.29900000000001
 20
142.37299999999991
 30
0.0
 70
    32
  0
VERTEX
  5
109E0
  8
0
 62
     5
 10
161.298
 20
142.37299999999991
 30
0.0
 70
    32
  0
VERTEX
  5
109E1
  8
0
 62
     5
 10
161.298
 20
142.37299999999991
 30
0.0
 70
    32
  0
VERTEX
  5
109E2
  8
0
 62
     5
 10
161.29699999999991
 20
142.37299999999991
 30
0.0
 70
    32
  0
VERTEX
  5
109E3
  8
0
 62
     5
 10
161.29599999999991
 20
142.37299999999991
 30
0.0
 70
    32
  0
VERTEX
  5
109E4
  8
0
 62
     5
 10
161.29499999999979
 20
142.37299999999991
 30
0.0
 70
    32
  0
VERTEX
  5
109E5
  8
0
 62
     5
 10
161.29499999999979
 20
142.37299999999991
 30
0.0
 70
    32
  0
VERTEX
  5
109E6
  8
0
 62
     5
 10
161.29399999999981
 20
142.37299999999991
 30
0.0
 70
    32
  0
VERTEX
  5
109E7
  8
0
 62
     5
 10
161.29300000000001
 20
142.37299999999991
 30
0.0
 70
    32
  0
VERTEX
  5
109E8
  8
0
 62
     5
 10
161.29300000000001
 20
142.37299999999991
 30
0.0
 70
    32
  0
VERTEX
  5
109E9
  8
0
 62
     5
 10
161.292
 20
142.37299999999991
 30
0.0
 70
    32
  0
VERTEX
  5
109EA
  8
0
 62
     5
 10
161.291
 20
142.37299999999991
 30
0.0
 70
    32
  0
VERTEX
  5
109EB
  8
0
 62
     5
 10
161.291
 20
142.37299999999991
 30
0.0
 70
    32
  0
VERTEX
  5
109EC
  8
0
 62
     5
 10
161.28999999999991
 20
142.37299999999991
 30
0.0
 70
    32
  0
VERTEX
  5
109ED
  8
0
 62
     5
 10
161.2889999999999
 20
142.37299999999991
 30
0.0
 70
    32
  0
VERTEX
  5
109EE
  8
0
 62
     5
 10
161.2889999999999
 20
142.37299999999991
 30
0.0
 70
    32
  0
VERTEX
  5
109EF
  8
0
 62
     5
 10
161.28799999999981
 20
142.37299999999991
 30
0.0
 70
    32
  0
VERTEX
  5
109F0
  8
0
 62
     5
 10
161.28700000000001
 20
142.37299999999991
 30
0.0
 70
    32
  0
VERTEX
  5
109F1
  8
0
 62
     5
 10
161.28700000000001
 20
142.37299999999991
 30
0.0
 70
    32
  0
VERTEX
  5
109F2
  8
0
 62
     5
 10
161.2859999999996
 20
142.37299999999991
 30
0.0
 70
    32
  0
VERTEX
  5
109F3
  8
0
 62
     5
 10
161.28499999999991
 20
142.37299999999991
 30
0.0
 70
    32
  0
VERTEX
  5
109F4
  8
0
 62
     5
 10
161.28499999999991
 20
142.37299999999991
 30
0.0
 70
    32
  0
VERTEX
  5
109F5
  8
0
 62
     5
 10
161.28399999999999
 20
142.37299999999991
 30
0.0
 70
    32
  0
VERTEX
  5
109F6
  8
0
 62
     5
 10
161.2829999999999
 20
142.37299999999991
 30
0.0
 70
    32
  0
VERTEX
  5
109F7
  8
0
 62
     5
 10
161.2829999999999
 20
142.37299999999991
 30
0.0
 70
    32
  0
VERTEX
  5
109F8
  8
0
 62
     5
 10
161.28200000000001
 20
142.37299999999991
 30
0.0
 70
    32
  0
VERTEX
  5
109F9
  8
0
 62
     5
 10
161.28100000000001
 20
142.37299999999991
 30
0.0
 70
    32
  0
VERTEX
  5
109FA
  8
0
 62
     5
 10
161.28100000000001
 20
142.37299999999991
 30
0.0
 70
    32
  0
VERTEX
  5
109FB
  8
0
 62
     5
 10
161.28
 20
142.37299999999991
 30
0.0
 70
    32
  0
VERTEX
  5
109FC
  8
0
 62
     5
 10
161.27899999999991
 20
142.37299999999991
 30
0.0
 70
    32
  0
VERTEX
  5
109FD
  8
0
 62
     5
 10
161.27899999999991
 20
142.37299999999991
 30
0.0
 70
    32
  0
VERTEX
  5
109FE
  8
0
 62
     5
 10
161.27799999999979
 20
142.37299999999991
 30
0.0
 70
    32
  0
VERTEX
  5
109FF
  8
0
 62
     5
 10
161.2769999999999
 20
142.37299999999991
 30
0.0
 70
    32
  0
VERTEX
  5
10A00
  8
0
 62
     5
 10
161.2769999999999
 20
142.37299999999991
 30
0.0
 70
    32
  0
VERTEX
  5
10A01
  8
0
 62
     5
 10
161.27600000000001
 20
142.37299999999991
 30
0.0
 70
    32
  0
VERTEX
  5
10A02
  8
0
 62
     5
 10
161.27500000000001
 20
142.37299999999991
 30
0.0
 70
    32
  0
VERTEX
  5
10A03
  8
0
 62
     5
 10
161.27500000000001
 20
142.37299999999991
 30
0.0
 70
    32
  0
VERTEX
  5
10A04
  8
0
 62
     5
 10
161.274
 20
142.37299999999991
 30
0.0
 70
    32
  0
VERTEX
  5
10A05
  8
0
 62
     5
 10
161.27299999999991
 20
142.37299999999991
 30
0.0
 70
    32
  0
VERTEX
  5
10A06
  8
0
 62
     5
 10
161.27299999999991
 20
142.37299999999991
 30
0.0
 70
    32
  0
VERTEX
  5
10A07
  8
0
 62
     5
 10
161.27199999999991
 20
142.37299999999991
 30
0.0
 70
    32
  0
VERTEX
  5
10A08
  8
0
 62
     5
 10
161.27099999999979
 20
142.37299999999991
 30
0.0
 70
    32
  0
VERTEX
  5
10A09
  8
0
 62
     5
 10
161.27099999999979
 20
142.37299999999991
 30
0.0
 70
    32
  0
VERTEX
  5
10A0A
  8
0
 62
     5
 10
161.27000000000001
 20
142.37299999999991
 30
0.0
 70
    32
  0
VERTEX
  5
10A0B
  8
0
 62
     5
 10
161.26900000000001
 20
142.37299999999991
 30
0.0
 70
    32
  0
VERTEX
  5
10A0C
  8
0
 62
     5
 10
161.26900000000001
 20
142.37299999999991
 30
0.0
 70
    32
  0
VERTEX
  5
10A0D
  8
0
 62
     5
 10
161.268
 20
142.37299999999991
 30
0.0
 70
    32
  0
VERTEX
  5
10A0E
  8
0
 62
     5
 10
161.267
 20
142.37299999999991
 30
0.0
 70
    32
  0
VERTEX
  5
10A0F
  8
0
 62
     5
 10
161.267
 20
142.37299999999991
 30
0.0
 70
    32
  0
VERTEX
  5
10A10
  8
0
 62
     5
 10
161.26599999999991
 20
142.37299999999991
 30
0.0
 70
    32
  0
VERTEX
  5
10A11
  8
0
 62
     5
 10
161.2649999999999
 20
142.37299999999991
 30
0.0
 70
    32
  0
VERTEX
  5
10A12
  8
0
 62
     5
 10
161.2649999999999
 20
142.37200000000001
 30
0.0
 70
    32
  0
VERTEX
  5
10A13
  8
0
 62
     5
 10
161.26400000000001
 20
142.37200000000001
 30
0.0
 70
    32
  0
VERTEX
  5
10A14
  8
0
 62
     5
 10
161.26300000000001
 20
142.37200000000001
 30
0.0
 70
    32
  0
VERTEX
  5
10A15
  8
0
 62
     5
 10
161.26300000000001
 20
142.37200000000001
 30
0.0
 70
    32
  0
VERTEX
  5
10A16
  8
0
 62
     5
 10
161.2619999999996
 20
142.37200000000001
 30
0.0
 70
    32
  0
VERTEX
  5
10A17
  8
0
 62
     5
 10
161.261
 20
142.37200000000001
 30
0.0
 70
    32
  0
VERTEX
  5
10A18
  8
0
 62
     5
 10
161.261
 20
142.37200000000001
 30
0.0
 70
    32
  0
VERTEX
  5
10A19
  8
0
 62
     5
 10
161.25999999999999
 20
142.37200000000001
 30
0.0
 70
    32
  0
VERTEX
  5
10A1A
  8
0
 62
     5
 10
161.2589999999999
 20
142.37200000000001
 30
0.0
 70
    32
  0
VERTEX
  5
10A1B
  8
0
 62
     5
 10
161.2589999999999
 20
142.37200000000001
 30
0.0
 70
    32
  0
VERTEX
  5
10A1C
  8
0
 62
     5
 10
161.2579999999999
 20
142.37200000000001
 30
0.0
 70
    32
  0
VERTEX
  5
10A1D
  8
0
 62
     5
 10
161.25700000000001
 20
142.37200000000001
 30
0.0
 70
    32
  0
VERTEX
  5
10A1E
  8
0
 62
     5
 10
161.25700000000001
 20
142.37200000000001
 30
0.0
 70
    32
  0
VERTEX
  5
10A1F
  8
0
 62
     5
 10
161.256
 20
142.37200000000001
 30
0.0
 70
    32
  0
VERTEX
  5
10A20
  8
0
 62
     5
 10
161.25499999999971
 20
142.37200000000001
 30
0.0
 70
    32
  0
VERTEX
  5
10A21
  8
0
 62
     5
 10
161.25499999999971
 20
142.37200000000001
 30
0.0
 70
    32
  0
VERTEX
  5
10A22
  8
0
 62
     5
 10
161.25399999999991
 20
142.37200000000001
 30
0.0
 70
    32
  0
VERTEX
  5
10A23
  8
0
 62
     5
 10
161.2529999999999
 20
142.37200000000001
 30
0.0
 70
    32
  0
VERTEX
  5
10A24
  8
0
 62
     5
 10
161.2529999999999
 20
142.37200000000001
 30
0.0
 70
    32
  0
VERTEX
  5
10A25
  8
0
 62
     5
 10
161.25200000000001
 20
142.37200000000001
 30
0.0
 70
    32
  0
VERTEX
  5
10A26
  8
0
 62
     5
 10
161.251
 20
142.37200000000001
 30
0.0
 70
    32
  0
VERTEX
  5
10A27
  8
0
 62
     5
 10
161.251
 20
142.37200000000001
 30
0.0
 70
    32
  0
VERTEX
  5
10A28
  8
0
 62
     5
 10
161.25
 20
142.37200000000001
 30
0.0
 70
    32
  0
VERTEX
  5
10A29
  8
0
 62
     5
 10
161.249
 20
142.37200000000001
 30
0.0
 70
    32
  0
VERTEX
  5
10A2A
  8
0
 62
     5
 10
161.249
 20
142.37200000000001
 30
0.0
 70
    32
  0
VERTEX
  5
10A2B
  8
0
 62
     5
 10
161.24799999999979
 20
142.37200000000001
 30
0.0
 70
    32
  0
VERTEX
  5
10A2C
  8
0
 62
     5
 10
161.24700000000001
 20
142.37200000000001
 30
0.0
 70
    32
  0
VERTEX
  5
10A2D
  8
0
 62
     5
 10
161.24700000000001
 20
142.37200000000001
 30
0.0
 70
    32
  0
VERTEX
  5
10A2E
  8
0
 62
     5
 10
161.24600000000001
 20
142.37200000000001
 30
0.0
 70
    32
  0
SEQEND
  5
10A2F
  8
0
 62
     5
  0
POLYLINE
  5
10A30
  8
0
 62
     5
 66
     1
 10
0.0
 20
0.0
 30
0.0
 70
     8
  0
VERTEX
  5
10A31
  8
0
 62
     5
 10
161.24600000000001
 20
142.37200000000001
 30
0.0
 70
    32
  0
VERTEX
  5
10A32
  8
0
 62
     5
 10
161.24600000000001
 20
142.37200000000001
 30
0.0
 70
    32
  0
VERTEX
  5
10A33
  8
0
 62
     5
 10
161.24600000000001
 20
142.37200000000001
 30
0.0
 70
    32
  0
VERTEX
  5
10A34
  8
0
 62
     5
 10
161.24600000000001
 20
142.37200000000001
 30
0.0
 70
    32
  0
VERTEX
  5
10A35
  8
0
 62
     5
 10
161.24600000000001
 20
142.37200000000001
 30
0.0
 70
    32
  0
VERTEX
  5
10A36
  8
0
 62
     5
 10
161.24600000000001
 20
142.37200000000001
 30
0.0
 70
    32
  0
VERTEX
  5
10A37
  8
0
 62
     5
 10
161.24600000000001
 20
142.37200000000001
 30
0.0
 70
    32
  0
VERTEX
  5
10A38
  8
0
 62
     5
 10
161.24600000000001
 20
142.37200000000001
 30
0.0
 70
    32
  0
VERTEX
  5
10A39
  8
0
 62
     5
 10
161.24600000000001
 20
142.37200000000001
 30
0.0
 70
    32
  0
VERTEX
  5
10A3A
  8
0
 62
     5
 10
161.24600000000001
 20
142.37200000000001
 30
0.0
 70
    32
  0
VERTEX
  5
10A3B
  8
0
 62
     5
 10
161.24600000000001
 20
142.37200000000001
 30
0.0
 70
    32
  0
VERTEX
  5
10A3C
  8
0
 62
     5
 10
161.24600000000001
 20
142.37200000000001
 30
0.0
 70
    32
  0
VERTEX
  5
10A3D
  8
0
 62
     5
 10
161.24600000000001
 20
142.37200000000001
 30
0.0
 70
    32
  0
VERTEX
  5
10A3E
  8
0
 62
     5
 10
161.24600000000001
 20
142.37200000000001
 30
0.0
 70
    32
  0
VERTEX
  5
10A3F
  8
0
 62
     5
 10
161.24600000000001
 20
142.37200000000001
 30
0.0
 70
    32
  0
VERTEX
  5
10A40
  8
0
 62
     5
 10
161.24600000000001
 20
142.37200000000001
 30
0.0
 70
    32
  0
VERTEX
  5
10A41
  8
0
 62
     5
 10
161.24600000000001
 20
142.37200000000001
 30
0.0
 70
    32
  0
VERTEX
  5
10A42
  8
0
 62
     5
 10
161.24600000000001
 20
142.37200000000001
 30
0.0
 70
    32
  0
VERTEX
  5
10A43
  8
0
 62
     5
 10
161.24600000000001
 20
142.37200000000001
 30
0.0
 70
    32
  0
VERTEX
  5
10A44
  8
0
 62
     5
 10
161.24600000000001
 20
142.37200000000001
 30
0.0
 70
    32
  0
VERTEX
  5
10A45
  8
0
 62
     5
 10
161.24600000000001
 20
142.37200000000001
 30
0.0
 70
    32
  0
VERTEX
  5
10A46
  8
0
 62
     5
 10
161.24600000000001
 20
142.37200000000001
 30
0.0
 70
    32
  0
VERTEX
  5
10A47
  8
0
 62
     5
 10
161.24600000000001
 20
142.37200000000001
 30
0.0
 70
    32
  0
VERTEX
  5
10A48
  8
0
 62
     5
 10
161.24600000000001
 20
142.37200000000001
 30
0.0
 70
    32
  0
VERTEX
  5
10A49
  8
0
 62
     5
 10
161.24600000000001
 20
142.37200000000001
 30
0.0
 70
    32
  0
VERTEX
  5
10A4A
  8
0
 62
     5
 10
161.24600000000001
 20
142.37200000000001
 30
0.0
 70
    32
  0
VERTEX
  5
10A4B
  8
0
 62
     5
 10
161.24600000000001
 20
142.37200000000001
 30
0.0
 70
    32
  0
VERTEX
  5
10A4C
  8
0
 62
     5
 10
161.24600000000001
 20
142.37200000000001
 30
0.0
 70
    32
  0
VERTEX
  5
10A4D
  8
0
 62
     5
 10
161.24600000000001
 20
142.37200000000001
 30
0.0
 70
    32
  0
VERTEX
  5
10A4E
  8
0
 62
     5
 10
161.24600000000001
 20
142.37200000000001
 30
0.0
 70
    32
  0
VERTEX
  5
10A4F
  8
0
 62
     5
 10
161.24600000000001
 20
142.37200000000001
 30
0.0
 70
    32
  0
VERTEX
  5
10A50
  8
0
 62
     5
 10
161.24600000000001
 20
142.37200000000001
 30
0.0
 70
    32
  0
VERTEX
  5
10A51
  8
0
 62
     5
 10
161.24600000000001
 20
142.37200000000001
 30
0.0
 70
    32
  0
VERTEX
  5
10A52
  8
0
 62
     5
 10
161.24600000000001
 20
142.37200000000001
 30
0.0
 70
    32
  0
VERTEX
  5
10A53
  8
0
 62
     5
 10
161.24600000000001
 20
142.37200000000001
 30
0.0
 70
    32
  0
VERTEX
  5
10A54
  8
0
 62
     5
 10
161.24600000000001
 20
142.37200000000001
 30
0.0
 70
    32
  0
VERTEX
  5
10A55
  8
0
 62
     5
 10
161.24600000000001
 20
142.37200000000001
 30
0.0
 70
    32
  0
VERTEX
  5
10A56
  8
0
 62
     5
 10
161.24600000000001
 20
142.37200000000001
 30
0.0
 70
    32
  0
VERTEX
  5
10A57
  8
0
 62
     5
 10
161.24600000000001
 20
142.37200000000001
 30
0.0
 70
    32
  0
VERTEX
  5
10A58
  8
0
 62
     5
 10
161.24600000000001
 20
142.37200000000001
 30
0.0
 70
    32
  0
VERTEX
  5
10A59
  8
0
 62
     5
 10
161.24600000000001
 20
142.37200000000001
 30
0.0
 70
    32
  0
VERTEX
  5
10A5A
  8
0
 62
     5
 10
161.24600000000001
 20
142.37200000000001
 30
0.0
 70
    32
  0
VERTEX
  5
10A5B
  8
0
 62
     5
 10
161.24600000000001
 20
142.37200000000001
 30
0.0
 70
    32
  0
VERTEX
  5
10A5C
  8
0
 62
     5
 10
161.24600000000001
 20
142.37200000000001
 30
0.0
 70
    32
  0
VERTEX
  5
10A5D
  8
0
 62
     5
 10
161.24600000000001
 20
142.37200000000001
 30
0.0
 70
    32
  0
VERTEX
  5
10A5E
  8
0
 62
     5
 10
161.24600000000001
 20
142.37200000000001
 30
0.0
 70
    32
  0
VERTEX
  5
10A5F
  8
0
 62
     5
 10
161.24600000000001
 20
142.37200000000001
 30
0.0
 70
    32
  0
VERTEX
  5
10A60
  8
0
 62
     5
 10
161.24600000000001
 20
142.37200000000001
 30
0.0
 70
    32
  0
VERTEX
  5
10A61
  8
0
 62
     5
 10
161.24600000000001
 20
142.37200000000001
 30
0.0
 70
    32
  0
VERTEX
  5
10A62
  8
0
 62
     5
 10
161.24600000000001
 20
142.37200000000001
 30
0.0
 70
    32
  0
VERTEX
  5
10A63
  8
0
 62
     5
 10
161.24600000000001
 20
142.37200000000001
 30
0.0
 70
    32
  0
VERTEX
  5
10A64
  8
0
 62
     5
 10
161.24600000000001
 20
142.37200000000001
 30
0.0
 70
    32
  0
VERTEX
  5
10A65
  8
0
 62
     5
 10
161.24600000000001
 20
142.37200000000001
 30
0.0
 70
    32
  0
VERTEX
  5
10A66
  8
0
 62
     5
 10
161.24600000000001
 20
142.37200000000001
 30
0.0
 70
    32
  0
VERTEX
  5
10A67
  8
0
 62
     5
 10
161.24600000000001
 20
142.37200000000001
 30
0.0
 70
    32
  0
VERTEX
  5
10A68
  8
0
 62
     5
 10
161.24600000000001
 20
142.37200000000001
 30
0.0
 70
    32
  0
VERTEX
  5
10A69
  8
0
 62
     5
 10
161.24600000000001
 20
142.37200000000001
 30
0.0
 70
    32
  0
VERTEX
  5
10A6A
  8
0
 62
     5
 10
161.24600000000001
 20
142.37200000000001
 30
0.0
 70
    32
  0
VERTEX
  5
10A6B
  8
0
 62
     5
 10
161.24600000000001
 20
142.37200000000001
 30
0.0
 70
    32
  0
VERTEX
  5
10A6C
  8
0
 62
     5
 10
161.24600000000001
 20
142.37200000000001
 30
0.0
 70
    32
  0
VERTEX
  5
10A6D
  8
0
 62
     5
 10
161.24600000000001
 20
142.37200000000001
 30
0.0
 70
    32
  0
VERTEX
  5
10A6E
  8
0
 62
     5
 10
161.24600000000001
 20
142.37200000000001
 30
0.0
 70
    32
  0
VERTEX
  5
10A6F
  8
0
 62
     5
 10
161.24600000000001
 20
142.37200000000001
 30
0.0
 70
    32
  0
VERTEX
  5
10A70
  8
0
 62
     5
 10
161.24600000000001
 20
142.37200000000001
 30
0.0
 70
    32
  0
VERTEX
  5
10A71
  8
0
 62
     5
 10
161.24600000000001
 20
142.37200000000001
 30
0.0
 70
    32
  0
VERTEX
  5
10A72
  8
0
 62
     5
 10
161.24600000000001
 20
142.37200000000001
 30
0.0
 70
    32
  0
VERTEX
  5
10A73
  8
0
 62
     5
 10
161.24600000000001
 20
142.37200000000001
 30
0.0
 70
    32
  0
VERTEX
  5
10A74
  8
0
 62
     5
 10
161.24600000000001
 20
142.37200000000001
 30
0.0
 70
    32
  0
VERTEX
  5
10A75
  8
0
 62
     5
 10
161.24600000000001
 20
142.37200000000001
 30
0.0
 70
    32
  0
VERTEX
  5
10A76
  8
0
 62
     5
 10
161.24600000000001
 20
142.37200000000001
 30
0.0
 70
    32
  0
VERTEX
  5
10A77
  8
0
 62
     5
 10
161.24600000000001
 20
142.37200000000001
 30
0.0
 70
    32
  0
VERTEX
  5
10A78
  8
0
 62
     5
 10
161.24600000000001
 20
142.37200000000001
 30
0.0
 70
    32
  0
VERTEX
  5
10A79
  8
0
 62
     5
 10
161.24600000000001
 20
142.37200000000001
 30
0.0
 70
    32
  0
VERTEX
  5
10A7A
  8
0
 62
     5
 10
161.24600000000001
 20
142.37200000000001
 30
0.0
 70
    32
  0
VERTEX
  5
10A7B
  8
0
 62
     5
 10
161.24600000000001
 20
142.37200000000001
 30
0.0
 70
    32
  0
VERTEX
  5
10A7C
  8
0
 62
     5
 10
161.24600000000001
 20
142.37200000000001
 30
0.0
 70
    32
  0
VERTEX
  5
10A7D
  8
0
 62
     5
 10
161.24600000000001
 20
142.37200000000001
 30
0.0
 70
    32
  0
VERTEX
  5
10A7E
  8
0
 62
     5
 10
161.24600000000001
 20
142.37200000000001
 30
0.0
 70
    32
  0
VERTEX
  5
10A7F
  8
0
 62
     5
 10
161.24600000000001
 20
142.37200000000001
 30
0.0
 70
    32
  0
VERTEX
  5
10A80
  8
0
 62
     5
 10
161.24600000000001
 20
142.37200000000001
 30
0.0
 70
    32
  0
VERTEX
  5
10A81
  8
0
 62
     5
 10
161.24600000000001
 20
142.37200000000001
 30
0.0
 70
    32
  0
VERTEX
  5
10A82
  8
0
 62
     5
 10
161.24600000000001
 20
142.37200000000001
 30
0.0
 70
    32
  0
VERTEX
  5
10A83
  8
0
 62
     5
 10
161.24600000000001
 20
142.37200000000001
 30
0.0
 70
    32
  0
VERTEX
  5
10A84
  8
0
 62
     5
 10
161.24600000000001
 20
142.37200000000001
 30
0.0
 70
    32
  0
VERTEX
  5
10A85
  8
0
 62
     5
 10
161.24600000000001
 20
142.37200000000001
 30
0.0
 70
    32
  0
VERTEX
  5
10A86
  8
0
 62
     5
 10
161.245
 20
142.37200000000001
 30
0.0
 70
    32
  0
VERTEX
  5
10A87
  8
0
 62
     5
 10
161.245
 20
142.37200000000001
 30
0.0
 70
    32
  0
VERTEX
  5
10A88
  8
0
 62
     5
 10
161.245
 20
142.37200000000001
 30
0.0
 70
    32
  0
VERTEX
  5
10A89
  8
0
 62
     5
 10
161.245
 20
142.37200000000001
 30
0.0
 70
    32
  0
VERTEX
  5
10A8A
  8
0
 62
     5
 10
161.245
 20
142.37200000000001
 30
0.0
 70
    32
  0
VERTEX
  5
10A8B
  8
0
 62
     5
 10
161.245
 20
142.37200000000001
 30
0.0
 70
    32
  0
VERTEX
  5
10A8C
  8
0
 62
     5
 10
161.245
 20
142.37200000000001
 30
0.0
 70
    32
  0
VERTEX
  5
10A8D
  8
0
 62
     5
 10
161.245
 20
142.37200000000001
 30
0.0
 70
    32
  0
VERTEX
  5
10A8E
  8
0
 62
     5
 10
161.245
 20
142.37200000000001
 30
0.0
 70
    32
  0
VERTEX
  5
10A8F
  8
0
 62
     5
 10
161.245
 20
142.37200000000001
 30
0.0
 70
    32
  0
VERTEX
  5
10A90
  8
0
 62
     5
 10
161.245
 20
142.37200000000001
 30
0.0
 70
    32
  0
VERTEX
  5
10A91
  8
0
 62
     5
 10
161.245
 20
142.37200000000001
 30
0.0
 70
    32
  0
VERTEX
  5
10A92
  8
0
 62
     5
 10
161.245
 20
142.37200000000001
 30
0.0
 70
    32
  0
VERTEX
  5
10A93
  8
0
 62
     5
 10
161.245
 20
142.37200000000001
 30
0.0
 70
    32
  0
VERTEX
  5
10A94
  8
0
 62
     5
 10
161.245
 20
142.37200000000001
 30
0.0
 70
    32
  0
VERTEX
  5
10A95
  8
0
 62
     5
 10
161.245
 20
142.37200000000001
 30
0.0
 70
    32
  0
VERTEX
  5
10A96
  8
0
 62
     5
 10
161.245
 20
142.37200000000001
 30
0.0
 70
    32
  0
VERTEX
  5
10A97
  8
0
 62
     5
 10
161.245
 20
142.37200000000001
 30
0.0
 70
    32
  0
VERTEX
  5
10A98
  8
0
 62
     5
 10
161.245
 20
142.37200000000001
 30
0.0
 70
    32
  0
VERTEX
  5
10A99
  8
0
 62
     5
 10
161.245
 20
142.37200000000001
 30
0.0
 70
    32
  0
VERTEX
  5
10A9A
  8
0
 62
     5
 10
161.245
 20
142.37200000000001
 30
0.0
 70
    32
  0
VERTEX
  5
10A9B
  8
0
 62
     5
 10
161.245
 20
142.37200000000001
 30
0.0
 70
    32
  0
VERTEX
  5
10A9C
  8
0
 62
     5
 10
161.245
 20
142.37200000000001
 30
0.0
 70
    32
  0
VERTEX
  5
10A9D
  8
0
 62
     5
 10
161.245
 20
142.37200000000001
 30
0.0
 70
    32
  0
VERTEX
  5
10A9E
  8
0
 62
     5
 10
161.245
 20
142.37200000000001
 30
0.0
 70
    32
  0
VERTEX
  5
10A9F
  8
0
 62
     5
 10
161.245
 20
142.37200000000001
 30
0.0
 70
    32
  0
VERTEX
  5
10AA0
  8
0
 62
     5
 10
161.245
 20
142.37200000000001
 30
0.0
 70
    32
  0
VERTEX
  5
10AA1
  8
0
 62
     5
 10
161.245
 20
142.37200000000001
 30
0.0
 70
    32
  0
VERTEX
  5
10AA2
  8
0
 62
     5
 10
161.245
 20
142.37200000000001
 30
0.0
 70
    32
  0
VERTEX
  5
10AA3
  8
0
 62
     5
 10
161.245
 20
142.37200000000001
 30
0.0
 70
    32
  0
VERTEX
  5
10AA4
  8
0
 62
     5
 10
161.245
 20
142.37200000000001
 30
0.0
 70
    32
  0
VERTEX
  5
10AA5
  8
0
 62
     5
 10
161.245
 20
142.37200000000001
 30
0.0
 70
    32
  0
VERTEX
  5
10AA6
  8
0
 62
     5
 10
161.245
 20
142.37200000000001
 30
0.0
 70
    32
  0
VERTEX
  5
10AA7
  8
0
 62
     5
 10
161.245
 20
142.37200000000001
 30
0.0
 70
    32
  0
VERTEX
  5
10AA8
  8
0
 62
     5
 10
161.245
 20
142.37200000000001
 30
0.0
 70
    32
  0
VERTEX
  5
10AA9
  8
0
 62
     5
 10
161.245
 20
142.37200000000001
 30
0.0
 70
    32
  0
VERTEX
  5
10AAA
  8
0
 62
     5
 10
161.245
 20
142.37200000000001
 30
0.0
 70
    32
  0
VERTEX
  5
10AAB
  8
0
 62
     5
 10
161.245
 20
142.37200000000001
 30
0.0
 70
    32
  0
VERTEX
  5
10AAC
  8
0
 62
     5
 10
161.245
 20
142.37200000000001
 30
0.0
 70
    32
  0
VERTEX
  5
10AAD
  8
0
 62
     5
 10
161.245
 20
142.37200000000001
 30
0.0
 70
    32
  0
VERTEX
  5
10AAE
  8
0
 62
     5
 10
161.245
 20
142.37200000000001
 30
0.0
 70
    32
  0
VERTEX
  5
10AAF
  8
0
 62
     5
 10
161.245
 20
142.37200000000001
 30
0.0
 70
    32
  0
VERTEX
  5
10AB0
  8
0
 62
     5
 10
161.245
 20
142.37200000000001
 30
0.0
 70
    32
  0
SEQEND
  5
10AB1
  8
0
 62
     5
  0
ARC
  5
10AB2
  8
0
 62
     5
 10
164.3061332665244
 20
143.97625832429981
 30
0.0
 40
1.0
 50
196.95771539109879
 51
269.99998630049993
  0
POLYLINE
  5
10AB3
  8
0
 62
     5
 66
     1
 10
0.0
 20
0.0
 30
0.0
  0
VERTEX
  5
10E2C
  8
0
 62
     5
 10
170.04525340812441
 20
142.0635447034999
 30
0.0
  0
VERTEX
  5
10E2D
  8
0
 62
     5
 10
170.06094522722441
 20
142.0641599602998
 30
0.0
  0
VERTEX
  5
10E2E
  8
0
 62
     5
 10
170.0765403011244
 20
142.0660019373999
 30
0.0
  0
VERTEX
  5
10E2F
  8
0
 62
     5
 10
170.0919424809243
 20
142.0690592782999
 30
0.0
  0
VERTEX
  5
10E30
  8
0
 62
     5
 10
170.10705680702401
 20
142.07331313369991
 30
0.0
  0
VERTEX
  5
10E31
  8
0
 62
     5
 10
170.1217900946244
 20
142.0787372768998
 30
0.0
  0
VERTEX
  5
10E32
  8
0
 62
     5
 10
170.13605150812441
 20
142.0852982664999
 30
0.0
  0
VERTEX
  5
10E33
  8
0
 62
     5
 10
170.1497531210243
 20
142.09295565169981
 30
0.0
  0
VERTEX
  5
10E34
  8
0
 62
     5
 10
170.16281045862439
 20
142.10166222209989
 30
0.0
  0
VERTEX
  5
10E35
  8
0
 62
     5
 10
170.1751430178243
 20
142.1113642988999
 30
0.0
  0
VERTEX
  5
10E36
  8
0
 62
     5
 10
170.18667476432429
 20
142.1220020655999
 30
0.0
  0
VERTEX
  5
10E37
  8
0
 62
     5
 10
170.1973346012243
 20
142.13350993680001
 30
0.0
  0
VERTEX
  5
10E38
  8
0
 62
     5
 10
170.2070568070244
 20
142.14581696259981
 30
0.0
  0
VERTEX
  5
10E39
  8
0
 62
     5
 10
170.21578144102401
 20
142.15884726609991
 30
0.0
  0
VERTEX
  5
10E3A
  8
0
 62
     5
 10
170.22345471292431
 20
142.17252051119991
 30
0.0
  0
VERTEX
  5
10E3B
  8
0
 62
     5
 10
170.2300293146244
 20
142.18675239769999
 30
0.0
  0
VERTEX
  5
10E3C
  8
0
 62
     5
 10
170.23546471142441
 20
142.20145518139989
 30
0.0
  0
VERTEX
  5
10E3D
  8
0
 62
     5
 10
170.2397273922243
 20
142.21653821469991
 30
0.0
  0
VERTEX
  5
10E3E
  8
0
 62
     5
 10
170.24279107622431
 20
142.23190850569961
 30
0.0
  0
VERTEX
  5
10E3F
  8
0
 62
     5
 10
170.24463687482441
 20
142.2474712913999
 30
0.0
  0
VERTEX
  5
10E40
  8
0
 62
     5
 10
170.2452534081244
 20
142.26313062209991
 30
0.0
  0
SEQEND
  5
10E41
  8
0
 62
     5
  0
LINE
  5
10ACA
  8
0
 62
     5
 10
165.7452534081244
 20
142.0635447034999
 30
0.0
 11
170.04525340812441
 21
142.0635447034999
 31
0.0
  0
LINE
  5
10ACB
  8
0
 62
     5
 10
165.7452534081244
 20
148.67625832429999
 30
0.0
 11
165.04525340812441
 21
148.67625832429999
 31
0.0
  0
LINE
  5
10ACC
  8
0
 62
     5
 10
165.7452534081244
 20
149.22221999999991
 30
0.0
 11
161.54525340812441
 21
149.22221999999991
 31
0.0
  0
LINE
  5
10ACD
  8
0
 62
     5
 10
163.2941423884244
 20
147.57625832429991
 30
0.0
 11
163.2941423884244
 21
147.55494640429981
 31
0.0
  0
LINE
  5
10ACE
  8
0
 62
     5
 10
163.2941423884244
 20
146.00625832430001
 30
0.0
 11
163.2941423884244
 21
145.44625827589991
 31
0.0
  0
LINE
  5
10ACF
  8
0
 62
     5
 10
163.2941423884244
 20
147.57625832429991
 30
0.0
 11
163.34961299902389
 21
147.76792419119991
 31
0.0
  0
LINE
  5
10AD0
  8
0
 62
     5
 10
163.2941423884244
 20
145.44625832429981
 30
0.0
 11
163.16687928182401
 21
145.44625832429981
 31
0.0
  0
LINE
  5
10AD1
  8
0
 62
     5
 10
163.16687928182401
 20
146.00625832430001
 30
0.0
 11
163.2941423884244
 21
146.00625832430001
 31
0.0
  0
LINE
  5
10AD2
  8
0
 62
     5
 10
164.3061330274239
 20
148.47625832429961
 30
0.0
 11
165.04525340812441
 21
148.47625832429961
 31
0.0
  0
ARC
  5
10AD3
  8
0
 62
     5
 10
164.3061332665244
 20
147.47625832429981
 30
0.0
 40
1.0
 50
90.000013699500073
 51
163.0422846088974
  0
ARC
  5
10AD4
  8
0
 62
     5
 10
161.54525340812441
 20
148.9222199999999
 30
0.0
 40
0.3
 50
90.0
 51
180.0
  0
LINE
  5
10AD5
  8
0
 62
     5
 10
160.74525340812431
 20
174.52222
 30
0.0
 11
142.7452534081244
 21
174.52222
 31
0.0
  0
ARC
  5
10AD6
  8
0
 62
     5
 10
142.7452534081244
 20
173.52222
 30
0.0
 40
1.0
 50
90.0
 51
180.0
  0
LINE
  5
10AD7
  8
0
 62
     5
 10
160.74525340812431
 20
175.38901797249949
 30
0.0
 11
160.04525340812441
 21
175.38901797249949
 31
0.0
  0
LINE
  5
10AD8
  8
0
 62
     5
 10
158.1366902731244
 20
178.6859508995
 30
0.0
 11
158.1366902731244
 21
179.3842497822998
 31
0.0
  0
LINE
  5
10AD9
  8
0
 62
     5
 10
158.38039164032401
 20
180.1181816756999
 30
0.0
 11
158.38039164032401
 21
180.09627053729949
 31
0.0
  0
LINE
  5
10ADA
  8
0
 62
     5
 10
158.16068572532441
 20
178.5981816757
 30
0.0
 11
158.38039164032401
 21
178.5981816757
 31
0.0
  0
LINE
  5
10ADB
  8
0
 62
     5
 10
158.1366902731244
 20
177.95041245179979
 30
0.0
 11
158.1366902731244
 21
177.2521135689999
 31
0.0
  0
LINE
  5
10ADC
  8
0
 62
     5
 10
158.38039164032401
 20
176.54009281399999
 30
0.0
 11
158.38039164032401
 21
176.51818167569991
 31
0.0
  0
LINE
  5
10ADD
  8
0
 62
     5
 10
158.38039164032401
 20
178.0381816756998
 30
0.0
 11
158.16068572532441
 21
178.0381816756998
 31
0.0
  0
ARC
  5
10ADE
  8
0
 62
     5
 10
160.04525340812441
 20
177.50200520509981
 30
0.0
 40
1.9338235293999959
 50
210.58028737469911
 51
270.0
  0
LINE
  5
10ADF
  8
0
 62
     5
 10
158.38039164032401
 20
178.5981816757
 30
0.0
 11
158.38039164032401
 21
178.0381816756998
 31
0.0
  0
LINE
  5
10AE0
  8
0
 62
     5
 10
160.74525340812431
 20
175.3181816757
 30
0.0
 11
161.2452534081244
 21
175.3181816757
 31
0.0
  0
ARC
  5
10AE1
  8
0
 62
     5
 10
160.74525340812431
 20
175.02221999999981
 30
0.0
 40
0.5
 50
270.0
 51
0.0
  0
ARC
  5
10AE2
  8
0
 62
     5
 10
93.588904999950046
 20
187.52221999999981
 30
0.0
 40
4.5
 50
0.0
 51
90.0
  0
ARC
  5
10AE3
  8
CENTER
 10
68.088905000000011
 20
162.02222
 30
0.0
 40
34.999999999958803
 50
36.254022931162282
 51
54.381034396744781
  0
CIRCLE
  5
10AE4
  8
0
 62
     5
 10
92.837642341549994
 20
186.77095734150001
 30
0.0
 40
2.8999999999999999
  0
ARC
  5
10AE5
  8
0
 62
     5
 10
68.088904999950003
 20
-197.2323499358998
 30
0.0
 40
380.26616440010002
 50
85.574356627500123
 51
86.3124282214998
  0
ARC
  5
10AE6
  8
0
 62
     5
 10
68.088904999950003
 20
-197.2323499358998
 30
0.0
 40
380.0
 50
85.611600842500224
 51
86.3124282214998
  0
ARC
  5
10AE7
  8
0
 62
     5
 10
89.588904999950003
 20
181.9661986914
 30
0.0
 40
1.0
 50
0.0
 51
55.935410064198933
  0
LINE
  5
10AE8
  8
0
 62
     5
 10
98.088904999950003
 20
187.52221999999981
 30
0.0
 11
98.088904999950003
 21
181.5815885615998
 31
0.0
  0
LINE
  5
10AE9
  8
0
 62
     5
 10
142.7452534081244
 20
185.02221999999989
 30
0.0
 11
157.7461469296243
 21
185.02221999999989
 31
0.0
  0
LINE
  5
10AEA
  8
0
 62
     5
 10
141.7452534081244
 20
181.9661986914
 30
0.0
 11
161.2452534081244
 21
181.9661986914
 31
0.0
  0
LINE
  5
10AEB
  8
0
 62
     5
 10
142.7452534081244
 20
192.02221999999949
 30
0.0
 11
165.7452534081244
 21
192.02221999999949
 31
0.0
  0
ARC
  5
10AEC
  8
0
 62
     5
 10
142.7452534081244
 20
184.02222
 30
0.0
 40
1.0
 50
90.0
 51
180.0
  0
ARC
  5
10AED
  8
0
 62
     5
 10
142.7452534081244
 20
191.02221999999949
 30
0.0
 40
1.0
 50
90.0
 51
180.0
  0
LINE
  5
10AEE
  8
0
 62
     5
 10
160.74525340812431
 20
181.26818167569991
 30
0.0
 11
160.04525340812441
 21
181.26818167569991
 31
0.0
  0
LINE
  5
10AEF
  8
0
 62
     5
 10
158.2452534081244
 20
185.52221999999981
 30
0.0
 11
158.2452534081244
 21
191.52222
 31
0.0
  0
POLYLINE
  5
10AF0
  8
0
 62
     5
 66
     1
 10
0.0
 20
0.0
 30
0.0
 70
     8
  0
VERTEX
  5
10AF1
  8
0
 62
     5
 10
158.24600000000001
 20
185.517
 30
0.0
 70
    32
  0
VERTEX
  5
10AF2
  8
0
 62
     5
 10
158.24600000000001
 20
185.517
 30
0.0
 70
    32
  0
VERTEX
  5
10AF3
  8
0
 62
     5
 10
158.24600000000001
 20
185.517
 30
0.0
 70
    32
  0
VERTEX
  5
10AF4
  8
0
 62
     5
 10
158.24600000000001
 20
185.517
 30
0.0
 70
    32
  0
VERTEX
  5
10AF5
  8
0
 62
     5
 10
158.24600000000001
 20
185.517
 30
0.0
 70
    32
  0
VERTEX
  5
10AF6
  8
0
 62
     5
 10
158.24600000000001
 20
185.517
 30
0.0
 70
    32
  0
VERTEX
  5
10AF7
  8
0
 62
     5
 10
158.24600000000001
 20
185.517
 30
0.0
 70
    32
  0
VERTEX
  5
10AF8
  8
0
 62
     5
 10
158.24600000000001
 20
185.517
 30
0.0
 70
    32
  0
VERTEX
  5
10AF9
  8
0
 62
     5
 10
158.24600000000001
 20
185.517
 30
0.0
 70
    32
  0
VERTEX
  5
10AFA
  8
0
 62
     5
 10
158.24600000000001
 20
185.517
 30
0.0
 70
    32
  0
VERTEX
  5
10AFB
  8
0
 62
     5
 10
158.24600000000001
 20
185.518
 30
0.0
 70
    32
  0
VERTEX
  5
10AFC
  8
0
 62
     5
 10
158.24600000000001
 20
185.518
 30
0.0
 70
    32
  0
VERTEX
  5
10AFD
  8
0
 62
     5
 10
158.24600000000001
 20
185.518
 30
0.0
 70
    32
  0
VERTEX
  5
10AFE
  8
0
 62
     5
 10
158.24600000000001
 20
185.518
 30
0.0
 70
    32
  0
VERTEX
  5
10AFF
  8
0
 62
     5
 10
158.24600000000001
 20
185.518
 30
0.0
 70
    32
  0
VERTEX
  5
10B00
  8
0
 62
     5
 10
158.24600000000001
 20
185.518
 30
0.0
 70
    32
  0
VERTEX
  5
10B01
  8
0
 62
     5
 10
158.24600000000001
 20
185.518
 30
0.0
 70
    32
  0
VERTEX
  5
10B02
  8
0
 62
     5
 10
158.24600000000001
 20
185.518
 30
0.0
 70
    32
  0
VERTEX
  5
10B03
  8
0
 62
     5
 10
158.24600000000001
 20
185.518
 30
0.0
 70
    32
  0
VERTEX
  5
10B04
  8
0
 62
     5
 10
158.24600000000001
 20
185.518
 30
0.0
 70
    32
  0
VERTEX
  5
10B05
  8
0
 62
     5
 10
158.24600000000001
 20
185.518
 30
0.0
 70
    32
  0
VERTEX
  5
10B06
  8
0
 62
     5
 10
158.24600000000001
 20
185.518
 30
0.0
 70
    32
  0
VERTEX
  5
10B07
  8
0
 62
     5
 10
158.24600000000001
 20
185.518
 30
0.0
 70
    32
  0
VERTEX
  5
10B08
  8
0
 62
     5
 10
158.24600000000001
 20
185.518
 30
0.0
 70
    32
  0
VERTEX
  5
10B09
  8
0
 62
     5
 10
158.24600000000001
 20
185.518
 30
0.0
 70
    32
  0
VERTEX
  5
10B0A
  8
0
 62
     5
 10
158.24600000000001
 20
185.518
 30
0.0
 70
    32
  0
VERTEX
  5
10B0B
  8
0
 62
     5
 10
158.24600000000001
 20
185.518
 30
0.0
 70
    32
  0
VERTEX
  5
10B0C
  8
0
 62
     5
 10
158.24600000000001
 20
185.518
 30
0.0
 70
    32
  0
VERTEX
  5
10B0D
  8
0
 62
     5
 10
158.24600000000001
 20
185.518
 30
0.0
 70
    32
  0
VERTEX
  5
10B0E
  8
0
 62
     5
 10
158.24600000000001
 20
185.518
 30
0.0
 70
    32
  0
VERTEX
  5
10B0F
  8
0
 62
     5
 10
158.24600000000001
 20
185.518
 30
0.0
 70
    32
  0
VERTEX
  5
10B10
  8
0
 62
     5
 10
158.24600000000001
 20
185.518
 30
0.0
 70
    32
  0
VERTEX
  5
10B11
  8
0
 62
     5
 10
158.24600000000001
 20
185.518
 30
0.0
 70
    32
  0
VERTEX
  5
10B12
  8
0
 62
     5
 10
158.24600000000001
 20
185.518
 30
0.0
 70
    32
  0
VERTEX
  5
10B13
  8
0
 62
     5
 10
158.24600000000001
 20
185.518
 30
0.0
 70
    32
  0
VERTEX
  5
10B14
  8
0
 62
     5
 10
158.24600000000001
 20
185.518
 30
0.0
 70
    32
  0
VERTEX
  5
10B15
  8
0
 62
     5
 10
158.24600000000001
 20
185.518
 30
0.0
 70
    32
  0
VERTEX
  5
10B16
  8
0
 62
     5
 10
158.24600000000001
 20
185.518
 30
0.0
 70
    32
  0
VERTEX
  5
10B17
  8
0
 62
     5
 10
158.24600000000001
 20
185.518
 30
0.0
 70
    32
  0
VERTEX
  5
10B18
  8
0
 62
     5
 10
158.24600000000001
 20
185.518
 30
0.0
 70
    32
  0
VERTEX
  5
10B19
  8
0
 62
     5
 10
158.24600000000001
 20
185.518
 30
0.0
 70
    32
  0
VERTEX
  5
10B1A
  8
0
 62
     5
 10
158.24600000000001
 20
185.518
 30
0.0
 70
    32
  0
VERTEX
  5
10B1B
  8
0
 62
     5
 10
158.24600000000001
 20
185.51900000000001
 30
0.0
 70
    32
  0
VERTEX
  5
10B1C
  8
0
 62
     5
 10
158.245
 20
185.51900000000001
 30
0.0
 70
    32
  0
VERTEX
  5
10B1D
  8
0
 62
     5
 10
158.245
 20
185.51900000000001
 30
0.0
 70
    32
  0
VERTEX
  5
10B1E
  8
0
 62
     5
 10
158.245
 20
185.51900000000001
 30
0.0
 70
    32
  0
VERTEX
  5
10B1F
  8
0
 62
     5
 10
158.245
 20
185.51900000000001
 30
0.0
 70
    32
  0
VERTEX
  5
10B20
  8
0
 62
     5
 10
158.245
 20
185.51900000000001
 30
0.0
 70
    32
  0
VERTEX
  5
10B21
  8
0
 62
     5
 10
158.245
 20
185.51900000000001
 30
0.0
 70
    32
  0
VERTEX
  5
10B22
  8
0
 62
     5
 10
158.245
 20
185.51900000000001
 30
0.0
 70
    32
  0
VERTEX
  5
10B23
  8
0
 62
     5
 10
158.245
 20
185.51900000000001
 30
0.0
 70
    32
  0
VERTEX
  5
10B24
  8
0
 62
     5
 10
158.245
 20
185.51900000000001
 30
0.0
 70
    32
  0
VERTEX
  5
10B25
  8
0
 62
     5
 10
158.245
 20
185.51900000000001
 30
0.0
 70
    32
  0
VERTEX
  5
10B26
  8
0
 62
     5
 10
158.245
 20
185.51900000000001
 30
0.0
 70
    32
  0
VERTEX
  5
10B27
  8
0
 62
     5
 10
158.245
 20
185.51900000000001
 30
0.0
 70
    32
  0
VERTEX
  5
10B28
  8
0
 62
     5
 10
158.245
 20
185.51900000000001
 30
0.0
 70
    32
  0
VERTEX
  5
10B29
  8
0
 62
     5
 10
158.245
 20
185.51900000000001
 30
0.0
 70
    32
  0
VERTEX
  5
10B2A
  8
0
 62
     5
 10
158.245
 20
185.51900000000001
 30
0.0
 70
    32
  0
VERTEX
  5
10B2B
  8
0
 62
     5
 10
158.245
 20
185.51900000000001
 30
0.0
 70
    32
  0
VERTEX
  5
10B2C
  8
0
 62
     5
 10
158.245
 20
185.51900000000001
 30
0.0
 70
    32
  0
VERTEX
  5
10B2D
  8
0
 62
     5
 10
158.245
 20
185.51900000000001
 30
0.0
 70
    32
  0
VERTEX
  5
10B2E
  8
0
 62
     5
 10
158.245
 20
185.51900000000001
 30
0.0
 70
    32
  0
VERTEX
  5
10B2F
  8
0
 62
     5
 10
158.245
 20
185.51900000000001
 30
0.0
 70
    32
  0
VERTEX
  5
10B30
  8
0
 62
     5
 10
158.245
 20
185.51900000000001
 30
0.0
 70
    32
  0
VERTEX
  5
10B31
  8
0
 62
     5
 10
158.245
 20
185.51900000000001
 30
0.0
 70
    32
  0
VERTEX
  5
10B32
  8
0
 62
     5
 10
158.245
 20
185.51900000000001
 30
0.0
 70
    32
  0
VERTEX
  5
10B33
  8
0
 62
     5
 10
158.245
 20
185.51900000000001
 30
0.0
 70
    32
  0
VERTEX
  5
10B34
  8
0
 62
     5
 10
158.245
 20
185.51900000000001
 30
0.0
 70
    32
  0
VERTEX
  5
10B35
  8
0
 62
     5
 10
158.245
 20
185.51900000000001
 30
0.0
 70
    32
  0
VERTEX
  5
10B36
  8
0
 62
     5
 10
158.245
 20
185.51900000000001
 30
0.0
 70
    32
  0
VERTEX
  5
10B37
  8
0
 62
     5
 10
158.245
 20
185.51900000000001
 30
0.0
 70
    32
  0
VERTEX
  5
10B38
  8
0
 62
     5
 10
158.245
 20
185.51900000000001
 30
0.0
 70
    32
  0
VERTEX
  5
10B39
  8
0
 62
     5
 10
158.245
 20
185.51900000000001
 30
0.0
 70
    32
  0
VERTEX
  5
10B3A
  8
0
 62
     5
 10
158.245
 20
185.51900000000001
 30
0.0
 70
    32
  0
VERTEX
  5
10B3B
  8
0
 62
     5
 10
158.245
 20
185.52000000000001
 30
0.0
 70
    32
  0
VERTEX
  5
10B3C
  8
0
 62
     5
 10
158.245
 20
185.52000000000001
 30
0.0
 70
    32
  0
VERTEX
  5
10B3D
  8
0
 62
     5
 10
158.245
 20
185.52000000000001
 30
0.0
 70
    32
  0
VERTEX
  5
10B3E
  8
0
 62
     5
 10
158.245
 20
185.52000000000001
 30
0.0
 70
    32
  0
VERTEX
  5
10B3F
  8
0
 62
     5
 10
158.245
 20
185.52000000000001
 30
0.0
 70
    32
  0
VERTEX
  5
10B40
  8
0
 62
     5
 10
158.245
 20
185.52000000000001
 30
0.0
 70
    32
  0
VERTEX
  5
10B41
  8
0
 62
     5
 10
158.245
 20
185.52000000000001
 30
0.0
 70
    32
  0
VERTEX
  5
10B42
  8
0
 62
     5
 10
158.245
 20
185.52000000000001
 30
0.0
 70
    32
  0
VERTEX
  5
10B43
  8
0
 62
     5
 10
158.245
 20
185.52000000000001
 30
0.0
 70
    32
  0
VERTEX
  5
10B44
  8
0
 62
     5
 10
158.245
 20
185.52000000000001
 30
0.0
 70
    32
  0
VERTEX
  5
10B45
  8
0
 62
     5
 10
158.245
 20
185.52000000000001
 30
0.0
 70
    32
  0
VERTEX
  5
10B46
  8
0
 62
     5
 10
158.245
 20
185.52000000000001
 30
0.0
 70
    32
  0
VERTEX
  5
10B47
  8
0
 62
     5
 10
158.245
 20
185.52000000000001
 30
0.0
 70
    32
  0
VERTEX
  5
10B48
  8
0
 62
     5
 10
158.245
 20
185.52000000000001
 30
0.0
 70
    32
  0
VERTEX
  5
10B49
  8
0
 62
     5
 10
158.245
 20
185.52000000000001
 30
0.0
 70
    32
  0
VERTEX
  5
10B4A
  8
0
 62
     5
 10
158.245
 20
185.52000000000001
 30
0.0
 70
    32
  0
VERTEX
  5
10B4B
  8
0
 62
     5
 10
158.245
 20
185.52000000000001
 30
0.0
 70
    32
  0
VERTEX
  5
10B4C
  8
0
 62
     5
 10
158.245
 20
185.52000000000001
 30
0.0
 70
    32
  0
VERTEX
  5
10B4D
  8
0
 62
     5
 10
158.245
 20
185.52000000000001
 30
0.0
 70
    32
  0
VERTEX
  5
10B4E
  8
0
 62
     5
 10
158.245
 20
185.52000000000001
 30
0.0
 70
    32
  0
VERTEX
  5
10B4F
  8
0
 62
     5
 10
158.245
 20
185.52000000000001
 30
0.0
 70
    32
  0
VERTEX
  5
10B50
  8
0
 62
     5
 10
158.245
 20
185.52000000000001
 30
0.0
 70
    32
  0
VERTEX
  5
10B51
  8
0
 62
     5
 10
158.245
 20
185.52000000000001
 30
0.0
 70
    32
  0
VERTEX
  5
10B52
  8
0
 62
     5
 10
158.245
 20
185.52000000000001
 30
0.0
 70
    32
  0
VERTEX
  5
10B53
  8
0
 62
     5
 10
158.245
 20
185.52000000000001
 30
0.0
 70
    32
  0
VERTEX
  5
10B54
  8
0
 62
     5
 10
158.245
 20
185.52000000000001
 30
0.0
 70
    32
  0
VERTEX
  5
10B55
  8
0
 62
     5
 10
158.245
 20
185.52000000000001
 30
0.0
 70
    32
  0
VERTEX
  5
10B56
  8
0
 62
     5
 10
158.245
 20
185.52000000000001
 30
0.0
 70
    32
  0
VERTEX
  5
10B57
  8
0
 62
     5
 10
158.245
 20
185.52000000000001
 30
0.0
 70
    32
  0
VERTEX
  5
10B58
  8
0
 62
     5
 10
158.245
 20
185.52000000000001
 30
0.0
 70
    32
  0
VERTEX
  5
10B59
  8
0
 62
     5
 10
158.245
 20
185.52000000000001
 30
0.0
 70
    32
  0
VERTEX
  5
10B5A
  8
0
 62
     5
 10
158.245
 20
185.5209999999999
 30
0.0
 70
    32
  0
VERTEX
  5
10B5B
  8
0
 62
     5
 10
158.245
 20
185.5209999999999
 30
0.0
 70
    32
  0
VERTEX
  5
10B5C
  8
0
 62
     5
 10
158.245
 20
185.5209999999999
 30
0.0
 70
    32
  0
VERTEX
  5
10B5D
  8
0
 62
     5
 10
158.245
 20
185.5209999999999
 30
0.0
 70
    32
  0
VERTEX
  5
10B5E
  8
0
 62
     5
 10
158.245
 20
185.5209999999999
 30
0.0
 70
    32
  0
VERTEX
  5
10B5F
  8
0
 62
     5
 10
158.245
 20
185.5209999999999
 30
0.0
 70
    32
  0
VERTEX
  5
10B60
  8
0
 62
     5
 10
158.245
 20
185.5209999999999
 30
0.0
 70
    32
  0
VERTEX
  5
10B61
  8
0
 62
     5
 10
158.245
 20
185.5209999999999
 30
0.0
 70
    32
  0
VERTEX
  5
10B62
  8
0
 62
     5
 10
158.245
 20
185.5209999999999
 30
0.0
 70
    32
  0
VERTEX
  5
10B63
  8
0
 62
     5
 10
158.245
 20
185.5209999999999
 30
0.0
 70
    32
  0
VERTEX
  5
10B64
  8
0
 62
     5
 10
158.245
 20
185.5209999999999
 30
0.0
 70
    32
  0
VERTEX
  5
10B65
  8
0
 62
     5
 10
158.245
 20
185.5209999999999
 30
0.0
 70
    32
  0
VERTEX
  5
10B66
  8
0
 62
     5
 10
158.245
 20
185.5209999999999
 30
0.0
 70
    32
  0
VERTEX
  5
10B67
  8
0
 62
     5
 10
158.245
 20
185.5209999999999
 30
0.0
 70
    32
  0
VERTEX
  5
10B68
  8
0
 62
     5
 10
158.245
 20
185.5209999999999
 30
0.0
 70
    32
  0
VERTEX
  5
10B69
  8
0
 62
     5
 10
158.245
 20
185.5209999999999
 30
0.0
 70
    32
  0
VERTEX
  5
10B6A
  8
0
 62
     5
 10
158.245
 20
185.5209999999999
 30
0.0
 70
    32
  0
VERTEX
  5
10B6B
  8
0
 62
     5
 10
158.245
 20
185.5209999999999
 30
0.0
 70
    32
  0
VERTEX
  5
10B6C
  8
0
 62
     5
 10
158.245
 20
185.5209999999999
 30
0.0
 70
    32
  0
VERTEX
  5
10B6D
  8
0
 62
     5
 10
158.245
 20
185.5209999999999
 30
0.0
 70
    32
  0
VERTEX
  5
10B6E
  8
0
 62
     5
 10
158.245
 20
185.5209999999999
 30
0.0
 70
    32
  0
VERTEX
  5
10B6F
  8
0
 62
     5
 10
158.245
 20
185.5209999999999
 30
0.0
 70
    32
  0
VERTEX
  5
10B70
  8
0
 62
     5
 10
158.245
 20
185.5209999999999
 30
0.0
 70
    32
  0
VERTEX
  5
10B71
  8
0
 62
     5
 10
158.245
 20
185.5209999999999
 30
0.0
 70
    32
  0
VERTEX
  5
10B72
  8
0
 62
     5
 10
158.245
 20
185.5209999999999
 30
0.0
 70
    32
  0
VERTEX
  5
10B73
  8
0
 62
     5
 10
158.245
 20
185.5209999999999
 30
0.0
 70
    32
  0
VERTEX
  5
10B74
  8
0
 62
     5
 10
158.245
 20
185.5209999999999
 30
0.0
 70
    32
  0
VERTEX
  5
10B75
  8
0
 62
     5
 10
158.245
 20
185.5209999999999
 30
0.0
 70
    32
  0
VERTEX
  5
10B76
  8
0
 62
     5
 10
158.245
 20
185.5209999999999
 30
0.0
 70
    32
  0
VERTEX
  5
10B77
  8
0
 62
     5
 10
158.245
 20
185.5209999999999
 30
0.0
 70
    32
  0
VERTEX
  5
10B78
  8
0
 62
     5
 10
158.245
 20
185.5209999999999
 30
0.0
 70
    32
  0
VERTEX
  5
10B79
  8
0
 62
     5
 10
158.245
 20
185.5209999999999
 30
0.0
 70
    32
  0
VERTEX
  5
10B7A
  8
0
 62
     5
 10
158.245
 20
185.52199999999991
 30
0.0
 70
    32
  0
VERTEX
  5
10B7B
  8
0
 62
     5
 10
158.245
 20
185.52199999999991
 30
0.0
 70
    32
  0
VERTEX
  5
10B7C
  8
0
 62
     5
 10
158.245
 20
185.52199999999991
 30
0.0
 70
    32
  0
VERTEX
  5
10B7D
  8
0
 62
     5
 10
158.245
 20
185.52199999999991
 30
0.0
 70
    32
  0
VERTEX
  5
10B7E
  8
0
 62
     5
 10
158.245
 20
185.52199999999991
 30
0.0
 70
    32
  0
VERTEX
  5
10B7F
  8
0
 62
     5
 10
158.245
 20
185.52199999999991
 30
0.0
 70
    32
  0
VERTEX
  5
10B80
  8
0
 62
     5
 10
158.245
 20
185.52199999999991
 30
0.0
 70
    32
  0
VERTEX
  5
10B81
  8
0
 62
     5
 10
158.245
 20
185.52199999999991
 30
0.0
 70
    32
  0
VERTEX
  5
10B82
  8
0
 62
     5
 10
158.245
 20
185.52199999999991
 30
0.0
 70
    32
  0
VERTEX
  5
10B83
  8
0
 62
     5
 10
158.245
 20
185.52199999999991
 30
0.0
 70
    32
  0
VERTEX
  5
10B84
  8
0
 62
     5
 10
158.245
 20
185.52199999999991
 30
0.0
 70
    32
  0
VERTEX
  5
10B85
  8
0
 62
     5
 10
158.245
 20
185.52199999999991
 30
0.0
 70
    32
  0
VERTEX
  5
10B86
  8
0
 62
     5
 10
158.245
 20
185.52199999999991
 30
0.0
 70
    32
  0
VERTEX
  5
10B87
  8
0
 62
     5
 10
158.245
 20
185.52199999999991
 30
0.0
 70
    32
  0
VERTEX
  5
10B88
  8
0
 62
     5
 10
158.245
 20
185.52199999999991
 30
0.0
 70
    32
  0
VERTEX
  5
10B89
  8
0
 62
     5
 10
158.245
 20
185.52199999999991
 30
0.0
 70
    32
  0
VERTEX
  5
10B8A
  8
0
 62
     5
 10
158.245
 20
185.52199999999991
 30
0.0
 70
    32
  0
VERTEX
  5
10B8B
  8
0
 62
     5
 10
158.245
 20
185.52199999999991
 30
0.0
 70
    32
  0
VERTEX
  5
10B8C
  8
0
 62
     5
 10
158.245
 20
185.52199999999991
 30
0.0
 70
    32
  0
VERTEX
  5
10B8D
  8
0
 62
     5
 10
158.245
 20
185.52199999999991
 30
0.0
 70
    32
  0
VERTEX
  5
10B8E
  8
0
 62
     5
 10
158.245
 20
185.52199999999991
 30
0.0
 70
    32
  0
VERTEX
  5
10B8F
  8
0
 62
     5
 10
158.245
 20
185.52199999999991
 30
0.0
 70
    32
  0
VERTEX
  5
10B90
  8
0
 62
     5
 10
158.245
 20
185.52199999999991
 30
0.0
 70
    32
  0
SEQEND
  5
10B91
  8
0
 62
     5
  0
ARC
  5
10B92
  8
0
 62
     5
 10
157.7452534081244
 20
185.52221999999981
 30
0.0
 40
0.5
 50
270.0
 51
0.0
  0
ARC
  5
10B93
  8
0
 62
     5
 10
158.74525340812431
 20
191.52222
 30
0.0
 40
0.5
 50
90.0
 51
180.0
  0
LINE
  5
10B94
  8
0
 62
     5
 10
163.2941423884244
 20
188.79092765189981
 30
0.0
 11
163.2941423884244
 21
188.23092760339981
 31
0.0
  0
LINE
  5
10B95
  8
0
 62
     5
 10
161.2452534081244
 20
185.3221878011
 30
0.0
 11
161.2452534081244
 21
191.52222
 31
0.0
  0
LINE
  5
10B96
  8
0
 62
     5
 10
165.04525340812441
 20
185.5817639487
 30
0.0
 11
165.04525340812441
 21
191.45912557790001
 31
0.0
  0
LINE
  5
10B97
  8
0
 62
     5
 10
165.7452534081244
 20
185.5817639487
 30
0.0
 11
165.04525340812441
 21
185.5817639487
 31
0.0
  0
LINE
  5
10B98
  8
0
 62
     5
 10
161.54525340812441
 20
185.02221999999989
 30
0.0
 11
165.24525340812431
 21
185.02221999999989
 31
0.0
  0
LINE
  5
10B99
  8
0
 62
     5
 10
165.24525340812431
 20
181.98089529649991
 30
0.0
 11
161.44525340812439
 21
181.98089529649991
 31
0.0
  0
LINE
  5
10B9A
  8
0
 62
     5
 10
163.2941423884244
 20
186.68223959749989
 30
0.0
 11
163.2941423884244
 21
186.6609276518999
 31
0.0
  0
LINE
  5
10B9B
  8
0
 62
     5
 10
163.2941423884244
 20
186.6609276518999
 30
0.0
 11
163.34961299902389
 21
186.4692617849999
 31
0.0
  0
LINE
  5
10B9C
  8
0
 62
     5
 10
164.3061330274239
 20
185.76092765189961
 30
0.0
 11
165.04525340812441
 21
185.76092765189961
 31
0.0
  0
LINE
  5
10B9D
  8
0
 62
     5
 10
163.2941423884244
 20
188.2309276518998
 30
0.0
 11
163.16687928182401
 21
188.2309276518998
 31
0.0
  0
ARC
  5
10B9E
  8
0
 62
     5
 10
164.3061332665244
 20
186.76092765189949
 30
0.0
 40
1.0
 50
196.95771539109879
 51
269.99998630049993
  0
ARC
  5
10B9F
  8
0
 62
     5
 10
161.54525340812441
 20
185.3222199999999
 30
0.0
 40
0.3
 50
180.0
 51
270.0
  0
LINE
  5
10BA0
  8
0
 62
     5
 10
160.74525340812431
 20
181.3181816756998
 30
0.0
 11
161.2452534081244
 21
181.3181816756998
 31
0.0
  0
POLYLINE
  5
10BA1
  8
0
 62
     5
 66
     1
 10
0.0
 20
0.0
 30
0.0
  0
VERTEX
  5
10E42
  8
0
 62
     5
 10
170.04525340812441
 20
181.98089529649999
 30
0.0
  0
VERTEX
  5
10E43
  8
0
 62
     5
 10
170.06094522582441
 20
181.98028003979991
 30
0.0
  0
VERTEX
  5
10E44
  8
0
 62
     5
 10
170.07654029832401
 20
181.9784380630999
 30
0.0
  0
VERTEX
  5
10E45
  8
0
 62
     5
 10
170.0919424767244
 20
181.97538072269981
 30
0.0
  0
VERTEX
  5
10E46
  8
0
 62
     5
 10
170.10705680172441
 20
181.97112686809999
 30
0.0
  0
VERTEX
  5
10E47
  8
0
 62
     5
 10
170.12179008832439
 20
181.96570272569991
 30
0.0
  0
VERTEX
  5
10E48
  8
0
 62
     5
 10
170.1360515010243
 20
181.95914173709991
 30
0.0
  0
VERTEX
  5
10E49
  8
0
 62
     5
 10
170.14975311352441
 20
181.95148435289991
 30
0.0
  0
VERTEX
  5
10E4A
  8
0
 62
     5
 10
170.1628104508244
 20
181.94277778349991
 30
0.0
  0
VERTEX
  5
10E4B
  8
0
 62
     5
 10
170.1751430100243
 20
181.93307570769991
 30
0.0
  0
VERTEX
  5
10E4C
  8
0
 62
     5
 10
170.1866747568244
 20
181.92243794189949
 30
0.0
  0
VERTEX
  5
10E4D
  8
0
 62
     5
 10
170.1973345942244
 20
181.9109300714
 30
0.0
  0
VERTEX
  5
10E4E
  8
0
 62
     5
 10
170.2070568007239
 20
181.8986230461
 30
0.0
  0
VERTEX
  5
10E4F
  8
0
 62
     5
 10
170.21578143562439
 20
181.8855927426998
 30
0.0
  0
VERTEX
  5
10E50
  8
0
 62
     5
 10
170.2234547085244
 20
181.8719194974999
 30
0.0
  0
VERTEX
  5
10E51
  8
0
 62
     5
 10
170.23002931122431
 20
181.85768761049999
 30
0.0
  0
VERTEX
  5
10E52
  8
0
 62
     5
 10
170.23546470902431
 20
181.8429848258998
 30
0.0
  0
VERTEX
  5
10E53
  8
0
 62
     5
 10
170.23972739072431
 20
181.82790179139991
 30
0.0
  0
VERTEX
  5
10E54
  8
0
 62
     5
 10
170.24279107552431
 20
181.81253149879981
 30
0.0
  0
VERTEX
  5
10E55
  8
0
 62
     5
 10
170.24463687472431
 20
181.79696871099981
 30
0.0
  0
VERTEX
  5
10E56
  8
0
 62
     5
 10
170.2452534081244
 20
181.78130937789999
 30
0.0
  0
SEQEND
  5
10E57
  8
0
 62
     5
  0
POLYLINE
  5
10BB8
  8
0
 62
     5
 66
     1
 10
0.0
 20
0.0
 30
0.0
  0
VERTEX
  5
10E58
  8
0
 62
     5
 10
165.94525340812439
 20
181.98089529649999
 30
0.0
  0
VERTEX
  5
10E59
  8
0
 62
     5
 10
165.9295615890239
 20
181.98028003970001
 30
0.0
  0
VERTEX
  5
10E5A
  8
0
 62
     5
 10
165.9139665151244
 20
181.97843806259951
 30
0.0
  0
VERTEX
  5
10E5B
  8
0
 62
     5
 10
165.89856433532441
 20
181.97538072169991
 30
0.0
  0
VERTEX
  5
10E5C
  8
0
 62
     5
 10
165.88345000922439
 20
181.97112686630001
 30
0.0
  0
VERTEX
  5
10E5D
  8
0
 62
     5
 10
165.86871672162431
 20
181.96570272310001
 30
0.0
  0
VERTEX
  5
10E5E
  8
0
 62
     5
 10
165.854455308224
 20
181.95914173349991
 30
0.0
  0
VERTEX
  5
10E5F
  8
0
 62
     5
 10
165.84075369522441
 20
181.9514843483
 30
0.0
  0
VERTEX
  5
10E60
  8
0
 62
     5
 10
165.82769635762389
 20
181.94277777789949
 30
0.0
  0
VERTEX
  5
10E61
  8
0
 62
     5
 10
165.81536379842441
 20
181.93307570109999
 30
0.0
  0
VERTEX
  5
10E62
  8
0
 62
     5
 10
165.8038320519243
 20
181.92243793439991
 30
0.0
  0
VERTEX
  5
10E63
  8
0
 62
     5
 10
165.79317221502441
 20
181.9109300632
 30
0.0
  0
VERTEX
  5
10E64
  8
0
 62
     5
 10
165.7834500092244
 20
181.8986230374
 30
0.0
  0
VERTEX
  5
10E65
  8
0
 62
     5
 10
165.77472537522431
 20
181.8855927338999
 30
0.0
  0
VERTEX
  5
10E66
  8
0
 62
     5
 10
165.767052103324
 20
181.87191948879999
 30
0.0
  0
VERTEX
  5
10E67
  8
0
 62
     5
 10
165.76047750162431
 20
181.8576876022999
 30
0.0
  0
VERTEX
  5
10E68
  8
0
 62
     5
 10
165.7550421048243
 20
181.84298481859949
 30
0.0
  0
VERTEX
  5
10E69
  8
0
 62
     5
 10
165.75077942402439
 20
181.8279017852999
 30
0.0
  0
VERTEX
  5
10E6A
  8
0
 62
     5
 10
165.74771574002401
 20
181.81253149429989
 30
0.0
  0
VERTEX
  5
10E6B
  8
0
 62
     5
 10
165.74586994142439
 20
181.79696870859999
 30
0.0
  0
VERTEX
  5
10E6C
  8
0
 62
     5
 10
165.7452534081244
 20
181.78130937789999
 30
0.0
  0
SEQEND
  5
10E6D
  8
0
 62
     5
  0
LINE
  5
10BCF
  8
0
 62
     5
 10
165.7452534081244
 20
181.9088314629999
 30
0.0
 11
165.24525340812431
 21
181.9088314629999
 31
0.0
  0
LINE
  5
10BD0
  8
0
 62
     5
 10
165.7452534081244
 20
181.90996148740001
 30
0.0
 11
165.24525340812431
 21
181.90996148740001
 31
0.0
  0
LINE
  5
10BD1
  8
0
 62
     5
 10
165.94525340812439
 20
181.98089529649991
 30
0.0
 11
170.04525340812441
 21
181.98089529649991
 31
0.0
  0
LINE
  5
10BD2
  8
0
 62
     5
 10
165.24525340812431
 20
181.9088314629999
 30
0.0
 11
165.24525340812431
 21
185.5817639487
 31
0.0
  0
LINE
  5
10BD3
  8
0
 62
     5
 10
165.7452534081244
 20
191.46092765189991
 30
0.0
 11
165.04525340812441
 21
191.46092765189991
 31
0.0
  0
LINE
  5
10BD4
  8
0
 62
     5
 10
163.2941423884244
 20
190.3609276519
 30
0.0
 11
163.34961299902389
 21
190.55259351869981
 31
0.0
  0
LINE
  5
10BD5
  8
0
 62
     5
 10
163.2941423884244
 20
190.3609276519
 30
0.0
 11
163.2941423884244
 21
190.3396157318
 31
0.0
  0
LINE
  5
10BD6
  8
0
 62
     5
 10
164.3061330274239
 20
191.26092765189981
 30
0.0
 11
165.04525340812441
 21
191.26092765189981
 31
0.0
  0
ARC
  5
10BD7
  8
0
 62
     5
 10
164.3061332665244
 20
190.26092765189981
 30
0.0
 40
1.0
 50
90.000013699500073
 51
163.0422846088974
  0
ARC
  5
10BD8
  8
0
 62
     5
 10
160.74525340812431
 20
191.52222
 30
0.0
 40
0.5
 50
0.0
 51
90.0
  0
LINE
  5
10BD9
  8
0
 62
     5
 10
163.16687928182401
 20
188.79092765189981
 30
0.0
 11
163.2941423884244
 21
188.79092765189981
 31
0.0
  0
ARC
  5
10BDA
  8
0
 62
     5
 10
170.04525340812441
 20
191.8222199999999
 30
0.0
 40
0.2
 50
0.0
 51
90.0
  0
LINE
  5
10BDB
  8
0
 62
     5
 10
165.24525340812431
 20
192.02221999999949
 30
0.0
 11
165.24525340812431
 21
191.46092765189991
 31
0.0
  0
LINE
  5
10BDC
  8
0
 62
     5
 10
165.7452534081244
 20
192.02221999999949
 30
0.0
 11
165.7452534081244
 21
191.83057790359999
 31
0.0
  0
ARC
  5
10BDD
  8
0
 62
     5
 10
165.94525340812439
 20
191.8222199999999
 30
0.0
 40
0.2
 50
90.0
 51
180.0
  0
LINE
  5
10BDE
  8
0
 62
     5
 10
165.94525340812439
 20
192.02221999999949
 30
0.0
 11
170.04525340812441
 21
192.02221999999949
 31
0.0
  0
LINE
  5
10BDF
  8
0
 62
     5
 10
231.24525340812431
 20
132.02221999999969
 30
0.0
 11
231.24525340812431
 21
192.02221999999949
 31
0.0
  0
LINE
  5
10BE0
  8
0
 62
     5
 10
240.24525340812431
 20
192.02221999999949
 30
0.0
 11
240.24525340812431
 21
132.02221999999969
 31
0.0
  0
LINE
  5
10BE1
  8
0
 62
     5
 10
243.0452534081243
 20
187.02222
 30
0.0
 11
243.0452534081243
 21
137.02221999999961
 31
0.0
  0
LINE
  5
10BE2
  8
0
 62
     5
 10
243.24525340812431
 20
186.8222199999999
 30
0.0
 11
243.24525340812431
 21
137.22221999999991
 31
0.0
  0
LINE
  5
10BE3
  8
HIDDEN
 10
198.01377677365309
 20
124.72221999999969
 30
0.0
 11
213.82163840752429
 21
124.72221999999969
 31
0.0
  0
LINE
  5
10BE4
  8
0
 62
     5
 10
231.24525340812431
 20
132.02221999999969
 30
0.0
 11
189.043071753524
 21
131.83807707599991
 31
0.0
  0
LINE
  5
10BE5
  8
HIDDEN
 10
194.04251963592719
 20
128.02145383089839
 30
0.0
 11
187.998955539874
 21
128.02145383112449
 31
0.0
  0
LINE
  5
10BE6
  8
0
 62
     5
 10
175.51195363112441
 20
123.22221999999979
 30
0.0
 11
182.57855318512441
 21
123.22221999999979
 31
0.0
  0
LINE
  5
10BE7
  8
0
 62
     5
 10
188.0452534081243
 20
128.62222
 30
0.0
 11
170.8952534081244
 21
128.62222
 31
0.0
  0
LINE
  5
10BE8
  8
0
 62
     5
 10
170.89743506272441
 20
132.0118113998
 30
0.0
 11
188.2227065981242
 21
132.01479923819991
 31
0.0
  0
LINE
  5
10BE9
  8
0
 62
     5
 10
170.3952534081244
 20
131.75671010260001
 30
0.0
 11
170.3952534081244
 21
129.12221999999991
 31
0.0
  0
LINE
  5
10BEA
  8
0
 62
     5
 10
175.51195363112441
 20
123.22221999999979
 30
0.0
 11
175.3422517943244
 21
128.62222
 31
0.0
  0
LINE
  5
10BEB
  8
HIDDEN
 10
171.04525340812441
 20
126.6222199999996
 30
0.0
 11
171.04525340812441
 21
127.7222199999995
 31
0.0
  0
ARC
  5
10BEC
  8
HIDDEN
 10
171.54525340812441
 20
126.6222199999996
 30
0.0
 40
0.5
 50
180.0
 51
270.00000000499921
  0
LINE
  5
10BED
  8
HIDDEN
 10
171.54525340816809
 20
126.1222199999999
 30
0.0
 11
172.6952534081243
 21
126.1222199999999
 31
0.0
  0
LINE
  5
10BEE
  8
0
 62
     5
 10
176.12936543932409
 20
128.62222
 30
0.0
 11
176.19965824012439
 21
123.22221999999979
 31
0.0
  0
LINE
  5
10BEF
  8
0
 62
     5
 10
188.5452534081243
 20
131.40500128080001
 30
0.0
 11
188.5452534081243
 21
129.12221999999991
 31
0.0
  0
LINE
  5
10BF0
  8
0
 62
     5
 10
181.8908485761244
 20
123.22221999999979
 30
0.0
 11
181.9611413769243
 21
128.62222
 31
0.0
  0
LINE
  5
10BF1
  8
0
 62
     5
 10
182.74825502192439
 20
128.62222
 30
0.0
 11
182.57855318512441
 21
123.22221999999979
 31
0.0
  0
ARC
  5
10BF2
  8
0
 62
     5
 10
188.0452534081243
 20
129.12221999999991
 30
0.0
 40
0.5
 50
270.0
 51
0.0
  0
ARC
  5
10BF3
  8
0
 62
     5
 10
189.0452534081243
 20
131.33808183569991
 30
0.0
 40
0.5
 50
90.249999999999702
 51
180.0
  0
LINE
  5
10BF4
  8
HIDDEN
 10
197.7470411340243
 20
125.8611503061999
 30
0.0
 11
194.04251963592719
 21
128.02145383089839
 31
0.0
  0
LINE
  5
10BF5
  8
0
 62
     5
 10
233.24525340812431
 20
142.46285143840001
 30
0.0
 11
231.24525340812431
 21
142.46285143840001
 31
0.0
  0
LINE
  5
10BF6
  8
0
 62
     5
 10
240.24525340812431
 20
132.02221999999969
 30
0.0
 11
231.24525340812431
 21
132.02221999999969
 31
0.0
  0
LINE
  5
10BF7
  8
0
 62
     5
 10
233.24525340812431
 20
132.02221999999969
 30
0.0
 11
233.24525340812431
 21
142.46285143840001
 31
0.0
  0
LINE
  5
10BF8
  8
0
 62
     5
 10
240.4452534081243
 20
137.02221999999961
 30
0.0
 11
243.0452534081243
 21
137.02221999999961
 31
0.0
  0
ARC
  5
10BF9
  8
0
 62
     5
 10
240.4452534081243
 20
136.8222199999999
 30
0.0
 40
0.2
 50
90.0
 51
179.99999998790059
  0
LINE
  5
10BFA
  8
0
 62
     5
 10
243.0452534081243
 20
137.02221999999961
 30
0.0
 11
243.24525340812431
 21
137.22221999999991
 31
0.0
  0
ARC
  5
10BFB
  8
0
 62
     5
 10
243.64525340812409
 20
154.62222
 30
0.0
 40
0.4000000000000001
 50
90.0
 51
179.99999996569841
  0
ARC
  5
10BFC
  8
0
 62
     5
 10
243.64525340812409
 20
169.42221999999981
 30
0.0
 40
0.4000000000000001
 50
180.0000000342983
 51
270.0
  0
LINE
  5
10BFD
  8
0
 62
     5
 10
240.24525340812431
 20
192.02221999999949
 30
0.0
 11
231.24525340812431
 21
192.02221999999949
 31
0.0
  0
LINE
  5
10BFE
  8
0
 62
     5
 10
233.24525340812431
 20
181.5815885615998
 30
0.0
 11
231.24525340812431
 21
181.5815885615998
 31
0.0
  0
LINE
  5
10BFF
  8
0
 62
     5
 10
240.4452534081243
 20
187.02222
 30
0.0
 11
243.0452534081243
 21
187.02222
 31
0.0
  0
LINE
  5
10C00
  8
0
 62
     5
 10
233.24525340812431
 20
181.5815885615998
 30
0.0
 11
233.24525340812431
 21
192.02221999999949
 31
0.0
  0
ARC
  5
10C01
  8
0
 62
     5
 10
240.4452534081243
 20
187.22221999999991
 30
0.0
 40
0.2
 50
180.00000001209921
 51
270.0
  0
LINE
  5
10C02
  8
0
 62
     5
 10
243.0452534081243
 20
187.02222
 30
0.0
 11
243.24525340812431
 21
186.8222199999999
 31
0.0
  0
LINE
  5
10C03
  8
HIDDEN
 10
359.54341790531862
 20
123.0222199999999
 30
0.0
 11
359.54341790531862
 21
120.4105949584999
 31
0.0
  0
LINE
  5
10C04
  8
HIDDEN
 10
345.62361188491877
 20
126.1222200000194
 30
0.0
 11
345.62361188491877
 21
118.9222199999999
 31
0.0
  0
LINE
  5
10C05
  8
HIDDEN
 10
326.72361188491863
 20
126.1222200001808
 30
0.0
 11
326.72361188491863
 21
118.9222199999999
 31
0.0
  0
LINE
  5
10C06
  8
CENTER
 10
352.07361188491888
 20
133.59301673939939
 30
0.0
 11
352.07361188491888
 21
114.3555923784
 31
0.0
  0
LINE
  5
10C07
  8
CENTER
 10
336.17361188491873
 20
133.59301673939939
 30
0.0
 11
336.17361188491873
 21
111.27890120724039
 31
0.0
  0
LINE
  5
10C08
  8
CENTER
 10
342.07361188491871
 20
198.65991205951511
 30
0.0
 11
342.07361188491871
 21
113.87822068918
 31
0.0
  0
LINE
  5
10C09
  8
HIDDEN
 10
330.72361188491868
 20
114.9222199999999
 30
0.0
 11
341.62361188491877
 21
114.9222199999999
 31
0.0
  0
ARC
  5
10C0A
  8
HIDDEN
 10
330.72494447759982
 20
118.92355259268101
 30
0.0
 40
4.001332814582498
 50
180.0190816263933
 51
269.98091837360641
  0
LINE
  5
10C0B
  8
HIDDEN
 10
355.60917210151871
 20
116.0222219518997
 30
0.0
 11
347.83851954131882
 21
116.0222199999999
 31
0.0
  0
ARC
  5
10C0C
  8
HIDDEN
 10
341.623611883884
 20
118.9222200010346
 30
0.0
 40
4.0000000010347181
 50
270.0000000148213
 51
359.9999999851795
  0
ARC
  5
10C0D
  8
HIDDEN
 10
355.27394619402958
 20
120.28050057512679
 30
0.0
 40
4.2714532939133392
 50
274.50123174538942
 51
1.7453104257324901
  0
LINE
  5
10C0E
  8
0
 62
     5
 10
323.19285982146869
 20
192.2883844000996
 30
0.0
 11
360.95436394836872
 21
192.2883844000996
 31
0.0
  0
LINE
  5
10C0F
  8
CENTER
 10
307.73071078577323
 20
162.02221999999981
 30
0.0
 11
376.41651298406441
 21
162.02221999999981
 31
0.0
  0
LINE
  5
10C10
  8
0
 62
     5
 10
339.68299951251868
 20
128.9222199999999
 30
0.0
 11
332.66422425731872
 21
128.9222199999999
 31
0.0
  0
LINE
  5
10C11
  8
0
 62
     5
 10
328.81531210791883
 20
123.22221999999979
 30
0.0
 11
343.53191166191863
 21
123.22221999999979
 31
0.0
  0
LINE
  5
10C12
  8
0
 62
     5
 10
322.75091986091883
 20
128.62221999999991
 30
0.0
 11
349.51424332331868
 21
128.62221999999991
 31
0.0
  0
LINE
  5
10C13
  8
0
 62
     5
 10
316.57361188491882
 20
132.02221999999969
 30
0.0
 11
367.57361188491882
 21
132.02221999999969
 31
0.0
  0
LINE
  5
10C14
  8
0
 62
     5
 10
367.57361188491882
 20
192.02221999999949
 30
0.0
 11
316.57361188491882
 21
192.02221999999949
 31
0.0
  0
CIRCLE
  5
10C15
  8
0
 62
     5
 10
342.07361188491871
 20
162.02221999999981
 30
0.0
 40
8.5
  0
CIRCLE
  5
10C16
  8
0
 62
     5
 10
342.07361188491871
 20
162.02221999999981
 30
0.0
 40
25.0
  0
LINE
  5
10C17
  8
CENTER
 10
323.3711300308953
 20
180.72470185402341
 30
0.0
 11
311.63001923056822
 21
192.4658126543504
 31
0.0
  0
LINE
  5
10C18
  8
0
 62
     5
 10
312.07361188491882
 20
187.52221999999981
 30
0.0
 11
312.07361188491882
 21
136.52221999999961
 31
0.0
  0
LINE
  5
10C19
  8
0
 62
     5
 10
269.84525340812422
 20
169.02222
 30
0.0
 11
269.84525340812422
 21
155.02221999999981
 31
0.0
  0
LINE
  5
10C1A
  8
0
 62
     5
 10
270.24525340812443
 20
168.62221738709991
 30
0.0
 11
270.24525340812443
 21
155.42222261289999
 31
0.0
  0
LINE
  5
10C1B
  8
0
 62
     5
 10
269.84525340812422
 20
155.02221999999981
 30
0.0
 11
270.24525340812443
 21
155.42221999999981
 31
0.0
  0
LINE
  5
10C1C
  8
0
 62
     5
 10
269.84525340812422
 20
169.02222
 30
0.0
 11
270.24525340812443
 21
168.62222
 31
0.0
  0
LINE
  5
10C1D
  8
0
 62
     5
 10
311.8074474848687
 20
143.14146793659961
 30
0.0
 11
311.8074474848687
 21
180.9029720633994
 31
0.0
  0
ARC
  5
10C1E
  8
CENTER
 10
342.07361188491871
 20
162.02221999999981
 30
0.0
 40
34.999999999958803
 50
216.25402293116221
 51
234.3810343967447
  0
LINE
  5
10C1F
  8
CENTER
 10
323.37113003089502
 20
143.3197381459764
 30
0.0
 11
311.63001923056822
 21
131.57862734564941
 31
0.0
  0
ARC
  5
10C20
  8
0
 62
     5
 10
316.57361188491882
 20
136.52221999999961
 30
0.0
 40
4.5
 50
180.0
 51
270.0
  0
CIRCLE
  5
10C21
  8
0
 62
     5
 10
317.32487454341862
 20
137.2734826584998
 30
0.0
 40
2.8999999999999999
  0
ARC
  5
10C22
  8
HIDDEN
 10
324.42361188461882
 20
126.6222199998999
 30
0.0
 40
0.4999999997
 50
179.9999999967005
 51
270.0000000492995
  0
LINE
  5
10C23
  8
0
 62
     5
 10
322.25112633621512
 20
132.02221999999969
 30
0.0
 11
322.25091986091871
 21
129.12221999999991
 31
0.0
  0
LINE
  5
10C24
  8
HIDDEN
 10
323.92361188491878
 20
127.7222199999995
 30
0.0
 11
323.92361188491878
 21
126.6222199999996
 31
0.0
  0
LINE
  5
10C25
  8
0
 62
     5
 10
322.25092462061878
 20
132.0118113998
 30
0.0
 11
322.25091986091871
 21
132.01156579749991
 31
0.0
  0
LINE
  5
10C26
  8
HIDDEN
 10
324.42361188504901
 20
126.1222200001999
 30
0.0
 11
326.72361188491863
 21
126.12222000018031
 31
0.0
  0
LINE
  5
10C27
  8
0
 62
     5
 10
328.81531210791883
 20
123.22221999999979
 30
0.0
 11
328.64561027121869
 21
128.62221999999991
 31
0.0
  0
LINE
  5
10C28
  8
0
 62
     5
 10
332.67361188491878
 20
128.82221999999939
 30
0.0
 11
332.67361188491878
 21
128.9222199999999
 31
0.0
  0
ARC
  5
10C29
  8
0
 62
     5
 10
332.47361188491868
 20
128.82221999999939
 30
0.0
 40
0.2
 50
270.0
 51
0.0
  0
LINE
  5
10C2A
  8
0
 62
     5
 10
329.43272391771882
 20
128.62221999999991
 30
0.0
 11
329.5030167165188
 21
123.22221999999979
 31
0.0
  0
CIRCLE
  5
10C2B
  8
0
 62
     5
 10
315.58490423311878
 20
145.72625832429981
 30
0.0
 40
1.25
  0
ARC
  5
10C2C
  8
CENTER
 10
342.07361188491871
 20
162.02221999999981
 30
0.0
 40
34.999999999958803
 50
126.2540229311622
 51
144.38103439674359
  0
ARC
  5
10C2D
  8
0
 62
     5
 10
316.57361188491882
 20
187.52221999999981
 30
0.0
 40
4.5
 50
90.0
 51
180.0
  0
CIRCLE
  5
10C2E
  8
0
 62
     5
 10
317.32487454341862
 20
186.77095734149981
 30
0.0
 40
2.8999999999999999
  0
CIRCLE
  5
10C2F
  8
0
 62
     5
 10
325.77765020921879
 20
188.51092765189981
 30
0.0
 40
1.25
  0
LINE
  5
10C30
  8
CENTER
 10
360.77609373894228
 20
180.72470185402341
 30
0.0
 11
372.5172045392689
 21
192.4658126543504
 31
0.0
  0
LINE
  5
10C31
  8
0
 62
     5
 10
372.07361188491871
 20
136.52221999999961
 30
0.0
 11
372.07361188491871
 21
187.52221999999981
 31
0.0
  0
LINE
  5
10C32
  8
0
 62
     5
 10
372.33977628496871
 20
180.9029720633994
 30
0.0
 11
372.33977628496871
 21
143.14146793659961
 31
0.0
  0
LINE
  5
10C33
  8
0
 62
     5
 10
348.70841216101883
 20
127.8222199999996
 30
0.0
 11
357.5976072264188
 21
127.8222199999996
 31
0.0
  0
LINE
  5
10C34
  8
0
 62
     5
 10
358.73590289561878
 20
124.5222199999999
 30
0.0
 11
343.57276580781871
 21
124.5222199999999
 31
0.0
  0
LINE
  5
10C35
  8
0
 62
     5
 10
350.00414127187543
 20
129.02221999999961
 30
0.0
 11
364.26344217931882
 21
129.02221999999961
 31
0.0
  0
LINE
  5
10C36
  8
0
 62
     5
 10
350.01424332331868
 20
130.02221999999961
 30
0.0
 11
365.57361188491871
 21
130.02221999999961
 31
0.0
  0
LINE
  5
10C37
  8
0
 62
     5
 10
350.5120991381188
 20
131.75889189259991
 30
0.0
 11
360.95436394831881
 21
131.7560555998997
 31
0.0
  0
LINE
  5
10C38
  8
0
 62
     5
 10
343.59162156741871
 20
125.1222199999999
 30
0.0
 11
347.52318615231877
 21
125.1222199999999
 31
0.0
  0
LINE
  5
10C39
  8
0
 62
     5
 10
343.70161349871881
 20
128.62221999999991
 30
0.0
 11
343.53191166191863
 21
123.22221999999979
 31
0.0
  0
LINE
  5
10C3A
  8
0
 62
     5
 10
339.67361188491878
 20
128.82221999999939
 30
0.0
 11
339.67361188491878
 21
128.9222199999999
 31
0.0
  0
ARC
  5
10C3B
  8
0
 62
     5
 10
339.87361188491872
 20
128.82221999999939
 30
0.0
 40
0.2
 50
180.0
 51
270.0
  0
LINE
  5
10C3C
  8
0
 62
     5
 10
342.84420705331883
 20
123.22221999999979
 30
0.0
 11
342.91449985211881
 21
128.62221999999991
 31
0.0
  0
LINE
  5
10C3D
  8
0
 62
     5
 10
350.01424332331868
 20
131.25888701830331
 30
0.0
 11
350.01424332331868
 21
129.12221999999991
 31
0.0
  0
ARC
  5
10C3E
  8
0
 62
     5
 10
349.51424332331868
 20
129.12221999999991
 30
0.0
 40
0.5
 50
270.0
 51
0.0
  0
LINE
  5
10C3F
  8
HIDDEN
 10
345.62361188491877
 20
126.1222200000194
 30
0.0
 11
347.92361188497802
 21
126.1222199999999
 31
0.0
  0
LINE
  5
10C40
  8
HIDDEN
 10
348.42361188491878
 20
127.7222199999995
 30
0.0
 11
348.42361188491878
 21
126.6222199999996
 31
0.0
  0
ARC
  5
10C41
  8
HIDDEN
 10
347.92361188491878
 20
126.6222199999996
 30
0.0
 40
0.5
 50
270.00000000680041
 51
0.0
  0
LINE
  5
10C42
  8
0
 62
     5
 10
348.66148182151869
 20
124.5222199999999
 30
0.0
 11
348.70841216101883
 21
124.8222199999996
 31
0.0
  0
LINE
  5
10C43
  8
0
 62
     5
 10
347.52318615231877
 20
125.1222199999999
 30
0.0
 11
347.52318615231877
 21
124.8222199999996
 31
0.0
  0
LINE
  5
10C44
  8
0
 62
     5
 10
347.47625581281881
 20
124.5222199999999
 30
0.0
 11
347.52318615231877
 21
124.8222199999996
 31
0.0
  0
LINE
  5
10C45
  8
0
 62
     5
 10
347.52318615231877
 20
124.8222199999996
 30
0.0
 11
348.70841216101883
 21
124.8222199999996
 31
0.0
  0
LINE
  5
10C46
  8
0
 62
     5
 10
348.70841216101883
 20
124.8222199999996
 30
0.0
 11
348.70841216101883
 21
127.8222199999996
 31
0.0
  0
LINE
  5
10C47
  8
0
 62
     5
 10
351.51424332331868
 20
131.7589012972999
 30
0.0
 11
351.5120991381188
 21
131.75889189259991
 31
0.0
  0
ARC
  5
10C48
  8
CENTER
 10
342.07361188491871
 20
162.02221999999981
 30
0.0
 40
34.999999999958803
 50
306.25402293116213
 51
324.38103439674359
  0
LINE
  5
10C49
  8
CENTER
 10
360.77609373894222
 20
143.319738145976
 30
0.0
 11
372.5172045392689
 21
131.57862734564941
 31
0.0
  0
CIRCLE
  5
10C4A
  8
0
 62
     5
 10
366.82234922641879
 20
137.2734826584998
 30
0.0
 40
2.8999999999999999
  0
LINE
  5
10C4B
  8
HIDDEN
 10
364.26344676461878
 20
124.5222199999999
 30
0.0
 11
364.26344676461878
 21
130.02221999999961
 31
0.0
  0
LINE
  5
10C4C
  8
0
 62
     5
 10
364.26344676461878
 20
129.02221999999961
 30
0.0
 11
364.26344676461878
 21
130.02221999999961
 31
0.0
  0
LINE
  5
10C4D
  8
HIDDEN
 10
359.54341790531862
 20
123.0222199999999
 30
0.0
 11
362.76348518331878
 21
123.0222199999999
 31
0.0
  0
LINE
  5
10C4E
  8
0
 62
     5
 10
361.56216607251872
 20
124.5222199999999
 30
0.0
 11
358.73590289561878
 21
124.5222199999999
 31
0.0
  0
LINE
  5
10C4F
  8
0
 62
     5
 10
358.78283323511869
 20
125.1222199999999
 30
0.0
 11
362.16339830061872
 21
125.1222199999999
 31
0.0
  0
LINE
  5
10C50
  8
0
 62
     5
 10
357.5976072264188
 20
124.8222199999996
 30
0.0
 11
358.78283323511869
 21
124.8222199999996
 31
0.0
  0
LINE
  5
10C51
  8
0
 62
     5
 10
358.78283323511869
 20
124.8222199999996
 30
0.0
 11
358.78283323511869
 21
125.1222199999999
 31
0.0
  0
LINE
  5
10C52
  8
0
 62
     5
 10
357.5976072264188
 20
124.8222199999996
 30
0.0
 11
357.55067688691872
 21
124.5222199999999
 31
0.0
  0
LINE
  5
10C53
  8
0
 62
     5
 10
358.78283323511869
 20
124.8222199999996
 30
0.0
 11
358.73590289561878
 21
124.5222199999999
 31
0.0
  0
LINE
  5
10C54
  8
0
 62
     5
 10
357.23780795681881
 20
124.5222199999999
 30
0.0
 11
357.23780795681881
 21
127.8222199999996
 31
0.0
  0
LINE
  5
10C55
  8
0
 62
     5
 10
357.5976072264188
 20
127.8222199999996
 30
0.0
 11
357.5976072264188
 21
124.8222199999996
 31
0.0
  0
ARC
  5
10C56
  8
HIDDEN
 10
362.76344676461878
 20
124.5222199999999
 30
0.0
 40
1.5
 50
270.0
 51
0.0
  0
LINE
  5
10C57
  8
0
 62
     5
 10
361.85847257461882
 20
125.1222199999999
 30
0.0
 11
361.85847257461882
 21
124.8222199999996
 31
0.0
  0
LINE
  5
10C58
  8
0
 62
     5
 10
361.56216607251872
 20
124.5222199999999
 30
0.0
 11
361.85847257461882
 21
124.8222199999996
 31
0.0
  0
LINE
  5
10C59
  8
0
 62
     5
 10
362.16344676461881
 20
129.02221999999961
 30
0.0
 11
362.16344676461881
 21
125.1222199999999
 31
0.0
  0
CIRCLE
  5
10C5A
  8
0
 62
     5
 10
358.36957356061879
 20
135.53351234819991
 30
0.0
 40
1.25
  0
ARC
  5
10C5B
  8
0
 62
     5
 10
367.57361188491882
 20
136.52221999999961
 30
0.0
 40
4.5
 50
270.0
 51
0.0
  0
ARC
  5
10C5C
  8
0
 62
     5
 10
365.57361188491871
 20
130.22221999999991
 30
0.0
 40
0.2
 50
270.0
 51
0.0
  0
LINE
  5
10C5D
  8
0
 62
     5
 10
365.77361188491892
 20
132.02221999999969
 30
0.0
 11
365.77361188491892
 21
130.22221999999991
 31
0.0
  0
CIRCLE
  5
10C5E
  8
0
 62
     5
 10
342.07361188491871
 20
162.02221999999981
 30
0.0
 40
7.0
  0
CIRCLE
  5
10C5F
  8
0
 62
     5
 10
368.56231953681828
 20
178.3181816757
 30
0.0
 40
1.25
  0
ARC
  5
10C60
  8
CENTER
 10
342.07361188491871
 20
162.02221999999981
 30
0.0
 40
34.999999999958803
 50
36.254022931162282
 51
54.381034396744781
  0
CIRCLE
  5
10C61
  8
0
 62
     5
 10
366.82234922641879
 20
186.77095734149981
 30
0.0
 40
2.8999999999999999
  0
LINE
  5
10C62
  8
0
 62
     5
 10
364.4139986287185
 20
185.156367695
 30
0.0
 11
364.41510908661883
 21
185.15751760789999
 31
0.0
  0
ARC
  5
10C63
  8
0
 62
     5
 10
367.57361188491882
 20
187.52221999999981
 30
0.0
 40
4.5
 50
0.0
 51
90.0
  0
LINE
  5
10C64
  8
CENTER
 10
103.3855940414998
 20
162.02222
 30
0.0
 11
32.792215958500172
 21
162.02222
 31
0.0
  0
POLYLINE
  5
10C65
  8
HIDDEN
 66
     1
 10
0.0
 20
0.0
 30
0.0
 70
     2
  0
VERTEX
  5
10C66
  8
HIDDEN
 10
52.183399999999999
 20
120.4139999999999
 30
0.0
 42
0.0297589953186938
  0
VERTEX
  5
10C67
  8
HIDDEN
 10
52.444711097152172
 20
119.2727927412311
 30
0.0
 42
0.041260127367526
 70
     1
  0
VERTEX
  5
10C68
  8
HIDDEN
 10
52.74799999999999
 20
118.4839999999999
 30
0.0
 42
0.0089440794997976
  0
VERTEX
  5
10C69
  8
HIDDEN
 10
53.266249586143488
 20
117.45723443988339
 30
0.0
 42
0.0441170038394306
 70
     1
  0
VERTEX
  5
10C6A
  8
HIDDEN
 10
53.393000000000001
 20
117.261
 30
0.0
 42
0.0365172361709494
  0
VERTEX
  5
10C6B
  8
HIDDEN
 10
53.653345584953613
 20
116.9728073430144
 30
0.0
 42
0.0424349338988204
 70
     1
  0
VERTEX
  5
10C6C
  8
HIDDEN
 10
53.913699999999999
 20
116.76299999999991
 30
0.0
 42
0.038324146942443
  0
VERTEX
  5
10C6D
  8
HIDDEN
 10
54.079943235480172
 20
116.66850520541431
 30
0.0
 42
0.0093715483796534
 70
     1
  0
VERTEX
  5
10C6E
  8
HIDDEN
 10
54.792499999999997
 20
116.3489999999999
 30
0.0
 42
0.0441703244003394
  0
VERTEX
  5
10C6F
  8
HIDDEN
 10
55.371854558029213
 20
116.16054402880241
 30
0.0
 42
0.0320268276909448
 70
     1
  0
VERTEX
  5
10C70
  8
HIDDEN
 10
56.200299999999991
 20
116.02500000000001
 30
0.0
  0
SEQEND
  5
10C71
  8
HIDDEN
  0
POLYLINE
  5
10C72
  8
HIDDEN
 66
     1
 10
0.0
 20
0.0
 30
0.0
 70
     2
  0
VERTEX
  5
10C73
  8
HIDDEN
 10
66.209400000000002
 20
121.499
 30
0.0
 42
-0.0155034328049475
  0
VERTEX
  5
10C74
  8
HIDDEN
 10
66.17139657640989
 20
120.5170444834898
 30
0.0
 42
-0.0226948634412267
 70
     1
  0
VERTEX
  5
10C75
  8
HIDDEN
 10
66.094300000000004
 20
119.8499999999997
 30
0.0
 42
-0.002331891108275
  0
VERTEX
  5
10C76
  8
HIDDEN
 10
65.951857749460444
 20
118.99516633350891
 30
0.0
 42
-0.0135610587358211
 70
     1
  0
VERTEX
  5
10C77
  8
HIDDEN
 10
65.922700000000006
 20
118.8489999999999
 30
0.0
 42
-0.0285190885858597
  0
VERTEX
  5
10C78
  8
HIDDEN
 10
65.786145958998731
 20
118.3759753583349
 30
0.0
 42
-0.028423429696706
 70
     1
  0
VERTEX
  5
10C79
  8
HIDDEN
 10
65.596100000000007
 20
117.92
 30
0.0
 42
-0.0261010365812521
  0
VERTEX
  5
10C7A
  8
HIDDEN
 10
65.430079038063425
 20
117.61891049656001
 30
0.0
 42
-0.0272431228162038
 70
     1
  0
VERTEX
  5
10C7B
  8
HIDDEN
 10
65.241200000000006
 20
117.3489999999999
 30
0.0
 42
-0.0296030836021267
  0
VERTEX
  5
10C7C
  8
HIDDEN
 10
65.019894366166
 20
117.09882469041899
 30
0.0
 42
-0.0282269342717162
 70
     1
  0
VERTEX
  5
10C7D
  8
HIDDEN
 10
64.759100000000004
 20
116.8649999999999
 30
0.0
 42
-0.0301273740894118
  0
VERTEX
  5
10C7E
  8
HIDDEN
 10
64.41673670563722
 20
116.6235432792062
 30
0.0
 42
-0.0288219486257929
 70
     1
  0
VERTEX
  5
10C7F
  8
HIDDEN
 10
64.031700000000001
 20
116.41500000000001
 30
0.0
 42
-0.0195015755730523
  0
VERTEX
  5
10C80
  8
HIDDEN
 10
63.63455402012459
 20
116.2472017538682
 30
0.0
 42
-0.0305788053830599
 70
     1
  0
VERTEX
  5
10C81
  8
HIDDEN
 10
63.371699999999997
 20
116.1659999999999
 30
0.0
 42
-0.0172162308857723
  0
VERTEX
  5
10C82
  8
HIDDEN
 10
63.163015306001853
 20
116.1228156849907
 30
0.0
 42
-0.0074554052988002
 70
     1
  0
VERTEX
  5
10C83
  8
HIDDEN
 10
62.676900000000003
 20
116.047
 30
0.0
 42
-0.0197032056251233
  0
VERTEX
  5
10C84
  8
HIDDEN
 10
62.565971912062182
 20
116.0358247890332
 30
0.0
 42
-0.0090671205094486
 70
     1
  0
VERTEX
  5
10C85
  8
HIDDEN
 10
62.323997343549649
 20
116.0254452149869
 30
0.0
  0
SEQEND
  5
10C86
  8
HIDDEN
  0
ARC
  5
10C87
  8
HIDDEN
 10
169.7721772151898
 20
128.0078860759491
 30
0.0
 40
1.614115392430425
 50
67.302851061063365
 51
90.077283990899303
  0
ARC
  5
10C88
  8
HIDDEN
 10
169.7855551181101
 20
117.62022440944899
 30
0.0
 40
1.595514903514186
 50
271.09335808073621
 51
306.3391777231281
  0
ARC
  5
10C89
  8
HIDDEN
 10
173.30519183396359
 20
118.3266287459995
 30
0.0
 40
1.1036392197893241
 50
270.24961825171079
 51
300.11927903610263
  0
ARC
  5
10C8A
  8
HIDDEN
 10
347.84182273405082
 20
119.98342708949831
 30
0.0
 40
3.961208466740274
 50
240.22991068423079
 51
269.95222189743708
  0
ARC
  5
10C8B
  8
0
 62
     5
 10
323.19096634817248
 20
191.2946857339692
 30
0.0
 40
0.9937004701167124
 50
89.890824149325454
 51
132.93335882533941
  0
ARC
  5
10C8C
  8
0
 62
     5
 10
360.9536431034673
 20
191.28636255176781
 30
0.0
 40
1.002022107616154
 50
47.254217044467069
 51
89.958781973188493
  0
ARC
  5
10C8D
  8
0
 62
     5
 10
371.33175532772958
 20
180.8999529254418
 30
0.0
 40
1.0080254785604701
 50
0.1716068939304716
 51
42.612431754487147
  0
ARC
  5
10C8E
  8
0
 62
     5
 10
371.34031980384941
 20
143.14069523682761
 30
0.0
 40
0.9994567798140126
 50
317.19669210401082
 51
0.0442965029230969
  0
ARC
  5
10C8F
  8
0
 62
     5
 10
312.80407377132082
 20
180.9035778524713
 30
0.0
 40
0.9966264705636913
 50
137.13296783144739
 51
180.0348266479493
  0
ARC
  5
10C90
  8
0
 62
     5
 10
312.80267526363252
 20
143.1398740533883
 30
0.0
 40
0.9952290550859686
 50
179.90823939512509
 51
222.8986974160307
  0
ARC
  5
10C91
  8
0
 62
     5
 10
322.75036589079019
 20
129.12166602987151
 30
0.0
 40
0.4994463370948428
 50
179.9364493150116
 51
270.0635506850046
  0
ARC
  5
10C92
  8
0
 62
     5
 10
360.9535868288209
 20
132.75943808011479
 30
0.0
 40
1.0033827811546261
 50
270.04437555904428
 51
312.71537060630521
  0
ARC
  5
10C93
  8
0
 62
     5
 10
350.5140734354851
 20
131.25953671959161
 30
0.0
 40
0.4993590758762501
 50
90.226528778143972
 51
171.65620189889
  0
ARC
  5
10C94
  8
0
 62
     5
 10
350.65801737222648
 20
131.2449814802965
 30
0.0
 40
0.6439242114057138
 50
172.23341007939831
 51
178.762601928267
  0
ARC
  5
10C95
  8
0
 62
     5
 10
167.91585300849241
 20
188.99533114292819
 30
0.0
 40
4.8132432009538979
 50
163.78224141057359
 51
178.19426865413689
  0
ARC
  5
10C96
  8
0
 62
     5
 10
164.91425634822031
 20
189.278004843292
 30
0.0
 40
1.8139930547116361
 50
184.1414517453845
 51
195.5756852276094
  0
ARC
  5
10C97
  8
0
 62
     5
 10
167.9211832354849
 20
188.02787040974081
 30
0.0
 40
4.8187373121203052
 50
181.865551105196
 51
196.21542788303211
  0
ARC
  5
10C98
  8
0
 62
     5
 10
164.80821850977341
 20
187.7634632272356
 30
0.0
 40
1.7066099289327981
 50
164.10269135350401
 51
176.3872893678485
  0
ARC
  5
10C99
  8
0
 62
     5
 10
168.0024269996124
 20
146.1964155331022
 30
0.0
 40
4.9003622425231761
 50
163.9050062669526
 51
178.0167966743594
  0
ARC
  5
10C9A
  8
0
 62
     5
 10
164.88849606398901
 20
146.48758695851311
 30
0.0
 40
1.7876357567317269
 50
183.9000126226228
 51
195.61989884627911
  0
ARC
  5
10C9B
  8
0
 62
     5
 10
167.93621318614569
 20
145.24563684103711
 30
0.0
 40
4.833849891236623
 50
181.89252476924159
 51
196.19340200795151
  0
ARC
  5
10C9C
  8
0
 62
     5
 10
164.80895121497531
 20
144.97876660116529
 30
0.0
 40
1.7073220975673431
 50
164.108545489074
 51
176.3989994031846
  0
ARC
  5
10C9D
  8
0
 62
     5
 10
160.5081063992919
 20
178.97030764070581
 30
0.0
 40
2.407272842873315
 50
152.112706539877
 51
180.6737689609711
  0
ARC
  5
10C9E
  8
0
 62
     5
 10
159.4625943202204
 20
179.00127849155641
 30
0.0
 40
1.3628840862003251
 50
182.4928599720713
 51
197.20356559284281
  0
ARC
  5
10C9F
  8
0
 62
     5
 10
160.3188019737953
 20
177.6012630103998
 30
0.0
 40
2.2098680518608189
 50
189.09057311334081
 51
208.69821560932991
  0
ARC
  5
10CA0
  8
0
 62
     5
 10
159.5863059920523
 20
177.6012630103998
 30
0.0
 40
1.4910704426661909
 50
162.96094502985301
 51
193.5421281106141
  0
ARC
  5
10CA1
  8
0
 62
     5
 10
160.50818771191791
 20
136.1856104825595
 30
0.0
 40
2.4073577299855722
 50
152.11302627297641
 51
180.68095342529159
  0
ARC
  5
10CA2
  8
0
 62
     5
 10
159.46316871316421
 20
136.21676619880941
 30
0.0
 40
1.3634792267004201
 50
182.5122850526615
 51
197.20273029496749
  0
ARC
  5
10CA3
  8
0
 62
     5
 10
160.5081816119403
 20
134.88141212591751
 30
0.0
 40
2.4073513618515112
 50
179.31958290071461
 51
207.88699771224029
  0
ARC
  5
10CA4
  8
0
 62
     5
 10
159.46312560278611
 20
134.8502702840054
 30
0.0
 40
1.363434559023144
 50
162.7972070524695
 51
177.48916718526101
  0
LINE
  5
10CA5
  8
0
 62
     5
 10
188.244
 20
132.0089999999999
 30
0.0
 11
188.63900000000001
 21
131.779
 31
0.0
  0
ARC
  5
10CA6
  8
0
 62
     5
 10
188.2256555846904
 20
131.983635471295
 30
0.0
 40
0.0313029853123973
 50
54.124377128355647
 51
95.405727785883997
  0
ARC
  5
10CA7
  8
0
 62
     5
 10
189.463478240981
 20
131.37358749426261
 30
0.0
 40
0.9187620310286092
 50
153.81572798924441
 51
178.0405935343567
  0
ARC
  5
10CA8
  8
0
 62
     5
 10
161.4450684747645
 20
181.78108018399311
 30
0.0
 40
0.1998151980864773
 50
89.946971488585319
 51
179.93428004203511
  0
ARC
  5
10CA9
  8
0
 62
     5
 10
86.968429754327786
 20
191.28706795104239
 30
0.0
 40
1.0013172012107701
 50
4.495870511727853
 51
89.929772852813684
  0
ARC
  5
10CAA
  8
0
 62
     5
 10
97.353752950804193
 20
180.90174475420361
 30
0.0
 40
1.001317201399285
 50
0.0702271514096609
 51
85.504129478910457
  0
POLYLINE
  5
10CAB
  8
0
 62
     5
 66
     1
 10
0.0
 20
0.0
 30
0.0
  0
VERTEX
  5
10E6E
  8
0
 62
     5
 10
49.20815293655
 20
192.2883844000998
 30
0.0
  0
VERTEX
  5
10E6F
  8
0
 62
     5
 10
48.529536438350021
 20
192.02221999999949
 30
0.0
  0
VERTEX
  5
10E70
  8
0
 62
     5
 10
48.211144111468514
 20
191.36555844735159
 30
0.0
  0
SEQEND
  5
10E71
  8
0
 62
     5
  0
ARC
  5
10CB0
  8
0
 62
     5
 10
38.824057049007529
 20
180.90174475438559
 30
0.0
 40
1.0013172012108451
 50
94.495870516863164
 51
179.9297728589984
  0
ARC
  5
10CB1
  8
0
 62
     5
 10
38.82405704900706
 20
143.14269524561371
 30
0.0
 40
1.0013172012103171
 50
180.0702271409836
 51
265.50412948315193
  0
ARC
  5
10CB2
  8
0
 62
     5
 10
97.353752950804662
 20
143.14269524579581
 30
0.0
 40
1.0013172013988121
 50
274.49587052098201
 51
359.9297728486049
  0
ARC
  5
10CB3
  8
0
 62
     5
 10
87.411448210885183
 20
129.12236881306481
 30
0.0
 40
0.5001488352035503
 50
270.01704764676862
 51
359.98295235321831
  0
ARC
  5
10CB4
  8
0
 62
     5
 10
170.9048886649332
 20
131.94677287224229
 30
0.0
 40
0.0654642364406311
 50
96.537738761115065
 51
142.813724506521
  0
ARC
  5
10CB5
  8
0
 62
     5
 10
171.29984303382111
 20
131.66410226276949
 30
0.0
 40
0.5511286478966843
 50
144.21912129902381
 51
170.16010170725241
  0
ENDSEC
  0
EOF
