  0
SECTION
  2
HEADER
  9
$EXTMAX
 10
12
 20
9
 30
0
  9
$EXTMIN
 10
0
 20
0
 30
0
  9
$LIMMAX
 10
12
 20
9
  9
$LIMMIN
 10
0
 20
0
  9
$PLIMMAX
 10
12
 20
9
  9
$PLIMMIN
 10
0
 20
0
  9
$TEXTSIZE
 40
3.2
  9
$DIMSHO
 70
     0
  9
$DIMASZ
 40
1.0
  9
$DIMTAD
 70
     1
  9
$DIMTIH
 70
     0
  9
$DIMTOH
 70
     0
  9
$DIMEXE
 40
2.54
  9
$DIMEXO
 40
2.54
  9
$DIMTVP
 40
1.0
  9
$DIMSAH
 70
     1
  9
$DIMDLE
 40
0.0
  9
$DIMTXT
 40
3.200000047683716
  9
$DIMGAP
 40
1.600000023841858
  0
ENDSEC
  0
SECTION
  2
TABLES
  0
TABLE
  2
LTYPE
 70
     6
  0
LTYPE
  2
CONTINUOUS
 70
    64
  3
Solid line
 72
    65
 73
     0
 40
0.0
  0
LTYPE
  2
DASHED
 70
    64
  3
__ __ __ __ __ __ __ __ __ __ __ __ __ __ __
 72
    65
 73
     2
 40
3.5
 49
2.0
 49
-1.5
  0
LTYPE
  2
CENTER
 70
    64
  3
____ _ ____ _ ____ _ ____ _ ____ _ ____ _ ____
 72
    65
 73
     4
 40
17.5
 49
13.0
 49
-1.5
 49
1.5
 49
-1.5
  0
LTYPE
  2
PHANTOM
 70
    64
  3
_____ _ _ _____ _ _ _____ _ _ _____ _ _ ____  
 72
    65
 73
     6
 40
15.5
 49
8.0
 49
-1.5
 49
1.5
 49
-1.5
 49
1.5
 49
-1.5
  0
LTYPE
  2
DOT
 70
    64
  3
. . . . . . . . . . . . . . . . . . . . . . . .
 72
    65
 73
     2
 40
0.25
 49
0.0
 49
-0.25
  0
LTYPE
  2
HIDDEN
 70
    64
  3
__ __ __ __ __ __ __ __ __ __ __ __ __ __ __
 72
    65
 73
     2
 40
3.5
 49
2.0
 49
-1.5
  0
ENDTAB
  0
TABLE
  2
LAYER
 70
    12
  0
LAYER
  2
0
 70
     0
 62
     7
  6
CONTINUOUS
  0
LAYER
  2
1
 70
     0
 62
     7
  6
CONTINUOUS
  0
LAYER
  2
2
 70
     0
 62
     7
  6
CONTINUOUS
  0
LAYER
  2
3
 70
     0
 62
     7
  6
CONTINUOUS
  0
LAYER
  2
4
 70
     0
 62
     7
  6
CONTINUOUS
  0
LAYER
  2
5
 70
     0
 62
     7
  6
CONTINUOUS
  0
LAYER
  2
6
 70
     0
 62
     7
  6
CONTINUOUS
  0
LAYER
  2
7
 70
     0
 62
     7
  6
CONTINUOUS
  0
LAYER
  2
8
 70
     0
 62
     7
  6
CONTINUOUS
  0
LAYER
  2
9
 70
     0
 62
     7
  6
CONTINUOUS
  0
LAYER
  2
10
 70
     0
 62
     7
  6
CONTINUOUS
  0
LAYER
  2
11
 70
     0
 62
     7
  6
CONTINUOUS
  0
ENDTAB
  0
TABLE
  2
STYLE
 70
     1
  0
STYLE
  2
STANDARD
 70
     0
 40
0.0
 41
1.0
 50
0.0
 71
     0
 42
0.2
  3
txt
  4
BIGFONT
  0
ENDTAB
  0
TABLE
  2
DIMSTYLE
 70
     0
  0
ENDTAB
  0
ENDSEC
  0
SECTION
  2
BLOCKS
  0
BLOCK
  8
0
  2
KOZU0001
 70
    64
 10
0
 20
0
  0
ENDBLK
  8
0
  0
BLOCK
  8
0
  2
KOZU0002
 70
    64
 10
0
 20
0
  0
ENDBLK
  8
0
  0
BLOCK
  8
0
  2
KOZU0003
 70
    64
 10
0
 20
0
  0
POINT
  8
0
  6
CONTINUOUS
 62
     7
 10
-40.21262359619141
 20
-9.994734764099121
  0
POINT
  8
0
  6
CONTINUOUS
 62
     7
 10
-29.21882820129395
 20
10.40526485443115
  0
POINT
  8
0
  6
CONTINUOUS
 62
     7
 10
-39
 20
10.40526485443115
  0
LINE
  8
0
  6
CONTINUOUS
 62
     4
 10
-30.21882820129395
 20
10.40526485443115
 11
-41
 21
10.40526485443115
  0
LINE
  8
0
  6
CONTINUOUS
 62
     4
 10
-39.21262359619141
 20
-9.994734764099121
 11
-37
 21
-9.994734764099121
  0
LINE
  8
0
  6
CONTINUOUS
 62
     4
 10
-39
 20
10.40526485443115
 11
-39
 21
-9.994734764099121
  0
LINE
  8
0
  6
CONTINUOUS
 62
     4
 10
-39
 20
10.40526485443115
 11
-38.48236083984375
 21
8.473413467407227
  0
LINE
  8
0
  6
CONTINUOUS
 62
     4
 10
-39
 20
10.40526485443115
 11
-39.51763916015625
 21
8.473413467407227
  0
LINE
  8
0
  6
CONTINUOUS
 62
     4
 10
-39
 20
-9.994734764099121
 11
-39.51763916015625
 21
-8.062883377075195
  0
LINE
  8
0
  6
CONTINUOUS
 62
     4
 10
-39
 20
-9.994734764099121
 11
-38.48236083984375
 21
-8.062883377075195
  0
TEXT
  8
0
  6
CONTINUOUS
 62
     4
 10
-41.31087573615638
 20
-3.443857824008725
 40
3.200000047683716
 41
0.6999999925494196
  1
102
 50
90.00000250447816
  0
ENDBLK
  8
0
  0
BLOCK
  8
0
  2
KOZU0004
 70
    64
 10
0
 20
0
  0
POINT
  8
0
  6
CONTINUOUS
 62
     7
 10
63.94116973876953
 20
10.00526523590088
  0
POINT
  8
0
  6
CONTINUOUS
 62
     7
 10
11.54117488861084
 20
18.60526657104492
  0
POINT
  8
0
  6
CONTINUOUS
 62
     7
 10
11.54117488861084
 20
42
  0
LINE
  8
0
  6
CONTINUOUS
 62
     4
 10
11.54117488861084
 20
19.60526657104492
 11
11.54117488861084
 21
44
  0
LINE
  8
0
  6
CONTINUOUS
 62
     4
 10
63.94116973876953
 20
11.00526523590088
 11
63.94116973876953
 21
44
  0
LINE
  8
0
  6
CONTINUOUS
 62
     4
 10
11.54117488861084
 20
42
 11
63.94116973876953
 21
42
  0
LINE
  8
0
  6
CONTINUOUS
 62
     4
 10
11.54117488861084
 20
42
 11
13.47302722930908
 21
42.51763916015625
  0
LINE
  8
0
  6
CONTINUOUS
 62
     4
 10
11.54117488861084
 20
42
 11
13.47302722930908
 21
41.48236083984375
  0
LINE
  8
0
  6
CONTINUOUS
 62
     4
 10
63.94116973876953
 20
42
 11
62.00931549072266
 21
41.48236083984375
  0
LINE
  8
0
  6
CONTINUOUS
 62
     4
 10
63.94116973876953
 20
42
 11
62.00931549072266
 21
42.51763916015625
  0
TEXT
  8
0
  6
CONTINUOUS
 62
     4
 10
34.38117134571075
 20
43.00000077486038
 40
3.200000047683716
 41
0.6999999785795812
  1
262
  0
ENDBLK
  8
0
  0
BLOCK
  8
0
  2
KOZU0005
 70
    64
 10
0
 20
0
  0
POINT
  8
0
  6
CONTINUOUS
 62
     7
 10
63.94116973876953
 20
8.005265235900879
  0
POINT
  8
0
  6
CONTINUOUS
 62
     7
 10
-21.25882911682129
 20
18.36526489257813
  0
POINT
  8
0
  6
CONTINUOUS
 62
     7
 10
-21.25882911682129
 20
50
  0
LINE
  8
0
  6
CONTINUOUS
 62
     4
 10
-21.25882911682129
 20
19.36526489257813
 11
-21.25882911682129
 21
52
  0
LINE
  8
0
  6
CONTINUOUS
 62
     4
 10
63.94116973876953
 20
9.005265235900879
 11
63.94116973876953
 21
52
  0
LINE
  8
0
  6
CONTINUOUS
 62
     4
 10
-21.25882911682129
 20
50
 11
63.94116973876953
 21
50
  0
LINE
  8
0
  6
CONTINUOUS
 62
     4
 10
-21.25882911682129
 20
50
 11
-19.32697868347168
 21
50.51763916015625
  0
LINE
  8
0
  6
CONTINUOUS
 62
     4
 10
-21.25882911682129
 20
50
 11
-19.32697868347168
 21
49.48236083984375
  0
LINE
  8
0
  6
CONTINUOUS
 62
     4
 10
63.94116973876953
 20
50
 11
62.00931549072266
 21
49.48236083984375
  0
LINE
  8
0
  6
CONTINUOUS
 62
     4
 10
63.94116973876953
 20
50
 11
62.00931549072266
 21
50.51763916015625
  0
TEXT
  8
0
  6
CONTINUOUS
 62
     4
 10
17.98116981983185
 20
51.00000077486038
 40
3.200000047683716
 41
0.6999999785795812
  1
426
  0
ENDBLK
  8
0
  0
BLOCK
  8
0
  2
KOZU0006
 70
    64
 10
0
 20
0
  0
POINT
  8
0
  6
CONTINUOUS
 62
     7
 10
166.3795623779297
 20
24.10526657104492
  0
POINT
  8
0
  6
CONTINUOUS
 62
     7
 10
184.6400756835938
 20
-9.994734764099121
  0
POINT
  8
0
  6
CONTINUOUS
 62
     7
 10
195
 20
-9.994734764099121
  0
LINE
  8
0
  6
CONTINUOUS
 62
     4
 10
185.6400756835938
 20
-9.994734764099121
 11
197
 21
-9.994734764099121
  0
LINE
  8
0
  6
CONTINUOUS
 62
     4
 10
167.3795623779297
 20
24.10526657104492
 11
197
 21
24.10526657104492
  0
LINE
  8
0
  6
CONTINUOUS
 62
     4
 10
195
 20
-9.994734764099121
 11
195
 21
24.10526657104492
  0
LINE
  8
0
  6
CONTINUOUS
 62
     4
 10
195
 20
-9.994734764099121
 11
194.4823608398438
 21
-8.062883377075195
  0
LINE
  8
0
  6
CONTINUOUS
 62
     4
 10
195
 20
-9.994734764099121
 11
195.5176391601563
 21
-8.062883377075195
  0
LINE
  8
0
  6
CONTINUOUS
 62
     4
 10
195
 20
24.10526657104492
 11
195.5176391601563
 21
22.17341423034668
  0
LINE
  8
0
  6
CONTINUOUS
 62
     4
 10
195
 20
24.10526657104492
 11
194.4823608398438
 21
22.17341423034668
  0
TEXT
  8
0
  6
CONTINUOUS
 62
     4
 10
192.7022277495236
 20
3.393042887050846
 40
3.200000047683716
 41
0.7000000219596058
  1
171
 50
90.00000250447816
  0
ENDBLK
  8
0
  0
BLOCK
  8
0
  2
KOZU0007
 70
    64
 10
0
 20
0
  0
POINT
  8
0
  6
CONTINUOUS
 62
     7
 10
-132.9188385009766
 20
18.60526657104492
  0
POINT
  8
0
  6
CONTINUOUS
 62
     7
 10
-134.9788360595703
 20
15.0014591217041
  0
POINT
  8
0
  6
CONTINUOUS
 62
     7
 10
-134.9788360595703
 20
38
  0
LINE
  8
0
  6
CONTINUOUS
 62
     4
 10
-134.9788360595703
 20
16.0014591217041
 11
-134.9788360595703
 21
40
  0
LINE
  8
0
  6
CONTINUOUS
 62
     4
 10
-132.9188385009766
 20
19.60526657104492
 11
-132.9188385009766
 21
40
  0
LINE
  8
0
  6
CONTINUOUS
 62
     4
 10
-147.6000061035156
 20
38
 11
-127.9188385009766
 21
38
  0
LINE
  8
0
  6
CONTINUOUS
 62
     4
 10
-134.9788360595703
 20
38
 11
-136.9106903076172
 21
38.51763916015625
  0
LINE
  8
0
  6
CONTINUOUS
 62
     4
 10
-134.9788360595703
 20
38
 11
-136.9106903076172
 21
37.48236083984375
  0
LINE
  8
0
  6
CONTINUOUS
 62
     4
 10
-132.9188385009766
 20
38
 11
-130.9869842529297
 21
37.48236083984375
  0
LINE
  8
0
  6
CONTINUOUS
 62
     4
 10
-132.9188385009766
 20
38
 11
-130.9869842529297
 21
38.51763916015625
  0
TEXT
  8
0
  6
CONTINUOUS
 62
     4
 10
-145.9999953508377
 20
39.00000077486038
 40
3.200000047683716
 41
0.6999999813735488
  1
11
  0
ENDBLK
  8
0
  0
BLOCK
  8
0
  2
KOZU0008
 70
    64
 10
0
 20
0
  0
POINT
  8
0
  6
CONTINUOUS
 62
     7
 10
79.90116882324219
 20
-10.83473491668701
  0
POINT
  8
0
  6
CONTINUOUS
 62
     7
 10
75.94116973876953
 20
-10.79473495483398
  0
POINT
  8
0
  6
CONTINUOUS
 62
     7
 10
75.94116973876953
 20
-20
  0
LINE
  8
0
  6
CONTINUOUS
 62
     4
 10
75.94116973876953
 20
-11.79473495483398
 11
75.94116973876953
 21
-22
  0
LINE
  8
0
  6
CONTINUOUS
 62
     4
 10
79.90116882324219
 20
-11.83473491668701
 11
79.90116882324219
 21
-22
  0
LINE
  8
0
  6
CONTINUOUS
 62
     4
 10
63.40000152587891
 20
-20
 11
84.90116882324219
 21
-20
  0
LINE
  8
0
  6
CONTINUOUS
 62
     4
 10
75.94116973876953
 20
-20
 11
74.00931549072266
 21
-19.48236274719238
  0
LINE
  8
0
  6
CONTINUOUS
 62
     4
 10
75.94116973876953
 20
-20
 11
74.00931549072266
 21
-20.51763725280762
  0
TEXT
  8
0
  6
CONTINUOUS
 62
     4
 10
64.99999928474426
 20
-18.99999922513962
 40
3.200000047683716
 41
0.7000000204890964
  1
19.8
  0
INSERT
  8
0
  6
CONTINUOUS
 62
     3
  2
KOZU0009
 10
79.90116882324219
 20
-20
  0
ENDBLK
  8
0
  0
BLOCK
  8
0
  2
KOZU0009
 70
    64
 10
0
 20
0
  0
LINE
  8
0
  6
CONTINUOUS
 62
     3
 10
-0.5
 20
0
 11
-1
 21
0
  0
INSERT
  8
0
  6
CONTINUOUS
 62
     3
  2
KOZU0037
 10
0
 20
0
  0
ENDBLK
  8
0
  0
BLOCK
  8
0
  2
KOZU0010
 70
    64
 10
0
 20
0
  0
POINT
  8
0
  6
CONTINUOUS
 62
     7
 10
80.94116973876953
 20
-14.19473361968994
  0
POINT
  8
0
  6
CONTINUOUS
 62
     7
 10
79.90116882324219
 20
-10.83473491668701
  0
POINT
  8
0
  6
CONTINUOUS
 62
     7
 10
79.90116882324219
 20
-20
  0
LINE
  8
0
  6
CONTINUOUS
 62
     4
 10
79.90116882324219
 20
-11.83473491668701
 11
79.90116882324219
 21
-22
  0
LINE
  8
0
  6
CONTINUOUS
 62
     4
 10
80.94116973876953
 20
-15.19473361968994
 11
80.94116973876953
 21
-22
  0
LINE
  8
0
  6
CONTINUOUS
 62
     4
 10
74.90116882324219
 20
-20
 11
93.31999969482422
 21
-20
  0
LINE
  8
0
  6
CONTINUOUS
 62
     4
 10
80.94116973876953
 20
-20
 11
82.87301635742188
 21
-20.51763725280762
  0
LINE
  8
0
  6
CONTINUOUS
 62
     4
 10
80.94116973876953
 20
-20
 11
82.87301635742188
 21
-19.48236274719238
  0
TEXT
  8
0
  6
CONTINUOUS
 62
     4
 10
84.99999845027924
 20
-18.99999922513962
 40
3.200000047683716
 41
0.6999999739229684
  1
5.2
  0
INSERT
  8
0
  6
CONTINUOUS
 62
     3
  2
KOZU0009
 10
79.90116882324219
 20
-20
 50
-180.0000050089563
  0
ENDBLK
  8
0
  0
BLOCK
  8
0
  2
KOZU0011
 70
    64
 10
0
 20
0
  0
POINT
  8
0
  6
CONTINUOUS
 62
     7
 10
-133.7188415527344
 20
6.005265235900879
  0
POINT
  8
0
  6
CONTINUOUS
 62
     7
 10
-133.7188415527344
 20
14.80526638031006
  0
POINT
  8
0
  6
CONTINUOUS
 62
     7
 10
-144
 20
14.80526638031006
  0
LINE
  8
0
  6
CONTINUOUS
 62
     4
 10
-134.7188415527344
 20
14.80526638031006
 11
-146
 21
14.80526638031006
  0
LINE
  8
0
  6
CONTINUOUS
 62
     4
 10
-134.7188415527344
 20
6.005265235900879
 11
-146
 21
6.005265235900879
  0
LINE
  8
0
  6
CONTINUOUS
 62
     4
 10
-144
 20
27.07999992370606
 11
-144
 21
1.0052649974823
  0
LINE
  8
0
  6
CONTINUOUS
 62
     4
 10
-144
 20
14.80526638031006
 11
-143.4823608398438
 21
16.73711776733398
  0
LINE
  8
0
  6
CONTINUOUS
 62
     4
 10
-144
 20
14.80526638031006
 11
-144.5176391601563
 21
16.73711776733398
  0
LINE
  8
0
  6
CONTINUOUS
 62
     4
 10
-144
 20
6.005265235900879
 11
-144.5176391601563
 21
4.073412895202637
  0
LINE
  8
0
  6
CONTINUOUS
 62
     4
 10
-144
 20
6.005265235900879
 11
-143.4823608398438
 21
4.073412895202637
  0
TEXT
  8
0
  6
CONTINUOUS
 62
     4
 10
-146.3923614880089
 20
16.31235536416266
 40
3.200000047683716
 41
0.583332978074212
  1
%%C
 50
90.00000250447816
  0
TEXT
  8
0
  6
CONTINUOUS
 62
     4
 10
-146.4222229395097
 20
18.58222314198707
 40
3.200000047683716
 41
0.6999999925494195
  1
44
 50
90.00000250447816
  0
TEXT
  8
0
  6
CONTINUOUS
 62
     4
 10
-146.3923614880089
 20
23.03235563119147
 40
3.200000047683716
 41
0.583332978074212
  1
ЊЉ
 50
90.00000250447816
  0
ENDBLK
  8
0
  0
BLOCK
  8
0
  2
KOZU0012
 70
    64
 10
0
 20
0
  0
POINT
  8
0
  6
CONTINUOUS
 62
     7
 10
131.9282989501953
 20
2.899117946624756
  0
POINT
  8
0
  6
CONTINUOUS
 62
     7
 10
174.76513671875
 20
-22.88858795166016
  0
LINE
  8
0
  6
CONTINUOUS
 62
     4
 10
131.9282989501953
 20
2.899117946624756
 11
174.76513671875
 21
-22.88858795166016
  0
LINE
  8
0
  6
CONTINUOUS
 62
     4
 10
131.9282989501953
 20
2.899117946624756
 11
133.8503570556641
 21
2.346236944198608
  0
LINE
  8
0
  6
CONTINUOUS
 62
     4
 10
131.9282989501953
 20
2.899117946624756
 11
133.31640625
 21
1.459277987480164
  0
LINE
  8
0
  6
CONTINUOUS
 62
     4
 10
174.76513671875
 20
-22.88858795166016
 11
172.8430786132813
 21
-22.33570671081543
  0
LINE
  8
0
  6
CONTINUOUS
 62
     4
 10
174.76513671875
 20
-22.88858795166016
 11
173.3770294189453
 21
-21.4487476348877
  0
TEXT
  8
0
  6
CONTINUOUS
 62
     4
 10
160.8431787852213
 20
-13.56261462731515
 40
3.200000047683716
 41
0.583332978074212
  1
%%C
 50
-30.99999858592387
  0
TEXT
  8
0
  6
CONTINUOUS
 62
     4
 10
162.7608118533381
 20
-14.72316694860345
 40
3.200000047683716
 41
0.7000000119857165
  1
250
 50
-30.99999858592387
  0
ENDBLK
  8
0
  0
BLOCK
  8
0
  2
KOZU0013
 70
    64
 10
0
 20
0
  0
POINT
  8
0
  6
CONTINUOUS
 62
     7
 10
133.3467102050781
 20
5.005265235900879
  0
POINT
  8
0
  6
CONTINUOUS
 62
     7
 10
173.3467102050781
 20
5.005265235900879
  0
POINT
  8
0
  6
CONTINUOUS
 62
     7
 10
173.3467102050781
 20
48.03102493286133
  0
LINE
  8
0
  6
CONTINUOUS
 62
     4
 10
173.3467102050781
 20
6.005265235900879
 11
173.3467102050781
 21
50.03102493286133
  0
LINE
  8
0
  6
CONTINUOUS
 62
     4
 10
133.3467102050781
 20
6.005265235900879
 11
133.3467102050781
 21
50.03102493286133
  0
LINE
  8
0
  6
CONTINUOUS
 62
     4
 10
173.3467102050781
 20
48.03102493286133
 11
133.3467102050781
 21
48.03102493286133
  0
LINE
  8
0
  6
CONTINUOUS
 62
     4
 10
173.3467102050781
 20
48.03102493286133
 11
171.4148712158203
 21
47.51338577270508
  0
LINE
  8
0
  6
CONTINUOUS
 62
     4
 10
173.3467102050781
 20
48.03102493286133
 11
171.4148712158203
 21
48.54866027832031
  0
LINE
  8
0
  6
CONTINUOUS
 62
     4
 10
133.3467102050781
 20
48.03102493286133
 11
135.278564453125
 21
48.54866027832031
  0
LINE
  8
0
  6
CONTINUOUS
 62
     4
 10
133.3467102050781
 20
48.03102493286133
 11
135.278564453125
 21
47.51338577270508
  0
TEXT
  8
0
  6
CONTINUOUS
 62
     4
 10
149.6269773244858
 20
49.03102570772171
 40
3.200000047683716
 41
0.583332978074212
  1
Ѓ 
  0
TEXT
  8
0
  6
CONTINUOUS
 62
     4
 10
151.8669857978821
 20
49.03102570772171
 40
3.200000047683716
 41
0.699999997747499
  1
200
  0
ENDBLK
  8
0
  0
BLOCK
  8
0
  2
KOZU0014
 70
    64
 10
0
 20
0
  0
POINT
  8
0
  6
CONTINUOUS
 62
     7
 10
0
 20
0
  0
POINT
  8
0
  6
CONTINUOUS
 62
     7
 10
153.3467102050781
 20
-9.994734764099121
  0
POINT
  8
0
  6
CONTINUOUS
 62
     7
 10
170.2127990722656
 20
6.871335029602051
  0
POINT
  8
0
  6
CONTINUOUS
 62
     7
 10
153.3467102050781
 20
16.20054435729981
  0
POINT
  8
0
  6
CONTINUOUS
 62
     7
 10
862.9727783203125
 20
182.3683013916016
  0
LINE
  8
0
  6
CONTINUOUS
 62
     4
 10
170.9199066162109
 20
7.578442096710205
 11
190.3262939453125
 21
26.98484420776367
  0
LINE
  8
0
  6
CONTINUOUS
 62
     4
 10
153.3467102050781
 20
17.20054435729981
 11
153.3467102050781
 21
42.30229187011719
  0
LINE
  8
0
  6
CONTINUOUS
 62
     4
 10
188.9120788574219
 20
25.57063102722168
 11
187.1800384521484
 21
26.57063102722168
  0
LINE
  8
0
  6
CONTINUOUS
 62
     4
 10
188.9120788574219
 20
25.57063102722168
 11
187.9120788574219
 21
27.30268287658691
  0
LINE
  8
0
  6
CONTINUOUS
 62
     4
 10
153.3467102050781
 20
40.30229187011719
 11
155.278564453125
 21
40.81993103027344
  0
LINE
  8
0
  6
CONTINUOUS
 62
     4
 10
153.3467102050781
 20
40.30229187011719
 11
155.278564453125
 21
39.78465270996094
  0
ARC
  8
0
  6
CONTINUOUS
 62
     4
 10
153.3467102050781
 20
-9.994734764099121
 40
50.29702377319336
 50
44.99999769544711
 51
90.00000000000019
  0
TEXT
  8
0
  6
CONTINUOUS
 62
     4
 10
175.0043755558362
 20
36.38097899390535
 40
3.200000047683716
 41
0.5776654263702027
  1
‚S‚T%%D
 50
-28.20000010171758
  0
ENDBLK
  8
0
  0
BLOCK
  8
0
  2
KOZU0015
 70
    64
 10
0
 20
0
  0
POINT
  8
0
  6
CONTINUOUS
 62
     7
 10
80.94116973876953
 20
-14.19473361968994
  0
POINT
  8
0
  6
CONTINUOUS
 62
     7
 10
80.94116973876953
 20
-5.794734954833984
  0
POINT
  8
0
  6
CONTINUOUS
 62
     7
 10
101.2660293579102
 20
-5.794734954833984
  0
LINE
  8
0
  6
CONTINUOUS
 62
     4
 10
81.94116973876953
 20
-5.794734954833984
 11
103.2660293579102
 21
-5.794734954833984
  0
LINE
  8
0
  6
CONTINUOUS
 62
     4
 10
81.94116973876953
 20
-14.19473361968994
 11
103.2660293579102
 21
-14.19473361968994
  0
LINE
  8
0
  6
CONTINUOUS
 62
     4
 10
101.2660293579102
 20
7.260601043701172
 11
101.2660293579102
 21
-19.19473457336426
  0
LINE
  8
0
  6
CONTINUOUS
 62
     4
 10
101.2660293579102
 20
-5.794734954833984
 11
101.7836685180664
 21
-3.8628830909729
  0
LINE
  8
0
  6
CONTINUOUS
 62
     4
 10
101.2660293579102
 20
-5.794734954833984
 11
100.7483901977539
 21
-3.8628830909729
  0
LINE
  8
0
  6
CONTINUOUS
 62
     4
 10
101.2660293579102
 20
-14.19473361968994
 11
100.7483901977539
 21
-16.1265869140625
  0
LINE
  8
0
  6
CONTINUOUS
 62
     4
 10
101.2660293579102
 20
-14.19473361968994
 11
101.7836685180664
 21
-16.1265869140625
  0
TEXT
  8
0
  6
CONTINUOUS
 62
     4
 10
98.87367549929579
 20
-5.747043763797543
 40
3.200000047683716
 41
0.583332978074212
  1
%%C
 50
90.00000250447816
  0
TEXT
  8
0
  6
CONTINUOUS
 62
     4
 10
98.84380641840041
 20
-3.477176939647458
 40
3.200000047683716
 41
0.6999999925494195
  1
42
 50
90.00000250447816
  0
TEXT
  8
0
  6
CONTINUOUS
 62
     4
 10
98.84380641840041
 20
1.002823139030673
 40
3.200000047683716
 41
0.6999999925494195
  1
h6
 50
90.00000250447816
  0
ENDBLK
  8
0
  0
BLOCK
  8
0
  2
KOZU0016
 70
    64
 10
0
 20
0
  0
POINT
  8
0
  6
CONTINUOUS
 62
     7
 10
64.54116821289063
 20
-27.99473571777344
  0
POINT
  8
0
  6
CONTINUOUS
 62
     7
 10
64.54116821289063
 20
8.005265235900879
  0
POINT
  8
0
  6
CONTINUOUS
 62
     7
 10
111.9407196044922
 20
8.005265235900879
  0
LINE
  8
0
  6
CONTINUOUS
 62
     4
 10
65.54116821289063
 20
8.005265235900879
 11
113.9407196044922
 21
8.005265235900879
  0
LINE
  8
0
  6
CONTINUOUS
 62
     4
 10
65.54116821289063
 20
-27.99473571777344
 11
113.9407196044922
 21
-27.99473571777344
  0
LINE
  8
0
  6
CONTINUOUS
 62
     4
 10
111.9407196044922
 20
8.005265235900879
 11
111.9407196044922
 21
-27.99473571777344
  0
LINE
  8
0
  6
CONTINUOUS
 62
     4
 10
111.9407196044922
 20
8.005265235900879
 11
112.4583587646484
 21
6.073412895202637
  0
LINE
  8
0
  6
CONTINUOUS
 62
     4
 10
111.9407196044922
 20
8.005265235900879
 11
111.4230880737305
 21
6.073412895202637
  0
LINE
  8
0
  6
CONTINUOUS
 62
     4
 10
111.9407196044922
 20
-27.99473571777344
 11
111.4230880737305
 21
-26.0628833770752
  0
LINE
  8
0
  6
CONTINUOUS
 62
     4
 10
111.9407196044922
 20
-27.99473571777344
 11
112.4583587646484
 21
-26.0628833770752
  0
TEXT
  8
0
  6
CONTINUOUS
 62
     4
 10
109.5483657458778
 20
-17.79862657706048
 40
3.200000047683716
 41
0.583332978074212
  1
%%C
 50
90.00000250447816
  0
TEXT
  8
0
  6
CONTINUOUS
 62
     4
 10
109.6167480120503
 20
-15.62700537363794
 40
3.200000047683716
 41
0.6999999813735488
  1
180
 50
90.00000250447816
  0
TEXT
  8
0
  6
CONTINUOUS
 62
     4
 10
109.518504294377
 20
-8.808758532207271
 40
3.200000047683716
 41
0.6999999925494195
  1
h7
 50
90.00000250447816
  0
ENDBLK
  8
0
  0
BLOCK
  8
0
  2
KOZU0017
 70
    64
 10
0
 20
0
  0
POINT
  8
0
  6
CONTINUOUS
 62
     7
 10
80.94116973876953
 20
-5.794734954833984
  0
POINT
  8
0
  6
CONTINUOUS
 62
     7
 10
64.94116973876953
 20
-4.994734764099121
  0
POINT
  8
0
  6
CONTINUOUS
 62
     7
 10
64.94116973876953
 20
-3
  0
LINE
  8
0
  6
CONTINUOUS
 62
     4
 10
64.94116973876953
 20
-3.9947350025177
 11
64.94116973876953
 21
-1
  0
LINE
  8
0
  6
CONTINUOUS
 62
     4
 10
80.94116973876953
 20
-4.794734954833984
 11
80.94116973876953
 21
-1
  0
LINE
  8
0
  6
CONTINUOUS
 62
     4
 10
64.94116973876953
 20
-3
 11
80.94116973876953
 21
-3
  0
LINE
  8
0
  6
CONTINUOUS
 62
     4
 10
64.94116973876953
 20
-3
 11
66.87301635742188
 21
-2.482362031936646
  0
LINE
  8
0
  6
CONTINUOUS
 62
     4
 10
64.94116973876953
 20
-3
 11
66.87301635742188
 21
-3.517637968063355
  0
LINE
  8
0
  6
CONTINUOUS
 62
     4
 10
80.94116973876953
 20
-3
 11
79.00931549072266
 21
-3.517637968063355
  0
LINE
  8
0
  6
CONTINUOUS
 62
     4
 10
80.94116973876953
 20
-3
 11
79.00931549072266
 21
-2.482362031936646
  0
TEXT
  8
0
  6
CONTINUOUS
 62
     4
 10
70.70116305351257
 20
-1.999999940395355
 40
3.200000047683716
 41
0.6999999765838899
  1
80
  0
ENDBLK
  8
0
  0
BLOCK
  8
0
  2
KOZU0018
 70
    64
 10
0
 20
0
  0
POINT
  8
0
  6
CONTINUOUS
 62
     7
 10
63.94116973876953
 20
10.00526523590088
  0
POINT
  8
0
  6
CONTINUOUS
 62
     7
 10
80.94116973876953
 20
-5.794734954833984
  0
POINT
  8
0
  6
CONTINUOUS
 62
     7
 10
80.94116973876953
 20
50
  0
LINE
  8
0
  6
CONTINUOUS
 62
     4
 10
80.94116973876953
 20
-4.794734954833984
 11
80.94116973876953
 21
52
  0
LINE
  8
0
  6
CONTINUOUS
 62
     4
 10
63.94116973876953
 20
11.00526523590088
 11
63.94116973876953
 21
52
  0
LINE
  8
0
  6
CONTINUOUS
 62
     4
 10
80.94116973876953
 20
50
 11
63.94116973876953
 21
50
  0
LINE
  8
0
  6
CONTINUOUS
 62
     4
 10
80.94116973876953
 20
50
 11
79.00931549072266
 21
49.48236083984375
  0
LINE
  8
0
  6
CONTINUOUS
 62
     4
 10
80.94116973876953
 20
50
 11
79.00931549072266
 21
50.51763916015625
  0
LINE
  8
0
  6
CONTINUOUS
 62
     4
 10
63.94116973876953
 20
50
 11
65.87301635742188
 21
50.51763916015625
  0
LINE
  8
0
  6
CONTINUOUS
 62
     4
 10
63.94116973876953
 20
50
 11
65.87301635742188
 21
49.48236083984375
  0
TEXT
  8
0
  6
CONTINUOUS
 62
     4
 10
70.20116353034973
 20
51.00000077486038
 40
3.200000047683716
 41
0.6999999925494195
  1
85
  0
ENDBLK
  8
0
  0
BLOCK
  8
0
  2
KOZU0019
 70
    64
 10
0
 20
0
  0
POINT
  8
0
  6
CONTINUOUS
 62
     7
 10
63.94116973876953
 20
10.00526523590088
  0
POINT
  8
0
  6
CONTINUOUS
 62
     7
 10
64.54116821289063
 20
8.005265235900879
  0
POINT
  8
0
  6
CONTINUOUS
 62
     7
 10
64.54116821289063
 20
34
  0
LINE
  8
0
  6
CONTINUOUS
 62
     4
 10
64.54116821289063
 20
9.005265235900879
 11
64.54116821289063
 21
36
  0
LINE
  8
0
  6
CONTINUOUS
 62
     4
 10
63.94116973876953
 20
11.00526523590088
 11
63.94116973876953
 21
36
  0
LINE
  8
0
  6
CONTINUOUS
 62
     4
 10
71.84000396728516
 20
34
 11
58.94116973876953
 21
34
  0
LINE
  8
0
  6
CONTINUOUS
 62
     4
 10
64.54116821289063
 20
34
 11
66.4730224609375
 21
33.48236083984375
  0
LINE
  8
0
  6
CONTINUOUS
 62
     4
 10
64.54116821289063
 20
34
 11
66.4730224609375
 21
34.51763916015625
  0
TEXT
  8
0
  6
CONTINUOUS
 62
     4
 10
67.99999761581421
 20
35.00000077486038
 40
3.200000047683716
 41
1
  1
3
  0
INSERT
  8
0
  6
CONTINUOUS
 62
     3
  2
KOZU0009
 10
63.94116973876953
 20
34
 50
-180.0000050089563
  0
ENDBLK
  8
0
  0
BLOCK
  8
0
  2
KOZU0020
 70
    64
 10
0
 20
0
  0
POINT
  8
0
  6
CONTINUOUS
 62
     7
 10
59.94116973876953
 20
10.00526523590088
  0
POINT
  8
0
  6
CONTINUOUS
 62
     7
 10
63.94116973876953
 20
0.2669459879398346
  0
POINT
  8
0
  6
CONTINUOUS
 62
     7
 10
63.94116973876953
 20
34
  0
LINE
  8
0
  6
CONTINUOUS
 62
     4
 10
63.94116973876953
 20
1.266945958137512
 11
63.94116973876953
 21
36
  0
LINE
  8
0
  6
CONTINUOUS
 62
     4
 10
59.94116973876953
 20
11.00526523590088
 11
59.94116973876953
 21
36
  0
LINE
  8
0
  6
CONTINUOUS
 62
     4
 10
68.94116973876953
 20
34
 11
50.40000152587891
 21
34
  0
LINE
  8
0
  6
CONTINUOUS
 62
     4
 10
59.94116973876953
 20
34
 11
58.00931549072266
 21
34.51763916015625
  0
LINE
  8
0
  6
CONTINUOUS
 62
     4
 10
59.94116973876953
 20
34
 11
58.00931549072266
 21
33.48236083984375
  0
TEXT
  8
0
  6
CONTINUOUS
 62
     4
 10
51.9999988079071
 20
35.00000077486038
 40
3.200000047683716
 41
0.6999999765838899
  1
20
  0
INSERT
  8
0
  6
CONTINUOUS
 62
     3
  2
KOZU0009
 10
63.94116973876953
 20
34
  0
ENDBLK
  8
0
  0
BLOCK
  8
0
  2
KOZU0021
 70
    64
 10
0
 20
0
  0
POINT
  8
0
  6
CONTINUOUS
 62
     7
 10
63.94116973876953
 20
10.00526523590088
  0
POINT
  8
0
  6
CONTINUOUS
 62
     7
 10
-31.63883018493652
 20
10.05401039123535
  0
POINT
  8
0
  6
CONTINUOUS
 62
     7
 10
-31.63883018493652
 20
58
  0
LINE
  8
0
  6
CONTINUOUS
 62
     4
 10
-31.63883018493652
 20
11.05401039123535
 11
-31.63883018493652
 21
60
  0
LINE
  8
0
  6
CONTINUOUS
 62
     4
 10
63.94116973876953
 20
11.00526523590088
 11
63.94116973876953
 21
60
  0
LINE
  8
0
  6
CONTINUOUS
 62
     4
 10
-31.63883018493652
 20
58
 11
63.94116973876953
 21
58
  0
LINE
  8
0
  6
CONTINUOUS
 62
     4
 10
-31.63883018493652
 20
58
 11
-29.70697975158691
 21
58.51763916015625
  0
LINE
  8
0
  6
CONTINUOUS
 62
     4
 10
-31.63883018493652
 20
58
 11
-29.70697975158691
 21
57.48236083984375
  0
LINE
  8
0
  6
CONTINUOUS
 62
     4
 10
63.94116973876953
 20
58
 11
62.00931549072266
 21
57.48236083984375
  0
LINE
  8
0
  6
CONTINUOUS
 62
     4
 10
63.94116973876953
 20
58
 11
62.00931549072266
 21
58.51763916015625
  0
TEXT
  8
0
  6
CONTINUOUS
 62
     4
 10
12.791170835495
 20
59.00000077486038
 40
3.200000047683716
 41
0.7000000119857165
  1
480
  0
ENDBLK
  8
0
  0
BLOCK
  8
0
  2
KOZU0022
 70
    64
 10
0
 20
0
  0
POINT
  8
0
  6
CONTINUOUS
 62
     7
 10
-103.7188339233398
 20
18.60526657104492
  0
POINT
  8
0
  6
CONTINUOUS
 62
     7
 10
-132.9188385009766
 20
18.60526657104492
  0
POINT
  8
0
  6
CONTINUOUS
 62
     7
 10
-132.9188385009766
 20
38
  0
LINE
  8
0
  6
CONTINUOUS
 62
     4
 10
-132.9188385009766
 20
19.60526657104492
 11
-132.9188385009766
 21
40
  0
LINE
  8
0
  6
CONTINUOUS
 62
     4
 10
-103.7188339233398
 20
19.60526657104492
 11
-103.7188339233398
 21
40
  0
LINE
  8
0
  6
CONTINUOUS
 62
     4
 10
-132.9188385009766
 20
38
 11
-103.7188339233398
 21
38
  0
LINE
  8
0
  6
CONTINUOUS
 62
     4
 10
-132.9188385009766
 20
38
 11
-130.9869842529297
 21
38.51763916015625
  0
LINE
  8
0
  6
CONTINUOUS
 62
     4
 10
-132.9188385009766
 20
38
 11
-130.9869842529297
 21
37.48236083984375
  0
LINE
  8
0
  6
CONTINUOUS
 62
     4
 10
-103.7188339233398
 20
38
 11
-105.6506881713867
 21
37.48236083984375
  0
LINE
  8
0
  6
CONTINUOUS
 62
     4
 10
-103.7188339233398
 20
38
 11
-105.6506881713867
 21
38.51763916015625
  0
TEXT
  8
0
  6
CONTINUOUS
 62
     4
 10
-121.678836107254
 20
39.00000077486038
 40
3.200000047683716
 41
0.69999997658389
  1
146
  0
ENDBLK
  8
0
  0
BLOCK
  8
0
  2
KOZU0023
 70
    64
 10
0
 20
0
  0
POINT
  8
0
  6
CONTINUOUS
 62
     7
 10
-98.35883331298828
 20
13.55435943603516
  0
POINT
  8
0
  6
CONTINUOUS
 62
     7
 10
-103.7188339233398
 20
18.60526657104492
  0
POINT
  8
0
  6
CONTINUOUS
 62
     7
 10
-103.7188339233398
 20
38
  0
LINE
  8
0
  6
CONTINUOUS
 62
     4
 10
-103.7188339233398
 20
19.60526657104492
 11
-103.7188339233398
 21
40
  0
LINE
  8
0
  6
CONTINUOUS
 62
     4
 10
-98.35883331298828
 20
14.55435943603516
 11
-98.35883331298828
 21
40
  0
LINE
  8
0
  6
CONTINUOUS
 62
     4
 10
-108.7188339233398
 20
38
 11
-93.35883331298828
 21
38
  0
LINE
  8
0
  6
CONTINUOUS
 62
     4
 10
-103.7188339233398
 20
38
 11
-105.6506881713867
 21
38.51763916015625
  0
LINE
  8
0
  6
CONTINUOUS
 62
     4
 10
-103.7188339233398
 20
38
 11
-105.6506881713867
 21
37.48236083984375
  0
LINE
  8
0
  6
CONTINUOUS
 62
     4
 10
-98.35883331298828
 20
38
 11
-96.42697906494141
 21
37.48236083984375
  0
LINE
  8
0
  6
CONTINUOUS
 62
     4
 10
-98.35883331298828
 20
38
 11
-96.42697906494141
 21
38.51763916015625
  0
TEXT
  8
0
  6
CONTINUOUS
 62
     4
 10
-103.2788321971893
 20
39.00000077486038
 40
3.200000047683716
 41
0.6999999925494195
  1
27
  0
ENDBLK
  8
0
  0
BLOCK
  8
0
  2
KOZU0024
 70
    64
 10
0
 20
0
  0
POINT
  8
0
  6
CONTINUOUS
 62
     7
 10
-97.71882629394531
 20
3.463485956192017
  0
POINT
  8
0
  6
CONTINUOUS
 62
     7
 10
-138.9188385009766
 20
3.463485956192017
  0
POINT
  8
0
  6
CONTINUOUS
 62
     7
 10
-138.9188385009766
 20
48
  0
LINE
  8
0
  6
CONTINUOUS
 62
     4
 10
-138.9188385009766
 20
4.463486194610596
 11
-138.9188385009766
 21
50
  0
LINE
  8
0
  6
CONTINUOUS
 62
     4
 10
-97.71882629394531
 20
4.463486194610596
 11
-97.71882629394531
 21
50
  0
LINE
  8
0
  6
CONTINUOUS
 62
     4
 10
-138.9188385009766
 20
48
 11
-97.71882629394531
 21
48
  0
LINE
  8
0
  6
CONTINUOUS
 62
     4
 10
-138.9188385009766
 20
48
 11
-136.9869842529297
 21
48.51763916015625
  0
LINE
  8
0
  6
CONTINUOUS
 62
     4
 10
-138.9188385009766
 20
48
 11
-136.9869842529297
 21
47.48236083984375
  0
LINE
  8
0
  6
CONTINUOUS
 62
     4
 10
-97.71882629394531
 20
48
 11
-99.65068054199219
 21
47.48236083984375
  0
LINE
  8
0
  6
CONTINUOUS
 62
     4
 10
-97.71882629394531
 20
48
 11
-99.65068054199219
 21
48.51763916015625
  0
TEXT
  8
0
  6
CONTINUOUS
 62
     4
 10
-121.6788293123245
 20
49.00000077486038
 40
3.200000047683716
 41
0.6999999627470978
  1
206
  0
ENDBLK
  8
0
  0
BLOCK
  8
0
  2
KOZU0025
 70
    64
 10
0
 20
0
  0
POINT
  8
0
  6
CONTINUOUS
 62
     7
 10
-96.51882934570313
 20
-9.144735336303711
  0
POINT
  8
0
  6
CONTINUOUS
 62
     7
 10
-97.71882629394531
 20
3.463485956192017
  0
POINT
  8
0
  6
CONTINUOUS
 62
     7
 10
-97.71882629394531
 20
48
  0
LINE
  8
0
  6
CONTINUOUS
 62
     4
 10
-97.71882629394531
 20
4.463486194610596
 11
-97.71882629394531
 21
50
  0
LINE
  8
0
  6
CONTINUOUS
 62
     4
 10
-96.51882934570313
 20
-8.144735336303711
 11
-96.51882934570313
 21
50
  0
LINE
  8
0
  6
CONTINUOUS
 62
     4
 10
-102.7188262939453
 20
48
 11
-91.51882934570313
 21
48
  0
LINE
  8
0
  6
CONTINUOUS
 62
     4
 10
-97.71882629394531
 20
48
 11
-99.65068054199219
 21
48.51763916015625
  0
LINE
  8
0
  6
CONTINUOUS
 62
     4
 10
-97.71882629394531
 20
48
 11
-99.65068054199219
 21
47.48236083984375
  0
LINE
  8
0
  6
CONTINUOUS
 62
     4
 10
-96.51882934570313
 20
48
 11
-94.58697509765625
 21
47.48236083984375
  0
LINE
  8
0
  6
CONTINUOUS
 62
     4
 10
-96.51882934570313
 20
48
 11
-94.58697509765625
 21
48.51763916015625
  0
TEXT
  8
0
  6
CONTINUOUS
 62
     4
 10
-94.00000238418579
 20
49.00000077486038
 40
3.200000047683716
 41
1
  1
6
  0
ENDBLK
  8
0
  0
BLOCK
  8
0
  2
KOZU0026
 70
    64
 10
0
 20
0
  0
POINT
  8
0
  6
CONTINUOUS
 62
     7
 10
-138.9188385009766
 20
3.463485956192017
  0
POINT
  8
0
  6
CONTINUOUS
 62
     7
 10
-140.1188354492188
 20
-9.144735336303711
  0
POINT
  8
0
  6
CONTINUOUS
 62
     7
 10
-140.1188354492188
 20
48
  0
LINE
  8
0
  6
CONTINUOUS
 62
     4
 10
-140.1188354492188
 20
-8.144735336303711
 11
-140.1188354492188
 21
50
  0
LINE
  8
0
  6
CONTINUOUS
 62
     4
 10
-138.9188385009766
 20
4.463486194610596
 11
-138.9188385009766
 21
50
  0
LINE
  8
0
  6
CONTINUOUS
 62
     4
 10
-145.1188354492188
 20
48
 11
-133.9188385009766
 21
48
  0
LINE
  8
0
  6
CONTINUOUS
 62
     4
 10
-140.1188354492188
 20
48
 11
-142.0506896972656
 21
48.51763916015625
  0
LINE
  8
0
  6
CONTINUOUS
 62
     4
 10
-140.1188354492188
 20
48
 11
-142.0506896972656
 21
47.48236083984375
  0
LINE
  8
0
  6
CONTINUOUS
 62
     4
 10
-138.9188385009766
 20
48
 11
-136.9869842529297
 21
47.48236083984375
  0
LINE
  8
0
  6
CONTINUOUS
 62
     4
 10
-138.9188385009766
 20
48
 11
-136.9869842529297
 21
48.51763916015625
  0
TEXT
  8
0
  6
CONTINUOUS
 62
     4
 10
-145.0000023841858
 20
49.00000077486038
 40
3.200000047683716
 41
1
  1
6
  0
ENDBLK
  8
0
  0
BLOCK
  8
0
  2
KOZU0027
 70
    64
 10
0
 20
0
  0
LINE
  8
0
  6
CONTINUOUS
 62
     2
 10
3.419239044189453
 20
4.5
 11
5.459619045257568
 21
6.540380954742432
  0
LINE
  8
0
  6
CONTINUOUS
 62
     2
 10
1.580760955810547
 20
4.5
 11
-0.4596189856529236
 21
6.540380954742432
  0
LINE
  8
0
  6
CONTINUOUS
 62
     2
 10
1.850000023841858
 20
6.069239139556885
 11
0.4596189856529236
 21
7.459619045257568
  0
LINE
  8
0
  6
CONTINUOUS
 62
     2
 10
3.150000095367432
 20
6.069239139556885
 11
3.150000095367432
 21
9
  0
LINE
  8
0
  6
CONTINUOUS
 62
     2
 10
1.850000023841858
 20
6.069239139556885
 11
1.850000023841858
 21
9
  0
LINE
  8
0
  6
CONTINUOUS
 62
     2
 10
3.150000095367432
 20
6.069239139556885
 11
4.540380954742432
 21
7.459619045257568
  0
LINE
  8
0
  6
CONTINUOUS
 62
     2
 10
5.459619045257568
 20
2.459619045257568
 11
4.540380954742432
 21
1.540380954742432
  0
LINE
  8
0
  6
CONTINUOUS
 62
     2
 10
-0.4596189856529236
 20
6.540380954742432
 11
0.4596189856529236
 21
7.459619045257568
  0
LINE
  8
0
  6
CONTINUOUS
 62
     2
 10
0.4596189856529236
 20
1.540380954742432
 11
-0.4596189856529236
 21
2.459619045257568
  0
LINE
  8
0
  6
CONTINUOUS
 62
     2
 10
5.459619045257568
 20
6.540380954742432
 11
4.540380954742432
 21
7.459619045257568
  0
LINE
  8
0
  6
CONTINUOUS
 62
     2
 10
1.850000023841858
 20
0
 11
1.850000023841858
 21
2.930761098861694
  0
LINE
  8
0
  6
CONTINUOUS
 62
     2
 10
3.150000095367432
 20
0
 11
3.150000095367432
 21
2.930761098861694
  0
LINE
  8
0
  6
CONTINUOUS
 62
     2
 10
0.4596189856529236
 20
1.540380954742432
 11
1.850000023841858
 21
2.930761098861694
  0
LINE
  8
0
  6
CONTINUOUS
 62
     2
 10
-0.4596189856529236
 20
2.459619045257568
 11
1.580760955810547
 21
4.5
  0
LINE
  8
0
  6
CONTINUOUS
 62
     2
 10
4.540380954742432
 20
1.540380954742432
 11
3.150000095367432
 21
2.930761098861694
  0
LINE
  8
0
  6
CONTINUOUS
 62
     2
 10
5.459619045257568
 20
2.459619045257568
 11
3.419239044189453
 21
4.5
  0
LINE
  8
0
  6
CONTINUOUS
 62
     2
 10
1.850000023841858
 20
9
 11
3.150000095367432
 21
9
  0
LINE
  8
0
  6
CONTINUOUS
 62
     2
 10
1.850000023841858
 20
0
 11
3.150000095367432
 21
0
  0
ENDBLK
  8
0
  0
BLOCK
  8
0
  2
KOZU0028
 70
    64
 10
0
 20
0
  0
LINE
  8
0
  6
CONTINUOUS
 62
     2
 10
3.700000047683716
 20
6.5
 11
5
 21
6.5
  0
LINE
  8
0
  6
CONTINUOUS
 62
     2
 10
0
 20
2.5
 11
0
 21
6.5
  0
LINE
  8
0
  6
CONTINUOUS
 62
     2
 10
1.299999952316284
 20
6.5
 11
1.299999952316284
 21
4.693171977996826
  0
ARC
  8
0
  6
CONTINUOUS
 62
     2
 10
2.5
 20
6.5
 40
2.5
 50
0
 51
180.0000218566061
  0
ARC
  8
0
  6
CONTINUOUS
 62
     2
 10
2.5
 20
2.5
 40
2.5
 50
53.13006301226785
 51
118.6854635512833
  0
ARC
  8
0
  6
CONTINUOUS
 62
     2
 10
2.5
 20
2.5
 40
2.5
 50
180.0000163924547
 51
53.13000837075659
  0
ARC
  8
0
  6
CONTINUOUS
 62
     2
 10
2.5
 20
6.5
 40
1.200000047683716
 50
0
 51
180.0000227672971
  0
CIRCLE
  8
0
  6
CONTINUOUS
 62
     2
 10
2.5
 20
2.5
 40
1.200000047683716
  0
ENDBLK
  8
0
  0
BLOCK
  8
0
  2
KOZU0029
 70
    64
 10
0
 20
0
  0
ARC
  8
0
  6
CONTINUOUS
 62
     2
 10
2.5
 20
6.699999809265137
 40
2.299999952316284
 50
300.3048435287674
 51
239.6952522349195
  0
ARC
  8
0
  6
CONTINUOUS
 62
     2
 10
2.5
 20
2.5
 40
2.5
 50
117.6604978137845
 51
62.33944582918927
  0
CIRCLE
  8
0
  6
CONTINUOUS
 62
     2
 10
2.5
 20
2.5
 40
1.200000047683716
  0
CIRCLE
  8
0
  6
CONTINUOUS
 62
     2
 10
2.5
 20
6.699999809265137
 40
1
  0
ENDBLK
  8
0
  0
BLOCK
  8
0
  2
KOZU0030
 70
    64
 10
0
 20
0
  0
LINE
  8
0
  6
CONTINUOUS
 62
     2
 10
2.699999094009399
 20
9
 11
-9.999999974752427e-007
 21
3
  0
LINE
  8
0
  6
CONTINUOUS
 62
     2
 10
1.299999952316284
 20
3
 11
2.699996948242188
 21
6.111108779907227
  0
LINE
  8
0
  6
CONTINUOUS
 62
     2
 10
1.299999952316284
 20
3
 11
2.700000047683716
 21
3
  0
LINE
  8
0
  6
CONTINUOUS
 62
     2
 10
0
 20
1.700000047683716
 11
2.700000047683716
 21
1.700000047683716
  0
LINE
  8
0
  6
CONTINUOUS
 62
     2
 10
2.700000047683716
 20
6.111108779907227
 11
2.700000047683716
 21
3
  0
LINE
  8
0
  6
CONTINUOUS
 62
     2
 10
4
 20
9
 11
4
 21
3
  0
LINE
  8
0
  6
CONTINUOUS
 62
     2
 10
5
 20
1.700000047683716
 11
5
 21
3
  0
LINE
  8
0
  6
CONTINUOUS
 62
     2
 10
0
 20
1.700000047683716
 11
0
 21
3
  0
LINE
  8
0
  6
CONTINUOUS
 62
     2
 10
2.700000047683716
 20
9
 11
4
 21
9
  0
LINE
  8
0
  6
CONTINUOUS
 62
     2
 10
4
 20
0
 11
2.700000047683716
 21
0
  0
LINE
  8
0
  6
CONTINUOUS
 62
     2
 10
2.700000047683716
 20
0
 11
2.700000047683716
 21
1.700000047683716
  0
LINE
  8
0
  6
CONTINUOUS
 62
     2
 10
4
 20
0
 11
4
 21
1.700000047683716
  0
LINE
  8
0
  6
CONTINUOUS
 62
     2
 10
5
 20
1.700000047683716
 11
4
 21
1.700000047683716
  0
LINE
  8
0
  6
CONTINUOUS
 62
     2
 10
5
 20
3
 11
4
 21
3
  0
ENDBLK
  8
0
  0
BLOCK
  8
0
  2
KOZU0031
 70
    64
 10
0
 20
0
  0
LINE
  8
0
  6
CONTINUOUS
 62
     2
 10
0
 20
6.5
 11
1.299999952316284
 21
6.5
  0
LINE
  8
0
  6
CONTINUOUS
 62
     2
 10
4.478567123413086
 20
4.971839904785156
 11
1.642600059509277
 21
1.299998998641968
  0
LINE
  8
0
  6
CONTINUOUS
 62
     2
 10
0
 20
1.299999952316284
 11
3.449712038040161
 21
5.766482830047607
  0
LINE
  8
0
  6
CONTINUOUS
 62
     2
 10
5
 20
1.299998998641968
 11
1.642600059509277
 21
1.299998998641968
  0
LINE
  8
0
  6
CONTINUOUS
 62
     2
 10
5
 20
0
 11
5
 21
1.299999952316284
  0
LINE
  8
0
  6
CONTINUOUS
 62
     2
 10
0
 20
1.299999952316284
 11
0
 21
0
  0
LINE
  8
0
  6
CONTINUOUS
 62
     2
 10
0
 20
0
 11
5
 21
0
  0
ARC
  8
0
  6
CONTINUOUS
 62
     2
 10
2.5
 20
6.5
 40
1.200000047683716
 50
359.9999772327044
 51
180.0000000000004
  0
ARC
  8
0
  6
CONTINUOUS
 62
     2
 10
2.5
 20
6.5
 40
2.5
 50
359.9999781433954
 51
180.0000000000004
  0
ARC
  8
0
  6
CONTINUOUS
 62
     2
 10
2.5
 20
6.5
 40
2.5
 50
322.3190859654577
 51
359.9999781433954
  0
ARC
  8
0
  6
CONTINUOUS
 62
     2
 10
2.5
 20
6.5
 40
1.200000047683716
 50
322.3191359840446
 51
359.9999772327044
  0
ENDBLK
  8
0
  0
BLOCK
  8
0
  2
KOZU0032
 70
    64
 10
0
 20
0
  0
LINE
  8
0
  6
CONTINUOUS
 62
     2
 10
3.150001049041748
 20
0
 11
1.850000023841858
 21
0
  0
LINE
  8
0
  6
CONTINUOUS
 62
     2
 10
1.850000023841858
 20
9
 11
3.150001049041748
 21
9
  0
LINE
  8
0
  6
CONTINUOUS
 62
     2
 10
1.850000023841858
 20
0
 11
1.850000023841858
 21
7.699999809265137
  0
LINE
  8
0
  6
CONTINUOUS
 62
     2
 10
3.150001049041748
 20
0
 11
3.150001049041748
 21
9
  0
LINE
  8
0
  6
CONTINUOUS
 62
     2
 10
1.850000023841858
 20
7.699999809265137
 11
1.200000047683716
 21
7.699999809265137
  0
LINE
  8
0
  6
CONTINUOUS
 62
     2
 10
1.200000047683716
 20
7.699999809265137
 11
1.850000023841858
 21
9
  0
ENDBLK
  8
0
  0
BLOCK
  8
0
  2
KOZU0033
 70
    64
 10
0
 20
0
  0
LINE
  8
0
  6
CONTINUOUS
 62
     2
 10
5
 20
6
 11
3.700000047683716
 21
6
  0
LINE
  8
0
  6
CONTINUOUS
 62
     2
 10
5
 20
3
 11
3.700000047683716
 21
3
  0
LINE
  8
0
  6
CONTINUOUS
 62
     2
 10
3.700000047683716
 20
6.999999046325684
 11
3.700000047683716
 21
6
  0
LINE
  8
0
  6
CONTINUOUS
 62
     2
 10
2.999999046325684
 20
7.699999809265137
 11
2
 21
7.699999809265137
  0
LINE
  8
0
  6
CONTINUOUS
 62
     2
 10
2
 20
1.299999952316284
 11
2.999999046325684
 21
1.299999952316284
  0
LINE
  8
0
  6
CONTINUOUS
 62
     2
 10
1.299999952316284
 20
2
 11
1.299999952316284
 21
6.999999046325684
  0
LINE
  8
0
  6
CONTINUOUS
 62
     2
 10
5
 20
2
 11
5
 21
3
  0
LINE
  8
0
  6
CONTINUOUS
 62
     2
 10
0
 20
7
 11
0
 21
2
  0
LINE
  8
0
  6
CONTINUOUS
 62
     2
 10
2
 20
9
 11
3
 21
9
  0
LINE
  8
0
  6
CONTINUOUS
 62
     2
 10
3
 20
0
 11
2
 21
0
  0
LINE
  8
0
  6
CONTINUOUS
 62
     2
 10
5
 20
7
 11
5
 21
6
  0
LINE
  8
0
  6
CONTINUOUS
 62
     2
 10
3.700000047683716
 20
2
 11
3.700000047683716
 21
3
  0
ARC
  8
0
  6
CONTINUOUS
 62
     2
 10
2
 20
2
 40
0.699999988079071
 50
180.0000195148256
 51
270.0000000000005
  0
ARC
  8
0
  6
CONTINUOUS
 62
     2
 10
2.999999046325684
 20
2
 40
0.699999988079071
 50
270.0000000000005
 51
359.9999316981136
  0
ARC
  8
0
  6
CONTINUOUS
 62
     2
 10
2.999999046325684
 20
6.999999046325684
 40
0.699999988079071
 50
0
 51
90.00000000000019
  0
ARC
  8
0
  6
CONTINUOUS
 62
     2
 10
2
 20
6.999999046325684
 40
0.699999988079071
 50
90.00000000000019
 51
180.0000390296505
  0
ARC
  8
0
  6
CONTINUOUS
 62
     2
 10
2
 20
7
 40
2
 50
90.00000000000019
 51
180.0000136603791
  0
ARC
  8
0
  6
CONTINUOUS
 62
     2
 10
3
 20
7
 40
2
 50
0
 51
90.00000000000019
  0
ARC
  8
0
  6
CONTINUOUS
 62
     2
 10
3
 20
2
 40
2
 50
270.0000000000005
 51
359.9999282830144
  0
ARC
  8
0
  6
CONTINUOUS
 62
     2
 10
2
 20
2
 40
2
 50
180.0000204905682
 51
270.0000000000005
  0
ENDBLK
  8
0
  0
BLOCK
  8
0
  2
KOZU0034
 70
    64
 10
0
 20
0
  0
LINE
  8
0
  6
CONTINUOUS
 62
     2
 10
1.200000047683716
 20
7.800000190734863
 11
1.200000047683716
 21
5.199999809265137
  0
LINE
  8
0
  6
CONTINUOUS
 62
     2
 10
1.200000047683716
 20
1.200000047683716
 11
2.5
 21
1.200000047683716
  0
LINE
  8
0
  6
CONTINUOUS
 62
     2
 10
1.200000047683716
 20
7.800000190734863
 11
2.5
 21
7.800000190734863
  0
LINE
  8
0
  6
CONTINUOUS
 62
     2
 10
1.200000047683716
 20
3.799999952316284
 11
2.5
 21
3.799999952316284
  0
LINE
  8
0
  6
CONTINUOUS
 62
     2
 10
1.200000047683716
 20
5.199999809265137
 11
2.5
 21
5.199999809265137
  0
LINE
  8
0
  6
CONTINUOUS
 62
     2
 10
0
 20
0
 11
0
 21
9
  0
LINE
  8
0
  6
CONTINUOUS
 62
     2
 10
0
 20
9
 11
2.5
 21
9
  0
LINE
  8
0
  6
CONTINUOUS
 62
     2
 10
0
 20
0
 11
2.5
 21
0
  0
LINE
  8
0
  6
CONTINUOUS
 62
     2
 10
1.200000047683716
 20
1.200000047683716
 11
1.200000047683716
 21
3.74000096321106
  0
ARC
  8
0
  6
CONTINUOUS
 62
     2
 10
2.5
 20
2.5
 40
2.5
 50
270.0000000000005
 51
53.13006301226785
  0
ARC
  8
0
  6
CONTINUOUS
 62
     2
 10
2.5
 20
6.5
 40
2.5
 50
306.869912945469
 51
90.00000000000019
  0
ARC
  8
0
  6
CONTINUOUS
 62
     2
 10
2.5
 20
6.5
 40
1.299999952316284
 50
270.0000000000005
 51
90.00000000000019
  0
ARC
  8
0
  6
CONTINUOUS
 62
     2
 10
2.5
 20
2.5
 40
1.299999952316284
 50
270.0000000000005
 51
90.00000000000019
  0
ENDBLK
  8
0
  0
BLOCK
  8
0
  2
KOZU0035
 70
    64
 10
0
 20
0
  0
POINT
  8
0
  6
CONTINUOUS
 62
     3
 10
86.75
 20
-131
  0
POINT
  8
0
  6
CONTINUOUS
 62
     3
 10
104.25
 20
-131
  0
POINT
  8
0
  6
CONTINUOUS
 62
     3
 10
196
 20
-140.5
  0
POINT
  8
0
  6
CONTINUOUS
 62
     3
 10
-34
 20
-136.5
  0
POINT
  8
0
  6
CONTINUOUS
 62
     3
 10
-34
 20
-126.5
  0
POINT
  8
0
  6
CONTINUOUS
 62
     3
 10
-34
 20
-116.5
  0
POINT
  8
0
  6
CONTINUOUS
 62
     3
 10
-34
 20
-106.5
  0
POINT
  8
0
  6
CONTINUOUS
 62
     3
 10
187
 20
-140.5
  0
POINT
  8
0
  6
CONTINUOUS
 62
     3
 10
178
 20
-140.5
  0
POINT
  8
0
  6
CONTINUOUS
 62
     3
 10
169
 20
-140.5
  0
POINT
  8
0
  6
CONTINUOUS
 62
     3
 10
160
 20
-140.5
  0
POINT
  8
0
  6
CONTINUOUS
 62
     3
 10
151
 20
-140.5
  0
POINT
  8
0
  6
CONTINUOUS
 62
     3
 10
142
 20
-140.5
  0
POINT
  8
0
  6
CONTINUOUS
 62
     3
 10
133
 20
-140.5
  0
POINT
  8
0
  6
CONTINUOUS
 62
     3
 10
124
 20
-140.5
  0
POINT
  8
0
  6
CONTINUOUS
 62
     3
 10
115
 20
-140.5
  0
POINT
  8
0
  6
CONTINUOUS
 62
     3
 10
0
 20
0
  0
LINE
  8
0
  6
CONTINUOUS
 62
     4
 10
34.39888000488281
 20
-106.6980209350586
 11
35.99881362915039
 21
-106.6980209350586
  0
LINE
  8
0
  6
CONTINUOUS
 62
     4
 10
34.34221267700195
 20
-106.5980224609375
 11
35.93881225585938
 21
-106.5980224609375
  0
LINE
  8
0
  6
CONTINUOUS
 62
     4
 10
34.28554534912109
 20
-106.4980239868164
 11
35.87881469726563
 21
-106.4980239868164
  0
LINE
  8
0
  6
CONTINUOUS
 62
     4
 10
34.22887802124023
 20
-106.3980255126953
 11
35.81881332397461
 21
-106.3980255126953
  0
LINE
  8
0
  6
CONTINUOUS
 62
     4
 10
34.17221069335938
 20
-106.2980194091797
 11
35.75881195068359
 21
-106.2980194091797
  0
LINE
  8
0
  6
CONTINUOUS
 62
     4
 10
34.11554718017578
 20
-106.1980209350586
 11
35.69881439208984
 21
-106.1980209350586
  0
LINE
  8
0
  6
CONTINUOUS
 62
     4
 10
34.05887985229492
 20
-106.0980224609375
 11
35.63881301879883
 21
-106.0980224609375
  0
LINE
  8
0
  6
CONTINUOUS
 62
     4
 10
34.00221252441406
 20
-105.9980239868164
 11
35.57881164550781
 21
-105.9980239868164
  0
LINE
  8
0
  6
CONTINUOUS
 62
     4
 10
33.9455451965332
 20
-105.8980255126953
 11
35.51881408691406
 21
-105.8980255126953
  0
LINE
  8
0
  6
CONTINUOUS
 62
     4
 10
33.88887786865234
 20
-105.7980194091797
 11
35.45881271362305
 21
-105.7980194091797
  0
LINE
  8
0
  6
CONTINUOUS
 62
     4
 10
33.83221054077148
 20
-105.6980209350586
 11
35.39881134033203
 21
-105.6980209350586
  0
LINE
  8
0
  6
CONTINUOUS
 62
     4
 10
33.77554702758789
 20
-105.5980224609375
 11
35.33881378173828
 21
-105.5980224609375
  0
LINE
  8
0
  6
CONTINUOUS
 62
     4
 10
33.71887969970703
 20
-105.4980239868164
 11
35.27881240844727
 21
-105.4980239868164
  0
LINE
  8
0
  6
CONTINUOUS
 62
     4
 10
33.66221237182617
 20
-105.3980255126953
 11
35.21881484985352
 21
-105.3980255126953
  0
LINE
  8
0
  6
CONTINUOUS
 62
     4
 10
33.60554504394531
 20
-105.2980194091797
 11
35.1588134765625
 21
-105.2980194091797
  0
LINE
  8
0
  6
CONTINUOUS
 62
     4
 10
33.54141235351563
 20
-102.2976455688477
 11
33.65207672119141
 21
-102.2976455688477
  0
LINE
  8
0
  6
CONTINUOUS
 62
     4
 10
33.48141098022461
 20
-102.3976440429688
 11
33.70541381835938
 21
-102.3976440429688
  0
LINE
  8
0
  6
CONTINUOUS
 62
     4
 10
33.42141342163086
 20
-102.4976501464844
 11
33.75874328613281
 21
-102.4976501464844
  0
LINE
  8
0
  6
CONTINUOUS
 62
     4
 10
33.36141204833984
 20
-102.5976486206055
 11
33.81207656860352
 21
-102.5976486206055
  0
LINE
  8
0
  6
CONTINUOUS
 62
     4
 10
33.30141067504883
 20
-102.6976470947266
 11
33.86541366577148
 21
-102.6976470947266
  0
LINE
  8
0
  6
CONTINUOUS
 62
     4
 10
33.24141311645508
 20
-102.7976455688477
 11
33.91874313354492
 21
-102.7976455688477
  0
LINE
  8
0
  6
CONTINUOUS
 62
     4
 10
33.18141174316406
 20
-102.8976440429688
 11
33.97207641601563
 21
-102.8976440429688
  0
LINE
  8
0
  6
CONTINUOUS
 62
     4
 10
33.12141036987305
 20
-102.9976501464844
 11
34.02541351318359
 21
-102.9976501464844
  0
LINE
  8
0
  6
CONTINUOUS
 62
     4
 10
33.0614128112793
 20
-103.0976486206055
 11
34.0787467956543
 21
-103.0976486206055
  0
LINE
  8
0
  6
CONTINUOUS
 62
     4
 10
33.00141143798828
 20
-103.1976470947266
 11
34.13207626342773
 21
-103.1976470947266
  0
LINE
  8
0
  6
CONTINUOUS
 62
     4
 10
32.94141387939453
 20
-103.2976455688477
 11
34.1854133605957
 21
-103.2976455688477
  0
LINE
  8
0
  6
CONTINUOUS
 62
     4
 10
32.88141250610352
 20
-103.3976440429688
 11
34.23874664306641
 21
-103.3976440429688
  0
LINE
  8
0
  6
CONTINUOUS
 62
     4
 10
32.8214111328125
 20
-103.4976501464844
 11
34.29207611083984
 21
-103.4976501464844
  0
LINE
  8
0
  6
CONTINUOUS
 62
     4
 10
32.76141357421875
 20
-103.5976486206055
 11
34.34541320800781
 21
-103.5976486206055
  0
LINE
  8
0
  6
CONTINUOUS
 62
     4
 10
32.70141220092773
 20
-103.6976470947266
 11
34.39874649047852
 21
-103.6976470947266
  0
LINE
  8
0
  6
CONTINUOUS
 62
     4
 10
32.75533294677734
 20
-103.7976455688477
 11
34.34466552734375
 21
-103.7976455688477
  0
LINE
  8
0
  6
CONTINUOUS
 62
     4
 10
32.8120002746582
 20
-103.8976440429688
 11
34.28799819946289
 21
-103.8976440429688
  0
LINE
  8
0
  6
CONTINUOUS
 62
     4
 10
32.86866760253906
 20
-103.9976501464844
 11
34.2313346862793
 21
-103.9976501464844
  0
LINE
  8
0
  6
CONTINUOUS
 62
     4
 10
32.92533111572266
 20
-104.0976486206055
 11
34.17466735839844
 21
-104.0976486206055
  0
LINE
  8
0
  6
CONTINUOUS
 62
     4
 10
32.98199844360352
 20
-104.1976470947266
 11
34.11800003051758
 21
-104.1976470947266
  0
LINE
  8
0
  6
CONTINUOUS
 62
     4
 10
33.03866577148438
 20
-104.2976455688477
 11
34.06133270263672
 21
-104.2976455688477
  0
LINE
  8
0
  6
CONTINUOUS
 62
     4
 10
33.09533309936523
 20
-104.3976440429688
 11
34.00466537475586
 21
-104.3976440429688
  0
LINE
  8
0
  6
CONTINUOUS
 62
     4
 10
33.15200042724609
 20
-104.4976501464844
 11
33.94800186157227
 21
-104.4976501464844
  0
LINE
  8
0
  6
CONTINUOUS
 62
     4
 10
33.20866775512695
 20
-104.5976486206055
 11
33.89133453369141
 21
-104.5976486206055
  0
LINE
  8
0
  6
CONTINUOUS
 62
     4
 10
33.26533126831055
 20
-104.6976470947266
 11
33.83466720581055
 21
-104.6976470947266
  0
LINE
  8
0
  6
CONTINUOUS
 62
     4
 10
33.32199859619141
 20
-104.7976455688477
 11
33.77799987792969
 21
-104.7976455688477
  0
LINE
  8
0
  6
CONTINUOUS
 62
     4
 10
33.37866592407227
 20
-104.8976440429688
 11
33.72133255004883
 21
-104.8976440429688
  0
LINE
  8
0
  6
CONTINUOUS
 62
     4
 10
33.43533325195313
 20
-104.9976501464844
 11
33.66466522216797
 21
-104.9976501464844
  0
LINE
  8
0
  6
CONTINUOUS
 62
     4
 10
33.49200057983398
 20
-105.0976486206055
 11
33.60800170898438
 21
-105.0976486206055
  0
LINE
  8
0
  6
CONTINUOUS
 62
     4
 10
33.54866790771484
 20
-105.1976470947266
 11
33.55133438110352
 21
-105.1976470947266
  0
LINE
  8
0
  6
CONTINUOUS
 62
     4
 10
31.00121688842773
 20
-106.6979751586914
 11
32.70114898681641
 21
-106.6979751586914
  0
LINE
  8
0
  6
CONTINUOUS
 62
     4
 10
31.06121635437012
 20
-106.5979690551758
 11
32.75781631469727
 21
-106.5979690551758
  0
LINE
  8
0
  6
CONTINUOUS
 62
     4
 10
31.12121772766113
 20
-106.4979705810547
 11
32.81448364257813
 21
-106.4979705810547
  0
LINE
  8
0
  6
CONTINUOUS
 62
     4
 10
31.18121719360352
 20
-106.3979721069336
 11
32.87114715576172
 21
-106.3979721069336
  0
LINE
  8
0
  6
CONTINUOUS
 62
     4
 10
31.2412166595459
 20
-106.2979736328125
 11
32.92781448364258
 21
-106.2979736328125
  0
LINE
  8
0
  6
CONTINUOUS
 62
     4
 10
31.30121612548828
 20
-106.1979751586914
 11
32.98448181152344
 21
-106.1979751586914
  0
LINE
  8
0
  6
CONTINUOUS
 62
     4
 10
31.3612174987793
 20
-106.0979690551758
 11
33.0411491394043
 21
-106.0979690551758
  0
LINE
  8
0
  6
CONTINUOUS
 62
     4
 10
31.42121696472168
 20
-105.9979705810547
 11
33.09781646728516
 21
-105.9979705810547
  0
LINE
  8
0
  6
CONTINUOUS
 62
     4
 10
31.48121643066406
 20
-105.8979721069336
 11
33.15448379516602
 21
-105.8979721069336
  0
LINE
  8
0
  6
CONTINUOUS
 62
     4
 10
31.54121780395508
 20
-105.7979736328125
 11
33.21114730834961
 21
-105.7979736328125
  0
LINE
  8
0
  6
CONTINUOUS
 62
     4
 10
31.60121726989746
 20
-105.6979751586914
 11
33.26781463623047
 21
-105.6979751586914
  0
LINE
  8
0
  6
CONTINUOUS
 62
     4
 10
31.66121673583984
 20
-105.5979690551758
 11
33.32448196411133
 21
-105.5979690551758
  0
LINE
  8
0
  6
CONTINUOUS
 62
     4
 10
31.72121620178223
 20
-105.4979705810547
 11
33.38114929199219
 21
-105.4979705810547
  0
LINE
  8
0
  6
CONTINUOUS
 62
     4
 10
31.78121757507324
 20
-105.3979721069336
 11
33.43781661987305
 21
-105.3979721069336
  0
LINE
  8
0
  6
CONTINUOUS
 62
     4
 10
31.84121704101563
 20
-105.2979736328125
 11
33.49448394775391
 21
-105.2979736328125
  0
LINE
  8
0
  6
CONTINUOUS
 62
     3
 10
-112.5
 20
129.5
 11
-195
 21
129.5
  0
LINE
  8
0
  6
CONTINUOUS
 62
     4
 10
-112.5
 20
135.5
 11
-195
 21
135.5
  0
LINE
  8
0
  6
CONTINUOUS
 62
     3
 10
-195
 20
-101.5
 11
203
 21
-101.5
  0
LINE
  8
0
  6
CONTINUOUS
 62
     3
 10
-195
 20
141.5
 11
-195
 21
-141.5
  0
LINE
  8
0
  6
CONTINUOUS
 62
     3
 10
-195
 20
-141.5
 11
203
 21
-141.5
  0
LINE
  8
0
  6
CONTINUOUS
 62
     3
 10
203
 20
141.5
 11
-195
 21
141.5
  0
LINE
  8
0
  6
CONTINUOUS
 62
     3
 10
203
 20
-141.5
 11
203
 21
141.5
  0
LINE
  8
0
  6
CONTINUOUS
 62
     4
 10
1
 20
-141.5
 11
1
 21
-101.5
  0
LINE
  8
0
  6
CONTINUOUS
 62
     4
 10
26
 20
-141.5
 11
26
 21
-101.5
  0
LINE
  8
0
  6
CONTINUOUS
 62
     4
 10
43
 20
-141.5
 11
43
 21
-113.5
  0
LINE
  8
0
  6
CONTINUOUS
 62
     4
 10
78
 20
-141.5
 11
78
 21
-113.5
  0
LINE
  8
0
  6
CONTINUOUS
 62
     4
 10
95.5
 20
-141.5
 11
95.5
 21
-140
  0
LINE
  8
0
  6
CONTINUOUS
 62
     4
 10
113
 20
-141.5
 11
113
 21
-101.5
  0
LINE
  8
0
  6
CONTINUOUS
 62
     4
 10
113
 20
-127.5
 11
203
 21
-127.5
  0
LINE
  8
0
  6
CONTINUOUS
 62
     4
 10
113
 20
-111.5
 11
203
 21
-111.5
  0
LINE
  8
0
  6
CONTINUOUS
 62
     4
 10
1
 20
-113.5
 11
113
 21
-113.5
  0
LINE
  8
0
  6
CONTINUOUS
 62
     4
 10
1
 20
-120.5
 11
113
 21
-120.5
  0
LINE
  8
0
  6
CONTINUOUS
 62
     4
 10
1.5
 20
-127.5
 11
25.5
 21
-127.5
  0
LINE
  8
0
  6
CONTINUOUS
 62
     4
 10
26
 20
-134.5
 11
78
 21
-134.5
  0
LINE
  8
0
  6
CONTINUOUS
 62
     4
 10
78
 20
-131
 11
79.5
 21
-131
  0
LINE
  8
0
  6
CONTINUOUS
 62
     4
 10
111.5
 20
-131
 11
113
 21
-131
  0
LINE
  8
0
  6
CONTINUOUS
 62
     4
 10
95.5
 20
-122
 11
95.5
 21
-120.5
  0
LINE
  8
0
  6
CONTINUOUS
 62
     4
 10
-189
 20
-101.5
 11
-189
 21
-141.5
  0
LINE
  8
0
  6
CONTINUOUS
 62
     4
 10
-4
 20
-141.5
 11
-4
 21
-106.5
  0
LINE
  8
0
  6
CONTINUOUS
 62
     4
 10
-14
 20
-141.5
 11
-14
 21
-106.5
  0
LINE
  8
0
  6
CONTINUOUS
 62
     4
 10
-19
 20
-141.5
 11
-19
 21
-106.5
  0
LINE
  8
0
  6
CONTINUOUS
 62
     4
 10
-29
 20
-141.5
 11
-29
 21
-101.5
  0
LINE
  8
0
  6
CONTINUOUS
 62
     4
 10
-29
 20
-106.5
 11
1
 21
-106.5
  0
LINE
  8
0
  6
CONTINUOUS
 62
     4
 10
-29
 20
-111.5
 11
1
 21
-111.5
  0
LINE
  8
0
  6
CONTINUOUS
 62
     4
 10
-29
 20
-116.5
 11
1
 21
-116.5
  0
LINE
  8
0
  6
CONTINUOUS
 62
     4
 10
-29
 20
-121.5
 11
1
 21
-121.5
  0
LINE
  8
0
  6
CONTINUOUS
 62
     4
 10
-29
 20
-126.5
 11
1
 21
-126.5
  0
LINE
  8
0
  6
CONTINUOUS
 62
     4
 10
-29
 20
-131.5
 11
1
 21
-131.5
  0
LINE
  8
0
  6
CONTINUOUS
 62
     4
 10
-29
 20
-136.5
 11
1
 21
-136.5
  0
LINE
  8
0
  6
CONTINUOUS
 62
     4
 10
-39
 20
-141.5
 11
-39
 21
-101.5
  0
LINE
  8
0
  6
CONTINUOUS
 62
     4
 10
-39
 20
-121.5
 11
-29
 21
-121.5
  0
LINE
  8
0
  6
CONTINUOUS
 62
     4
 10
-39
 20
-111.5
 11
-29
 21
-111.5
  0
LINE
  8
0
  6
CONTINUOUS
 62
     4
 10
-39
 20
-131.5
 11
-29
 21
-131.5
  0
LINE
  8
0
  6
CONTINUOUS
 62
     3
 10
0
 20
148.5
 11
0
 21
141.5
  0
LINE
  8
0
  6
CONTINUOUS
 62
     3
 10
-210
 20
0
 11
-195
 21
0
  0
LINE
  8
0
  6
CONTINUOUS
 62
     3
 10
203
 20
0
 11
210
 21
0
  0
LINE
  8
0
  6
CONTINUOUS
 62
     3
 10
52.5
 20
-141.5
 11
52.5
 21
-146.5
  0
LINE
  8
0
  6
CONTINUOUS
 62
     3
 10
105
 20
-141.5
 11
105
 21
-146.5
  0
LINE
  8
0
  6
CONTINUOUS
 62
     3
 10
157.5
 20
-141.5
 11
157.5
 21
-146.5
  0
LINE
  8
0
  6
CONTINUOUS
 62
     3
 10
-52.5
 20
-141.5
 11
-52.5
 21
-146.5
  0
LINE
  8
0
  6
CONTINUOUS
 62
     3
 10
-105
 20
-141.5
 11
-105
 21
-146.5
  0
LINE
  8
0
  6
CONTINUOUS
 62
     3
 10
-157.5
 20
-141.5
 11
-157.5
 21
-146.5
  0
LINE
  8
0
  6
CONTINUOUS
 62
     3
 10
52.5
 20
146.5
 11
52.5
 21
141.5
  0
LINE
  8
0
  6
CONTINUOUS
 62
     3
 10
105
 20
146.5
 11
105
 21
141.5
  0
LINE
  8
0
  6
CONTINUOUS
 62
     3
 10
157.5
 20
146.5
 11
157.5
 21
141.5
  0
LINE
  8
0
  6
CONTINUOUS
 62
     3
 10
-52.5
 20
146.5
 11
-52.5
 21
141.5
  0
LINE
  8
0
  6
CONTINUOUS
 62
     3
 10
-105
 20
146.5
 11
-105
 21
141.5
  0
LINE
  8
0
  6
CONTINUOUS
 62
     3
 10
-157.5
 20
146.5
 11
-157.5
 21
141.5
  0
LINE
  8
0
  6
CONTINUOUS
 62
     3
 10
-200
 20
49.5
 11
-195
 21
49.5
  0
LINE
  8
0
  6
CONTINUOUS
 62
     3
 10
-200
 20
99
 11
-195
 21
99
  0
LINE
  8
0
  6
CONTINUOUS
 62
     3
 10
-200
 20
-49.5
 11
-195
 21
-49.5
  0
LINE
  8
0
  6
CONTINUOUS
 62
     3
 10
-200
 20
-99
 11
-195
 21
-99
  0
LINE
  8
0
  6
CONTINUOUS
 62
     3
 10
203
 20
49.5
 11
208
 21
49.5
  0
LINE
  8
0
  6
CONTINUOUS
 62
     3
 10
203
 20
99
 11
208
 21
99
  0
LINE
  8
0
  6
CONTINUOUS
 62
     3
 10
203
 20
-49.5
 11
208
 21
-49.5
  0
LINE
  8
0
  6
CONTINUOUS
 62
     3
 10
203
 20
-99
 11
208
 21
-99
  0
LINE
  8
0
  6
CENTER
 62
     4
 10
6
 20
-103.5
 11
6
 21
-111.5
  0
LINE
  8
0
  6
CENTER
 62
     4
 10
2
 20
-107.5
 11
25
 21
-107.5
  0
LINE
  8
0
  6
CONTINUOUS
 62
     3
 10
12.60000038146973
 20
-105.9000015258789
 11
23.10000038146973
 21
-105.3000030517578
  0
LINE
  8
0
  6
CONTINUOUS
 62
     3
 10
23.10000038146973
 20
-109.6999969482422
 11
12.60000038146973
 21
-109.0999984741211
  0
LINE
  8
0
  6
CONTINUOUS
 62
     3
 10
12.60000038146973
 20
-105.9000015258789
 11
12.60000038146973
 21
-109.0999984741211
  0
LINE
  8
0
  6
CONTINUOUS
 62
     3
 10
23.10000038146973
 20
-109.6999969482422
 11
23.10000038146973
 21
-105.3000030517578
  0
LINE
  8
0
  6
CONTINUOUS
 62
     3
 10
10
 20
-141.5
 11
10
 21
-144.5
  0
LINE
  8
0
  6
CONTINUOUS
 62
     3
 10
0
 20
-141.5
 11
0
 21
-148.5
  0
LINE
  8
0
  6
CONTINUOUS
 62
     3
 10
-10
 20
-141.5
 11
-10
 21
-144.5
  0
LINE
  8
0
  6
CONTINUOUS
 62
     3
 10
20
 20
-141.5
 11
20
 21
-144.5
  0
LINE
  8
0
  6
CONTINUOUS
 62
     3
 10
30
 20
-141.5
 11
30
 21
-144.5
  0
LINE
  8
0
  6
CONTINUOUS
 62
     3
 10
40
 20
-141.5
 11
40
 21
-144.5
  0
LINE
  8
0
  6
CONTINUOUS
 62
     3
 10
50
 20
-141.5
 11
50
 21
-144.5
  0
LINE
  8
0
  6
CONTINUOUS
 62
     3
 10
-20
 20
-141.5
 11
-20
 21
-144.5
  0
LINE
  8
0
  6
CONTINUOUS
 62
     3
 10
-30
 20
-141.5
 11
-30
 21
-144.5
  0
LINE
  8
0
  6
CONTINUOUS
 62
     3
 10
-40
 20
-141.5
 11
-40
 21
-144.5
  0
LINE
  8
0
  6
CONTINUOUS
 62
     3
 10
-50
 20
-141.5
 11
-50
 21
-144.5
  0
LINE
  8
0
  6
CONTINUOUS
 62
     4
 10
26
 20
-127.5
 11
78
 21
-127.5
  0
LINE
  8
0
  6
CONTINUOUS
 62
     4
 10
194
 20
-141.5
 11
194
 21
-127.5
  0
LINE
  8
0
  6
CONTINUOUS
 62
     4
 10
122
 20
-141.5
 11
122
 21
-130.5
  0
LINE
  8
0
  6
CONTINUOUS
 62
     4
 10
131
 20
-141.5
 11
131
 21
-140.5
  0
LINE
  8
0
  6
CONTINUOUS
 62
     4
 10
140
 20
-141.5
 11
140
 21
-140.5
  0
LINE
  8
0
  6
CONTINUOUS
 62
     4
 10
149
 20
-141.5
 11
149
 21
-140.5
  0
LINE
  8
0
  6
CONTINUOUS
 62
     4
 10
158
 20
-141.5
 11
158
 21
-140.5
  0
LINE
  8
0
  6
CONTINUOUS
 62
     4
 10
167
 20
-141.5
 11
167
 21
-140.5
  0
LINE
  8
0
  6
CONTINUOUS
 62
     4
 10
176
 20
-141.5
 11
176
 21
-140.5
  0
LINE
  8
0
  6
CONTINUOUS
 62
     4
 10
185
 20
-141.5
 11
185
 21
-140.5
  0
LINE
  8
0
  6
CONTINUOUS
 62
     4
 10
31
 20
-106.6999969482422
 11
32.70000076293945
 21
-106.6999969482422
  0
LINE
  8
0
  6
CONTINUOUS
 62
     4
 10
34.40000152587891
 20
-103.6999969482422
 11
33.59999847412109
 21
-102.1999969482422
  0
LINE
  8
0
  6
CONTINUOUS
 62
     4
 10
32.70000076293945
 20
-103.6999969482422
 11
34.40000152587891
 21
-106.6999969482422
  0
LINE
  8
0
  6
CONTINUOUS
 62
     4
 10
36
 20
-106.6999969482422
 11
35.09999847412109
 21
-105.1999969482422
  0
LINE
  8
0
  6
CONTINUOUS
 62
     4
 10
33.59999847412109
 20
-102.1999969482422
 11
32.70000076293945
 21
-103.6999969482422
  0
LINE
  8
0
  6
CONTINUOUS
 62
     4
 10
34.40000152587891
 20
-103.6999969482422
 11
32.70000076293945
 21
-106.6999969482422
  0
LINE
  8
0
  6
CONTINUOUS
 62
     4
 10
34.40000152587891
 20
-106.6999969482422
 11
36
 21
-106.6999969482422
  0
LINE
  8
0
  6
CONTINUOUS
 62
     4
 10
31.89999961853027
 20
-105.1999969482422
 11
31
 21
-106.6999969482422
  0
LINE
  8
0
  6
CONTINUOUS
 62
     4
 10
35.09999847412109
 20
-105.1999969482422
 11
31.89999961853027
 21
-105.1999969482422
  0
LINE
  8
0
  6
CONTINUOUS
 62
     4
 10
27
 20
-107.5
 11
112
 21
-107.5
  0
LINE
  8
0
  6
DASHED
 62
     4
 10
-122.5
 20
135.5
 11
-122.5
 21
129.5
  0
LINE
  8
0
  6
CONTINUOUS
 62
     4
 10
-115
 20
134.5
 11
-115
 21
135.5
  0
LINE
  8
0
  6
CONTINUOUS
 62
     4
 10
-117.5
 20
134.5
 11
-117.5
 21
135.5
  0
LINE
  8
0
  6
CONTINUOUS
 62
     4
 10
-120
 20
134.5
 11
-120
 21
135.5
  0
LINE
  8
0
  6
CONTINUOUS
 62
     4
 10
-125
 20
134.5
 11
-125
 21
135.5
  0
LINE
  8
0
  6
CONTINUOUS
 62
     4
 10
-127.5
 20
134.5
 11
-127.5
 21
135.5
  0
LINE
  8
0
  6
CONTINUOUS
 62
     4
 10
-130
 20
134.5
 11
-130
 21
135.5
  0
LINE
  8
0
  6
CONTINUOUS
 62
     4
 10
-132.5
 20
134.5
 11
-132.5
 21
135.5
  0
LINE
  8
0
  6
CONTINUOUS
 62
     4
 10
-135
 20
134.5
 11
-135
 21
135.5
  0
LINE
  8
0
  6
CONTINUOUS
 62
     4
 10
-137.5
 20
134.5
 11
-137.5
 21
135.5
  0
LINE
  8
0
  6
CONTINUOUS
 62
     4
 10
-140
 20
134.5
 11
-140
 21
135.5
  0
LINE
  8
0
  6
CONTINUOUS
 62
     4
 10
-142.5
 20
134.5
 11
-142.5
 21
135.5
  0
LINE
  8
0
  6
CONTINUOUS
 62
     4
 10
-145
 20
134.5
 11
-145
 21
135.5
  0
LINE
  8
0
  6
CONTINUOUS
 62
     4
 10
-147.5
 20
134.5
 11
-147.5
 21
135.5
  0
LINE
  8
0
  6
CONTINUOUS
 62
     4
 10
-150
 20
134.5
 11
-150
 21
135.5
  0
LINE
  8
0
  6
CONTINUOUS
 62
     4
 10
-152.5
 20
134.5
 11
-152.5
 21
135.5
  0
LINE
  8
0
  6
CONTINUOUS
 62
     4
 10
-155
 20
134.5
 11
-155
 21
135.5
  0
LINE
  8
0
  6
CONTINUOUS
 62
     4
 10
-157.5
 20
134.5
 11
-157.5
 21
135.5
  0
LINE
  8
0
  6
CONTINUOUS
 62
     4
 10
-160
 20
134.5
 11
-160
 21
135.5
  0
LINE
  8
0
  6
CONTINUOUS
 62
     4
 10
-112.5
 20
129.5
 11
-112.5
 21
141.5
  0
LINE
  8
0
  6
CONTINUOUS
 62
     4
 10
-170
 20
134.5
 11
-170
 21
135.5
  0
LINE
  8
0
  6
CONTINUOUS
 62
     4
 10
-165
 20
134.5
 11
-165
 21
135.5
  0
LINE
  8
0
  6
CONTINUOUS
 62
     4
 10
-162.5
 20
129.5
 11
-162.5
 21
141.5
  0
LINE
  8
0
  6
CONTINUOUS
 62
     4
 10
-167.5
 20
129.5
 11
-167.5
 21
141.5
  0
LINE
  8
0
  6
CONTINUOUS
 62
     4
 10
-172.5
 20
129.5
 11
-172.5
 21
141.5
  0
LINE
  8
0
  6
CONTINUOUS
 62
     4
 10
-175
 20
134.5
 11
-175
 21
135.5
  0
LINE
  8
0
  6
CONTINUOUS
 62
     4
 10
-177.5
 20
134.5
 11
-177.5
 21
135.5
  0
LINE
  8
0
  6
CONTINUOUS
 62
     4
 10
-180
 20
134.5
 11
-180
 21
135.5
  0
LINE
  8
0
  6
CONTINUOUS
 62
     4
 10
-182.5
 20
134.5
 11
-182.5
 21
135.5
  0
LINE
  8
0
  6
CONTINUOUS
 62
     4
 10
-185
 20
134.5
 11
-185
 21
135.5
  0
LINE
  8
0
  6
CONTINUOUS
 62
     4
 10
-187.5
 20
134.5
 11
-187.5
 21
135.5
  0
LINE
  8
0
  6
CONTINUOUS
 62
     4
 10
-190
 20
134.5
 11
-190
 21
135.5
  0
LINE
  8
0
  6
DASHED
 62
     4
 10
-192.5
 20
129.5
 11
-192.5
 21
135.5
  0
CIRCLE
  8
0
  6
CONTINUOUS
 62
     3
 10
6
 20
-107.5
 40
1.5
  0
CIRCLE
  8
0
  6
CONTINUOUS
 62
     3
 10
6
 20
-107.5
 40
2.5
  0
TEXT
  8
0
  6
CONTINUOUS
 62
     4
 10
-140.9183596968651
 20
136.1330718994141
 40
2
 41
0.6700000281517323
  1
TITLE
  0
TEXT
  8
0
  6
CONTINUOUS
 62
     4
 10
-167.0700734257698
 20
136.1466064453125
 40
2
 41
0.670000028796494
  1
REV.
  0
TEXT
  8
0
  6
CONTINUOUS
 62
     4
 10
-172.4464988708496
 20
136.1466064453125
 40
2
 41
0.6700000112706965
  1
PAGE
  0
TEXT
  8
0
  6
CONTINUOUS
 62
     4
 10
-190.2334993481636
 20
136.1330718994141
 40
2
 41
0.6699999962435213
  1
DRAWING No.
  0
TEXT
  8
0
  6
CONTINUOUS
 62
     4
 10
-200.0000009536743
 20
122.5
 40
2.5
 41
1.03333296896029
  1
‚`
  0
TEXT
  8
0
  6
CONTINUOUS
 62
     4
 10
-200.0000009536743
 20
73
 40
2.5
 41
1.03333296896029
  1
‚a
  0
TEXT
  8
0
  6
CONTINUOUS
 62
     4
 10
-200.0000009536743
 20
23.5
 40
2.5
 41
1.03333296896029
  1
‚b
  0
TEXT
  8
0
  6
CONTINUOUS
 62
     4
 10
-200.0000009536743
 20
-26
 40
2.5
 41
1.03333296896029
  1
‚c
  0
TEXT
  8
0
  6
CONTINUOUS
 62
     4
 10
-200.0000009536743
 20
-75.5
 40
2.5
 41
1.03333296896029
  1
‚d
  0
TEXT
  8
0
  6
CONTINUOUS
 62
     4
 10
-200.0000009536743
 20
-124.6999969482422
 40
2.5
 41
1.03333296896029
  1
‚e
  0
TEXT
  8
0
  6
CONTINUOUS
 62
     4
 10
204.9999990463257
 20
122.5
 40
2.5
 41
1.03333296896029
  1
‚`
  0
TEXT
  8
0
  6
CONTINUOUS
 62
     4
 10
204.9999990463257
 20
73
 40
2.5
 41
1.03333296896029
  1
‚a
  0
TEXT
  8
0
  6
CONTINUOUS
 62
     4
 10
204.9999990463257
 20
23.5
 40
2.5
 41
1.03333296896029
  1
‚b
  0
TEXT
  8
0
  6
CONTINUOUS
 62
     4
 10
204.9999990463257
 20
-26
 40
2.5
 41
1.03333296896029
  1
‚c
  0
TEXT
  8
0
  6
CONTINUOUS
 62
     4
 10
204.9999990463257
 20
-75.5
 40
2.5
 41
1.03333296896029
  1
‚d
  0
TEXT
  8
0
  6
CONTINUOUS
 62
     4
 10
204.9999990463257
 20
-124.6999969482422
 40
2.5
 41
1.03333296896029
  1
‚e
  0
TEXT
  8
0
  6
CONTINUOUS
 62
     4
 10
-185.1999979019165
 20
-146
 40
2.5
 41
1.03333296896029
  1
‚P
  0
TEXT
  8
0
  6
CONTINUOUS
 62
     4
 10
-132.6999979019165
 20
-146
 40
2.5
 41
1.03333296896029
  1
‚Q
  0
TEXT
  8
0
  6
CONTINUOUS
 62
     4
 10
-80.1999979019165
 20
-146
 40
2.5
 41
1.03333296896029
  1
‚R
  0
TEXT
  8
0
  6
CONTINUOUS
 62
     4
 10
77.29998683929443
 20
-146
 40
2.5
 41
1.03333296896029
  1
‚U
  0
TEXT
  8
0
  6
CONTINUOUS
 62
     4
 10
129.7999868392944
 20
-146
 40
2.5
 41
1.03333296896029
  1
‚V
  0
TEXT
  8
0
  6
CONTINUOUS
 62
     4
 10
182.2999868392944
 20
-146
 40
2.5
 41
1.03333296896029
  1
‚W
  0
TEXT
  8
0
  6
CONTINUOUS
 62
     4
 10
-185.1999979019165
 20
143.5
 40
2.5
 41
1.03333296896029
  1
‚P
  0
TEXT
  8
0
  6
CONTINUOUS
 62
     4
 10
-132.6999979019165
 20
143.5
 40
2.5
 41
1.03333296896029
  1
‚Q
  0
TEXT
  8
0
  6
CONTINUOUS
 62
     4
 10
-80.1999979019165
 20
143.5
 40
2.5
 41
1.03333296896029
  1
‚R
  0
TEXT
  8
0
  6
CONTINUOUS
 62
     4
 10
-27.6999979019165
 20
143.5
 40
2.5
 41
1.03333296896029
  1
‚S
  0
TEXT
  8
0
  6
CONTINUOUS
 62
     4
 10
24.8000020980835
 20
143.5
 40
2.5
 41
1.03333296896029
  1
‚T
  0
TEXT
  8
0
  6
CONTINUOUS
 62
     4
 10
77.29998683929443
 20
143.5
 40
2.5
 41
1.03333296896029
  1
‚U
  0
TEXT
  8
0
  6
CONTINUOUS
 62
     4
 10
129.7999868392944
 20
143.5
 40
2.5
 41
1.03333296896029
  1
‚V
  0
TEXT
  8
0
  6
CONTINUOUS
 62
     4
 10
182.2999868392944
 20
143.5
 40
2.5
 41
1.03333296896029
  1
‚W
  0
TEXT
  8
0
  6
CONTINUOUS
 62
     4
 10
-191.7799377891608
 20
-136.2200582355271
 40
3
 41
1.02777801641897
  1
‰ьЃ@’и
 50
90.00000250447816
  0
TEXT
  8
0
  6
CONTINUOUS
 62
     4
 10
-191.4526672670427
 20
-120.547333034874
 40
3
 41
0.8266670142903048
  1
CHANGE
 50
90.00000250447816
  0
TEXT
  8
0
  6
CONTINUOUS
 62
     4
 10
-37.50000166893005
 20
-108.100001513958
 40
3.200000047683716
 41
0.9895830072073905
  1
Џн—p
  0
TEXT
  8
0
  6
CONTINUOUS
 62
     4
 10
-37.50000166893005
 20
-118.100001513958
 40
3.200000047683716
 41
0.9895830072073905
  1
•Ы—Ї
  0
TEXT
  8
0
  6
CONTINUOUS
 62
     4
 10
-37.50000166893005
 20
-128.1000091433525
 40
3.200000047683716
 41
0.9895830072073905
  1
€кЋћ
  0
TEXT
  8
0
  6
CONTINUOUS
 62
     4
 10
-37.50000166893005
 20
-138.1000091433525
 40
3.200000047683716
 41
0.9895830072073905
  1
Џ¤—p
  0
TEXT
  8
0
  6
CONTINUOUS
 62
     4
 10
-27.00000047683716
 20
-105.5000030398369
 40
3.200000047683716
 41
0.9895829696414386
  1
Џoђ}ђжЃiЃ@Ѓ@Ѓj
  0
TEXT
  8
0
  6
CONTINUOUS
 62
     4
 10
-27
 20
-110.5000030398369
 40
3.200000047683716
 41
0.9895829696414384
  1
ЌT
  0
TEXT
  8
0
  6
CONTINUOUS
 62
     4
 10
-26.99999976158142
 20
-115.5000030398369
 40
3.200000047683716
 41
0.9895830072073905
  1
ЌH’ц
  0
TEXT
  8
0
  6
CONTINUOUS
 62
     4
 10
-26.99999976158142
 20
-120.5000030398369
 40
3.200000047683716
 41
0.9895830072073905
  1
Њ»Џк
  0
TEXT
  8
0
  6
CONTINUOUS
 62
     4
 10
-26.99999976158142
 20
-125.5000030398369
 40
3.200000047683716
 41
0.9895830072073905
  1
•iЉЗ
  0
TEXT
  8
0
  6
CONTINUOUS
 62
     4
 10
-26.99999976158142
 20
-140.5000030398369
 40
3.200000047683716
 41
0.9895830072073905
  1
ЉO’Ќ
  0
TEXT
  8
0
  6
CONTINUOUS
 62
     4
 10
4.500000238418579
 20
-125.5000030398369
 40
2.700000047683716
 41
1.049383039846016
  1
ЋЪ“x
  0
TEXT
  8
0
  6
CONTINUOUS
 62
     4
 10
12.49999988079071
 20
-125.5000030398369
 40
2.700000047683716
 41
0.8740739724787006
  1
SCALE
  0
TEXT
  8
0
  6
CONTINUOUS
 62
     4
 10
4.99999988079071
 20
-118.5
 40
2
 41
0.9699999690055848
  1
DIM.IN
  0
TEXT
  8
0
  6
CONTINUOUS
 62
     4
 10
17.99999964237213
 20
-118.5000030398369
 40
2.700000047683716
 41
0.8518519516017357
  1
mm
  0
TEXT
  8
0
  6
CONTINUOUS
 62
     4
 10
29.50000059604645
 20
-116.5
 40
2
 41
1.125000054094972
  1
Ќмђ¬“ъ•t
  0
TEXT
  8
0
  6
CONTINUOUS
 62
     4
 10
29.99999928474426
 20
-119.5
 40
2
 41
0.9700000177730214
  1
DATE
  0
TEXT
  8
0
  6
CONTINUOUS
 62
     4
 10
29.50000059604645
 20
-123.5
 40
2
 41
1.125000054094972
  1
ЌмЃ@Ѓ@ђ¬
  0
TEXT
  8
0
  6
CONTINUOUS
 62
     4
 10
29.49999952316284
 20
-126.5
 40
2
 41
0.9699999809265136
  1
DRAWN
  0
TEXT
  8
0
  6
CONTINUOUS
 62
     4
 10
114.4999964237213
 20
-114.5
 40
2
 41
0.9700000652900109
  1
TITLE
  0
TEXT
  8
0
  6
CONTINUOUS
 62
     4
 10
114.5000015497208
 20
-130.5
 40
2
 41
0.9700000297348456
  1
DWG.No.
  0
TEXT
  8
0
  6
CONTINUOUS
 62
     4
 10
37.50000011920929
 20
-106.6999999880791
 40
2.700000047683716
 41
0.8518519835185462
  1
MITSUBISHI ELECTRIC CORPORATION
  0
TEXT
  8
0
  6
CONTINUOUS
 62
     4
 10
29.50000059604645
 20
-130.5
 40
2
 41
1.125000054094972
  1
ЏЖЃ@Ѓ@Ќё
  0
TEXT
  8
0
  6
CONTINUOUS
 62
     4
 10
28.00000059604645
 20
-133.5
 40
2
 41
0.9700000137090683
  1
CHECKED
  0
TEXT
  8
0
  6
CONTINUOUS
 62
     4
 10
29.50000059604645
 20
-137.5
 40
2
 41
1.125000054094972
  1
ђЭЃ@Ѓ@Њv
  0
TEXT
  8
0
  6
CONTINUOUS
 62
     4
 10
27.00000083446503
 20
-140.5
 40
2
 41
0.9699999933893031
  1
DESIGNED
  0
TEXT
  8
0
  6
CONTINUOUS
 62
     4
 10
88.00000369548798
 20
-116.5
 40
2
 41
1.1249999480264
  1
ЊџЃ@Ѓ@Ѓ@Ѓ@”F
  0
TEXT
  8
0
  6
CONTINUOUS
 62
     4
 10
88.00000095367432
 20
-119.5
 40
2
 41
0.9699999690055848
  1
APPROVED
  0
TEXT
  8
0
  6
CONTINUOUS
 62
     4
 10
10.49999952316284
 20
-138.5000030398369
 40
2.700000047683716
 41
0.8518519847154267
  1
NTS
  0
TEXT
  8
0
  6
CONTINUOUS
 62
     4
 10
11.8999936580658
 20
-132.5000030398369
 40
2.700000047683716
 41
1.018518030075259
  1
ЃF
  0
TEXT
  8
0
  6
CONTINUOUS
 62
     4
 10
-142.2822592258453
 20
139.1117553710938
 40
2
 41
0.7916669885651405
  1
–јЃ@Ѓ@Ѓ@ЏМ
  0
TEXT
  8
0
  6
CONTINUOUS
 62
     4
 10
-166.1412031650543
 20
139.0711975097656
 40
2
 41
0.6250000200351747
  1
•›”Ф
  0
TEXT
  8
0
  6
CONTINUOUS
 62
     4
 10
-172.2612056732178
 20
139.0711975097656
 40
2
 41
0.8088239958119947
  1
НЯ-јЮ
  0
TEXT
  8
0
  6
CONTINUOUS
 62
     4
 10
-188.9001485705376
 20
138.97119140625
 40
2
 41
0.5786842020118939
  1
ђ}Ѓ@–КЃ@”ФЃ@Ќ†
  0
ENDBLK
  8
0
  0
BLOCK
  8
0
  2
KOZU0036
 70
    64
 10
0
 20
0
  0
POINT
  8
0
  6
CONTINUOUS
 62
     7
 10
135.7834320068359
 20
-22.39558982849121
  0
POINT
  8
0
  6
CONTINUOUS
 62
     7
 10
170.9100036621094
 20
2.406119108200073
  0
LINE
  8
0
  6
CONTINUOUS
 62
     4
 10
131.6989440917969
 20
-25.27950668334961
 11
184.6264343261719
 21
12.09083843231201
  0
LINE
  8
0
  6
CONTINUOUS
 62
     4
 10
135.7834320068359
 20
-22.39558982849121
 11
133.9067535400391
 21
-23.08699226379395
  0
LINE
  8
0
  6
CONTINUOUS
 62
     4
 10
135.7834320068359
 20
-22.39558982849121
 11
134.5038757324219
 21
-23.93270683288574
  0
LINE
  8
0
  6
CONTINUOUS
 62
     4
 10
170.9100036621094
 20
2.406119108200073
 11
172.7866821289063
 21
3.097522974014282
  0
LINE
  8
0
  6
CONTINUOUS
 62
     4
 10
170.9100036621094
 20
2.406119108200073
 11
172.1895599365234
 21
3.943237066268921
  0
TEXT
  8
0
  6
CONTINUOUS
 62
     4
 10
174.8537656715021
 20
7.012065771313836
 40
3.200000047683716
 41
0.583332978074212
  1
%%C
 50
35.20000143487518
  0
TEXT
  8
0
  6
CONTINUOUS
 62
     4
 10
176.6913232785419
 20
8.27974659783013
 40
3.200000047683716
 41
0.69999997658389
  1
215
 50
35.20000143487518
  0
ENDBLK
  8
0
  0
BLOCK
  8
0
  2
KOZU0037
 70
    64
 10
0
 20
0
  0
POLYLINE
  8
0
  6
CONTINUOUS
 62
     3
 66
     1
 10
0
 20
0
 70
     1
 40
0.5
 41
0.5
  0
VERTEX
  8
0
  6
CONTINUOUS
 62
     3
 10
-0.25
 20
0
 42
1
  0
VERTEX
  8
0
  6
CONTINUOUS
 62
     3
 10
0.25
 20
0
 42
1
  0
SEQEND
  8
0
  6
CONTINUOUS
 62
     3
  0
ENDBLK
  8
0
  0
ENDSEC
  0
SECTION
  2
ENTITIES
  0
LINE
  8
0
  6
CONTINUOUS
 62
     3
 10
-6.458829879760742
 20
3.054862976074219
 11
-6.458829879760742
 21
1.054862976074219
  0
LINE
  8
0
  6
CONTINUOUS
 62
     3
 10
-5.258830070495606
 20
1.054862976074219
 11
-6.458829879760742
 21
1.054862976074219
  0
LINE
  8
0
  6
CONTINUOUS
 62
     3
 10
-5.258830070495606
 20
3.054862976074219
 11
-6.458829879760742
 21
3.054862976074219
  0
LINE
  8
0
  6
CENTER
 62
     4
 10
-4
 20
2.054862976074219
 11
-8
 21
2.054862976074219
  0
LINE
  8
0
  6
CONTINUOUS
 62
     3
 10
-138.9188232421875
 20
-13.19473457336426
 11
-138.9188232421875
 21
-23.45295524597168
  0
LINE
  8
0
  6
CONTINUOUS
 62
     3
 10
-97.71882629394531
 20
-13.19473457336426
 11
-97.71882629394531
 21
-23.45295524597168
  0
LINE
  8
0
  6
CONTINUOUS
 62
     3
 10
-97.51882934570313
 20
-13.19473457336426
 11
-97.91883087158203
 21
-13.19473457336426
  0
LINE
  8
0
  6
CONTINUOUS
 62
     3
 10
-97.51882934570313
 20
-10.84473514556885
 11
-96.51882934570313
 21
-10.84473514556885
  0
LINE
  8
0
  6
CONTINUOUS
 62
     3
 10
-96.51882934570313
 20
-9.144735336303711
 11
-96.51882934570313
 21
-10.84473514556885
  0
LINE
  8
0
  6
CONTINUOUS
 62
     3
 10
-97.51882934570313
 20
-6.794734954833984
 11
-97.91883087158203
 21
-6.794734954833984
  0
LINE
  8
0
  6
CONTINUOUS
 62
     3
 10
-97.51882934570313
 20
-9.144735336303711
 11
-96.51882934570313
 21
-9.144735336303711
  0
LINE
  8
0
  6
CONTINUOUS
 62
     3
 10
-97.51882934570313
 20
-6.794734954833984
 11
-97.51882934570313
 21
-13.19473457336426
  0
LINE
  8
0
  6
CONTINUOUS
 62
     3
 10
-139.1188354492188
 20
-13.19473457336426
 11
-138.7188262939453
 21
-13.19473457336426
  0
LINE
  8
0
  6
CONTINUOUS
 62
     3
 10
-139.1188354492188
 20
-10.84473514556885
 11
-140.1188354492188
 21
-10.84473514556885
  0
LINE
  8
0
  6
CONTINUOUS
 62
     3
 10
-139.1188354492188
 20
-6.794734954833984
 11
-138.7188262939453
 21
-6.794734954833984
  0
LINE
  8
0
  6
CONTINUOUS
 62
     3
 10
-140.1188354492188
 20
-9.144735336303711
 11
-140.1188354492188
 21
-10.84473514556885
  0
LINE
  8
0
  6
CONTINUOUS
 62
     3
 10
-139.1188354492188
 20
-9.144735336303711
 11
-140.1188354492188
 21
-9.144735336303711
  0
LINE
  8
0
  6
CONTINUOUS
 62
     3
 10
-139.1188354492188
 20
-6.794734954833984
 11
-139.1188354492188
 21
-13.19473457336426
  0
LINE
  8
0
  6
CONTINUOUS
 62
     3
 10
174.1466674804688
 20
-13.19473457336426
 11
173.9466705322266
 21
-13.19473457336426
  0
LINE
  8
0
  6
CONTINUOUS
 62
     3
 10
174.1066741943359
 20
-10.84473514556885
 11
175.1466674804688
 21
-10.84473514556885
  0
LINE
  8
0
  6
CONTINUOUS
 62
     3
 10
173.9466705322266
 20
-11.19473457336426
 11
174.1066741943359
 21
-11.19473457336426
  0
LINE
  8
0
  6
CONTINUOUS
 62
     3
 10
174.1466674804688
 20
-10.84473514556885
 11
174.1466674804688
 21
-13.19473457336426
  0
LINE
  8
0
  6
CONTINUOUS
 62
     3
 10
174.1466674804688
 20
-6.794734954833984
 11
173.9466705322266
 21
-6.794734954833984
  0
LINE
  8
0
  6
CONTINUOUS
 62
     3
 10
175.1466674804688
 20
-9.144735336303711
 11
175.1466674804688
 21
-10.84473514556885
  0
LINE
  8
0
  6
CONTINUOUS
 62
     3
 10
174.1066741943359
 20
-9.144735336303711
 11
175.1466674804688
 21
-9.144735336303711
  0
LINE
  8
0
  6
CONTINUOUS
 62
     3
 10
174.1066741943359
 20
-8.794734954833984
 11
174.1066741943359
 21
-11.19473457336426
  0
LINE
  8
0
  6
CONTINUOUS
 62
     3
 10
173.9466705322266
 20
-8.794734954833984
 11
174.1066741943359
 21
-8.794734954833984
  0
LINE
  8
0
  6
CONTINUOUS
 62
     3
 10
174.1466674804688
 20
-6.794734954833984
 11
174.1466674804688
 21
-9.144735336303711
  0
LINE
  8
0
  6
CONTINUOUS
 62
     3
 10
132.7466735839844
 20
-8.794734954833984
 11
132.586669921875
 21
-8.794734954833984
  0
LINE
  8
0
  6
CONTINUOUS
 62
     3
 10
132.7466735839844
 20
-11.19473457336426
 11
132.586669921875
 21
-11.19473457336426
  0
LINE
  8
0
  6
CONTINUOUS
 62
     3
 10
166.8048858642578
 20
-30.59473419189453
 11
167.4049377441406
 21
-29.99468231201172
  0
LINE
  8
0
  6
CONTINUOUS
 62
     3
 10
139.8884429931641
 20
10.60526466369629
 11
139.2883911132813
 21
10.00521278381348
  0
LINE
  8
0
  6
CONTINUOUS
 62
     3
 10
166.8048858642578
 20
10.60526466369629
 11
167.4049377441406
 21
10.00521278381348
  0
LINE
  8
0
  6
CONTINUOUS
 62
     3
 10
166.8048858642578
 20
10.60526466369629
 11
139.8884429931641
 21
10.60526466369629
  0
LINE
  8
0
  6
CONTINUOUS
 62
     3
 10
173.9466705322266
 20
3.463486909866333
 11
173.3466186523438
 21
4.063538074493408
  0
LINE
  8
0
  6
CONTINUOUS
 62
     3
 10
173.9466705322266
 20
-23.45295524597168
 11
173.3466186523438
 21
-24.05300712585449
  0
LINE
  8
0
  6
CONTINUOUS
 62
     3
 10
173.9466705322266
 20
-23.45295524597168
 11
173.9466705322266
 21
3.463486909866333
  0
LINE
  8
0
  6
CONTINUOUS
 62
     3
 10
139.8884429931641
 20
-30.59473419189453
 11
139.2883911132813
 21
-29.99468231201172
  0
LINE
  8
0
  6
CONTINUOUS
 62
     3
 10
139.8884429931641
 20
-30.59473419189453
 11
166.8048858642578
 21
-30.59473419189453
  0
LINE
  8
0
  6
CONTINUOUS
 62
     3
 10
132.7466735839844
 20
-23.45295524597168
 11
133.3467254638672
 21
-24.05300712585449
  0
LINE
  8
0
  6
CONTINUOUS
 62
     3
 10
132.7466735839844
 20
3.463486909866333
 11
133.3467254638672
 21
4.063538074493408
  0
LINE
  8
0
  6
CONTINUOUS
 62
     3
 10
132.7466735839844
 20
3.463486909866333
 11
132.7466735839844
 21
-23.45295524597168
  0
LINE
  8
0
  6
CONTINUOUS
 62
     3
 10
-131.7770538330078
 20
-30.59473419189453
 11
-138.9188232421875
 21
-23.45295524597168
  0
LINE
  8
0
  6
CONTINUOUS
 62
     3
 10
-138.9188232421875
 20
3.463486909866333
 11
-133.7188262939453
 21
8.663487434387207
  0
LINE
  8
0
  6
CONTINUOUS
 62
     3
 10
-101.5097045898438
 20
7.254358768463135
 11
-97.71882629394531
 21
3.463486909866333
  0
LINE
  8
0
  6
CONTINUOUS
 62
     3
 10
-97.71882629394531
 20
-23.45295524597168
 11
-104.8606109619141
 21
-30.59473419189453
  0
LINE
  8
0
  6
CONTINUOUS
 62
     3
 10
-131.7770538330078
 20
-30.59473419189453
 11
-104.8606109619141
 21
-30.59473419189453
  0
LINE
  8
0
  6
CONTINUOUS
 62
     3
 10
-138.9188232421875
 20
3.463486909866333
 11
-138.9188232421875
 21
-6.794734954833984
  0
LINE
  8
0
  6
CONTINUOUS
 62
     3
 10
-97.71882629394531
 20
3.463486909866333
 11
-97.71882629394531
 21
-6.794734954833984
  0
LINE
  8
0
  6
CENTER
 62
     4
 10
-13.29883003234863
 20
10.40526485443115
 11
-29.21883010864258
 21
10.40526485443115
  0
LINE
  8
0
  6
CENTER
 62
     4
 10
-21.25882911682129
 20
18.36526489257813
 11
-21.25882911682129
 21
2.445265054702759
  0
LINE
  8
0
  6
CONTINUOUS
 62
     3
 10
-104.2606048583984
 20
-29.99473571777344
 11
-103.3187789916992
 21
-29.99473571777344
  0
LINE
  8
0
  6
CONTINUOUS
 62
     3
 10
-138.3187713623047
 20
-24.05300712585449
 11
-138.3187713623047
 21
-24.99473571777344
  0
LINE
  8
0
  6
CONTINUOUS
 62
     3
 10
-133.3187713623047
 20
-29.99473571777344
 11
-132.3770446777344
 21
-29.99473571777344
  0
LINE
  8
0
  6
CONTINUOUS
 62
     3
 10
-138.3187713623047
 20
5.005265235900879
 11
-138.3187713623047
 21
4.063538074493408
  0
LINE
  8
0
  6
CONTINUOUS
 62
     3
 10
64.54116821289063
 20
-14.99473476409912
 11
64.94116973876953
 21
-14.99473476409912
  0
LINE
  8
0
  6
CONTINUOUS
 62
     3
 10
132.5466613769531
 20
-10.84473514556885
 11
132.5466613769531
 21
-13.19473457336426
  0
LINE
  8
0
  6
CONTINUOUS
 62
     3
 10
132.586669921875
 20
-8.794734954833984
 11
132.586669921875
 21
-11.19473457336426
  0
LINE
  8
0
  6
CONTINUOUS
 62
     3
 10
132.5466613769531
 20
-13.19473457336426
 11
132.7466735839844
 21
-13.19473457336426
  0
LINE
  8
0
  6
CONTINUOUS
 62
     3
 10
132.586669921875
 20
-10.84473514556885
 11
131.5466613769531
 21
-10.84473514556885
  0
LINE
  8
0
  6
CONTINUOUS
 62
     3
 10
131.5466613769531
 20
-9.144735336303711
 11
131.5466613769531
 21
-10.84473514556885
  0
LINE
  8
0
  6
CONTINUOUS
 62
     3
 10
132.5466613769531
 20
-6.794734954833984
 11
132.7466735839844
 21
-6.794734954833984
  0
LINE
  8
0
  6
CONTINUOUS
 62
     3
 10
132.5466613769531
 20
-6.794734954833984
 11
132.5466613769531
 21
-9.144735336303711
  0
LINE
  8
0
  6
CONTINUOUS
 62
     3
 10
132.586669921875
 20
-9.144735336303711
 11
131.5466613769531
 21
-9.144735336303711
  0
LINE
  8
0
  6
CONTINUOUS
 62
     3
 10
167.5096282958984
 20
19.39828491210938
 11
167.3789672851563
 21
23.14016532897949
  0
LINE
  8
0
  6
CONTINUOUS
 62
     3
 10
153.3466644287109
 20
24.10526466369629
 11
166.3795776367188
 21
24.10526466369629
  0
LINE
  8
0
  6
CONTINUOUS
 62
     3
 10
167.9500427246094
 20
19.10875511169434
 11
167.9676208496094
 21
18.60526466369629
  0
LINE
  8
0
  6
CONTINUOUS
 62
     3
 10
167.7095031738281
 20
19.20526504516602
 11
167.85009765625
 21
19.20526504516602
  0
LINE
  8
0
  6
CONTINUOUS
 62
     3
 10
165.5399322509766
 20
19.39828491210938
 11
165.4092559814453
 21
23.14016532897949
  0
LINE
  8
0
  6
CONTINUOUS
 62
     3
 10
165.7398071289063
 20
19.20526504516602
 11
167.9466705322266
 21
19.20526504516602
  0
LINE
  8
0
  6
CENTER
 62
     4
 10
166.9466705322266
 20
17.60526466369629
 11
166.9466705322266
 21
20.82753753662109
  0
LINE
  8
0
  6
CONTINUOUS
 62
     3
 10
168.7466735839844
 20
16.60526466369629
 11
167.9466705322266
 21
16.60526466369629
  0
LINE
  8
0
  6
CONTINUOUS
 62
     3
 10
141.1534118652344
 20
19.39828491210938
 11
141.2840728759766
 21
23.14016532897949
  0
LINE
  8
0
  6
CONTINUOUS
 62
     3
 10
140.9535217285156
 20
19.20526504516602
 11
138.7466735839844
 21
19.20526504516602
  0
LINE
  8
0
  6
CONTINUOUS
 62
     3
 10
138.7466735839844
 20
19.20526504516602
 11
138.7257080078125
 21
18.60526466369629
  0
LINE
  8
0
  6
CENTER
 62
     4
 10
139.7466735839844
 20
17.60526466369629
 11
139.7466735839844
 21
20.82753753662109
  0
LINE
  8
0
  6
CONTINUOUS
 62
     3
 10
153.3466644287109
 20
24.10526466369629
 11
142.1123504638672
 21
24.10526466369629
  0
LINE
  8
0
  6
CONTINUOUS
 62
     3
 10
139.3339233398438
 20
23.14016532897949
 11
139.2032470703125
 21
19.39828491210938
  0
LINE
  8
0
  6
CONTINUOUS
 62
     3
 10
142.1123504638672
 20
24.10526466369629
 11
140.3333129882813
 21
24.10526466369629
  0
LINE
  8
0
  6
CONTINUOUS
 62
     3
 10
137.9466705322266
 20
16.60526466369629
 11
138.7466735839844
 21
16.60526466369629
  0
LINE
  8
0
  6
CONTINUOUS
 62
     3
 10
-5.258830070495606
 20
9.063548088073731
 11
11.54117012023926
 21
9.063548088073731
  0
LINE
  8
0
  6
CONTINUOUS
 62
     3
 10
-5.258830070495606
 20
0.005264999810606241
 11
-29.85882949829102
 21
0.005264999810606241
  0
LINE
  8
0
  6
CONTINUOUS
 62
     3
 10
-18.85882949829102
 20
-20.17900657653809
 11
-5.258830070495606
 21
-23.25301742553711
  0
LINE
  8
0
  6
CONTINUOUS
 62
     3
 10
-18.85882949829102
 20
-28.09473419189453
 11
-18.85882949829102
 21
0.005264999810606241
  0
LINE
  8
0
  6
CONTINUOUS
 62
     3
 10
-29.85882949829102
 20
-20.17900657653809
 11
-18.85882949829102
 21
-20.17900657653809
  0
LINE
  8
0
  6
CONTINUOUS
 62
     3
 10
12.34117031097412
 20
-23.25301742553711
 11
-5.258830070495606
 21
-23.25301742553711
  0
LINE
  8
0
  6
CONTINUOUS
 62
     3
 10
-5.258830070495606
 20
9.063548088073731
 11
-5.258830070495606
 21
-30.59473419189453
  0
LINE
  8
0
  6
CONTINUOUS
 62
     3
 10
-5.258830070495606
 20
3.263547897338867
 11
12.34117031097412
 21
3.263547897338867
  0
LINE
  8
0
  6
CONTINUOUS
 62
     3
 10
12.34117031097412
 20
-9.994734764099121
 11
12.34117031097412
 21
-28.99473571777344
  0
LINE
  8
0
  6
CONTINUOUS
 62
     3
 10
12.34117031097412
 20
10.60526466369629
 11
12.34117031097412
 21
8.405264854431152
  0
LINE
  8
0
  6
CENTER
 62
     4
 10
-25.25317764282227
 20
14.39961338043213
 11
-26.70638847351074
 21
15.85282325744629
  0
LINE
  8
0
  6
CENTER
 62
     4
 10
-25.25317764282227
 20
6.410916805267334
 11
-26.70638847351074
 21
4.957706928253174
  0
LINE
  8
0
  6
CENTER
 62
     4
 10
-17.26448249816895
 20
6.410916805267334
 11
-15.81127166748047
 21
4.957706928253174
  0
LINE
  8
0
  6
CENTER
 62
     4
 10
-17.26448249816895
 20
14.39961338043213
 11
-15.81127166748047
 21
15.85282325744629
  0
LINE
  8
0
  6
CONTINUOUS
 62
     3
 10
-29.85882949829102
 20
-9.994734764099121
 11
-29.85882949829102
 21
-28.09473419189453
  0
LINE
  8
0
  6
CONTINUOUS
 62
     3
 10
-30.17882919311523
 20
-10.99473476409912
 11
-29.85882949829102
 21
-10.99473476409912
  0
LINE
  8
0
  6
CONTINUOUS
 62
     3
 10
-30.17882919311523
 20
-10.99473476409912
 11
-30.17882919311523
 21
-26.28473472595215
  0
LINE
  8
0
  6
CENTER
 62
     4
 10
-31.20991706848145
 20
-9.994734764099121
 11
-28.75244331359863
 21
-9.994734764099121
  0
LINE
  8
0
  6
CONTINUOUS
 62
     3
 10
-30.17882919311523
 20
-7.994734764099121
 11
-30.17882919311523
 21
-11.99473476409912
  0
LINE
  8
0
  6
CONTINUOUS
 62
     3
 10
-30.17882919311523
 20
-8.994734764099121
 11
-30.17882919311523
 21
10.20401000976563
  0
LINE
  8
0
  6
CONTINUOUS
 62
     3
 10
-29.85882949829102
 20
-8.994734764099121
 11
-29.85882949829102
 21
9.965265274047852
  0
LINE
  8
0
  6
CONTINUOUS
 62
     3
 10
-30.17882919311523
 20
-8.994734764099121
 11
-29.85882949829102
 21
-8.994734764099121
  0
LINE
  8
0
  6
CONTINUOUS
 62
     3
 10
-30.37882995605469
 20
-7.994734764099121
 11
-30.37882995605469
 21
-11.99473476409912
  0
LINE
  8
0
  6
CONTINUOUS
 62
     3
 10
-30.17882919311523
 20
-11.99473476409912
 11
-30.37882995605469
 21
-11.99473476409912
  0
LINE
  8
0
  6
CONTINUOUS
 62
     3
 10
-30.17882919311523
 20
-7.994734764099121
 11
-30.37882995605469
 21
-7.994734764099121
  0
LINE
  8
0
  6
CONTINUOUS
 62
     3
 10
-118.5688323974609
 20
6.203335762023926
 11
-118.5688323974609
 21
6.563377857208252
  0
LINE
  8
0
  6
CONTINUOUS
 62
     3
 10
-118.0688323974609
 20
6.203335762023926
 11
-118.0688323974609
 21
6.563377857208252
  0
LINE
  8
0
  6
CONTINUOUS
 62
     3
 10
-118.5688323974609
 20
4.603125095367432
 11
-118.5688323974609
 21
4.963175773620606
  0
LINE
  8
0
  6
CONTINUOUS
 62
     3
 10
-118.0688323974609
 20
4.603125095367432
 11
-118.0688323974609
 21
4.963175773620606
  0
LINE
  8
0
  6
CONTINUOUS
 62
     3
 10
-118.5688323974609
 20
3.002861022949219
 11
-118.5688323974609
 21
3.362926006317139
  0
LINE
  8
0
  6
CONTINUOUS
 62
     3
 10
-118.0688323974609
 20
3.002861022949219
 11
-118.0688323974609
 21
3.362926006317139
  0
LINE
  8
0
  6
CONTINUOUS
 62
     3
 10
-118.0688323974609
 20
1.402523994445801
 11
-118.0688323974609
 21
1.762606978416443
  0
LINE
  8
0
  6
CONTINUOUS
 62
     3
 10
-118.5688323974609
 20
1.402523994445801
 11
-118.5688323974609
 21
1.762606978416443
  0
LINE
  8
0
  6
CONTINUOUS
 62
     3
 10
-118.0688323974609
 20
-0.1979240030050278
 11
-118.0688323974609
 21
0.1621890068054199
  0
LINE
  8
0
  6
CONTINUOUS
 62
     3
 10
-118.5688323974609
 20
-0.1979240030050278
 11
-118.5688323974609
 21
0.1621890068054199
  0
LINE
  8
0
  6
CONTINUOUS
 62
     3
 10
-118.0688323974609
 20
-1.798547029495239
 11
-118.0688323974609
 21
-1.438385963439941
  0
LINE
  8
0
  6
CONTINUOUS
 62
     3
 10
-118.5688323974609
 20
-1.798547029495239
 11
-118.5688323974609
 21
-1.438385963439941
  0
LINE
  8
0
  6
CONTINUOUS
 62
     3
 10
-118.5688323974609
 20
-3.399471044540405
 11
-118.5688323974609
 21
-3.039226055145264
  0
LINE
  8
0
  6
CONTINUOUS
 62
     3
 10
-118.0688323974609
 20
-3.399471044540405
 11
-118.0688323974609
 21
-3.039226055145264
  0
LINE
  8
0
  6
CONTINUOUS
 62
     3
 10
-118.5688323974609
 20
-5.000988960266113
 11
-118.5688323974609
 21
-4.640567779541016
  0
LINE
  8
0
  6
CONTINUOUS
 62
     3
 10
-118.0688323974609
 20
-5.000988960266113
 11
-118.0688323974609
 21
-4.640567779541016
  0
LINE
  8
0
  6
CONTINUOUS
 62
     3
 10
-118.5688323974609
 20
-6.603939056396484
 11
-118.5688323974609
 21
-6.243054866790772
  0
LINE
  8
0
  6
CONTINUOUS
 62
     3
 10
-118.0688323974609
 20
-6.603939056396484
 11
-118.0688323974609
 21
-6.243054866790772
  0
LINE
  8
0
  6
CENTER
 62
     4
 10
-118.3188323974609
 20
-26.85475158691406
 11
-118.3188323974609
 21
10.43277359008789
  0
LINE
  8
0
  6
CONTINUOUS
 62
     3
 10
-107.8476333618164
 20
-15.34746170043945
 11
-106.7724990844727
 21
-15.96819305419922
  0
LINE
  8
0
  6
CONTINUOUS
 62
     3
 10
-114.7015533447266
 20
-11.02084636688232
 11
-113.6026306152344
 21
-11.65530681610107
  0
LINE
  8
0
  6
CONTINUOUS
 62
     3
 10
-114.8042984008789
 20
-11.33102893829346
 11
-113.7199935913086
 21
-11.95705413818359
  0
LINE
  8
0
  6
CONTINUOUS
 62
     3
 10
-115.404296875
 20
-12.37026023864746
 11
-114.3199920654297
 21
-12.9962854385376
  0
LINE
  8
0
  6
CONTINUOUS
 62
     3
 10
-115.6215515136719
 20
-12.614333152771
 11
-114.5226364135742
 21
-13.24879360198975
  0
LINE
  8
0
  6
CONTINUOUS
 62
     3
 10
-114.2058258056641
 20
-13.43170642852783
 11
-113.1188659667969
 21
-14.05926036834717
  0
LINE
  8
0
  6
CONTINUOUS
 62
     3
 10
-114.0061111450195
 20
-13.17750644683838
 11
-112.9267272949219
 21
-13.80068492889404
  0
LINE
  8
0
  6
CONTINUOUS
 62
     3
 10
-113.4061050415039
 20
-12.13827610015869
 11
-112.3267288208008
 21
-12.76145458221436
  0
LINE
  8
0
  6
CONTINUOUS
 62
     3
 10
-113.2858200073242
 20
-11.83821868896484
 11
-112.1988677978516
 21
-12.4657735824585
  0
LINE
  8
0
  6
CONTINUOUS
 62
     3
 10
-111.8841857910156
 20
-12.6474552154541
 11
-110.8022613525391
 21
-13.27210521697998
  0
LINE
  8
0
  6
CONTINUOUS
 62
     3
 10
-112.0137329101563
 20
-12.94216442108154
 11
-110.9364547729492
 21
-13.56412887573242
  0
LINE
  8
0
  6
CONTINUOUS
 62
     3
 10
-111.4085922241211
 20
-15.04668712615967
 11
-110.3292617797852
 21
-15.66983890533447
  0
LINE
  8
0
  6
CONTINUOUS
 62
     3
 10
-112.6137313842773
 20
-13.98139476776123
 11
-111.5364532470703
 21
-14.60336017608643
  0
LINE
  8
0
  6
CONTINUOUS
 62
     3
 10
-112.8041839599609
 20
-14.24094200134277
 11
-111.7222595214844
 21
-14.86559200286865
  0
LINE
  8
0
  6
CONTINUOUS
 62
     3
 10
-111.2238845825195
 20
-14.78382301330566
 11
-110.147705078125
 21
-15.40515804290772
  0
LINE
  8
0
  6
CONTINUOUS
 62
     3
 10
-110.6238861083984
 20
-13.74459266662598
 11
-109.5477066040039
 21
-14.36592674255371
  0
LINE
  8
0
  6
CONTINUOUS
 62
     3
 10
-110.4885940551758
 20
-13.453200340271
 11
-109.4092636108398
 21
-14.0763521194458
  0
LINE
  8
0
  6
CONTINUOUS
 62
     3
 10
-109.0961608886719
 20
-14.25712203979492
 11
-108.0183410644531
 21
-14.8794002532959
  0
LINE
  8
0
  6
CONTINUOUS
 62
     3
 10
-109.2353668212891
 20
-14.54625415802002
 11
-108.1598205566406
 21
-15.16721916198731
  0
LINE
  8
0
  6
CONTINUOUS
 62
     3
 10
-109.8353652954102
 20
-15.58548355102539
 11
-108.7598266601563
 21
-16.20644950866699
  0
LINE
  8
0
  6
CONTINUOUS
 62
     3
 10
-110.0161590576172
 20
-15.85060882568359
 11
-108.9383392333984
 21
-16.47288703918457
  0
LINE
  8
0
  6
CONTINUOUS
 62
     3
 10
-108.6255874633789
 20
-16.65345764160156
 11
-107.5487289428711
 21
-17.27518081665039
  0
LINE
  8
0
  6
CONTINUOUS
 62
     3
 10
-108.4476318359375
 20
-16.38669204711914
 11
-107.3724975585938
 21
-17.00742340087891
  0
LINE
  8
0
  6
CONTINUOUS
 62
     3
 10
-107.7055816650391
 20
-15.05997085571289
 11
-106.6287307739258
 21
-15.68169403076172
  0
LINE
  8
0
  6
CONTINUOUS
 62
     3
 10
-106.3161926269531
 20
-15.86213397979736
 11
-105.239990234375
 21
-16.48348426818848
  0
LINE
  8
0
  6
CONTINUOUS
 62
     3
 10
-106.4604034423828
 20
-16.14838027954102
 11
-105.3855438232422
 21
-16.76895332336426
  0
LINE
  8
0
  6
CONTINUOUS
 62
     3
 10
-107.0604019165039
 20
-17.1876106262207
 11
-105.9855422973633
 21
-17.80818367004395
  0
LINE
  8
0
  6
CONTINUOUS
 62
     3
 10
-107.236198425293
 20
-17.45562171936035
 11
-106.1599884033203
 21
-18.07697105407715
  0
LINE
  8
0
  6
CONTINUOUS
 62
     3
 10
-105.8476104736328
 20
-18.25732040405273
 11
-104.771858215332
 21
-18.8784065246582
  0
LINE
  8
0
  6
CONTINUOUS
 62
     3
 10
-105.6735153198242
 20
-17.98833274841309
 11
-104.5988464355469
 21
-18.60879325866699
  0
LINE
  8
0
  6
CONTINUOUS
 62
     3
 10
-105.0735168457031
 20
-16.94910049438477
 11
-103.9988403320313
 21
-17.56956291198731
  0
LINE
  8
0
  6
CONTINUOUS
 62
     3
 10
-104.9276123046875
 20
-16.66383361816406
 11
-103.8518600463867
 21
-17.28491973876953
  0
LINE
  8
0
  6
CONTINUOUS
 62
     3
 10
-103.5395965576172
 20
-17.4652042388916
 11
-101.2311401367188
 21
-18.79799270629883
  0
LINE
  8
0
  6
CONTINUOUS
 62
     3
 10
-103.6868667602539
 20
-17.74968338012695
 11
-101.9125595092773
 21
-18.77408027648926
  0
LINE
  8
0
  6
CONTINUOUS
 62
     3
 10
-104.286865234375
 20
-18.78891372680664
 11
-102.5125579833984
 21
-19.81331062316895
  0
LINE
  8
0
  6
CONTINUOUS
 62
     3
 10
-104.4595947265625
 20
-19.05869102478027
 11
-102.1511383056641
 21
-20.39147758483887
  0
LINE
  8
0
  6
CONTINUOUS
 62
     3
 10
-130.3214569091797
 20
-15.86213397979736
 11
-131.3976745605469
 21
-16.48348426818848
  0
LINE
  8
0
  6
CONTINUOUS
 62
     3
 10
-130.1772613525391
 20
-16.14838027954102
 11
-131.2521209716797
 21
-16.76895332336426
  0
LINE
  8
0
  6
CONTINUOUS
 62
     3
 10
-128.7900238037109
 20
-15.34746170043945
 11
-129.8651580810547
 21
-15.96819305419922
  0
LINE
  8
0
  6
CONTINUOUS
 62
     3
 10
-128.9320831298828
 20
-15.05997085571289
 11
-130.0089263916016
 21
-15.68169403076172
  0
LINE
  8
0
  6
CONTINUOUS
 62
     3
 10
-127.54150390625
 20
-14.25712203979492
 11
-128.6193237304688
 21
-14.8794002532959
  0
LINE
  8
0
  6
CONTINUOUS
 62
     3
 10
-127.4022903442383
 20
-14.54625415802002
 11
-128.4778289794922
 21
-15.16721916198731
  0
LINE
  8
0
  6
CONTINUOUS
 62
     3
 10
-126.0137710571289
 20
-13.74459266662598
 11
-127.089958190918
 21
-14.36592674255371
  0
LINE
  8
0
  6
CONTINUOUS
 62
     3
 10
-126.1490707397461
 20
-13.453200340271
 11
-127.228401184082
 21
-14.0763521194458
  0
LINE
  8
0
  6
CONTINUOUS
 62
     3
 10
-124.6239242553711
 20
-12.94216442108154
 11
-125.7012023925781
 21
-13.56412887573242
  0
LINE
  8
0
  6
CONTINUOUS
 62
     3
 10
-124.7534790039063
 20
-12.6474552154541
 11
-125.8354034423828
 21
-13.27210521697998
  0
LINE
  8
0
  6
CONTINUOUS
 62
     3
 10
-123.2315521240234
 20
-12.13827610015869
 11
-124.3109283447266
 21
-12.76145458221436
  0
LINE
  8
0
  6
CONTINUOUS
 62
     3
 10
-123.3518371582031
 20
-11.83821868896484
 11
-124.4387969970703
 21
-12.4657735824585
  0
LINE
  8
0
  6
CONTINUOUS
 62
     3
 10
-121.8333587646484
 20
-11.33102893829346
 11
-122.9176635742188
 21
-11.95705413818359
  0
LINE
  8
0
  6
CONTINUOUS
 62
     3
 10
-121.9361038208008
 20
-11.02084636688232
 11
-123.035026550293
 21
-11.65530681610107
  0
LINE
  8
0
  6
CONTINUOUS
 62
     3
 10
-121.0161056518555
 20
-12.614333152771
 11
-122.1150283813477
 21
-13.24879360198975
  0
LINE
  8
0
  6
CONTINUOUS
 62
     3
 10
-121.2333602905273
 20
-12.37026023864746
 11
-122.3176651000977
 21
-12.9962854385376
  0
LINE
  8
0
  6
CONTINUOUS
 62
     3
 10
-122.4318389892578
 20
-13.43170642852783
 11
-123.5187911987305
 21
-14.05926036834717
  0
LINE
  8
0
  6
CONTINUOUS
 62
     3
 10
-122.6315536499023
 20
-13.17750644683838
 11
-123.7109298706055
 21
-13.80068492889404
  0
LINE
  8
0
  6
CONTINUOUS
 62
     3
 10
-123.8334732055664
 20
-14.24094200134277
 11
-124.915397644043
 21
-14.86559200286865
  0
LINE
  8
0
  6
CONTINUOUS
 62
     3
 10
-124.02392578125
 20
-13.98139476776123
 11
-125.101203918457
 21
-14.60336017608643
  0
LINE
  8
0
  6
CONTINUOUS
 62
     3
 10
-125.2290649414063
 20
-15.04668712615967
 11
-126.3083953857422
 21
-15.66983890533447
  0
LINE
  8
0
  6
CONTINUOUS
 62
     3
 10
-125.4137725830078
 20
-14.78382301330566
 11
-126.4899597167969
 21
-15.40515804290772
  0
LINE
  8
0
  6
CONTINUOUS
 62
     3
 10
-126.6214981079102
 20
-15.85060882568359
 11
-127.6993179321289
 21
-16.47288703918457
  0
LINE
  8
0
  6
CONTINUOUS
 62
     3
 10
-126.8022918701172
 20
-15.58548355102539
 11
-127.8778381347656
 21
-16.20644950866699
  0
LINE
  8
0
  6
CONTINUOUS
 62
     3
 10
-128.0120697021484
 20
-16.65345764160156
 11
-129.0889282226563
 21
-17.27518081665039
  0
LINE
  8
0
  6
CONTINUOUS
 62
     3
 10
-128.1900177001953
 20
-16.38669204711914
 11
-129.2651672363281
 21
-17.00742340087891
  0
LINE
  8
0
  6
CONTINUOUS
 62
     3
 10
-129.4014587402344
 20
-17.45562171936035
 11
-130.4776763916016
 21
-18.07697105407715
  0
LINE
  8
0
  6
CONTINUOUS
 62
     3
 10
-129.5772552490234
 20
-17.1876106262207
 11
-130.6521148681641
 21
-17.80818367004395
  0
LINE
  8
0
  6
CONTINUOUS
 62
     3
 10
-130.7900543212891
 20
-18.25732040405273
 11
-131.8657989501953
 21
-18.8784065246582
  0
LINE
  8
0
  6
CONTINUOUS
 62
     3
 10
-130.9641418457031
 20
-17.98833274841309
 11
-132.038818359375
 21
-18.60879325866699
  0
LINE
  8
0
  6
CONTINUOUS
 62
     3
 10
-132.1780548095703
 20
-19.05869102478027
 11
-134.4865112304688
 21
-20.39147758483887
  0
LINE
  8
0
  6
CONTINUOUS
 62
     3
 10
-132.3507995605469
 20
-18.78891372680664
 11
-134.1251068115234
 21
-19.81331062316895
  0
LINE
  8
0
  6
CONTINUOUS
 62
     3
 10
-132.9507904052734
 20
-17.74968338012695
 11
-134.72509765625
 21
-18.77408027648926
  0
LINE
  8
0
  6
CONTINUOUS
 62
     3
 10
-133.0980682373047
 20
-17.4652042388916
 11
-135.4065246582031
 21
-18.79799270629883
  0
LINE
  8
0
  6
CONTINUOUS
 62
     3
 10
-131.5641479492188
 20
-16.94910049438477
 11
-132.6388092041016
 21
-17.56956291198731
  0
LINE
  8
0
  6
CONTINUOUS
 62
     3
 10
-131.7100524902344
 20
-16.66383361816406
 11
-132.7857971191406
 21
-17.28491973876953
  0
LINE
  8
0
  6
CONTINUOUS
 62
     3
 10
-118.918830871582
 20
-3.06064510345459
 11
-118.918830871582
 21
-1.816715955734253
  0
LINE
  8
0
  6
CONTINUOUS
 62
     3
 10
-118.918830871582
 20
-1.455788969993591
 11
-118.918830871582
 21
-0.2131190001964569
  0
LINE
  8
0
  6
CONTINUOUS
 62
     3
 10
-119.2388305664063
 20
-1.484318017959595
 11
-119.2388305664063
 21
-0.2380139976739883
  0
LINE
  8
0
  6
CONTINUOUS
 62
     3
 10
-118.918830871582
 20
0.1475329995155335
 11
-118.918830871582
 21
1.389464974403381
  0
LINE
  8
0
  6
CONTINUOUS
 62
     3
 10
-119.2388305664063
 20
0.1235259994864464
 11
-119.2388305664063
 21
1.368082046508789
  0
LINE
  8
0
  6
CONTINUOUS
 62
     3
 10
-118.918830871582
 20
1.749948978424072
 11
-118.918830871582
 21
2.991411924362183
  0
LINE
  8
0
  6
CONTINUOUS
 62
     3
 10
-119.2388305664063
 20
1.729223012924194
 11
-119.2388305664063
 21
2.972670078277588
  0
LINE
  8
0
  6
CONTINUOUS
 62
     3
 10
-118.918830871582
 20
3.351784944534302
 11
-118.918830871582
 21
4.592930793762207
  0
LINE
  8
0
  6
CONTINUOUS
 62
     3
 10
-119.2388305664063
 20
3.333550930023193
 11
-119.2388305664063
 21
4.576250076293945
  0
LINE
  8
0
  6
CONTINUOUS
 62
     3
 10
-118.918830871582
 20
4.953227996826172
 11
-118.918830871582
 21
6.194149971008301
  0
LINE
  8
0
  6
CONTINUOUS
 62
     3
 10
-119.2388305664063
 20
4.936950206756592
 11
-119.2388305664063
 21
6.179121017456055
  0
LINE
  8
0
  6
CONTINUOUS
 62
     3
 10
-118.918830871582
 20
6.554391860961914
 11
-118.918830871582
 21
8.603184700012207
  0
LINE
  8
0
  6
CONTINUOUS
 62
     3
 10
-119.2388305664063
 20
6.539690017700195
 11
-119.2388305664063
 21
9.205265045166016
  0
LINE
  8
0
  6
CONTINUOUS
 62
     3
 10
-117.3988265991211
 20
6.539690017700195
 11
-117.3988265991211
 21
9.205265045166016
  0
LINE
  8
0
  6
CONTINUOUS
 62
     3
 10
-117.7188262939453
 20
6.554391860961914
 11
-117.7188262939453
 21
8.603184700012207
  0
LINE
  8
0
  6
CONTINUOUS
 62
     3
 10
-117.3988265991211
 20
4.936950206756592
 11
-117.3988265991211
 21
6.179121017456055
  0
LINE
  8
0
  6
CONTINUOUS
 62
     3
 10
-117.7188262939453
 20
4.953227996826172
 11
-117.7188262939453
 21
6.194149971008301
  0
LINE
  8
0
  6
CONTINUOUS
 62
     3
 10
-117.3988265991211
 20
3.333550930023193
 11
-117.3988265991211
 21
4.576250076293945
  0
LINE
  8
0
  6
CONTINUOUS
 62
     3
 10
-117.7188262939453
 20
3.351784944534302
 11
-117.7188262939453
 21
4.592930793762207
  0
LINE
  8
0
  6
CONTINUOUS
 62
     3
 10
-117.3988265991211
 20
1.729223012924194
 11
-117.3988265991211
 21
2.972670078277588
  0
LINE
  8
0
  6
CONTINUOUS
 62
     3
 10
-117.7188262939453
 20
1.749948978424072
 11
-117.7188262939453
 21
2.991411924362183
  0
LINE
  8
0
  6
CONTINUOUS
 62
     3
 10
-117.3988265991211
 20
0.1235259994864464
 11
-117.3988265991211
 21
1.368082046508789
  0
LINE
  8
0
  6
CONTINUOUS
 62
     3
 10
-117.7188262939453
 20
0.1475329995155335
 11
-117.7188262939453
 21
1.389464974403381
  0
LINE
  8
0
  6
CONTINUOUS
 62
     3
 10
-117.3988265991211
 20
-1.484318017959595
 11
-117.3988265991211
 21
-0.2380139976739883
  0
LINE
  8
0
  6
CONTINUOUS
 62
     3
 10
-117.7188262939453
 20
-1.455788969993591
 11
-117.7188262939453
 21
-0.2131190001964569
  0
LINE
  8
0
  6
CONTINUOUS
 62
     3
 10
-117.3988265991211
 20
-3.095807075500488
 11
-117.3988265991211
 21
-1.846508026123047
  0
LINE
  8
0
  6
CONTINUOUS
 62
     3
 10
-117.7188262939453
 20
-3.06064510345459
 11
-117.7188262939453
 21
-1.816715955734253
  0
LINE
  8
0
  6
CONTINUOUS
 62
     3
 10
-119.2388305664063
 20
-3.095807075500488
 11
-119.2388305664063
 21
-1.846508026123047
  0
LINE
  8
0
  6
CONTINUOUS
 62
     3
 10
-118.918830871582
 20
-4.668423175811768
 11
-118.918830871582
 21
-3.422064065933228
  0
LINE
  8
0
  6
CONTINUOUS
 62
     3
 10
-119.2388305664063
 20
-4.714280128479004
 11
-119.2388305664063
 21
-3.459171056747437
  0
LINE
  8
0
  6
CONTINUOUS
 62
     3
 10
-117.3988265991211
 20
-4.714280128479004
 11
-117.3988265991211
 21
-3.459171056747437
  0
LINE
  8
0
  6
CONTINUOUS
 62
     3
 10
-117.7188262939453
 20
-4.668423175811768
 11
-117.7188262939453
 21
-3.422064065933228
  0
LINE
  8
0
  6
CONTINUOUS
 62
     3
 10
-117.3988265991211
 20
-6.349024772644043
 11
-117.3988265991211
 21
-5.080103874206543
  0
LINE
  8
0
  6
CONTINUOUS
 62
     3
 10
-117.7188262939453
 20
-6.282916069030762
 11
-117.7188262939453
 21
-5.03086519241333
  0
LINE
  8
0
  6
CONTINUOUS
 62
     3
 10
-118.918830871582
 20
-6.282916069030762
 11
-118.918830871582
 21
-5.03086519241333
  0
LINE
  8
0
  6
CONTINUOUS
 62
     3
 10
-119.2388305664063
 20
-6.349024772644043
 11
-119.2388305664063
 21
-5.080103874206543
  0
LINE
  8
0
  6
CENTER
 62
     4
 10
-99.65789794921875
 20
-20.76862907409668
 11
-118.3188323974609
 21
-9.994734764099121
  0
LINE
  8
0
  6
CENTER
 62
     4
 10
-136.5900115966797
 20
-20.54360580444336
 11
-118.3188323974609
 21
-9.994734764099121
  0
LINE
  8
0
  6
CONTINUOUS
 62
     3
 10
-119.2388305664063
 20
-8.218896865844727
 11
-119.2388305664063
 21
-6.72157096862793
  0
LINE
  8
0
  6
CONTINUOUS
 62
     3
 10
-117.3988265991211
 20
-8.218896865844727
 11
-117.3988265991211
 21
-6.72157096862793
  0
LINE
  8
0
  6
CONTINUOUS
 62
     3
 10
-117.2409057617188
 20
-11.6793966293335
 11
-115.9441833496094
 21
-12.4280595779419
  0
LINE
  8
0
  6
CONTINUOUS
 62
     3
 10
-116.3209075927734
 20
-10.08590984344482
 11
-115.0241851806641
 21
-10.83457279205322
  0
LINE
  8
0
  6
CONTINUOUS
 62
     3
 10
-119.3967514038086
 20
-11.6793966293335
 11
-120.693473815918
 21
-12.4280595779419
  0
LINE
  8
0
  6
CONTINUOUS
 62
     3
 10
-120.3167495727539
 20
-10.08590984344482
 11
-121.6134719848633
 21
-10.83457279205322
  0
LINE
  8
0
  6
CONTINUOUS
 62
     3
 10
-119.6711044311523
 20
-11.46828937530518
 11
-120.917106628418
 21
-12.18766975402832
  0
LINE
  8
0
  6
CONTINUOUS
 62
     3
 10
-120.2711029052734
 20
-10.42905902862549
 11
-121.5171051025391
 21
-11.14844036102295
  0
LINE
  8
0
  6
CONTINUOUS
 62
     3
 10
-116.9665603637695
 20
-11.46828937530518
 11
-115.7205581665039
 21
-12.18766975402832
  0
LINE
  8
0
  6
CONTINUOUS
 62
     3
 10
-116.3665618896484
 20
-10.42905902862549
 11
-115.1205520629883
 21
-11.14844036102295
  0
LINE
  8
0
  6
CONTINUOUS
 62
     3
 10
-118.918830871582
 20
-8.086855888366699
 11
-118.918830871582
 21
-6.64809513092041
  0
LINE
  8
0
  6
CONTINUOUS
 62
     3
 10
-117.7188262939453
 20
-8.086855888366699
 11
-117.7188262939453
 21
-6.64809513092041
  0
LINE
  8
0
  6
CONTINUOUS
 62
     3
 10
-130.5120849609375
 20
19.39828491210938
 11
-130.3814239501953
 21
23.14016532897949
  0
LINE
  8
0
  6
CONTINUOUS
 62
     3
 10
-104.1558685302734
 20
19.39828491210938
 11
-104.2865371704102
 21
23.14016532897949
  0
LINE
  8
0
  6
CONTINUOUS
 62
     3
 10
-118.3188323974609
 20
24.10526466369629
 11
-105.2859268188477
 21
24.10526466369629
  0
LINE
  8
0
  6
CONTINUOUS
 62
     3
 10
-130.7119750976563
 20
19.20526504516602
 11
-132.9188232421875
 21
19.20526504516602
  0
LINE
  8
0
  6
CONTINUOUS
 62
     3
 10
-132.9188232421875
 20
19.20526504516602
 11
-132.9397888183594
 21
18.60526466369629
  0
LINE
  8
0
  6
CENTER
 62
     4
 10
-131.9188232421875
 20
17.60526466369629
 11
-131.9188232421875
 21
20.82753753662109
  0
LINE
  8
0
  6
CONTINUOUS
 62
     3
 10
-118.3188323974609
 20
24.10526466369629
 11
-129.5531463623047
 21
24.10526466369629
  0
LINE
  8
0
  6
CONTINUOUS
 62
     3
 10
-118.3188323974609
 20
18.60526466369629
 11
-132.9397888183594
 21
18.60526466369629
  0
LINE
  8
0
  6
CONTINUOUS
 62
     3
 10
-132.3315734863281
 20
23.14016532897949
 11
-132.4622497558594
 21
19.39828491210938
  0
LINE
  8
0
  6
CONTINUOUS
 62
     3
 10
-103.715461730957
 20
19.10875511169434
 11
-103.6978759765625
 21
18.60526466369629
  0
LINE
  8
0
  6
CONTINUOUS
 62
     3
 10
-103.9559860229492
 20
19.20526504516602
 11
-103.8153991699219
 21
19.20526504516602
  0
LINE
  8
0
  6
CONTINUOUS
 62
     3
 10
-129.5531463623047
 20
24.10526466369629
 11
-131.3321838378906
 21
24.10526466369629
  0
LINE
  8
0
  6
CONTINUOUS
 62
     3
 10
-118.3188323974609
 20
18.60526466369629
 11
-103.6978759765625
 21
18.60526466369629
  0
LINE
  8
0
  6
CENTER
 62
     4
 10
-118.3188323974609
 20
16.60526466369629
 11
-118.3188323974609
 21
25.10526466369629
  0
LINE
  8
0
  6
CONTINUOUS
 62
     3
 10
-106.1255722045898
 20
19.39828491210938
 11
-106.2562408447266
 21
23.14016532897949
  0
LINE
  8
0
  6
CONTINUOUS
 62
     3
 10
-105.9256896972656
 20
19.20526504516602
 11
-103.7188262939453
 21
19.20526504516602
  0
LINE
  8
0
  6
CENTER
 62
     4
 10
-104.7188262939453
 20
17.60526466369629
 11
-104.7188262939453
 21
20.82753753662109
  0
LINE
  8
0
  6
CONTINUOUS
 62
     3
 10
-102.918830871582
 20
4.205265045166016
 11
-103.7188262939453
 21
4.205265045166016
  0
LINE
  8
0
  6
CONTINUOUS
 62
     3
 10
-102.918830871582
 20
16.60526466369629
 11
-103.7188262939453
 21
16.60526466369629
  0
LINE
  8
0
  6
CONTINUOUS
 62
     3
 10
-133.7188262939453
 20
4.205265045166016
 11
-132.9188232421875
 21
4.205265045166016
  0
LINE
  8
0
  6
CONTINUOUS
 62
     3
 10
-133.7188262939453
 20
16.60526466369629
 11
-132.9188232421875
 21
16.60526466369629
  0
LINE
  8
0
  6
CONTINUOUS
 62
     3
 10
62.74116897583008
 20
-3.194735050201416
 11
64.54116821289063
 21
-3.194735050201416
  0
LINE
  8
0
  6
CONTINUOUS
 62
     3
 10
62.59490203857422
 20
-4.994734764099121
 11
64.94116973876953
 21
-4.994734764099121
  0
LINE
  8
0
  6
CONTINUOUS
 62
     3
 10
33.24116897583008
 20
-10.45661544799805
 11
33.64117050170898
 21
-10.22567462921143
  0
LINE
  8
0
  6
CONTINUOUS
 62
     3
 10
32.84117126464844
 20
-10.22567462921143
 11
33.24116897583008
 21
-10.45661544799805
  0
LINE
  8
0
  6
CONTINUOUS
 62
     3
 10
33.64117050170898
 20
-10.22567462921143
 11
33.64117050170898
 21
-9.763794898986816
  0
LINE
  8
0
  6
CONTINUOUS
 62
     3
 10
33.64117050170898
 20
-9.763794898986816
 11
33.24116897583008
 21
-9.532855033874512
  0
LINE
  8
0
  6
CONTINUOUS
 62
     3
 10
33.24116897583008
 20
-9.532855033874512
 11
32.84117126464844
 21
-9.763794898986816
  0
LINE
  8
0
  6
CONTINUOUS
 62
     3
 10
32.84117126464844
 20
-9.763794898986816
 11
32.84117126464844
 21
-10.22567462921143
  0
LINE
  8
0
  6
CONTINUOUS
 62
     3
 10
16.64117050170898
 20
-10.22567462921143
 11
16.64117050170898
 21
-9.763794898986816
  0
LINE
  8
0
  6
CONTINUOUS
 62
     3
 10
16.64117050170898
 20
-9.763794898986816
 11
16.24117088317871
 21
-9.532855033874512
  0
LINE
  8
0
  6
CONTINUOUS
 62
     3
 10
16.24117088317871
 20
-9.532855033874512
 11
15.84117031097412
 21
-9.763794898986816
  0
LINE
  8
0
  6
CONTINUOUS
 62
     3
 10
15.84117031097412
 20
-9.763794898986816
 11
15.84117031097412
 21
-10.22567462921143
  0
LINE
  8
0
  6
CONTINUOUS
 62
     3
 10
15.84117031097412
 20
-10.22567462921143
 11
16.24117088317871
 21
-10.45661544799805
  0
LINE
  8
0
  6
CONTINUOUS
 62
     3
 10
16.24117088317871
 20
-10.45661544799805
 11
16.64117050170898
 21
-10.22567462921143
  0
LINE
  8
0
  6
CENTER
 62
     4
 10
153.3466644287109
 20
19.8465576171875
 11
153.3466644287109
 21
-32.17759704589844
  0
LINE
  8
0
  6
CENTER
 62
     4
 10
153.3466644287109
 20
29.63395118713379
 11
153.3466644287109
 21
-39.25993347167969
  0
LINE
  8
0
  6
CONTINUOUS
 62
     3
 10
18.34116935729981
 20
5.431882858276367
 11
18.34116935729981
 21
5.033705234527588
  0
LINE
  8
0
  6
CONTINUOUS
 62
     3
 10
22.34116935729981
 20
5.431882858276367
 11
22.34116935729981
 21
5.033705234527588
  0
LINE
  8
0
  6
CENTER
 62
     4
 10
148.2127685546875
 20
16.00526428222656
 11
159.5234375
 21
16.00526428222656
  0
LINE
  8
0
  6
CENTER
 62
     4
 10
153.3467712402344
 20
20.78436279296875
 11
153.3467712402344
 21
9.225188255310059
  0
LINE
  8
0
  6
CONTINUOUS
 62
     3
 10
149.8467712402344
 20
11.80526542663574
 11
149.8467712402344
 21
10.60526466369629
  0
LINE
  8
0
  6
CONTINUOUS
 62
     3
 10
156.8467712402344
 20
11.80526542663574
 11
156.8467712402344
 21
10.60526466369629
  0
LINE
  8
0
  6
CONTINUOUS
 62
     3
 10
149.8467712402344
 20
11.80526542663574
 11
156.8467712402344
 21
11.80526542663574
  0
LINE
  8
0
  6
CENTER
 62
     4
 10
-40.21261978149414
 20
-9.994734764099121
 11
91.74443817138672
 21
-9.994734764099121
  0
LINE
  8
0
  6
CENTER
 62
     4
 10
120.6218643188477
 20
-9.994734764099121
 11
184.6400756835938
 21
-9.994734764099121
  0
LINE
  8
0
  6
CONTINUOUS
 62
     3
 10
63.94116973876953
 20
-27.99473571777344
 11
64.54116821289063
 21
-27.99473571777344
  0
LINE
  8
0
  6
CONTINUOUS
 62
     3
 10
64.94116973876953
 20
-14.19473457336426
 11
80.94116973876953
 21
-14.19473457336426
  0
LINE
  8
0
  6
CONTINUOUS
 62
     3
 10
64.94116973876953
 20
-5.794734954833984
 11
80.94116973876953
 21
-5.794734954833984
  0
LINE
  8
0
  6
CONTINUOUS
 62
     3
 10
64.94116973876953
 20
-4.994734764099121
 11
64.94116973876953
 21
-14.99473476409912
  0
LINE
  8
0
  6
CONTINUOUS
 62
     3
 10
80.94116973876953
 20
-5.794734954833984
 11
80.94116973876953
 21
-14.19473457336426
  0
LINE
  8
0
  6
CONTINUOUS
 62
     3
 10
138.3467254638672
 20
-29.99473571777344
 11
168.3467254638672
 21
-29.99473571777344
  0
LINE
  8
0
  6
CONTINUOUS
 62
     3
 10
138.3467254638672
 20
10.00526523590088
 11
168.3467254638672
 21
10.00526523590088
  0
LINE
  8
0
  6
CENTER
 62
     4
 10
162.1272583007813
 20
-25.20306587219238
 11
164.5611572265625
 21
-29.41872406005859
  0
LINE
  8
0
  6
CENTER
 62
     4
 10
166.6256408691406
 20
-23.27365684509277
 11
170.2127838134766
 21
-26.86080551147461
  0
LINE
  8
0
  6
CENTER
 62
     4
 10
138.1383819580078
 20
-18.7752685546875
 11
133.9227294921875
 21
-21.20918083190918
  0
LINE
  8
0
  6
CENTER
 62
     4
 10
140.0677947998047
 20
-23.27365684509277
 11
136.4806518554688
 21
-26.86080551147461
  0
LINE
  8
0
  6
CENTER
 62
     4
 10
144.5661926269531
 20
5.213594913482666
 11
142.1322784423828
 21
9.429253578186035
  0
LINE
  8
0
  6
CENTER
 62
     4
 10
140.0677947998047
 20
3.284185886383057
 11
128.7693481445313
 21
14.58262825012207
  0
LINE
  8
0
  6
CENTER
 62
     4
 10
168.5550537109375
 20
-1.214202046394348
 11
172.7707061767578
 21
1.219709992408752
  0
LINE
  8
0
  6
CENTER
 62
     4
 10
159.4790802001953
 20
-3.862377882003784
 11
164.1149139404297
 21
0.7734569907188416
  0
LINE
  8
0
  6
CONTINUOUS
 62
     3
 10
133.3467254638672
 20
5.005265235900879
 11
133.3467254638672
 21
-24.99473571777344
  0
LINE
  8
0
  6
CENTER
 62
     4
 10
153.3467254638672
 20
16.20054435729981
 11
153.3467254638672
 21
-39.96025466918945
  0
LINE
  8
0
  6
CENTER
 62
     4
 10
164.3977508544922
 20
1.056300044059753
 11
170.2127838134766
 21
6.871335029602051
  0
LINE
  8
0
  6
CENTER
 62
     4
 10
147.21435546875
 20
-3.862377882003784
 11
142.5785217285156
 21
0.7734569907188416
  0
LINE
  8
0
  6
CENTER
 62
     4
 10
147.21435546875
 20
-16.12709045410156
 11
142.5785217285156
 21
-20.76292610168457
  0
LINE
  8
0
  6
CENTER
 62
     4
 10
159.4790802001953
 20
-16.12709045410156
 11
164.1149139404297
 21
-20.76292610168457
  0
LINE
  8
0
  6
CONTINUOUS
 62
     3
 10
12.34117031097412
 20
9.205265045166016
 11
12.34117031097412
 21
8.405264854431152
  0
LINE
  8
0
  6
CONTINUOUS
 62
     3
 10
144.0395355224609
 20
7.325772762298584
 11
143.6931304931641
 21
7.925773143768311
  0
LINE
  8
0
  6
CONTINUOUS
 62
     3
 10
143.0003051757813
 20
6.725772857666016
 11
142.6539001464844
 21
7.325772762298584
  0
LINE
  8
0
  6
CONTINUOUS
 62
     3
 10
143.6931304931641
 20
7.925773143768311
 11
143.0003051757813
 21
7.925773143768311
  0
LINE
  8
0
  6
CONTINUOUS
 62
     3
 10
143.0003051757813
 20
7.925773143768311
 11
142.6539001464844
 21
7.325772762298584
  0
LINE
  8
0
  6
CONTINUOUS
 62
     3
 10
143.0003051757813
 20
6.725772857666016
 11
143.6931304931641
 21
6.725772857666016
  0
LINE
  8
0
  6
CONTINUOUS
 62
     3
 10
143.6931304931641
 20
6.725772857666016
 11
144.0395355224609
 21
7.325772762298584
  0
LINE
  8
0
  6
CONTINUOUS
 62
     3
 10
136.0262145996094
 20
-19.30191421508789
 11
135.4262084960938
 21
-19.64832496643066
  0
LINE
  8
0
  6
CONTINUOUS
 62
     3
 10
135.4262084960938
 20
-19.64832496643066
 11
135.4262084960938
 21
-20.34114456176758
  0
LINE
  8
0
  6
CONTINUOUS
 62
     3
 10
135.4262084960938
 20
-20.34114456176758
 11
136.0262145996094
 21
-20.68755531311035
  0
LINE
  8
0
  6
CONTINUOUS
 62
     3
 10
136.6262054443359
 20
-20.34114456176758
 11
136.0262145996094
 21
-20.68755531311035
  0
LINE
  8
0
  6
CONTINUOUS
 62
     3
 10
136.6262054443359
 20
-20.34114456176758
 11
136.6262054443359
 21
-19.64832496643066
  0
LINE
  8
0
  6
CONTINUOUS
 62
     3
 10
136.6262054443359
 20
-19.64832496643066
 11
136.0262145996094
 21
-19.30191421508789
  0
LINE
  8
0
  6
CONTINUOUS
 62
     3
 10
162.6539001464844
 20
-27.31524276733398
 11
163.0003051757813
 21
-27.91524314880371
  0
LINE
  8
0
  6
CONTINUOUS
 62
     3
 10
163.0003051757813
 20
-27.91524314880371
 11
163.6931304931641
 21
-27.91524314880371
  0
LINE
  8
0
  6
CONTINUOUS
 62
     3
 10
163.6931304931641
 20
-27.91524314880371
 11
164.0395355224609
 21
-27.31524276733398
  0
LINE
  8
0
  6
CONTINUOUS
 62
     3
 10
163.6931304931641
 20
-26.71524238586426
 11
164.0395355224609
 21
-27.31524276733398
  0
LINE
  8
0
  6
CONTINUOUS
 62
     3
 10
163.6931304931641
 20
-26.71524238586426
 11
163.0003051757813
 21
-26.71524238586426
  0
LINE
  8
0
  6
CONTINUOUS
 62
     3
 10
163.0003051757813
 20
-26.71524238586426
 11
162.6539001464844
 21
-27.31524276733398
  0
LINE
  8
0
  6
CONTINUOUS
 62
     3
 10
170.6672210693359
 20
-0.6875550150871277
 11
171.2672271728516
 21
-0.3411450088024139
  0
LINE
  8
0
  6
CONTINUOUS
 62
     3
 10
171.2672271728516
 20
-0.3411450088024139
 11
171.2672271728516
 21
0.3516750037670136
  0
LINE
  8
0
  6
CONTINUOUS
 62
     3
 10
171.2672271728516
 20
0.3516750037670136
 11
170.6672210693359
 21
0.6980850100517273
  0
LINE
  8
0
  6
CONTINUOUS
 62
     3
 10
170.0672302246094
 20
0.3516750037670136
 11
170.6672210693359
 21
0.6980850100517273
  0
LINE
  8
0
  6
CONTINUOUS
 62
     3
 10
170.0672302246094
 20
0.3516750037670136
 11
170.0672302246094
 21
-0.3411450088024139
  0
LINE
  8
0
  6
CONTINUOUS
 62
     3
 10
170.0672302246094
 20
-0.3411450088024139
 11
170.6672210693359
 21
-0.6875550150871277
  0
LINE
  8
0
  6
CENTER
 62
     4
 10
-118.3188323974609
 20
19.8465576171875
 11
-118.3188323974609
 21
-32.17759704589844
  0
LINE
  8
0
  6
CONTINUOUS
 62
     3
 10
63.94116973876953
 20
-24.99473571777344
 11
59.94116973876953
 21
-24.99473571777344
  0
LINE
  8
0
  6
CONTINUOUS
 62
     3
 10
63.94116973876953
 20
5.005265235900879
 11
59.94116973876953
 21
5.005265235900879
  0
LINE
  8
0
  6
CONTINUOUS
 62
     3
 10
12.34117031097412
 20
10.60526466369629
 11
12.34117031097412
 21
-30.59473419189453
  0
LINE
  8
0
  6
CONTINUOUS
 62
     3
 10
59.94116973876953
 20
10.00526523590088
 11
63.94116973876953
 21
10.00526523590088
  0
LINE
  8
0
  6
CONTINUOUS
 62
     3
 10
38.14117050170898
 20
-28.99473571777344
 11
59.94116973876953
 21
-28.99473571777344
  0
LINE
  8
0
  6
CONTINUOUS
 62
     3
 10
29.44116973876953
 20
11.80526542663574
 11
36.44116973876953
 21
11.80526542663574
  0
LINE
  8
0
  6
CONTINUOUS
 62
     3
 10
36.44116973876953
 20
11.80526542663574
 11
36.44116973876953
 21
10.60526466369629
  0
LINE
  8
0
  6
CONTINUOUS
 62
     3
 10
29.44116973876953
 20
11.80526542663574
 11
29.44116973876953
 21
10.60526466369629
  0
LINE
  8
0
  6
CONTINUOUS
 62
     3
 10
34.94116973876953
 20
13.20526504516602
 11
34.94116973876953
 21
11.80526542663574
  0
LINE
  8
0
  6
CONTINUOUS
 62
     3
 10
30.94116973876953
 20
13.20526504516602
 11
34.94116973876953
 21
13.20526504516602
  0
LINE
  8
0
  6
CONTINUOUS
 62
     3
 10
30.94116973876953
 20
13.20526504516602
 11
30.94116973876953
 21
11.80526542663574
  0
LINE
  8
0
  6
CONTINUOUS
 62
     3
 10
30.94116973876953
 20
13.20526504516602
 11
32.94116973876953
 21
13.50526523590088
  0
LINE
  8
0
  6
CONTINUOUS
 62
     3
 10
34.94116973876953
 20
13.20526504516602
 11
32.94116973876953
 21
13.50526523590088
  0
LINE
  8
0
  6
CENTER
 62
     4
 10
32.94116973876953
 20
20.78436279296875
 11
32.94116973876953
 21
9.225188255310059
  0
LINE
  8
0
  6
CENTER
 62
     4
 10
27.80716323852539
 20
16.00526428222656
 11
39.11782836914063
 21
16.00526428222656
  0
LINE
  8
0
  6
CONTINUOUS
 62
     3
 10
38.14117050170898
 20
5.405264854431152
 11
59.94116973876953
 21
5.405264854431152
  0
LINE
  8
0
  6
CONTINUOUS
 62
     3
 10
38.14117050170898
 20
8.085265159606934
 11
59.94116973876953
 21
8.085265159606934
  0
LINE
  8
0
  6
CONTINUOUS
 62
     3
 10
38.14117050170898
 20
9.585265159606934
 11
59.94116973876953
 21
9.585265159606934
  0
LINE
  8
0
  6
CONTINUOUS
 62
     3
 10
38.14117050170898
 20
-17.75473594665527
 11
59.94116973876953
 21
-17.75473594665527
  0
LINE
  8
0
  6
CONTINUOUS
 62
     3
 10
38.14117050170898
 20
-19.57473564147949
 11
59.94116973876953
 21
-19.57473564147949
  0
LINE
  8
0
  6
CONTINUOUS
 62
     3
 10
38.14117050170898
 20
-22.17473411560059
 11
59.94116973876953
 21
-22.17473411560059
  0
LINE
  8
0
  6
CONTINUOUS
 62
     3
 10
38.14117050170898
 20
-29.57473564147949
 11
59.94116973876953
 21
-29.57473564147949
  0
CIRCLE
  8
0
  6
CONTINUOUS
 62
     3
 10
153.3467254638672
 20
-9.994734764099121
 40
4.199999809265137
  0
CIRCLE
  8
0
  6
CONTINUOUS
 62
     3
 10
153.3466644287109
 20
-9.994734764099121
 40
5
  0
CIRCLE
  8
0
  6
CONTINUOUS
 62
     3
 10
153.3466644287109
 20
-9.994734764099121
 40
6.800000190734863
  0
CIRCLE
  8
0
  6
CONTINUOUS
 62
     3
 10
153.3466644287109
 20
-9.994734764099121
 40
0.699999988079071
  0
CIRCLE
  8
0
  6
CONTINUOUS
 62
     4
 10
153.3466644287109
 20
-9.994734764099121
 40
0.800000011920929
  0
CIRCLE
  8
0
  6
CONTINUOUS
 62
     3
 10
153.3466644287109
 20
-9.994734764099121
 40
0.8399999737739563
  0
CIRCLE
  8
0
  6
CONTINUOUS
 62
     3
 10
153.3466644287109
 20
-9.994734764099121
 40
1.200000047683716
  0
ARC
  8
0
  6
CONTINUOUS
 62
     3
 10
-118.3187789916992
 20
-9.994734764099121
 40
25
 50
226.8337358425129
 51
233.1301176537828
  0
ARC
  8
0
  6
CONTINUOUS
 62
     3
 10
-118.3187789916992
 20
-9.994734764099121
 40
25
 50
216.8699098855464
 51
223.1661655931823
  0
ARC
  8
0
  6
CONTINUOUS
 62
     3
 10
-118.3187789916992
 20
-9.994734764099121
 40
25
 50
306.8698963344484
 51
323.1301006056283
  0
ARC
  8
0
  6
CONTINUOUS
 62
     3
 10
-118.3187789916992
 20
-9.994734764099121
 40
25
 50
36.86989764584402
 51
43.1663378029208
  0
ARC
  8
0
  6
CONTINUOUS
 62
     3
 10
-118.3187789916992
 20
-9.994734764099121
 40
25
 50
128.0247609796534
 51
143.1300918629829
  0
ARC
  8
0
  6
CONTINUOUS
 62
     3
 10
167.7095031738281
 20
19.40526580810547
 40
0.2000000029802322
 50
182.0003182201026
 51
270.0000000000005
  0
ARC
  8
0
  6
CONTINUOUS
 62
     3
 10
166.3795776367188
 20
23.10526466369629
 40
1
 50
2.000069270718532
 51
90.00000000000019
  0
ARC
  8
0
  6
CONTINUOUS
 62
     3
 10
167.85009765625
 20
19.10526466369629
 40
0.1000000014901161
 50
2.000165648086595
 51
90.00000000000019
  0
ARC
  8
0
  6
CONTINUOUS
 62
     3
 10
165.7398071289063
 20
19.40526580810547
 40
0.2000000029802322
 50
182.0003182201026
 51
270.0000000000005
  0
ARC
  8
0
  6
CONTINUOUS
 62
     3
 10
164.4098663330078
 20
23.10526466369629
 40
1
 50
2.000069270718532
 51
90.00000000000019
  0
ARC
  8
0
  6
CONTINUOUS
 62
     3
 10
140.9535217285156
 20
19.40526580810547
 40
0.2000000029802322
 50
270.0000000000005
 51
357.9998343519141
  0
ARC
  8
0
  6
CONTINUOUS
 62
     3
 10
142.2834625244141
 20
23.10526466369629
 40
1
 50
90.00000000000019
 51
177.9999307292815
  0
ARC
  8
0
  6
CONTINUOUS
 62
     3
 10
140.3333129882813
 20
23.10526466369629
 40
1
 50
90.00000000000019
 51
177.9999307292815
  0
ARC
  8
0
  6
CONTINUOUS
 62
     3
 10
139.0033721923828
 20
19.40526580810547
 40
0.2000000029802322
 50
270.0000000000005
 51
357.9996817798988
  0
ARC
  8
0
  6
CONTINUOUS
 62
     3
 10
11.54117012023926
 20
-9.994734764099121
 40
3.200000047683716
 50
75.52248276492522
 51
284.4775151006407
  0
ARC
  8
0
  6
CENTER
 62
     4
 10
-21.25882911682129
 20
10.40526485443115
 40
6.5
 50
122.9324625932769
 51
147.0719933383056
  0
ARC
  8
0
  6
CENTER
 62
     4
 10
-21.25882911682129
 20
10.40526485443115
 40
6.5
 50
212.9280031337269
 51
237.0675374067238
  0
ARC
  8
0
  6
CENTER
 62
     4
 10
-21.25882911682129
 20
10.40526485443115
 40
6.5
 50
302.9324484821143
 51
327.0719922966904
  0
ARC
  8
0
  6
CENTER
 62
     4
 10
-21.25882911682129
 20
10.40526485443115
 40
6.5
 50
32.92801123127876
 51
57.0675515178864
  0
CIRCLE
  8
0
  6
CONTINUOUS
 62
     3
 10
-30.35882949829102
 20
-26.28473472595215
 40
0.1800000071525574
  0
CIRCLE
  8
0
  6
CONTINUOUS
 62
     3
 10
-30.35882949829102
 20
-23.08473587036133
 40
0.1800000071525574
  0
CIRCLE
  8
0
  6
CONTINUOUS
 62
     3
 10
-30.35882949829102
 20
-24.68473434448242
 40
0.1800000071525574
  0
CIRCLE
  8
0
  6
CONTINUOUS
 62
     3
 10
-30.35882949829102
 20
-21.4847354888916
 40
0.1800000071525574
  0
CIRCLE
  8
0
  6
CONTINUOUS
 62
     3
 10
-30.35882949829102
 20
-19.88473510742188
 40
0.1800000071525574
  0
CIRCLE
  8
0
  6
CONTINUOUS
 62
     3
 10
-30.35882949829102
 20
-18.28473472595215
 40
0.1800000071525574
  0
CIRCLE
  8
0
  6
CONTINUOUS
 62
     3
 10
-30.35882949829102
 20
-15.08473491668701
 40
0.1800000071525574
  0
CIRCLE
  8
0
  6
CONTINUOUS
 62
     3
 10
-30.35882949829102
 20
-13.48473453521729
 40
0.1800000071525574
  0
CIRCLE
  8
0
  6
CONTINUOUS
 62
     3
 10
-30.35882949829102
 20
-4.904735088348389
 40
0.1800000071525574
  0
CIRCLE
  8
0
  6
CONTINUOUS
 62
     3
 10
-30.35882949829102
 20
-3.304734945297241
 40
0.1800000071525574
  0
CIRCLE
  8
0
  6
CONTINUOUS
 62
     3
 10
-30.35882949829102
 20
-1.704735040664673
 40
0.1800000071525574
  0
CIRCLE
  8
0
  6
CONTINUOUS
 62
     3
 10
-30.35882949829102
 20
3.095264911651611
 40
0.1800000071525574
  0
CIRCLE
  8
0
  6
CONTINUOUS
 62
     3
 10
-30.35882949829102
 20
4.69526481628418
 40
0.1800000071525574
  0
CIRCLE
  8
0
  6
CONTINUOUS
 62
     3
 10
-30.35882949829102
 20
6.295265197753906
 40
0.1800000071525574
  0
CIRCLE
  8
0
  6
CONTINUOUS
 62
     3
 10
-30.33883094787598
 20
-16.68473434448242
 40
0.1599999964237213
  0
CIRCLE
  8
0
  6
CONTINUOUS
 62
     3
 10
-30.33883094787598
 20
-6.504734992980957
 40
0.1599999964237213
  0
CIRCLE
  8
0
  6
CONTINUOUS
 62
     3
 10
-30.33883094787598
 20
-0.1047350019216538
 40
0.1599999964237213
  0
CIRCLE
  8
0
  6
CONTINUOUS
 62
     3
 10
-30.33883094787598
 20
1.495265007019043
 40
0.1599999964237213
  0
ARC
  8
0
  6
CONTINUOUS
 62
     3
 10
-30.01724052429199
 20
10.00178527832031
 40
0.1599999964237213
 50
8.081612434928523
 51
191.4886220505026
  0
ARC
  8
0
  6
CONTINUOUS
 62
     3
 10
-29.99883079528809
 20
-26.28473472595215
 40
0.1800000071525574
 50
180.0000000000004
 51
321.0575424579186
  0
ARC
  8
0
  6
CONTINUOUS
 62
     3
 10
16.24117088317871
 20
-9.994734764099121
 40
1.200000047683716
 50
180.0000000000004
 51
360
  0
ARC
  8
0
  6
CONTINUOUS
 62
     3
 10
16.24117088317871
 20
-9.994734764099121
 40
1.200000047683716
 50
180.0000000000004
 51
360
  0
ARC
  8
0
  6
CONTINUOUS
 62
     3
 10
-101.6911392211914
 20
-19.59473419189453
 40
0.9200000166893005
 50
240.0000500467212
 51
60.00005004672045
  0
ARC
  8
0
  6
CONTINUOUS
 62
     3
 10
-118.3188323974609
 20
-9.994734764099121
 40
3.400000095367432
 50
94.21673070448846
 51
85.78326929551155
  0
ARC
  8
0
  6
CONTINUOUS
 62
     3
 10
-118.3188323974609
 20
-9.994734764099121
 40
3.759999990463257
 50
93.81237251886651
 51
86.18762748113352
  0
ARC
  8
0
  6
CONTINUOUS
 62
     3
 10
-118.3188323974609
 20
-9.994734764099121
 40
5
 50
92.86598414590705
 51
87.13401585409295
  0
ARC
  8
0
  6
CONTINUOUS
 62
     3
 10
-118.3188323974609
 20
-9.994734764099121
 40
5.360000133514404
 50
92.67334771283367
 51
87.32665228716635
  0
ARC
  8
0
  6
CONTINUOUS
 62
     3
 10
-118.3188323974609
 20
-9.994734764099121
 40
6.599999904632568
 50
92.17081407342076
 51
87.82918592657923
  0
ARC
  8
0
  6
CONTINUOUS
 62
     3
 10
-118.3188323974609
 20
-9.994734764099121
 40
6.960000038146973
 50
92.058480906467
 51
87.941519093533
  0
ARC
  8
0
  6
CONTINUOUS
 62
     3
 10
-118.3188323974609
 20
-9.994734764099121
 40
8.199999809265137
 50
91.74709333375365
 51
88.25290666624635
  0
ARC
  8
0
  6
CONTINUOUS
 62
     3
 10
-118.3188323974609
 20
-9.994734764099121
 40
8.560000419616699
 50
91.67359606295554
 51
88.32640393704446
  0
ARC
  8
0
  6
CONTINUOUS
 62
     3
 10
-118.3188323974609
 20
-9.994734764099121
 40
9.800000190734863
 50
91.46178564162827
 51
88.53821435837172
  0
ARC
  8
0
  6
CONTINUOUS
 62
     3
 10
-118.3188323974609
 20
-9.994734764099121
 40
10.15999984741211
 50
91.40997943391477
 51
88.59002056608524
  0
ARC
  8
0
  6
CONTINUOUS
 62
     3
 10
-118.3188323974609
 20
-9.994734764099121
 40
11.39999961853027
 50
91.25658715645595
 51
88.74341284354405
  0
ARC
  8
0
  6
CONTINUOUS
 62
     3
 10
-118.3188323974609
 20
-9.994734764099121
 40
11.76000022888184
 50
91.21811431427453
 51
88.78188568572548
  0
ARC
  8
0
  6
CONTINUOUS
 62
     3
 10
-118.3188323974609
 20
-9.994734764099121
 40
13
 50
91.10190985158511
 51
88.89809014841491
  0
ARC
  8
0
  6
CONTINUOUS
 62
     3
 10
-118.3188323974609
 20
-9.994734764099121
 40
13.35999965667725
 50
91.07221415880906
 51
88.92778584119094
  0
ARC
  8
0
  6
CONTINUOUS
 62
     3
 10
-118.3188323974609
 20
-9.994734764099121
 40
14.60000038146973
 50
90.98114006844564
 51
89.01885993155437
  0
ARC
  8
0
  6
CONTINUOUS
 62
     3
 10
-118.3188323974609
 20
-9.994734764099121
 40
14.96000003814697
 50
90.95752754370116
 51
89.04247245629884
  0
ARC
  8
0
  6
CONTINUOUS
 62
     3
 10
-118.3188323974609
 20
-9.994734764099121
 40
16.20000076293945
 50
90.88422924606137
 51
89.11577075393863
  0
ARC
  8
0
  6
CONTINUOUS
 62
     3
 10
-118.3188323974609
 20
-9.994734764099121
 40
16.55999946594238
 50
90.86500538597626
 51
89.13499461402374
  0
ARC
  8
0
  6
CENTER
 62
     4
 10
-118.3188323974609
 20
-9.994734764099121
 40
19.20000076293945
 50
86.11640944046567
 51
93.95289701880421
  0
ARC
  8
0
  6
CENTER
 62
     4
 10
-118.3188323974609
 20
-9.994734764099121
 40
19.20000076293945
 50
323.1005162507985
 51
337.2386422992622
  0
ARC
  8
0
  6
CENTER
 62
     4
 10
-118.3188323974609
 20
-9.994734764099121
 40
19.20000076293945
 50
203.606733301934
 51
216.2973928428477
  0
ARC
  8
0
  6
CONTINUOUS
 62
     3
 10
-134.9465179443359
 20
-19.59473419189453
 40
0.9200000166893005
 50
120.0003614384006
 51
300.0003614384012
  0
ARC
  8
0
  6
CONTINUOUS
 62
     3
 10
-118.3188323974609
 20
9.205265045166016
 40
0.9200000166893005
 50
0
 51
180.0000000000004
  0
CIRCLE
  8
0
  6
CONTINUOUS
 62
     3
 10
-118.3188323974609
 20
-9.994734764099121
 40
2
  0
ARC
  8
0
  6
CONTINUOUS
 62
     3
 10
-130.7119750976563
 20
19.40526580810547
 40
0.2000000029802322
 50
270.0000000000005
 51
357.9998343519141
  0
ARC
  8
0
  6
CONTINUOUS
 62
     3
 10
-129.3820343017578
 20
23.10526466369629
 40
1
 50
90.00000000000019
 51
177.9999307292815
  0
ARC
  8
0
  6
CONTINUOUS
 62
     3
 10
-103.9559860229492
 20
19.40526580810547
 40
0.2000000029802322
 50
182.0002419311867
 51
270.0000000000005
  0
ARC
  8
0
  6
CONTINUOUS
 62
     3
 10
-105.2859268188477
 20
23.10526466369629
 40
1
 50
2.000069270718532
 51
90.00000000000019
  0
ARC
  8
0
  6
CONTINUOUS
 62
     3
 10
-131.3321838378906
 20
23.10526466369629
 40
1
 50
90.00000000000019
 51
177.9999307292815
  0
ARC
  8
0
  6
CONTINUOUS
 62
     3
 10
-132.6621246337891
 20
19.40526580810547
 40
0.2000000029802322
 50
270.0000000000005
 51
357.9996817798988
  0
ARC
  8
0
  6
CONTINUOUS
 62
     3
 10
-103.8153991699219
 20
19.10526466369629
 40
0.1000000014901161
 50
2.000318220101887
 51
90.00000000000019
  0
ARC
  8
0
  6
CONTINUOUS
 62
     3
 10
-105.9256896972656
 20
19.40526580810547
 40
0.2000000029802322
 50
182.0002419311867
 51
270.0000000000005
  0
ARC
  8
0
  6
CONTINUOUS
 62
     3
 10
-107.2556304931641
 20
23.10526466369629
 40
1
 50
2.000069270718532
 51
90.00000000000019
  0
CIRCLE
  8
0
  6
CONTINUOUS
 62
     3
 10
33.24116897583008
 20
-9.994734764099121
 40
0.8500000238418579
  0
CIRCLE
  8
0
  6
CONTINUOUS
 62
     3
 10
33.24116897583008
 20
-9.994734764099121
 40
1.200000047683716
  0
CIRCLE
  8
0
  6
CONTINUOUS
 62
     3
 10
16.24117088317871
 20
-9.994734764099121
 40
0.8500000238418579
  0
CIRCLE
  8
0
  6
CONTINUOUS
 62
     3
 10
16.24117088317871
 20
-9.994734764099121
 40
1.200000047683716
  0
CIRCLE
  8
0
  6
CONTINUOUS
 62
     3
 10
163.3467254638672
 20
-27.31524276733398
 40
1.700000047683716
  0
ARC
  8
0
  6
CENTER
 62
     4
 10
153.3467254638672
 20
-9.994734764099121
 40
20
 50
290.0333313352739
 51
308.4793178034622
  0
CIRCLE
  8
0
  6
CONTINUOUS
 62
     3
 10
168.5495147705078
 20
-25.19753074645996
 40
1.450000047683716
  0
ARC
  8
0
  6
CENTER
 62
     4
 10
153.3467254638672
 20
-9.994734764099121
 40
21.5
 50
307.3511365686821
 51
325.3101271439662
  0
CIRCLE
  8
0
  6
CONTINUOUS
 62
     3
 10
136.0262145996094
 20
-19.99473571777344
 40
1.700000047683716
  0
ARC
  8
0
  6
CENTER
 62
     4
 10
153.3467254638672
 20
-9.994734764099121
 40
20
 50
200.0333651571826
 51
218.4793123198431
  0
CIRCLE
  8
0
  6
CONTINUOUS
 62
     3
 10
138.1439208984375
 20
-25.19753074645996
 40
1.450000047683716
  0
ARC
  8
0
  6
CENTER
 62
     4
 10
153.3467254638672
 20
-9.994734764099121
 40
21.5
 50
217.3511449147824
 51
235.3101242473931
  0
CIRCLE
  8
0
  6
CONTINUOUS
 62
     3
 10
143.3467254638672
 20
7.325772762298584
 40
1.700000047683716
  0
ARC
  8
0
  6
CENTER
 62
     4
 10
153.3467254638672
 20
-9.994734764099121
 40
20
 50
110.0333733394671
 51
128.4793545735621
  0
CIRCLE
  8
0
  6
CONTINUOUS
 62
     3
 10
138.1439208984375
 20
5.208061218261719
 40
1.450000047683716
  0
ARC
  8
0
  6
CENTER
 62
     4
 10
153.3467254638672
 20
-9.994734764099121
 40
21.5
 50
127.3511704352708
 51
145.310151854202
  0
ARC
  8
0
  6
CENTER
 62
     4
 10
153.3467254638672
 20
-9.994734764099121
 40
20
 50
23.53082907852231
 51
36.11765962568421
  0
ARC
  8
0
  6
CENTER
 62
     4
 10
153.3467254638672
 20
-9.994734764099121
 40
21.5
 50
34.83736207755992
 51
55.31015695948516
  0
CIRCLE
  8
0
  6
CONTINUOUS
 62
     3
 10
170.6672210693359
 20
0.005264999810606241
 40
1.700000047683716
  0
CIRCLE
  8
0
  6
CONTINUOUS
 62
     3
 10
168.5495147705078
 20
5.208061218261719
 40
1.450000047683716
  0
ARC
  8
0
  6
CONTINUOUS
 62
     3
 10
153.3467254638672
 20
-9.994734764099121
 40
25
 50
216.8698993943731
 51
233.130103665553
  0
ARC
  8
0
  6
CONTINUOUS
 62
     3
 10
153.3467254638672
 20
-9.994734764099121
 40
25
 50
306.8698963344484
 51
323.1301006056283
  0
ARC
  8
0
  6
CONTINUOUS
 62
     3
 10
153.3467254638672
 20
-9.994734764099121
 40
25
 50
36.86989764584402
 51
53.13010235415597
  0
ARC
  8
0
  6
CONTINUOUS
 62
     3
 10
153.3467254638672
 20
-9.994734764099121
 40
25
 50
126.869897645844
 51
143.130102354156
  0
CIRCLE
  8
0
  6
CONTINUOUS
 62
     3
 10
153.3467254638672
 20
-9.994734764099121
 40
17
  0
CIRCLE
  8
0
  6
CONTINUOUS
 62
     3
 10
153.3467254638672
 20
-9.994734764099121
 40
18
  0
CIRCLE
  8
0
  6
CONTINUOUS
 62
     3
 10
153.3467254638672
 20
-9.994734764099121
 40
8.199999809265137
  0
CIRCLE
  8
0
  6
CONTINUOUS
 62
     3
 10
161.8320007324219
 20
-1.509454011917114
 40
1.149999976158142
  0
CIRCLE
  8
0
  6
CONTINUOUS
 62
     3
 10
144.8614349365234
 20
-1.509454011917114
 40
1.149999976158142
  0
CIRCLE
  8
0
  6
CONTINUOUS
 62
     3
 10
144.8614349365234
 20
-18.48001670837402
 40
1.149999976158142
  0
CIRCLE
  8
0
  6
CONTINUOUS
 62
     3
 10
161.8320007324219
 20
-18.48001670837402
 40
1.149999976158142
  0
CIRCLE
  8
0
  6
CONTINUOUS
 62
     3
 10
143.3467254638672
 20
7.325772762298584
 40
1.299999952316284
  0
CIRCLE
  8
0
  6
CONTINUOUS
 62
     3
 10
143.3467254638672
 20
7.325772762298584
 40
1.539999961853027
  0
CIRCLE
  8
0
  6
CONTINUOUS
 62
     3
 10
136.0262145996094
 20
-19.99473571777344
 40
1.539999961853027
  0
CIRCLE
  8
0
  6
CONTINUOUS
 62
     3
 10
136.0262145996094
 20
-19.99473571777344
 40
1.299999952316284
  0
CIRCLE
  8
0
  6
CONTINUOUS
 62
     3
 10
163.3467254638672
 20
-27.31524276733398
 40
1.539999961853027
  0
CIRCLE
  8
0
  6
CONTINUOUS
 62
     3
 10
163.3467254638672
 20
-27.31524276733398
 40
1.299999952316284
  0
CIRCLE
  8
0
  6
CONTINUOUS
 62
     3
 10
170.6672210693359
 20
0.005264999810606241
 40
1.539999961853027
  0
CIRCLE
  8
0
  6
CONTINUOUS
 62
     3
 10
170.6672210693359
 20
0.005264999810606241
 40
1.299999952316284
  0
CIRCLE
  8
0
  6
CONTINUOUS
 62
     3
 10
32.94116973876953
 20
16.00526428222656
 40
2.5
  0
ARC
  8
0
  6
CONTINUOUS
 62
     3
 10
32.94116973876953
 20
16.00526428222656
 40
4.099999904632568
 50
299.1964088844808
 51
240.8035911155205
  0
POLYLINE
  8
0
  6
CONTINUOUS
 62
     3
 66
     1
 10
0
 20
0
  0
VERTEX
  8
0
  6
CONTINUOUS
 62
     3
 10
64.54116821289063
 20
0.7859240174293518
  0
VERTEX
  8
0
  6
CONTINUOUS
 62
     3
 10
64.44488525390625
 20
0.6575019955635071
  0
VERTEX
  8
0
  6
CONTINUOUS
 62
     3
 10
64.33496856689453
 20
0.5425440073013306
  0
VERTEX
  8
0
  6
CONTINUOUS
 62
     3
 10
64.21376037597656
 20
0.4468959867954254
  0
VERTEX
  8
0
  6
CONTINUOUS
 62
     3
 10
64.08432769775391
 20
0.3602589964866638
  0
VERTEX
  8
0
  6
CONTINUOUS
 62
     3
 10
63.71872711181641
 20
0.1153339967131615
  0
VERTEX
  8
0
  6
CONTINUOUS
 62
     3
 10
63.37797546386719
 20
-0.1638099998235703
  0
VERTEX
  8
0
  6
CONTINUOUS
 62
     3
 10
63.17942047119141
 20
-0.3870150148868561
  0
VERTEX
  8
0
  6
CONTINUOUS
 62
     3
 10
63.03619003295898
 20
-0.6423079967498779
  0
VERTEX
  8
0
  6
CONTINUOUS
 62
     3
 10
62.94961929321289
 20
-1.017284035682678
  0
VERTEX
  8
0
  6
CONTINUOUS
 62
     3
 10
62.85390472412109
 20
-1.39423394203186
  0
VERTEX
  8
0
  6
CONTINUOUS
 62
     3
 10
62.70578765869141
 20
-1.665282011032105
  0
VERTEX
  8
0
  6
CONTINUOUS
 62
     3
 10
62.60326385498047
 20
-1.941087961196899
  0
VERTEX
  8
0
  6
CONTINUOUS
 62
     3
 10
62.63498687744141
 20
-2.239581108093262
  0
VERTEX
  8
0
  6
CONTINUOUS
 62
     3
 10
62.64883422851563
 20
-2.533514976501465
  0
VERTEX
  8
0
  6
CONTINUOUS
 62
     3
 10
62.5563850402832
 20
-2.728764057159424
  0
VERTEX
  8
0
  6
CONTINUOUS
 62
     3
 10
62.44376373291016
 20
-2.920870065689087
  0
VERTEX
  8
0
  6
CONTINUOUS
 62
     3
 10
62.39475250244141
 20
-3.296031951904297
  0
VERTEX
  8
0
  6
CONTINUOUS
 62
     3
 10
62.46654891967773
 20
-3.695580959320068
  0
VERTEX
  8
0
  6
CONTINUOUS
 62
     3
 10
62.58515548706055
 20
-4.431252956390381
  0
VERTEX
  8
0
  6
CONTINUOUS
 62
     3
 10
62.58047866821289
 20
-5.153861045837402
  0
VERTEX
  8
0
  6
CONTINUOUS
 62
     3
 10
62.52009963989258
 20
-5.576416015625
  0
VERTEX
  8
0
  6
CONTINUOUS
 62
     3
 10
62.51211929321289
 20
-5.996929168701172
  0
VERTEX
  8
0
  6
CONTINUOUS
 62
     3
 10
62.62724304199219
 20
-6.430731773376465
  0
VERTEX
  8
0
  6
CONTINUOUS
 62
     3
 10
62.71718978881836
 20
-6.862782001495361
  0
VERTEX
  8
0
  6
CONTINUOUS
 62
     3
 10
62.67974472045898
 20
-7.179778099060059
  0
VERTEX
  8
0
  6
CONTINUOUS
 62
     3
 10
62.62604904174805
 20
-7.50078010559082
  0
VERTEX
  8
0
  6
CONTINUOUS
 62
     3
 10
62.66951370239258
 20
-8.074678421020508
  0
VERTEX
  8
0
  6
CONTINUOUS
 62
     3
 10
62.69440460205078
 20
-8.640061378479004
  0
VERTEX
  8
0
  6
CONTINUOUS
 62
     3
 10
62.58145523071289
 20
-9.027745246887207
  0
VERTEX
  8
0
  6
CONTINUOUS
 62
     3
 10
62.46654891967773
 20
-9.414772033691406
  0
VERTEX
  8
0
  6
CONTINUOUS
 62
     3
 10
62.45697402954102
 20
-9.702502250671387
  0
VERTEX
  8
0
  6
CONTINUOUS
 62
     3
 10
62.50268173217773
 20
-9.994734764099121
  0
SEQEND
  8
0
  6
CONTINUOUS
 62
     3
  0
TEXT
  8
0
  6
CONTINUOUS
 62
     3
 10
-145.2449924945831
 20
44.21930009126663
 40
3.200000047683716
 41
0.9999999562065117
  1
HA-LF601
  0
LINE
  8
1
  6
DASHED
 62
     4
 10
75.94116973876953
 20
-10.79473495483398
 11
79.90116882324219
 21
-10.79473495483398
  0
LINE
  8
1
  6
DASHED
 62
     4
 10
75.94116973876953
 20
-9.194734573364258
 11
79.90116882324219
 21
-9.194734573364258
  0
LINE
  8
1
  6
DASHED
 62
     3
 10
73.74117279052734
 20
-9.994734764099121
 11
74.14116668701172
 21
-10.69473457336426
  0
LINE
  8
1
  6
DASHED
 62
     3
 10
73.74117279052734
 20
-9.994734764099121
 11
74.14116668701172
 21
-9.294734954833984
  0
LINE
  8
1
  6
DASHED
 62
     3
 10
74.14116668701172
 20
-10.69473457336426
 11
79.90116882324219
 21
-10.69473457336426
  0
LINE
  8
1
  6
DASHED
 62
     3
 10
74.14116668701172
 20
-9.294734954833984
 11
79.90116882324219
 21
-9.294734954833984
  0
LINE
  8
1
  6
DASHED
 62
     3
 10
80.31763458251953
 20
-10.83473491668701
 11
80.31763458251953
 21
-9.154734611511231
  0
LINE
  8
1
  6
DASHED
 62
     3
 10
80.31763458251953
 20
-10.83473491668701
 11
80.94116973876953
 21
-11.19473457336426
  0
LINE
  8
1
  6
DASHED
 62
     3
 10
80.31763458251953
 20
-9.154734611511231
 11
80.94116973876953
 21
-8.794734954833984
  0
LINE
  8
1
  6
DASHED
 62
     3
 10
79.90116882324219
 20
-10.83473491668701
 11
80.31763458251953
 21
-10.83473491668701
  0
LINE
  8
1
  6
DASHED
 62
     3
 10
79.90116882324219
 20
-9.154734611511231
 11
80.31763458251953
 21
-9.154734611511231
  0
LINE
  8
1
  6
DASHED
 62
     3
 10
74.14116668701172
 20
-9.294734954833984
 11
74.14116668701172
 21
-10.69473457336426
  0
LINE
  8
1
  6
DASHED
 62
     3
 10
75.94116973876953
 20
-9.194734573364258
 11
75.94116973876953
 21
-10.79473495483398
  0
LINE
  8
1
  6
DASHED
 62
     3
 10
79.90116882324219
 20
-9.154734611511231
 11
79.90116882324219
 21
-10.83473491668701
  0
LINE
  8
1
  6
CENTER
 62
     4
 10
20.34116935729981
 20
-32.46595764160156
 11
20.34116935729981
 21
-30
  0
LINE
  8
1
  6
CONTINUOUS
 62
     3
 10
19.37467002868652
 20
-31.51301193237305
 11
21.30767059326172
 21
-31.51301193237305
  0
LINE
  8
1
  6
CONTINUOUS
 62
     3
 10
-98.31877899169922
 20
-24.05290412902832
 11
-98.31877899169922
 21
-24.99473571777344
  0
LINE
  8
1
  6
CONTINUOUS
 62
     3
 10
-98.31877899169922
 20
5.005265235900879
 11
-98.31877899169922
 21
4.063435077667236
  0
LINE
  8
1
  6
CONTINUOUS
 62
     3
 10
133.3866729736328
 20
11.0967607498169
 11
133.3866729736328
 21
13.55435943603516
  0
LINE
  8
1
  6
CENTER
 62
     4
 10
136.1347808837891
 20
10.40526485443115
 11
140.6341400146484
 21
10.40526485443115
  0
LINE
  8
1
  6
CENTER
 62
     4
 10
140.2673797607422
 20
10.40526485443115
 11
137.0042419433594
 21
10.40526485443115
  0
LINE
  8
1
  6
CONTINUOUS
 62
     4
 10
133.3866729736328
 20
7.444358825683594
 11
134.7763214111328
 21
7.444358825683594
  0
LINE
  8
1
  6
CONTINUOUS
 62
     3
 10
133.3866729736328
 20
7.254358768463135
 11
134.9663238525391
 21
7.254358768463135
  0
LINE
  8
1
  6
CONTINUOUS
 62
     3
 10
133.3866729736328
 20
8.834018707275391
 11
133.3866729736328
 21
7.254358768463135
  0
LINE
  8
1
  6
CENTER
 62
     4
 10
139.5957183837891
 20
10.40526485443115
 11
131.3558349609375
 21
10.40526485443115
  0
LINE
  8
1
  6
CONTINUOUS
 62
     3
 10
136.6466674804688
 20
10.40435886383057
 11
136.6466674804688
 21
8.609342575073242
  0
LINE
  8
1
  6
CENTER
 62
     4
 10
140.2368774414063
 20
10.40526485443115
 11
131.6823272705078
 21
10.40526485443115
  0
LINE
  8
1
  6
CENTER
 62
     4
 10
140.0174560546875
 20
10.40526485443115
 11
131.5641174316406
 21
10.40526485443115
  0
LINE
  8
1
  6
CONTINUOUS
 62
     3
 10
166.0966644287109
 20
20.20526504516602
 11
167.7966613769531
 21
20.20526504516602
  0
LINE
  8
1
  6
CONTINUOUS
 62
     3
 10
167.7966613769531
 20
19.20526504516602
 11
167.7966613769531
 21
20.20526504516602
  0
LINE
  8
1
  6
CONTINUOUS
 62
     3
 10
166.0966644287109
 20
19.20526504516602
 11
166.0966644287109
 21
20.20526504516602
  0
LINE
  8
1
  6
CONTINUOUS
 62
     3
 10
137.8466644287109
 20
9.62035083770752
 11
137.8466644287109
 21
14.21435928344727
  0
LINE
  8
1
  6
CONTINUOUS
 62
     3
 10
137.2466735839844
 20
14.21435928344727
 11
137.2466735839844
 21
9.130946159362793
  0
LINE
  8
1
  6
CONTINUOUS
 62
     4
 10
133.9866638183594
 20
13.36435890197754
 11
136.6466674804688
 21
13.36435890197754
  0
LINE
  8
1
  6
CONTINUOUS
 62
     3
 10
137.2466735839844
 20
14.21435928344727
 11
137.9466705322266
 21
14.21435928344727
  0
LINE
  8
1
  6
CONTINUOUS
 62
     3
 10
133.3866729736328
 20
13.55435943603516
 11
137.2466735839844
 21
13.55435943603516
  0
LINE
  8
1
  6
CONTINUOUS
 62
     3
 10
136.6466674804688
 20
10.40435886383057
 11
136.6466674804688
 21
13.55435943603516
  0
LINE
  8
1
  6
CONTINUOUS
 62
     4
 10
133.3866729736328
 20
13.36435890197754
 11
136.6466674804688
 21
13.36435890197754
  0
LINE
  8
1
  6
CONTINUOUS
 62
     3
 10
133.3866729736328
 20
13.55435943603516
 11
137.2466735839844
 21
13.55435943603516
  0
LINE
  8
1
  6
CONTINUOUS
 62
     3
 10
168.3466644287109
 20
10.00526523590088
 11
168.3466644287109
 21
16.60526466369629
  0
LINE
  8
1
  6
CONTINUOUS
 62
     3
 10
168.7466735839844
 20
9.698959350585938
 11
168.7466735839844
 21
16.60526466369629
  0
LINE
  8
1
  6
CONTINUOUS
 62
     3
 10
169.0066680908203
 20
14.08145904541016
 11
168.7466735839844
 21
14.08145904541016
  0
LINE
  8
1
  6
CONTINUOUS
 62
     3
 10
169.0066680908203
 20
15.0014591217041
 11
169.0066680908203
 21
14.08145904541016
  0
LINE
  8
1
  6
CONTINUOUS
 62
     3
 10
170.0066680908203
 20
14.15145874023438
 11
169.4466705322266
 21
14.15145874023438
  0
LINE
  8
1
  6
CONTINUOUS
 62
     3
 10
170.0066680908203
 20
15.0014591217041
 11
170.0066680908203
 21
14.15145874023438
  0
LINE
  8
1
  6
CONTINUOUS
 62
     3
 10
170.0066680908203
 20
15.0014591217041
 11
170.0066680908203
 21
15.85145854949951
  0
LINE
  8
1
  6
CONTINUOUS
 62
     3
 10
170.0066680908203
 20
15.85145854949951
 11
169.0066680908203
 21
15.85145854949951
  0
LINE
  8
1
  6
CONTINUOUS
 62
     3
 10
169.0066680908203
 20
15.0014591217041
 11
169.0066680908203
 21
15.92145919799805
  0
LINE
  8
1
  6
CONTINUOUS
 62
     3
 10
169.0066680908203
 20
15.92145919799805
 11
168.7466735839844
 21
15.92145919799805
  0
LINE
  8
1
  6
CONTINUOUS
 62
     3
 10
169.4949951171875
 20
14.15145874023438
 11
169.0066680908203
 21
14.15145874023438
  0
LINE
  8
1
  6
CENTER
 62
     4
 10
171.1260223388672
 20
15.0014591217041
 11
167.2994537353516
 21
15.0014591217041
  0
LINE
  8
1
  6
CONTINUOUS
 62
     3
 10
140.5966644287109
 20
20.20526504516602
 11
138.8966674804688
 21
20.20526504516602
  0
LINE
  8
1
  6
CONTINUOUS
 62
     3
 10
138.8966674804688
 20
19.20526504516602
 11
138.8966674804688
 21
20.20526504516602
  0
LINE
  8
1
  6
CONTINUOUS
 62
     3
 10
140.5966644287109
 20
19.20526504516602
 11
140.5966644287109
 21
20.20526504516602
  0
LINE
  8
1
  6
CONTINUOUS
 62
     3
 10
137.6866607666016
 20
14.08145904541016
 11
137.9466705322266
 21
14.08145904541016
  0
LINE
  8
1
  6
CONTINUOUS
 62
     3
 10
137.1983337402344
 20
14.15145874023438
 11
137.6866607666016
 21
14.15145874023438
  0
LINE
  8
1
  6
CONTINUOUS
 62
     3
 10
136.6866607666016
 20
14.15145874023438
 11
137.2466735839844
 21
14.15145874023438
  0
LINE
  8
1
  6
CONTINUOUS
 62
     3
 10
138.3466644287109
 20
10.00522613525391
 11
138.3466644287109
 21
16.60526466369629
  0
LINE
  8
1
  6
CONTINUOUS
 62
     3
 10
136.6866607666016
 20
15.0014591217041
 11
136.6866607666016
 21
14.15145874023438
  0
LINE
  8
1
  6
CONTINUOUS
 62
     3
 10
136.6866607666016
 20
15.0014591217041
 11
136.6866607666016
 21
15.85145854949951
  0
LINE
  8
1
  6
CONTINUOUS
 62
     3
 10
136.6866607666016
 20
15.85145854949951
 11
137.6866607666016
 21
15.85145854949951
  0
LINE
  8
1
  6
CONTINUOUS
 62
     3
 10
137.6866607666016
 20
15.0014591217041
 11
137.6866607666016
 21
15.92145919799805
  0
LINE
  8
1
  6
CONTINUOUS
 62
     3
 10
137.6866607666016
 20
15.92145919799805
 11
137.9466705322266
 21
15.92145919799805
  0
LINE
  8
1
  6
CONTINUOUS
 62
     3
 10
137.6866607666016
 20
15.0014591217041
 11
137.6866607666016
 21
14.08145904541016
  0
LINE
  8
1
  6
CONTINUOUS
 62
     3
 10
137.9466705322266
 20
9.698878288269043
 11
137.9466705322266
 21
16.60526466369629
  0
LINE
  8
1
  6
CENTER
 62
     4
 10
135.5673065185547
 20
15.0014591217041
 11
139.3938751220703
 21
15.0014591217041
  0
LINE
  8
1
  6
CONTINUOUS
 62
     3
 10
-99.93838500976563
 20
7.254358768463135
 11
-100.7240447998047
 21
6.468700885772705
  0
LINE
  8
1
  6
CONTINUOUS
 62
     3
 10
-97.03490447998047
 20
10.15784454345703
 11
-98.35883331298828
 21
8.833915710449219
  0
LINE
  8
1
  6
CONTINUOUS
 62
     3
 10
-98.16627502441406
 20
11.28921604156494
 11
-98.35883331298828
 21
11.09665679931641
  0
LINE
  8
1
  6
CONTINUOUS
 62
     3
 10
12.34117031097412
 20
-23.19473457336426
 11
38.14117050170898
 21
-23.19473457336426
  0
LINE
  8
1
  6
CONTINUOUS
 62
     3
 10
9.29117488861084
 20
19.20526504516602
 11
9.29117488861084
 21
20.20526504516602
  0
LINE
  8
1
  6
CONTINUOUS
 62
     3
 10
9.29117488861084
 20
20.20526504516602
 11
10.99117469787598
 21
20.20526504516602
  0
LINE
  8
1
  6
CONTINUOUS
 62
     3
 10
10.99117469787598
 20
19.20526504516602
 11
10.99117469787598
 21
20.20526504516602
  0
LINE
  8
1
  6
CONTINUOUS
 62
     3
 10
-10.11364841461182
 20
19.20526504516602
 11
-10.11364841461182
 21
20.20526504516602
  0
LINE
  8
1
  6
CONTINUOUS
 62
     3
 10
-10.11364841461182
 20
20.20526504516602
 11
-8.413647651672363
 21
20.20526504516602
  0
LINE
  8
1
  6
CONTINUOUS
 62
     3
 10
-8.413647651672363
 20
19.20526504516602
 11
-8.413647651672363
 21
20.20526504516602
  0
LINE
  8
1
  6
CONTINUOUS
 62
     3
 10
-29.51847076416016
 20
19.20526504516602
 11
-29.51847076416016
 21
20.20526504516602
  0
LINE
  8
1
  6
CONTINUOUS
 62
     3
 10
-29.51847076416016
 20
20.20526504516602
 11
-27.81847190856934
 21
20.20526504516602
  0
LINE
  8
1
  6
CONTINUOUS
 62
     3
 10
-27.81847190856934
 20
19.20526504516602
 11
-27.81847190856934
 21
20.20526504516602
  0
LINE
  8
1
  6
CONTINUOUS
 62
     3
 10
-25.52751922607422
 20
14.67486095428467
 11
-25.4079761505127
 21
15.12100315093994
  0
LINE
  8
1
  6
CONTINUOUS
 62
     3
 10
-25.97366142272949
 20
14.55531692504883
 11
-25.52751922607422
 21
14.67486095428467
  0
LINE
  8
1
  6
CONTINUOUS
 62
     3
 10
-26.30026054382324
 20
14.88191604614258
 11
-25.97366142272949
 21
14.55531692504883
  0
LINE
  8
1
  6
CONTINUOUS
 62
     3
 10
-26.18071556091309
 20
15.32805824279785
 11
-26.30026054382324
 21
14.88191604614258
  0
LINE
  8
1
  6
CONTINUOUS
 62
     3
 10
-25.73457336425781
 20
15.44760131835938
 11
-26.18071556091309
 21
15.32805824279785
  0
LINE
  8
1
  6
CONTINUOUS
 62
     3
 10
-25.4079761505127
 20
15.12100315093994
 11
-25.73457336425781
 21
15.44760131835938
  0
LINE
  8
1
  6
CENTER
 62
     4
 10
-24.19792366027832
 20
12.62847518920898
 11
-24.19792366027832
 21
14.54665374755859
  0
LINE
  8
1
  6
CENTER
 62
     4
 10
-18.31792449951172
 20
12.71493244171143
 11
-18.31792449951172
 21
14.2385835647583
  0
LINE
  8
1
  6
CENTER
 62
     4
 10
-18.31792449951172
 20
6.662992000579834
 11
-18.31792449951172
 21
8.516328811645508
  0
LINE
  8
1
  6
CENTER
 62
     4
 10
-18.96914291381836
 20
7.465264797210693
 11
-17.48871994018555
 21
7.465264797210693
  0
LINE
  8
1
  6
CENTER
 62
     4
 10
-24.19792366027832
 20
6.490078926086426
 11
-24.19792366027832
 21
8.12180233001709
  0
LINE
  8
1
  6
CENTER
 62
     4
 10
-25.15076637268066
 20
7.465264797210693
 11
-23.62711524963379
 21
7.465264797210693
  0
LINE
  8
1
  6
CENTER
 62
     4
 10
-19.01237106323242
 20
13.34526538848877
 11
-17.42387771606445
 21
13.34526538848877
  0
LINE
  8
1
  6
CENTER
 62
     4
 10
-25.41560935974121
 20
13.34526538848877
 11
-23.4974308013916
 21
13.34526538848877
  0
LINE
  8
1
  6
CONTINUOUS
 62
     3
 10
-26.2579231262207
 20
4.205265045166016
 11
-16.2579231262207
 21
4.205265045166016
  0
LINE
  8
1
  6
CONTINUOUS
 62
     3
 10
-15.05792427062988
 20
5.405264854431152
 11
-15.05792427062988
 21
15.40526485443115
  0
LINE
  8
1
  6
CONTINUOUS
 62
     3
 10
-25.06883049011231
 20
6.595264911651611
 11
-17.44882965087891
 21
6.595264911651611
  0
LINE
  8
1
  6
CONTINUOUS
 62
     3
 10
-25.06883049011231
 20
14.21526527404785
 11
-17.44882965087891
 21
14.21526527404785
  0
LINE
  8
1
  6
CONTINUOUS
 62
     3
 10
-25.06883049011231
 20
6.595264911651611
 11
-25.06883049011231
 21
14.21526527404785
  0
LINE
  8
1
  6
CONTINUOUS
 62
     3
 10
-17.44882965087891
 20
6.595264911651611
 11
-17.44882965087891
 21
14.21526527404785
  0
LINE
  8
1
  6
CONTINUOUS
 62
     3
 10
-25.73457336425781
 20
5.362928867340088
 11
-26.18071556091309
 21
5.482471942901611
  0
LINE
  8
1
  6
CONTINUOUS
 62
     3
 10
-26.18071556091309
 20
5.482471942901611
 11
-26.30026054382324
 21
5.928614139556885
  0
LINE
  8
1
  6
CONTINUOUS
 62
     3
 10
-26.30026054382324
 20
5.928614139556885
 11
-25.97366142272949
 21
6.255212783813477
  0
LINE
  8
1
  6
CONTINUOUS
 62
     3
 10
-25.97366142272949
 20
6.255212783813477
 11
-25.52751922607422
 21
6.135670185089111
  0
LINE
  8
1
  6
CONTINUOUS
 62
     3
 10
-25.4079761505127
 20
5.689527988433838
 11
-25.73457336425781
 21
5.362928867340088
  0
LINE
  8
1
  6
CONTINUOUS
 62
     3
 10
-25.52751922607422
 20
6.135670185089111
 11
-25.4079761505127
 21
5.689527988433838
  0
LINE
  8
1
  6
CONTINUOUS
 62
     3
 10
-16.7830867767334
 20
5.362928867340088
 11
-16.33694458007813
 21
5.482471942901611
  0
LINE
  8
1
  6
CONTINUOUS
 62
     3
 10
-16.33694458007813
 20
5.482471942901611
 11
-16.21739959716797
 21
5.928614139556885
  0
LINE
  8
1
  6
CONTINUOUS
 62
     3
 10
-16.21739959716797
 20
5.928614139556885
 11
-16.54399871826172
 21
6.255212783813477
  0
LINE
  8
1
  6
CONTINUOUS
 62
     3
 10
-16.54399871826172
 20
6.255212783813477
 11
-16.99014091491699
 21
6.135670185089111
  0
LINE
  8
1
  6
CONTINUOUS
 62
     3
 10
-17.10968399047852
 20
5.689527988433838
 11
-16.7830867767334
 21
5.362928867340088
  0
LINE
  8
1
  6
CONTINUOUS
 62
     3
 10
-16.99014091491699
 20
6.135670185089111
 11
-17.10968399047852
 21
5.689527988433838
  0
LINE
  8
1
  6
CONTINUOUS
 62
     3
 10
-16.7830867767334
 20
15.44760131835938
 11
-16.33694458007813
 21
15.32805824279785
  0
LINE
  8
1
  6
CONTINUOUS
 62
     3
 10
-16.33694458007813
 20
15.32805824279785
 11
-16.21739959716797
 21
14.88191604614258
  0
LINE
  8
1
  6
CONTINUOUS
 62
     3
 10
-16.21739959716797
 20
14.88191604614258
 11
-16.54399871826172
 21
14.55531692504883
  0
LINE
  8
1
  6
CONTINUOUS
 62
     3
 10
-16.54399871826172
 20
14.55531692504883
 11
-16.99014091491699
 21
14.67486095428467
  0
LINE
  8
1
  6
CONTINUOUS
 62
     3
 10
-17.10968399047852
 20
15.12100315093994
 11
-16.7830867767334
 21
15.44760131835938
  0
LINE
  8
1
  6
CONTINUOUS
 62
     3
 10
-16.99014091491699
 20
14.67486095428467
 11
-17.10968399047852
 21
15.12100315093994
  0
LINE
  8
1
  6
CONTINUOUS
 62
     3
 10
-27.45792388916016
 20
5.405264854431152
 11
-27.45792388916016
 21
15.40526485443115
  0
LINE
  8
1
  6
CONTINUOUS
 62
     3
 10
-26.2579231262207
 20
16.60526466369629
 11
-16.2579231262207
 21
16.60526466369629
  0
LINE
  8
1
  6
CENTER
 62
     4
 10
-135.5307159423828
 20
10.40526485443115
 11
-131.0313568115234
 21
10.40526485443115
  0
LINE
  8
1
  6
CONTINUOUS
 62
     3
 10
-131.0688323974609
 20
20.20526504516602
 11
-132.7688293457031
 21
20.20526504516602
  0
LINE
  8
1
  6
CONTINUOUS
 62
     3
 10
-132.7688293457031
 20
19.20526504516602
 11
-132.7688293457031
 21
20.20526504516602
  0
LINE
  8
1
  6
CONTINUOUS
 62
     3
 10
-131.0688323974609
 20
19.20526504516602
 11
-131.0688323974609
 21
20.20526504516602
  0
LINE
  8
1
  6
CONTINUOUS
 62
     3
 10
-105.5688323974609
 20
20.20526504516602
 11
-103.8688278198242
 21
20.20526504516602
  0
LINE
  8
1
  6
CONTINUOUS
 62
     3
 10
-103.8688278198242
 20
19.20526504516602
 11
-103.8688278198242
 21
20.20526504516602
  0
LINE
  8
1
  6
CONTINUOUS
 62
     3
 10
-105.5688323974609
 20
19.20526504516602
 11
-105.5688323974609
 21
20.20526504516602
  0
LINE
  8
1
  6
CENTER
 62
     4
 10
-104.5678863525391
 20
10.40526485443115
 11
-96.3280029296875
 21
10.40526485443115
  0
LINE
  8
1
  6
CONTINUOUS
 62
     3
 10
-102.8188323974609
 20
6.594358921051025
 11
-102.8188323974609
 21
14.21435928344727
  0
LINE
  8
1
  6
CONTINUOUS
 62
     3
 10
-102.6588287353516
 20
6.729071140289307
 11
-102.918830871582
 21
6.729071140289307
  0
LINE
  8
1
  6
CONTINUOUS
 62
     3
 10
-102.6588287353516
 20
5.809071063995361
 11
-102.6588287353516
 21
6.729071140289307
  0
LINE
  8
1
  6
CONTINUOUS
 62
     3
 10
-102.6588287353516
 20
5.809071063995361
 11
-102.6588287353516
 21
4.889070987701416
  0
LINE
  8
1
  6
CONTINUOUS
 62
     3
 10
-102.6588287353516
 20
5.289071083068848
 11
-102.918830871582
 21
5.289071083068848
  0
LINE
  8
1
  6
CONTINUOUS
 62
     3
 10
-102.2188262939453
 20
6.594358921051025
 11
-102.918830871582
 21
6.594358921051025
  0
LINE
  8
1
  6
CONTINUOUS
 62
     4
 10
-98.35883331298828
 20
7.444358825683594
 11
-101.6188278198242
 21
7.444358825683594
  0
LINE
  8
1
  6
CONTINUOUS
 62
     3
 10
-98.35883331298828
 20
7.254358768463135
 11
-102.2188262939453
 21
7.254358768463135
  0
LINE
  8
1
  6
CONTINUOUS
 62
     3
 10
-101.6188278198242
 20
10.40435886383057
 11
-101.6188278198242
 21
7.254358768463135
  0
LINE
  8
1
  6
CONTINUOUS
 62
     3
 10
-101.6588287353516
 20
5.809071063995361
 11
-101.6588287353516
 21
6.65907096862793
  0
LINE
  8
1
  6
CONTINUOUS
 62
     3
 10
-101.6588287353516
 20
6.65907096862793
 11
-102.6588287353516
 21
6.65907096862793
  0
LINE
  8
1
  6
CONTINUOUS
 62
     3
 10
-101.6588287353516
 20
4.959071159362793
 11
-102.6588287353516
 21
4.959071159362793
  0
LINE
  8
1
  6
CONTINUOUS
 62
     3
 10
-101.6588287353516
 20
5.809071063995361
 11
-101.6588287353516
 21
4.959071159362793
  0
LINE
  8
1
  6
CONTINUOUS
 62
     3
 10
-102.2188262939453
 20
7.059071063995361
 11
-102.2188262939453
 21
6.994359016418457
  0
LINE
  8
1
  6
CENTER
 62
     4
 10
-100.8790664672852
 20
5.809071063995361
 11
-104.2760391235352
 21
5.809071063995361
  0
LINE
  8
1
  6
CONTINUOUS
 62
     3
 10
-102.2188262939453
 20
14.21435928344727
 11
-102.2188262939453
 21
6.65907096862793
  0
LINE
  8
1
  6
CONTINUOUS
 62
     4
 10
-98.95883178710938
 20
13.36435890197754
 11
-101.6188278198242
 21
13.36435890197754
  0
LINE
  8
1
  6
CONTINUOUS
 62
     3
 10
-102.2188262939453
 20
14.21435928344727
 11
-102.918830871582
 21
14.21435928344727
  0
LINE
  8
1
  6
CONTINUOUS
 62
     3
 10
-98.35883331298828
 20
13.55435943603516
 11
-102.2188262939453
 21
13.55435943603516
  0
LINE
  8
1
  6
CONTINUOUS
 62
     3
 10
-101.6188278198242
 20
10.40435886383057
 11
-101.6188278198242
 21
13.55435943603516
  0
LINE
  8
1
  6
CONTINUOUS
 62
     4
 10
-98.35883331298828
 20
13.36435890197754
 11
-101.6188278198242
 21
13.36435890197754
  0
LINE
  8
1
  6
CONTINUOUS
 62
     3
 10
-98.35883331298828
 20
13.55435943603516
 11
-102.2188262939453
 21
13.55435943603516
  0
LINE
  8
1
  6
CONTINUOUS
 62
     3
 10
-103.3188323974609
 20
4.205265045166016
 11
-103.3188323974609
 21
16.60526466369629
  0
LINE
  8
1
  6
CONTINUOUS
 62
     3
 10
-102.918830871582
 20
4.205265045166016
 11
-102.918830871582
 21
16.60526466369629
  0
LINE
  8
1
  6
CONTINUOUS
 62
     3
 10
-102.6588287353516
 20
14.08145904541016
 11
-102.918830871582
 21
14.08145904541016
  0
LINE
  8
1
  6
CONTINUOUS
 62
     3
 10
-102.6588287353516
 20
15.0014591217041
 11
-102.6588287353516
 21
14.08145904541016
  0
LINE
  8
1
  6
CONTINUOUS
 62
     3
 10
-101.6588287353516
 20
14.15145874023438
 11
-102.2188262939453
 21
14.15145874023438
  0
LINE
  8
1
  6
CONTINUOUS
 62
     3
 10
-101.6588287353516
 20
15.0014591217041
 11
-101.6588287353516
 21
14.15145874023438
  0
LINE
  8
1
  6
CONTINUOUS
 62
     3
 10
-101.6588287353516
 20
15.0014591217041
 11
-101.6588287353516
 21
15.85145854949951
  0
LINE
  8
1
  6
CONTINUOUS
 62
     3
 10
-101.6588287353516
 20
15.85145854949951
 11
-102.6588287353516
 21
15.85145854949951
  0
LINE
  8
1
  6
CONTINUOUS
 62
     3
 10
-102.6588287353516
 20
15.0014591217041
 11
-102.6588287353516
 21
15.92145919799805
  0
LINE
  8
1
  6
CONTINUOUS
 62
     3
 10
-102.6588287353516
 20
15.92145919799805
 11
-102.918830871582
 21
15.92145919799805
  0
LINE
  8
1
  6
CONTINUOUS
 62
     3
 10
-102.1704940795898
 20
14.15145874023438
 11
-102.6588287353516
 21
14.15145874023438
  0
LINE
  8
1
  6
CONTINUOUS
 62
     3
 10
-102.2188262939453
 20
14.15145874023438
 11
-102.2188262939453
 21
14.21435928344727
  0
LINE
  8
1
  6
CENTER
 62
     4
 10
-100.5394744873047
 20
15.0014591217041
 11
-104.3660354614258
 21
15.0014591217041
  0
LINE
  8
1
  6
CENTER
 62
     4
 10
-105.2090454101563
 20
10.40526485443115
 11
-96.65448760986328
 21
10.40526485443115
  0
LINE
  8
1
  6
CONTINUOUS
 62
     3
 10
-98.35883331298828
 20
10.6043586730957
 11
-98.35883331298828
 21
13.55435943603516
  0
LINE
  8
1
  6
CONTINUOUS
 62
     3
 10
-98.35883331298828
 20
10.6043586730957
 11
-98.35883331298828
 21
7.254358768463135
  0
LINE
  8
1
  6
CONTINUOUS
 62
     3
 10
-133.9788360595703
 20
6.729071140289307
 11
-133.7188262939453
 21
6.729071140289307
  0
LINE
  8
1
  6
CONTINUOUS
 62
     3
 10
-134.9788360595703
 20
6.65907096862793
 11
-133.9788360595703
 21
6.65907096862793
  0
LINE
  8
1
  6
CONTINUOUS
 62
     3
 10
-133.9788360595703
 20
5.809071063995361
 11
-133.9788360595703
 21
4.889070987701416
  0
LINE
  8
1
  6
CONTINUOUS
 62
     3
 10
-133.9788360595703
 20
4.889070987701416
 11
-133.7188262939453
 21
4.889070987701416
  0
LINE
  8
1
  6
CONTINUOUS
 62
     3
 10
-134.9788360595703
 20
4.959071159362793
 11
-133.9788360595703
 21
4.959071159362793
  0
LINE
  8
1
  6
CONTINUOUS
 62
     3
 10
-134.9788360595703
 20
5.809071063995361
 11
-134.9788360595703
 21
4.959071159362793
  0
LINE
  8
1
  6
CONTINUOUS
 62
     3
 10
-134.9788360595703
 20
5.809071063995361
 11
-134.9788360595703
 21
6.65907096862793
  0
LINE
  8
1
  6
CONTINUOUS
 62
     3
 10
-133.9788360595703
 20
5.809071063995361
 11
-133.9788360595703
 21
6.729071140289307
  0
LINE
  8
1
  6
CENTER
 62
     4
 10
-135.7585906982422
 20
5.809071063995361
 11
-132.3616180419922
 21
5.809071063995361
  0
LINE
  8
1
  6
CONTINUOUS
 62
     3
 10
-133.9788360595703
 20
14.08145904541016
 11
-133.7188262939453
 21
14.08145904541016
  0
LINE
  8
1
  6
CONTINUOUS
 62
     3
 10
-134.4671630859375
 20
14.15145874023438
 11
-133.9788360595703
 21
14.15145874023438
  0
LINE
  8
1
  6
CONTINUOUS
 62
     3
 10
-134.9788360595703
 20
14.15145874023438
 11
-134.4188232421875
 21
14.15145874023438
  0
LINE
  8
1
  6
CONTINUOUS
 62
     3
 10
-133.3188323974609
 20
4.205265045166016
 11
-133.3188323974609
 21
16.60526466369629
  0
LINE
  8
1
  6
CONTINUOUS
 62
     3
 10
-134.9788360595703
 20
15.0014591217041
 11
-134.9788360595703
 21
14.15145874023438
  0
LINE
  8
1
  6
CONTINUOUS
 62
     3
 10
-134.9788360595703
 20
15.0014591217041
 11
-134.9788360595703
 21
15.85145854949951
  0
LINE
  8
1
  6
CONTINUOUS
 62
     3
 10
-134.9788360595703
 20
15.85145854949951
 11
-133.9788360595703
 21
15.85145854949951
  0
LINE
  8
1
  6
CONTINUOUS
 62
     3
 10
-133.9788360595703
 20
15.0014591217041
 11
-133.9788360595703
 21
15.92145919799805
  0
LINE
  8
1
  6
CONTINUOUS
 62
     3
 10
-133.9788360595703
 20
15.92145919799805
 11
-133.7188262939453
 21
15.92145919799805
  0
LINE
  8
1
  6
CONTINUOUS
 62
     3
 10
-133.9788360595703
 20
15.0014591217041
 11
-133.9788360595703
 21
14.08145904541016
  0
LINE
  8
1
  6
CONTINUOUS
 62
     3
 10
-133.7188262939453
 20
4.205265045166016
 11
-133.7188262939453
 21
16.60526466369629
  0
LINE
  8
1
  6
CENTER
 62
     4
 10
-136.0981903076172
 20
15.0014591217041
 11
-132.2716217041016
 21
15.0014591217041
  0
LINE
  8
1
  6
CENTER
 62
     4
 10
-104.989616394043
 20
10.40526485443115
 11
-96.53627777099609
 21
10.40526485443115
  0
LINE
  8
1
  6
CENTER
 62
     4
 10
33.24116897583008
 20
-7.894095897674561
 11
33.24116897583008
 21
-11.66155242919922
  0
LINE
  8
1
  6
CENTER
 62
     4
 10
16.24117088317871
 20
-7.642932891845703
 11
16.24117088317871
 21
-11.6894588470459
  0
LINE
  8
1
  6
CONTINUOUS
 62
     3
 10
132.0628356933594
 20
10.15784454345703
 11
135.1124572753906
 21
7.10823392868042
  0
LINE
  8
1
  6
CONTINUOUS
 62
     3
 10
19.46246910095215
 20
4.713127136230469
 11
21.21986961364746
 21
4.713127136230469
  0
LINE
  8
1
  6
CONTINUOUS
 62
     3
 10
19.46246910095215
 20
8.955726623535156
 11
21.21986961364746
 21
8.955726623535156
  0
LINE
  8
1
  6
CONTINUOUS
 62
     3
 10
19.37467002868652
 20
6.856541156768799
 11
21.30767059326172
 21
6.856541156768799
  0
LINE
  8
1
  6
CONTINUOUS
 62
     3
 10
19.37467002868652
 20
9.923541069030762
 11
21.30767059326172
 21
9.923541069030762
  0
LINE
  8
1
  6
CONTINUOUS
 62
     3
 10
19.37467002868652
 20
5.256540775299072
 11
21.30767059326172
 21
5.256540775299072
  0
LINE
  8
1
  6
CONTINUOUS
 62
     3
 10
19.37467002868652
 20
11.52354145050049
 11
21.30767059326172
 21
11.52354145050049
  0
LINE
  8
1
  6
CENTER
 62
     4
 10
20.34116935729981
 20
12.47649002075195
 11
20.34116935729981
 21
3.605613946914673
  0
LINE
  8
1
  6
CONTINUOUS
 62
     3
 10
-138.4713897705078
 20
-31.2786865234375
 11
-134.7822418212891
 21
-27.58954238891602
  0
LINE
  8
1
  6
CONTINUOUS
 62
     3
 10
-139.6027526855469
 20
-30.14731407165527
 11
-135.9136199951172
 21
-26.45817184448242
  0
LINE
  8
1
  6
CONTINUOUS
 62
     3
 10
173.4992218017578
 20
-31.2786865234375
 11
170.4496154785156
 21
-28.22907257080078
  0
LINE
  8
1
  6
CONTINUOUS
 62
     3
 10
174.6305999755859
 20
-30.14731407165527
 11
171.5809783935547
 21
-27.09770393371582
  0
LINE
  8
1
  6
CONTINUOUS
 62
     3
 10
133.1942138671875
 20
11.28921604156494
 11
136.2438201904297
 21
8.239602088928223
  0
LINE
  8
1
  6
CONTINUOUS
 62
     3
 10
132.0628356933594
 20
10.15784454345703
 11
135.1124572753906
 21
7.10823392868042
  0
LINE
  8
1
  6
CONTINUOUS
 62
     3
 10
155.3467712402344
 20
13.20526504516602
 11
155.3467712402344
 21
11.80526542663574
  0
LINE
  8
1
  6
CONTINUOUS
 62
     3
 10
154.1467742919922
 20
19.30526542663574
 11
154.1467742919922
 21
13.02615928649902
  0
LINE
  8
1
  6
CONTINUOUS
 62
     3
 10
155.3467712402344
 20
13.20526504516602
 11
154.1467742919922
 21
13.3852653503418
  0
LINE
  8
1
  6
CONTINUOUS
 62
     3
 10
154.1741333007813
 20
13.20526504516602
 11
155.3467712402344
 21
13.20526504516602
  0
LINE
  8
1
  6
CONTINUOUS
 62
     3
 10
151.3467712402344
 20
13.20526504516602
 11
151.3467712402344
 21
11.80526542663574
  0
LINE
  8
1
  6
CONTINUOUS
 62
     3
 10
152.5467681884766
 20
19.30526542663574
 11
152.5467681884766
 21
13.02615928649902
  0
LINE
  8
1
  6
CONTINUOUS
 62
     3
 10
151.3467712402344
 20
13.20526504516602
 11
152.5467681884766
 21
13.3852653503418
  0
LINE
  8
1
  6
CONTINUOUS
 62
     3
 10
152.5194091796875
 20
13.20526504516602
 11
151.3467712402344
 21
13.20526504516602
  0
LINE
  8
1
  6
CONTINUOUS
 62
     3
 10
161.9814300537109
 20
-2.067131042480469
 11
162.3896789550781
 21
-1.658882975578308
  0
LINE
  8
1
  6
CONTINUOUS
 62
     3
 10
161.2743225097656
 20
-1.360023975372315
 11
161.6825714111328
 21
-0.9517760276794434
  0
LINE
  8
1
  6
CONTINUOUS
 62
     3
 10
162.3896789550781
 20
-1.658882975578308
 11
162.2402496337891
 21
-1.101204991340637
  0
LINE
  8
1
  6
CONTINUOUS
 62
     3
 10
162.2402496337891
 20
-1.101204991340637
 11
161.6825714111328
 21
-0.9517760276794434
  0
LINE
  8
1
  6
CONTINUOUS
 62
     3
 10
161.4237518310547
 20
-1.917701959609985
 11
161.2743225097656
 21
-1.360023975372315
  0
LINE
  8
1
  6
CONTINUOUS
 62
     3
 10
161.9814300537109
 20
-2.067131042480469
 11
161.4237518310547
 21
-1.917701959609985
  0
LINE
  8
1
  6
CONTINUOUS
 62
     3
 10
173.3467254638672
 20
5.005265235900879
 11
173.3467254638672
 21
-24.99473571777344
  0
LINE
  8
1
  6
CONTINUOUS
 62
     3
 10
144.4531860351563
 20
-1.101204991340637
 11
145.0108642578125
 21
-0.9517760276794434
  0
LINE
  8
1
  6
CONTINUOUS
 62
     3
 10
145.4191131591797
 20
-1.360023975372315
 11
145.0108642578125
 21
-0.9517760276794434
  0
LINE
  8
1
  6
CONTINUOUS
 62
     3
 10
144.3037567138672
 20
-1.658882975578308
 11
144.4531860351563
 21
-1.101204991340637
  0
LINE
  8
1
  6
CONTINUOUS
 62
     3
 10
144.7120056152344
 20
-2.067131042480469
 11
144.3037567138672
 21
-1.658882975578308
  0
LINE
  8
1
  6
CONTINUOUS
 62
     3
 10
144.7120056152344
 20
-2.067131042480469
 11
145.2696838378906
 21
-1.917701959609985
  0
LINE
  8
1
  6
CONTINUOUS
 62
     3
 10
145.2696838378906
 20
-1.917701959609985
 11
145.4191131591797
 21
-1.360023975372315
  0
LINE
  8
1
  6
CONTINUOUS
 62
     3
 10
144.4531860351563
 20
-18.88826560974121
 11
145.0108642578125
 21
-19.03769493103027
  0
LINE
  8
1
  6
CONTINUOUS
 62
     3
 10
145.4191131591797
 20
-18.62944602966309
 11
145.0108642578125
 21
-19.03769493103027
  0
LINE
  8
1
  6
CONTINUOUS
 62
     3
 10
144.3037567138672
 20
-18.33058738708496
 11
144.4531860351563
 21
-18.88826560974121
  0
LINE
  8
1
  6
CONTINUOUS
 62
     3
 10
144.7120056152344
 20
-17.92233848571777
 11
144.3037567138672
 21
-18.33058738708496
  0
LINE
  8
1
  6
CONTINUOUS
 62
     3
 10
144.7120056152344
 20
-17.92233848571777
 11
145.2696838378906
 21
-18.07176780700684
  0
LINE
  8
1
  6
CONTINUOUS
 62
     3
 10
145.2696838378906
 20
-18.07176780700684
 11
145.4191131591797
 21
-18.62944602966309
  0
LINE
  8
1
  6
CONTINUOUS
 62
     3
 10
162.2402496337891
 20
-18.88826560974121
 11
161.6825714111328
 21
-19.03769493103027
  0
LINE
  8
1
  6
CONTINUOUS
 62
     3
 10
161.2743225097656
 20
-18.62944602966309
 11
161.6825714111328
 21
-19.03769493103027
  0
LINE
  8
1
  6
CONTINUOUS
 62
     3
 10
162.3896789550781
 20
-18.33058738708496
 11
162.2402496337891
 21
-18.88826560974121
  0
LINE
  8
1
  6
CONTINUOUS
 62
     3
 10
161.9814300537109
 20
-17.92233848571777
 11
162.3896789550781
 21
-18.33058738708496
  0
LINE
  8
1
  6
CONTINUOUS
 62
     3
 10
161.9814300537109
 20
-17.92233848571777
 11
161.4237518310547
 21
-18.07176780700684
  0
LINE
  8
1
  6
CONTINUOUS
 62
     3
 10
161.4237518310547
 20
-18.07176780700684
 11
161.2743225097656
 21
-18.62944602966309
  0
LINE
  8
1
  6
CONTINUOUS
 62
     3
 10
12.34117031097412
 20
-23.19473457336426
 11
38.14117050170898
 21
-23.19473457336426
  0
LINE
  8
1
  6
CONTINUOUS
 62
     3
 10
12.34117031097412
 20
3.205265045166016
 11
38.14117050170898
 21
3.205265045166016
  0
LINE
  8
1
  6
CONTINUOUS
 62
     3
 10
38.14117050170898
 20
10.60526466369629
 11
38.14117050170898
 21
-30.59473419189453
  0
ARC
  8
1
  6
CONTINUOUS
 62
     3
 10
21.30767059326172
 20
-28.3795108795166
 40
3.133500099182129
 50
270.0000000000005
 51
315.0127989850317
  0
ARC
  8
1
  6
CONTINUOUS
 62
     3
 10
19.37467002868652
 20
-28.3795108795166
 40
3.133500099182129
 50
224.9871763596326
 51
270.0000000000005
  0
ARC
  8
1
  6
CONTINUOUS
 62
     3
 10
-97.6005859375
 20
10.72352981567383
 40
0.800000011920929
 50
315.0001931863247
 51
135.0001931863239
  0
CIRCLE
  8
1
  6
CONTINUOUS
 62
     3
 10
-25.85411834716797
 20
15.0014591217041
 40
0.8500000238418579
  0
CIRCLE
  8
1
  6
CONTINUOUS
 62
     3
 10
-25.85411834716797
 20
15.0014591217041
 40
0.9200000166893005
  0
CIRCLE
  8
1
  6
CONTINUOUS
 62
     3
 10
-18.31792449951172
 20
7.465264797210693
 40
0.550000011920929
  0
CIRCLE
  8
1
  6
CONTINUOUS
 62
     3
 10
-24.19792366027832
 20
7.465264797210693
 40
0.550000011920929
  0
CIRCLE
  8
1
  6
CONTINUOUS
 62
     3
 10
-24.19792366027832
 20
13.34526538848877
 40
0.550000011920929
  0
CIRCLE
  8
1
  6
CONTINUOUS
 62
     3
 10
-18.31792449951172
 20
13.34526538848877
 40
0.550000011920929
  0
ARC
  8
1
  6
CONTINUOUS
 62
     3
 10
-16.2579231262207
 20
5.405264854431152
 40
1.200000047683716
 50
270.0000000000005
 51
360
  0
ARC
  8
1
  6
CONTINUOUS
 62
     3
 10
-26.2579231262207
 20
5.405264854431152
 40
1.200000047683716
 50
180.0000000000004
 51
270.0000000000005
  0
ARC
  8
1
  6
CONTINUOUS
 62
     3
 10
-26.2579231262207
 20
15.40526485443115
 40
1.200000047683716
 50
90.00000000000019
 51
180.0000000000004
  0
ARC
  8
1
  6
CONTINUOUS
 62
     3
 10
-16.2579231262207
 20
15.40526485443115
 40
1.200000047683716
 50
0
 51
90.00000000000019
  0
CIRCLE
  8
1
  6
CONTINUOUS
 62
     3
 10
-21.25882911682129
 20
10.40526485443115
 40
3.150000095367432
  0
CIRCLE
  8
1
  6
CONTINUOUS
 62
     3
 10
-21.25882911682129
 20
10.40526485443115
 40
2.700000047683716
  0
CIRCLE
  8
1
  6
CONTINUOUS
 62
     4
 10
-21.25882911682129
 20
10.40526485443115
 40
2.960000038146973
  0
CIRCLE
  8
1
  6
CONTINUOUS
 62
     3
 10
-25.85411834716797
 20
5.809071063995361
 40
0.9200000166893005
  0
CIRCLE
  8
1
  6
CONTINUOUS
 62
     3
 10
-25.85411834716797
 20
5.809071063995361
 40
0.8500000238418579
  0
CIRCLE
  8
1
  6
CONTINUOUS
 62
     3
 10
-16.66354179382324
 20
5.809071063995361
 40
0.9200000166893005
  0
CIRCLE
  8
1
  6
CONTINUOUS
 62
     3
 10
-16.66354179382324
 20
5.809071063995361
 40
0.8500000238418579
  0
CIRCLE
  8
1
  6
CONTINUOUS
 62
     3
 10
-16.66354179382324
 20
15.0014591217041
 40
0.9200000166893005
  0
CIRCLE
  8
1
  6
CONTINUOUS
 62
     3
 10
-16.66354179382324
 20
15.0014591217041
 40
0.8500000238418579
  0
ARC
  8
1
  6
CONTINUOUS
 62
     3
 10
132.6285247802734
 20
10.72352981567383
 40
0.800000011920929
 50
170.5878029625729
 51
224.9998068136768
  0
ARC
  8
1
  6
CONTINUOUS
 62
     3
 10
19.46246910095215
 20
6.834426879882813
 40
2.121299982070923
 50
209.1674881028441
 51
270.0000000000005
  0
ARC
  8
1
  6
CONTINUOUS
 62
     3
 10
21.21986961364746
 20
6.834426879882813
 40
2.121299982070923
 50
40.57714415439807
 51
90.00000000000019
  0
ARC
  8
1
  6
CONTINUOUS
 62
     3
 10
19.46246910095215
 20
6.834426879882813
 40
2.121299982070923
 50
90.00000000000019
 51
139.4228558456019
  0
ARC
  8
1
  6
CONTINUOUS
 62
     3
 10
21.21986961364746
 20
6.834426879882813
 40
2.121299982070923
 50
270.0000000000005
 51
330.8325370046938
  0
ARC
  8
1
  6
CONTINUOUS
 62
     3
 10
19.37467002868652
 20
8.390041351318359
 40
1.533499956130981
 50
90.00000000000019
 51
270.0000000000005
  0
ARC
  8
1
  6
CONTINUOUS
 62
     3
 10
21.30767059326172
 20
8.390041351318359
 40
1.533499956130981
 50
270.0000000000005
 51
90.00000000000019
  0
ARC
  8
1
  6
CONTINUOUS
 62
     3
 10
19.37467002868652
 20
8.390041351318359
 40
3.133500099182129
 50
90.00000000000019
 51
270.0000000000005
  0
ARC
  8
1
  6
CONTINUOUS
 62
     3
 10
21.30767059326172
 20
8.390041351318359
 40
3.133500099182129
 50
270.0000000000005
 51
90.00000000000019
  0
ARC
  8
1
  6
CONTINUOUS
 62
     3
 10
-139.0370788574219
 20
-30.71299934387207
 40
0.800000011920929
 50
134.9994204332116
 51
315.0001931863247
  0
ARC
  8
1
  6
CONTINUOUS
 62
     3
 10
174.0649108886719
 20
-30.71299934387207
 40
0.800000011920929
 50
224.9998068136768
 51
44.99980681367607
  0
ARC
  8
1
  6
CONTINUOUS
 62
     3
 10
132.6285247802734
 20
10.72352981567383
 40
0.800000011920929
 50
44.99980681367607
 51
224.9998068136768
  0
ARC
  8
1
  6
CONTINUOUS
 62
     3
 10
154.7467651367188
 20
13.02615928649902
 40
0.6000000238418579
 50
180.0000000000004
 51
270.0000000000005
  0
ARC
  8
1
  6
CONTINUOUS
 62
     3
 10
151.94677734375
 20
13.02615928649902
 40
0.6000000238418579
 50
270.0000000000005
 51
360
  0
ARC
  8
1
  6
CONTINUOUS
 62
     3
 10
153.3467712402344
 20
19.30526542663574
 40
0.800000011920929
 50
0
 51
180.0000000000004
  0
CIRCLE
  8
1
  6
CONTINUOUS
 62
     3
 10
161.8320007324219
 20
-1.509454011917114
 40
1
  0
CIRCLE
  8
1
  6
CONTINUOUS
 62
     3
 10
161.8320007324219
 20
-1.509454011917114
 40
1.5
  0
ARC
  8
1
  6
CENTER
 62
     4
 10
153.3467254638672
 20
-9.994734764099121
 40
12
 50
28.67835207416484
 51
58.201425983314
  0
ARC
  8
1
  6
CENTER
 62
     4
 10
153.3467254638672
 20
-9.994734764099121
 40
12
 50
121.7986359368702
 51
151.3216828885232
  0
CIRCLE
  8
1
  6
CONTINUOUS
 62
     3
 10
144.8614349365234
 20
-1.509454011917114
 40
1.5
  0
ARC
  8
1
  6
CENTER
 62
     4
 10
153.3467254638672
 20
-9.994734764099121
 40
12
 50
208.6783191089149
 51
238.2013637257177
  0
CIRCLE
  8
1
  6
CONTINUOUS
 62
     3
 10
144.8614349365234
 20
-18.48001670837402
 40
1.5
  0
ARC
  8
1
  6
CENTER
 62
     4
 10
153.3467254638672
 20
-9.994734764099121
 40
12
 50
301.7985743540991
 51
331.3216459283969
  0
CIRCLE
  8
1
  6
CONTINUOUS
 62
     3
 10
161.8320007324219
 20
-18.48001670837402
 40
1.5
  0
CIRCLE
  8
1
  6
CONTINUOUS
 62
     3
 10
144.8614349365234
 20
-1.509454011917114
 40
1
  0
CIRCLE
  8
1
  6
CONTINUOUS
 62
     3
 10
144.8614349365234
 20
-18.48001670837402
 40
1
  0
CIRCLE
  8
1
  6
CONTINUOUS
 62
     3
 10
161.8320007324219
 20
-18.48001670837402
 40
1
  0
LINE
  8
2
  6
CONTINUOUS
 62
     3
 10
-5.258830070495606
 20
-30.39473533630371
 11
12.34116935729981
 21
-30.39473533630371
  0
LINE
  8
2
  6
CONTINUOUS
 62
     3
 10
-29.85882949829102
 20
-28.09473419189453
 11
-18.85882949829102
 21
-28.09473419189453
  0
LINE
  8
2
  6
CONTINUOUS
 62
     3
 10
-30.25882911682129
 20
10.40526485443115
 11
-29.85882949829102
 21
10.40526485443115
  0
LINE
  8
2
  6
CONTINUOUS
 62
     3
 10
-18.85882949829102
 20
-28.09473419189453
 11
-5.258830070495606
 21
-30.39473533630371
  0
LINE
  8
2
  6
CONTINUOUS
 62
     3
 10
-29.5278491973877
 20
19.20526504516602
 11
-29.66703224182129
 21
19.20526504516602
  0
LINE
  8
2
  6
CONTINUOUS
 62
     3
 10
-29.19730377197266
 20
23.14016532897949
 11
-29.29979133605957
 21
20.20526504516602
  0
LINE
  8
2
  6
CONTINUOUS
 62
     3
 10
-9.263601303100586
 20
24.10526466369629
 11
-28.19791221618652
 21
24.10526466369629
  0
LINE
  8
2
  6
CONTINUOUS
 62
     3
 10
-9.263601303100586
 20
18.60526466369629
 11
-29.78455352783203
 21
18.60526466369629
  0
LINE
  8
2
  6
CENTER
 62
     4
 10
-9.26364803314209
 20
18
 11
-9.26364803314209
 21
21
  0
LINE
  8
2
  6
CONTINUOUS
 62
     3
 10
-10.87730884552002
 20
19.60526466369629
 11
-10.87730884552002
 21
23.70526504516602
  0
LINE
  8
2
  6
CONTINUOUS
 62
     3
 10
-26.95963478088379
 20
19.60526466369629
 11
-26.95963478088379
 21
23.70526504516602
  0
LINE
  8
2
  6
CONTINUOUS
 62
     3
 10
-9.263601303100586
 20
19.20526504516602
 11
-29.66703224182129
 21
19.20526504516602
  0
LINE
  8
2
  6
CONTINUOUS
 62
     3
 10
-29.78455352783203
 20
18.60526466369629
 11
-29.76697158813477
 21
19.10875511169434
  0
LINE
  8
2
  6
CENTER
 62
     4
 10
-28.66847038269043
 20
21
 11
-28.66847038269043
 21
18
  0
LINE
  8
2
  6
CONTINUOUS
 62
     3
 10
-29.85882949829102
 20
18.60526466369629
 11
11.54117488861084
 21
18.60526466369629
  0
LINE
  8
2
  6
CONTINUOUS
 62
     3
 10
-30.25882911682129
 20
18.40526580810547
 11
11.54117488861084
 21
18.40526580810547
  0
LINE
  8
2
  6
CONTINUOUS
 62
     3
 10
-9.263601303100586
 20
18.60526466369629
 11
11.25735187530518
 21
18.60526466369629
  0
LINE
  8
2
  6
CONTINUOUS
 62
     3
 10
-9.263601303100586
 20
24.10526466369629
 11
9.670709609985352
 21
24.10526466369629
  0
LINE
  8
2
  6
CONTINUOUS
 62
     3
 10
11.54117012023926
 20
9.063548088073731
 11
11.54117488861084
 21
18.60526466369629
  0
LINE
  8
2
  6
CONTINUOUS
 62
     3
 10
11.00064945220947
 20
19.20526504516602
 11
11.13982963562012
 21
19.20526504516602
  0
LINE
  8
2
  6
CONTINUOUS
 62
     3
 10
11.23976898193359
 20
19.10875511169434
 11
11.25735187530518
 21
18.60526466369629
  0
LINE
  8
2
  6
CONTINUOUS
 62
     3
 10
10.67010116577148
 20
23.14016532897949
 11
10.77258968353272
 21
20.20526504516602
  0
LINE
  8
2
  6
CENTER
 62
     4
 10
10.14117527008057
 20
21
 11
10.14117527008057
 21
18
  0
LINE
  8
2
  6
CONTINUOUS
 62
     3
 10
-7.649988174438477
 20
19.60526466369629
 11
-7.649988174438477
 21
23.70526504516602
  0
LINE
  8
2
  6
CONTINUOUS
 62
     3
 10
-9.26369571685791
 20
19.20526504516602
 11
11.13973522186279
 21
19.20526504516602
  0
LINE
  8
2
  6
CONTINUOUS
 62
     3
 10
8.432337760925293
 20
19.60526466369629
 11
8.432337760925293
 21
23.70526504516602
  0
LINE
  8
2
  6
CONTINUOUS
 62
     3
 10
11.00055408477783
 20
19.20526504516602
 11
11.13973522186279
 21
19.20526504516602
  0
LINE
  8
2
  6
CONTINUOUS
 62
     3
 10
11.25725746154785
 20
18.60526466369629
 11
11.23967361450195
 21
19.10875511169434
  0
LINE
  8
2
  6
CONTINUOUS
 62
     3
 10
-29.85882949829102
 20
18.60526466369629
 11
-29.85882949829102
 21
-28.09473419189453
  0
LINE
  8
2
  6
CONTINUOUS
 62
     3
 10
-30.25882911682129
 20
18.40526580810547
 11
-30.25882911682129
 21
10.40526485443115
  0
ARC
  8
2
  6
CONTINUOUS
 62
     3
 10
-28.19791221618652
 20
23.10526466369629
 40
1
 50
90.00000000000019
 51
177.9999345433332
  0
ARC
  8
2
  6
CONTINUOUS
 62
     3
 10
-29.66703224182129
 20
19.10526466369629
 40
0.1000000014901161
 50
90.00000000000019
 51
177.9997199250832
  0
ARC
  8
2
  6
CONTINUOUS
 62
     3
 10
-11.27730941772461
 20
23.70526504516602
 40
0.4000000059604645
 50
0
 51
90.00000000000019
  0
ARC
  8
2
  6
CONTINUOUS
 62
     3
 10
-10.47730922698975
 20
19.60526466369629
 40
0.4000000059604645
 50
180.0000000000004
 51
270.0000000000005
  0
ARC
  8
2
  6
CONTINUOUS
 62
     3
 10
-26.55963325500488
 20
23.70526504516602
 40
0.4000000059604645
 50
90.00000000000019
 51
180.0000000000004
  0
ARC
  8
2
  6
CONTINUOUS
 62
     3
 10
-27.35963439941406
 20
19.60526466369629
 40
0.4000000059604645
 50
270.0000000000005
 51
360
  0
ARC
  8
2
  6
CONTINUOUS
 62
     3
 10
11.13982963562012
 20
19.10526466369629
 40
0.1000000014901161
 50
2.00028007491684
 51
90.00000000000019
  0
ARC
  8
2
  6
CONTINUOUS
 62
     3
 10
9.670709609985352
 20
23.10526466369629
 40
1
 50
2.000065456666792
 51
90.00000000000019
  0
ARC
  8
2
  6
CONTINUOUS
 62
     3
 10
-7.249988079071045
 20
23.70526504516602
 40
0.4000000059604645
 50
90.00000000000019
 51
180.0000000000004
  0
ARC
  8
2
  6
CONTINUOUS
 62
     3
 10
-8.04998779296875
 20
19.60526466369629
 40
0.4000000059604645
 50
270.0000000000005
 51
360
  0
ARC
  8
2
  6
CONTINUOUS
 62
     3
 10
8.832338333129883
 20
19.60526466369629
 40
0.4000000059604645
 50
180.0000000000004
 51
270.0000000000005
  0
ARC
  8
2
  6
CONTINUOUS
 62
     3
 10
8.03233814239502
 20
23.70526504516602
 40
0.4000000059604645
 50
0
 51
90.00000000000019
  0
ARC
  8
2
  6
CONTINUOUS
 62
     3
 10
11.13973522186279
 20
19.10526466369629
 40
0.1000000014901161
 50
2.000299147327582
 51
90.00000000000019
  0
LINE
  8
3
  6
CONTINUOUS
 62
     3
 10
-30.37882995605469
 20
-20.59598922729492
 11
-30.37882995605469
 21
-19.59598922729492
  0
LINE
  8
3
  6
CONTINUOUS
 62
     3
 10
-30.63883018493652
 20
-20.51598930358887
 11
-30.63883018493652
 21
-19.59598922729492
  0
LINE
  8
3
  6
CONTINUOUS
 62
     3
 10
-30.63883018493652
 20
-20.51598930358887
 11
-30.37882995605469
 21
-20.51598930358887
  0
LINE
  8
3
  6
CONTINUOUS
 62
     3
 10
-30.37882995605469
 20
-20.59591865539551
 11
-30.17882919311523
 21
-20.59591865539551
  0
LINE
  8
3
  6
CONTINUOUS
 62
     3
 10
-30.37882995605469
 20
-18.59598922729492
 11
-30.37882995605469
 21
-19.59598922729492
  0
LINE
  8
3
  6
CONTINUOUS
 62
     3
 10
-30.63883018493652
 20
-18.67598915100098
 11
-30.63883018493652
 21
-19.59598922729492
  0
LINE
  8
3
  6
CONTINUOUS
 62
     3
 10
-30.63883018493652
 20
-18.67598915100098
 11
-30.37882995605469
 21
-18.67598915100098
  0
LINE
  8
3
  6
CONTINUOUS
 62
     3
 10
-30.37882995605469
 20
-18.59598922729492
 11
-30.17882919311523
 21
-18.59598922729492
  0
LINE
  8
3
  6
CONTINUOUS
 62
     3
 10
-31.63883018493652
 20
-18.74599075317383
 11
-30.63883018493652
 21
-18.74599075317383
  0
LINE
  8
3
  6
CENTER
 62
     4
 10
-32.99545669555664
 20
-19.59473419189453
 11
-27.76828384399414
 21
-19.59473419189453
  0
LINE
  8
3
  6
CONTINUOUS
 62
     3
 10
-31.63883018493652
 20
-18.74599075317383
 11
-31.63883018493652
 21
-19.59598922729492
  0
LINE
  8
3
  6
CONTINUOUS
 62
     3
 10
-31.63883018493652
 20
-20.44598960876465
 11
-31.63883018493652
 21
-19.59598922729492
  0
LINE
  8
3
  6
CONTINUOUS
 62
     3
 10
-31.63883018493652
 20
-20.44598960876465
 11
-30.63883018493652
 21
-20.44598960876465
  0
LINE
  8
3
  6
CONTINUOUS
 62
     3
 10
12.34117031097412
 20
-30.59473419189453
 11
38.14117050170898
 21
-30.59473419189453
  0
LINE
  8
3
  6
CONTINUOUS
 62
     3
 10
-31.63883018493652
 20
10.05401039123535
 11
-30.63883018493652
 21
10.05401039123535
  0
LINE
  8
3
  6
CONTINUOUS
 62
     3
 10
-30.37882995605469
 20
10.20401000976563
 11
-30.37882995605469
 21
9.204010009765625
  0
LINE
  8
3
  6
CONTINUOUS
 62
     3
 10
-30.63883018493652
 20
10.12401008605957
 11
-30.63883018493652
 21
9.204010009765625
  0
LINE
  8
3
  6
CONTINUOUS
 62
     3
 10
-30.63883018493652
 20
10.12401008605957
 11
-30.37882995605469
 21
10.12401008605957
  0
LINE
  8
3
  6
CENTER
 62
     4
 10
-32.99545669555664
 20
9.205265045166016
 11
-27.76828384399414
 21
9.205265045166016
  0
LINE
  8
3
  6
CONTINUOUS
 62
     3
 10
-31.63883018493652
 20
10.05401039123535
 11
-31.63883018493652
 21
9.204010009765625
  0
LINE
  8
3
  6
CONTINUOUS
 62
     3
 10
-31.63883018493652
 20
8.354009628295898
 11
-31.63883018493652
 21
9.204010009765625
  0
LINE
  8
3
  6
CONTINUOUS
 62
     3
 10
-31.63883018493652
 20
8.354009628295898
 11
-30.63883018493652
 21
8.354009628295898
  0
LINE
  8
3
  6
CONTINUOUS
 62
     3
 10
-30.37882995605469
 20
8.204010009765625
 11
-30.37882995605469
 21
9.204010009765625
  0
LINE
  8
3
  6
CONTINUOUS
 62
     3
 10
-30.63883018493652
 20
8.28400993347168
 11
-30.63883018493652
 21
9.204010009765625
  0
LINE
  8
3
  6
CONTINUOUS
 62
     3
 10
-30.63883018493652
 20
8.28400993347168
 11
-30.37882995605469
 21
8.28400993347168
  0
LINE
  8
3
  6
CONTINUOUS
 62
     3
 10
-30.37882995605469
 20
8.204080581665039
 11
-30.17882919311523
 21
8.204080581665039
  0
LINE
  8
3
  6
CONTINUOUS
 62
     3
 10
-30.37882995605469
 20
10.20401000976563
 11
-30.17882919311523
 21
10.20401000976563
  0
LINE
  8
3
  6
CONTINUOUS
 62
     3
 10
23.52388381958008
 20
10.60526466369629
 11
38.14117050170898
 21
10.60526466369629
  0
LINE
  8
3
  6
CONTINUOUS
 62
     3
 10
12.34117031097412
 20
-30.59473419189453
 11
38.14117050170898
 21
-30.59473419189453
  0
LINE
  8
3
  6
CONTINUOUS
 62
     3
 10
11.54117012023926
 20
10.60526466369629
 11
17.15845680236816
 21
10.60526466369629
  0
LINE
  8
4
  6
CONTINUOUS
 62
     3
 10
152.5467681884766
 20
18.40526580810547
 11
138.7466735839844
 21
18.40526580810547
  0
LINE
  8
4
  6
CONTINUOUS
 62
     3
 10
152.5467681884766
 20
18.60526466369629
 11
138.7466735839844
 21
18.60526466369629
  0
LINE
  8
4
  6
CONTINUOUS
 62
     3
 10
167.9466705322266
 20
18.60526466369629
 11
167.9466705322266
 21
10.00526523590088
  0
LINE
  8
4
  6
CONTINUOUS
 62
     3
 10
167.9466705322266
 20
18.40526580810547
 11
154.1467742919922
 21
18.40526580810547
  0
LINE
  8
4
  6
CONTINUOUS
 62
     3
 10
138.7466735839844
 20
18.60526466369629
 11
138.7466735839844
 21
10.00526523590088
  0
LINE
  8
4
  6
CONTINUOUS
 62
     3
 10
167.9466705322266
 20
18.60526466369629
 11
154.1467742919922
 21
18.60526466369629
  0
LINE
  8
4
  6
CONTINUOUS
 62
     3
 10
-100.2188262939453
 20
-0.5947350263595581
 11
-100.2188262939453
 21
-20.17900657653809
  0
LINE
  8
4
  6
CONTINUOUS
 62
     3
 10
-136.4188232421875
 20
-0.5947350263595581
 11
-136.4188232421875
 21
-20.17900657653809
  0
LINE
  8
4
  6
CONTINUOUS
 62
     3
 10
-103.7188262939453
 20
18.40526580810547
 11
-132.9188232421875
 21
18.40526580810547
  0
LINE
  8
4
  6
CONTINUOUS
 62
     3
 10
-103.7188262939453
 20
18.60526466369629
 11
-103.7188262939453
 21
2.0052649974823
  0
LINE
  8
4
  6
CONTINUOUS
 62
     3
 10
-132.9188232421875
 20
18.60526466369629
 11
-132.9188232421875
 21
2.0052649974823
  0
LINE
  8
4
  6
CONTINUOUS
 62
     3
 10
-108.1345596313477
 20
-28.09473419189453
 11
-128.5030975341797
 21
-28.09473419189453
  0
LINE
  8
4
  6
CONTINUOUS
 62
     3
 10
-97.91883087158203
 20
3.263547897338867
 11
-97.91883087158203
 21
-23.25301742553711
  0
LINE
  8
4
  6
CONTINUOUS
 62
     3
 10
-138.7188262939453
 20
3.263547897338867
 11
-138.7188262939453
 21
-23.25301742553711
  0
LINE
  8
4
  6
CONTINUOUS
 62
     3
 10
-105.060546875
 20
-30.39473533630371
 11
-131.5771179199219
 21
-30.39473533630371
  0
LINE
  8
4
  6
CONTINUOUS
 62
     3
 10
-136.4188232421875
 20
-20.17900657653809
 11
-128.5030975341797
 21
-28.09473419189453
  0
LINE
  8
4
  6
CONTINUOUS
 62
     3
 10
-108.1345596313477
 20
-28.09473419189453
 11
-100.2188262939453
 21
-20.17900657653809
  0
LINE
  8
4
  6
CONTINUOUS
 62
     3
 10
-138.7188262939453
 20
-23.25301742553711
 11
-131.5771179199219
 21
-30.39473533630371
  0
LINE
  8
4
  6
CONTINUOUS
 62
     3
 10
-97.91883087158203
 20
-23.25301742553711
 11
-105.060546875
 21
-30.39473533630371
  0
LINE
  8
4
  6
CONTINUOUS
 62
     3
 10
-97.91883087158203
 20
3.263547897338867
 11
-101.9096374511719
 21
7.254358768463135
  0
LINE
  8
4
  6
CONTINUOUS
 62
     3
 10
-138.7188262939453
 20
3.263547897338867
 11
-133.7188262939453
 21
8.263547897338867
  0
LINE
  8
4
  6
CONTINUOUS
 62
     3
 10
-98.51882934570313
 20
0.005264999810606241
 11
-101.7188262939453
 21
0.005264999810606241
  0
LINE
  8
4
  6
CONTINUOUS
 62
     3
 10
-138.1188354492188
 20
0.005264999810606241
 11
-134.9188232421875
 21
0.005264999810606241
  0
LINE
  8
4
  6
CONTINUOUS
 62
     3
 10
-128.5030975341797
 20
-28.09473419189453
 11
-131.5771179199219
 21
-30.39473533630371
  0
LINE
  8
4
  6
CONTINUOUS
 62
     3
 10
-138.7188262939453
 20
-23.25301742553711
 11
-136.4188232421875
 21
-20.17900657653809
  0
LINE
  8
4
  6
CONTINUOUS
 62
     3
 10
-108.1345596313477
 20
-28.09473419189453
 11
-105.060546875
 21
-30.39473533630371
  0
LINE
  8
4
  6
CONTINUOUS
 62
     3
 10
-100.2188262939453
 20
-20.17900657653809
 11
-97.91883087158203
 21
-23.25301742553711
  0
LINE
  8
4
  6
CONTINUOUS
 62
     3
 10
-103.7188262939453
 20
18.60526466369629
 11
-132.9188232421875
 21
18.60526466369629
  0
LINE
  8
4
  6
CENTER
 62
     4
 10
-118.3188323974609
 20
10.48520565032959
 11
-118.3188323974609
 21
8.048755645751953
  0
LINE
  8
4
  6
CENTER
 62
     4
 10
-119.5333786010742
 20
9.205265045166016
 11
-117.0263061523438
 21
9.205265045166016
  0
LINE
  8
4
  6
CONTINUOUS
 62
     3
 10
-117.918830871582
 20
8.974325180053711
 11
-117.918830871582
 21
9.43620491027832
  0
LINE
  8
4
  6
CONTINUOUS
 62
     3
 10
-118.7188262939453
 20
9.43620491027832
 11
-118.7188262939453
 21
8.974325180053711
  0
LINE
  8
4
  6
CONTINUOUS
 62
     3
 10
-118.3188323974609
 20
9.667144775390625
 11
-118.7188262939453
 21
9.43620491027832
  0
LINE
  8
4
  6
CONTINUOUS
 62
     3
 10
-117.918830871582
 20
9.43620491027832
 11
-118.3188323974609
 21
9.667144775390625
  0
LINE
  8
4
  6
CONTINUOUS
 62
     3
 10
-118.3188323974609
 20
8.743385314941406
 11
-117.918830871582
 21
8.974325180053711
  0
LINE
  8
4
  6
CONTINUOUS
 62
     3
 10
-118.7188262939453
 20
8.974325180053711
 11
-118.3188323974609
 21
8.743385314941406
  0
LINE
  8
4
  6
CENTER
 62
     4
 10
-134.9465179443359
 20
-18.31479454040527
 11
-134.9465179443359
 21
-20.75124359130859
  0
LINE
  8
4
  6
CENTER
 62
     4
 10
-136.1610565185547
 20
-19.59473419189453
 11
-133.6539916992188
 21
-19.59473419189453
  0
LINE
  8
4
  6
CONTINUOUS
 62
     3
 10
-134.5465240478516
 20
-19.82567405700684
 11
-134.5465240478516
 21
-19.36379432678223
  0
LINE
  8
4
  6
CONTINUOUS
 62
     3
 10
-135.3465118408203
 20
-19.36379432678223
 11
-135.3465118408203
 21
-19.82567405700684
  0
LINE
  8
4
  6
CONTINUOUS
 62
     3
 10
-134.9465179443359
 20
-19.13285446166992
 11
-135.3465118408203
 21
-19.36379432678223
  0
LINE
  8
4
  6
CONTINUOUS
 62
     3
 10
-134.5465240478516
 20
-19.36379432678223
 11
-134.9465179443359
 21
-19.13285446166992
  0
LINE
  8
4
  6
CONTINUOUS
 62
     3
 10
-134.9465179443359
 20
-20.05661582946777
 11
-134.5465240478516
 21
-19.82567405700684
  0
LINE
  8
4
  6
CONTINUOUS
 62
     3
 10
-135.3465118408203
 20
-19.82567405700684
 11
-134.9465179443359
 21
-20.05661582946777
  0
LINE
  8
4
  6
CENTER
 62
     4
 10
-101.6911392211914
 20
-18.31479454040527
 11
-101.6911392211914
 21
-20.75124359130859
  0
LINE
  8
4
  6
CENTER
 62
     4
 10
-102.9056854248047
 20
-19.59473419189453
 11
-100.3986129760742
 21
-19.59473419189453
  0
LINE
  8
4
  6
CONTINUOUS
 62
     3
 10
-101.291145324707
 20
-19.82567405700684
 11
-101.291145324707
 21
-19.36379432678223
  0
LINE
  8
4
  6
CONTINUOUS
 62
     3
 10
-102.0911407470703
 20
-19.36379432678223
 11
-102.0911407470703
 21
-19.82567405700684
  0
LINE
  8
4
  6
CONTINUOUS
 62
     3
 10
-101.6911392211914
 20
-19.13285446166992
 11
-102.0911407470703
 21
-19.36379432678223
  0
LINE
  8
4
  6
CONTINUOUS
 62
     3
 10
-101.291145324707
 20
-19.36379432678223
 11
-101.6911392211914
 21
-19.13285446166992
  0
LINE
  8
4
  6
CONTINUOUS
 62
     3
 10
-101.6911392211914
 20
-20.05661582946777
 11
-101.291145324707
 21
-19.82567405700684
  0
LINE
  8
4
  6
CONTINUOUS
 62
     3
 10
-102.0911407470703
 20
-19.82567405700684
 11
-101.6911392211914
 21
-20.05661582946777
  0
LINE
  8
4
  6
CONTINUOUS
 62
     3
 10
-121.3959503173828
 20
-28.09473419189453
 11
-123.3258819580078
 21
-30.39473533630371
  0
LINE
  8
4
  6
CONTINUOUS
 62
     3
 10
-115.2417068481445
 20
-28.09473419189453
 11
-113.3117752075195
 21
-30.39473533630371
  0
LINE
  8
4
  6
CONTINUOUS
 62
     3
 10
-118.3188323974609
 20
-28.17208480834961
 11
-118.4528045654297
 21
-28.09473419189453
  0
LINE
  8
4
  6
CONTINUOUS
 62
     3
 10
-118.3188323974609
 20
-28.17208480834961
 11
-118.1848526000977
 21
-28.09473419189453
  0
LINE
  8
4
  6
CONTINUOUS
 62
     3
 10
-101.7339782714844
 20
2.632213115692139
 11
-102.2339782714844
 21
2.343538045883179
  0
LINE
  8
4
  6
CONTINUOUS
 62
     3
 10
-101.2339782714844
 20
2.343538045883179
 11
-101.2339782714844
 21
1.766188025474548
  0
LINE
  8
4
  6
CONTINUOUS
 62
     3
 10
-101.7339782714844
 20
2.632213115692139
 11
-101.2339782714844
 21
2.343538045883179
  0
LINE
  8
4
  6
CONTINUOUS
 62
     3
 10
-102.2339782714844
 20
2.343538045883179
 11
-102.2339782714844
 21
1.766188025474548
  0
LINE
  8
4
  6
CONTINUOUS
 62
     3
 10
-101.7339782714844
 20
1.477512955665588
 11
-102.2339782714844
 21
1.766188025474548
  0
LINE
  8
4
  6
CONTINUOUS
 62
     3
 10
-101.7339782714844
 20
1.477512955665588
 11
-101.2339782714844
 21
1.766188025474548
  0
LINE
  8
4
  6
CONTINUOUS
 62
     3
 10
-134.9036712646484
 20
2.632213115692139
 11
-134.4036712646484
 21
2.343538045883179
  0
LINE
  8
4
  6
CONTINUOUS
 62
     3
 10
-135.4036712646484
 20
2.343538045883179
 11
-135.4036712646484
 21
1.766188025474548
  0
LINE
  8
4
  6
CONTINUOUS
 62
     3
 10
-134.9036712646484
 20
2.632213115692139
 11
-135.4036712646484
 21
2.343538045883179
  0
LINE
  8
4
  6
CONTINUOUS
 62
     3
 10
-134.4036712646484
 20
2.343538045883179
 11
-134.4036712646484
 21
1.766188025474548
  0
LINE
  8
4
  6
CONTINUOUS
 62
     3
 10
-134.9036712646484
 20
1.477512955665588
 11
-134.4036712646484
 21
1.766188025474548
  0
LINE
  8
4
  6
CONTINUOUS
 62
     3
 10
-134.9036712646484
 20
1.477512955665588
 11
-135.4036712646484
 21
1.766188025474548
  0
ARC
  8
4
  6
CONTINUOUS
 62
     3
 10
-101.7188262939453
 20
2.0052649974823
 40
2
 50
180.0000000000004
 51
270.0000000000005
  0
ARC
  8
4
  6
CONTINUOUS
 62
     3
 10
-98.51882934570313
 20
-0.5947350263595581
 40
0.6000000238418579
 50
0
 51
90.00000000000019
  0
ARC
  8
4
  6
CONTINUOUS
 62
     3
 10
-100.8188323974609
 20
-0.5947350263595581
 40
0.6000000238418579
 50
0
 51
90.00000000000019
  0
ARC
  8
4
  6
CONTINUOUS
 62
     3
 10
-138.1188354492188
 20
-0.5947350263595581
 40
0.6000000238418579
 50
90.00000000000019
 51
180.0000000000004
  0
ARC
  8
4
  6
CONTINUOUS
 62
     3
 10
-135.8188323974609
 20
-0.5947350263595581
 40
0.6000000238418579
 50
90.00000000000019
 51
180.0000000000004
  0
ARC
  8
4
  6
CONTINUOUS
 62
     3
 10
-134.9188232421875
 20
2.0052649974823
 40
2
 50
270.0000000000005
 51
360
  0
CIRCLE
  8
4
  6
CONTINUOUS
 62
     3
 10
-118.3188323974609
 20
-9.994734764099121
 40
17.5
  0
CIRCLE
  8
4
  6
CONTINUOUS
 62
     3
 10
-118.3188323974609
 20
9.205265045166016
 40
0.8500000238418579
  0
CIRCLE
  8
4
  6
CONTINUOUS
 62
     3
 10
-134.9465179443359
 20
-19.59473419189453
 40
0.8500000238418579
  0
CIRCLE
  8
4
  6
CONTINUOUS
 62
     3
 10
-101.6911392211914
 20
-19.59473419189453
 40
0.8500000238418579
  0
ARC
  8
4
  6
CONTINUOUS
 62
     3
 10
-118.3188323974609
 20
-27.59473419189453
 40
1
 50
210.0001490025784
 51
330.0000695640014
  0
ARC
  8
4
  6
CENTER
 62
     4
 10
-118.3188323974609
 20
-9.994734764099121
 40
20.5
 50
30.23749289766257
 51
40.76372960264705
  0
CIRCLE
  8
4
  6
CONTINUOUS
 62
     3
 10
-101.7339782714844
 20
2.054862976074219
 40
1
  0
ARC
  8
4
  6
CENTER
 62
     4
 10
-118.3188323974609
 20
-9.994734764099121
 40
20.5
 50
139.2362564743474
 51
149.7624963641233
  0
CIRCLE
  8
4
  6
CONTINUOUS
 62
     3
 10
-134.9036712646484
 20
2.054862976074219
 40
1
  0
LINE
  8
6
  6
CENTER
 62
     4
 10
-94.46864318847656
 20
-9.994734764099121
 11
-142.4743957519531
 21
-9.994734764099121
  0
LINE
  8
6
  6
CENTER
 62
     4
 10
-99.89836120605469
 20
3.388520956039429
 11
-103.6450271606445
 21
0.6664090156555176
  0
LINE
  8
6
  6
CENTER
 62
     4
 10
-136.7393035888672
 20
3.388520956039429
 11
-132.9926300048828
 21
0.6664090156555176
  0
LINE
  8
7
  6
CONTINUOUS
 62
     3
 10
63.94116973876953
 20
8.005265235900879
 11
64.54116821289063
 21
8.005265235900879
  0
LINE
  8
7
  6
CONTINUOUS
 62
     3
 10
64.54116821289063
 20
-9.994734764099121
 11
64.54116821289063
 21
-27.99473571777344
  0
LINE
  8
7
  6
CONTINUOUS
 62
     3
 10
63.94116973876953
 20
-9.994734764099121
 11
63.94116973876953
 21
-29.99473571777344
  0
LINE
  8
7
  6
CONTINUOUS
 62
     3
 10
59.94116973876953
 20
-29.99473571777344
 11
63.94116973876953
 21
-29.99473571777344
  0
LINE
  8
7
  6
CONTINUOUS
 62
     3
 10
64.54116821289063
 20
8.005265235900879
 11
64.54116821289063
 21
-4.994734764099121
  0
LINE
  8
7
  6
CONTINUOUS
 62
     3
 10
62.74116897583008
 20
-3.194735050201416
 11
62.74116897583008
 21
-4.994734764099121
  0
LINE
  8
7
  6
CONTINUOUS
 62
     3
 10
63.94116973876953
 20
0.2669459879398346
 11
63.94116973876953
 21
-1.194735050201416
  0
LINE
  8
7
  6
CONTINUOUS
 62
     3
 10
63.94116973876953
 20
10.00526523590088
 11
63.94116973876953
 21
0.2669459879398346
  0
LINE
  8
7
  6
CONTINUOUS
 62
     3
 10
59.94116973876953
 20
10.00526523590088
 11
59.94116973876953
 21
-29.99473571777344
  0
LINE
  8
7
  6
CONTINUOUS
 62
     3
 10
55.94116973876953
 20
9.585265159606934
 11
55.94116973876953
 21
-29.57473564147949
  0
ARC
  8
7
  6
CONTINUOUS
 62
     3
 10
64.54116821289063
 20
-1.194735050201416
 40
0.6000000238418579
 50
180.0000000000004
 51
270.0000000000005
  0
LINE
  8
8
  6
CONTINUOUS
 62
     3
 10
33.94116973876953
 20
-11.19473457336426
 11
33.94116973876953
 21
-10.96941375732422
  0
LINE
  8
8
  6
CONTINUOUS
 62
     3
 10
32.54116821289063
 20
-11.19473457336426
 11
32.54116821289063
 21
-10.96941375732422
  0
LINE
  8
8
  6
CONTINUOUS
 62
     3
 10
15.54117012023926
 20
-11.19473457336426
 11
15.54117012023926
 21
-10.96941375732422
  0
LINE
  8
8
  6
CONTINUOUS
 62
     3
 10
16.94116973876953
 20
-11.19473457336426
 11
16.94116973876953
 21
-10.96941375732422
  0
LINE
  8
8
  6
CONTINUOUS
 62
     3
 10
38.14117050170898
 20
-11.19473457336426
 11
12.34117031097412
 21
-11.19473457336426
  0
LINE
  8
8
  6
CONTINUOUS
 62
     3
 10
12.34117031097412
 20
-12.39473533630371
 11
38.14117050170898
 21
-12.39473533630371
  0
ARC
  8
8
  6
CONTINUOUS
 62
     3
 10
33.24116897583008
 20
-10.69473457336426
 40
0.699999988079071
 50
207.9947350102289
 51
332.0054115506854
  0
ARC
  8
8
  6
CONTINUOUS
 62
     3
 10
33.24116897583008
 20
-9.094735145568848
 40
0.699999988079071
 50
6.379361881199206
 51
173.6206034257166
  0
ARC
  8
8
  6
CONTINUOUS
 62
     3
 10
33.24116897583008
 20
-9.294734954833984
 40
0.699999988079071
 50
27.9945195236517
 51
152.0053339156733
  0
ARC
  8
8
  6
CONTINUOUS
 62
     3
 10
16.24117088317871
 20
-9.094735145568848
 40
0.699999988079071
 50
6.379379227694352
 51
173.620629445565
  0
ARC
  8
8
  6
CONTINUOUS
 62
     3
 10
16.24117088317871
 20
-9.294734954833984
 40
0.699999988079071
 50
27.9945928038129
 51
152.0054804763483
  0
ARC
  8
8
  6
CONTINUOUS
 62
     3
 10
16.24117088317871
 20
-10.69473457336426
 40
0.699999988079071
 50
207.994588449316
 51
332.0053382704053
  0
ENDSEC
  0
EOF
