  0
SECTION
  2
HEADER
  9
$ACADVER
  1
AC1009
  9
$INSBASE
 10
0.0
 20
0.0
 30
0.0
  9
$EXTMIN
 10
63.345633
 20
311.041072
 30
0.0
  9
$EXTMAX
 10
475.386009
 20
486.655121
 30
0.0
  9
$LIMMIN
 10
0.0
 20
0.0
  9
$LIMMAX
 10
12.0
 20
9.0
  9
$ORTHOMODE
 70
     0
  9
$REGENMODE
 70
     1
  9
$FILLMODE
 70
     1
  9
$QTEXTMODE
 70
     0
  9
$MIRRTEXT
 70
     1
  9
$DRAGMODE
 70
     2
  9
$LTSCALE
 40
0.5
  9
$OSMODE
 70
    39
  9
$ATTMODE
 70
     1
  9
$TEXTSIZE
 40
0.2
  9
$TRACEWID
 40
0.05
  9
$TEXTSTYLE
  7
STANDARD
  9
$CLAYER
  8
0
  9
$CELTYPE
  6
BYLAYER
  9
$CECOLOR
 62
   256
  9
$DIMSCALE
 40
1.0
  9
$DIMASZ
 40
0.18
  9
$DIMEXO
 40
0.0625
  9
$DIMDLI
 40
0.38
  9
$DIMRND
 40
0.0
  9
$DIMDLE
 40
0.0
  9
$DIMEXE
 40
0.18
  9
$DIMTP
 40
0.0
  9
$DIMTM
 40
0.0
  9
$DIMTXT
 40
0.18
  9
$DIMCEN
 40
0.09
  9
$DIMTSZ
 40
0.0
  9
$DIMTOL
 70
     0
  9
$DIMLIM
 70
     0
  9
$DIMTIH
 70
     1
  9
$DIMTOH
 70
     1
  9
$DIMSE1
 70
     0
  9
$DIMSE2
 70
     0
  9
$DIMTAD
 70
     0
  9
$DIMZIN
 70
     0
  9
$DIMBLK
  1

  9
$DIMASO
 70
     1
  9
$DIMSHO
 70
     1
  9
$DIMPOST
  1

  9
$DIMAPOST
  1

  9
$DIMALT
 70
     0
  9
$DIMALTD
 70
     2
  9
$DIMALTF
 40
25.4
  9
$DIMLFAC
 40
1.0
  9
$DIMTOFL
 70
     0
  9
$DIMTVP
 40
0.0
  9
$DIMTIX
 70
     0
  9
$DIMSOXD
 70
     0
  9
$DIMSAH
 70
     0
  9
$DIMBLK1
  1

  9
$DIMBLK2
  1

  9
$DIMSTYLE
  2
STANDARD
  9
$DIMCLRD
 70
     0
  9
$DIMCLRE
 70
     0
  9
$DIMCLRT
 70
     0
  9
$DIMTFAC
 40
1.0
  9
$DIMGAP
 40
0.09
  9
$LUNITS
 70
     2
  9
$LUPREC
 70
     4
  9
$SKETCHINC
 40
0.1
  9
$FILLETRAD
 40
0.0
  9
$AUNITS
 70
     0
  9
$AUPREC
 70
     0
  9
$MENU
  1
.
  9
$ELEVATION
 40
0.0
  9
$PELEVATION
 40
0.0
  9
$THICKNESS
 40
0.0
  9
$LIMCHECK
 70
     0
  9
$BLIPMODE
 70
     0
  9
$CHAMFERA
 40
0.0
  9
$CHAMFERB
 40
0.0
  9
$SKPOLY
 70
     0
  9
$TDCREATE
 40
2451614.715853
  9
$TDUPDATE
 40
2452948.804566
  9
$TDINDWG
 40
0.254573
  9
$TDUSRTIMER
 40
0.254573
  9
$USRTIMER
 70
     1
  9
$ANGBASE
 50
0.0
  9
$ANGDIR
 70
     0
  9
$PDMODE
 70
     0
  9
$PDSIZE
 40
0.0
  9
$PLINEWID
 40
0.0
  9
$COORDS
 70
     2
  9
$SPLFRAME
 70
     0
  9
$SPLINETYPE
 70
     6
  9
$SPLINESEGS
 70
     8
  9
$ATTDIA
 70
     0
  9
$ATTREQ
 70
     1
  9
$HANDLING
 70
     1
  9
$HANDSEED
  5
185C0
  9
$SURFTAB1
 70
     6
  9
$SURFTAB2
 70
     6
  9
$SURFTYPE
 70
     6
  9
$SURFU
 70
     6
  9
$SURFV
 70
     6
  9
$UCSNAME
  2

  9
$UCSORG
 10
0.0
 20
0.0
 30
0.0
  9
$UCSXDIR
 10
1.0
 20
0.0
 30
0.0
  9
$UCSYDIR
 10
0.0
 20
1.0
 30
0.0
  9
$PUCSNAME
  2

  9
$PUCSORG
 10
0.0
 20
0.0
 30
0.0
  9
$PUCSXDIR
 10
1.0
 20
0.0
 30
0.0
  9
$PUCSYDIR
 10
0.0
 20
1.0
 30
0.0
  9
$USERI1
 70
     0
  9
$USERI2
 70
     0
  9
$USERI3
 70
     0
  9
$USERI4
 70
     0
  9
$USERI5
 70
     0
  9
$USERR1
 40
0.0
  9
$USERR2
 40
0.0
  9
$USERR3
 40
0.0
  9
$USERR4
 40
0.0
  9
$USERR5
 40
0.0
  9
$WORLDVIEW
 70
     1
  9
$SHADEDGE
 70
     3
  9
$SHADEDIF
 70
    70
  9
$TILEMODE
 70
     1
  9
$MAXACTVP
 70
    48
  9
$PLIMCHECK
 70
     0
  9
$PEXTMIN
 10
1.14375
 20
0.801333
 30
0.0
  9
$PEXTMAX
 10
10.293749
 20
7.212
 30
0.0
  9
$PLIMMIN
 10
-0.127917
 20
-0.125
  9
$PLIMMAX
 10
11.565416
 20
8.138333
  9
$UNITMODE
 70
     0
  9
$VISRETAIN
 70
     1
  9
$PLINEGEN
 70
     0
  9
$PSLTSCALE
 70
     1
  0
ENDSEC
  0
SECTION
  2
TABLES
  0
TABLE
  2
VPORT
 70
     4
  0
VPORT
  2
*ACTIVE
 70
     0
 10
0.0
 20
0.0
 11
1.0
 21
1.0
 12
269.365821
 22
398.848096
 13
0.0
 23
0.0
 14
1.0
 24
1.0
 15
0.0
 25
0.0
 16
0.0
 26
0.0
 36
1.0
 17
0.0
 27
0.0
 37
0.0
 40
256.036875
 41
1.616967
 42
50.0
 43
0.0
 44
0.0
 50
0.0
 51
0.0
 71
     0
 72
   100
 73
     1
 74
     1
 75
     0
 76
     0
 77
     0
 78
     0
  0
ENDTAB
  0
TABLE
  2
LTYPE
 70
     3
  0
LTYPE
  2
CONTINUOUS
 70
     0
  3
Solid line
 72
    65
 73
     0
 40
0.0
  0
LTYPE
  2
CENTER
 70
     0
  3
____ _ ____ _ ____ _ ____ _ ____ _ ____ _ ____
 72
    65
 73
     4
 40
17.5
 49
13.0
 49
-1.5
 49
1.5
 49
-1.5
  0
LTYPE
  2
HIDDEN
 70
     0
  3
Hidden __ __ __ __ __ __ __ __ __ __ __ __ __ _
 72
    65
 73
     2
 40
9.525
 49
6.35
 49
-3.175
  0
ENDTAB
  0
TABLE
  2
LAYER
 70
     5
  0
LAYER
  2
0
 70
     0
 62
     7
  6
CONTINUOUS
  0
LAYER
  2
CENTER
 70
     0
 62
     1
  6
CENTER
  0
LAYER
  2
HIDDEN
 70
     0
 62
     6
  6
HIDDEN
  0
LAYER
  2
1
 70
     0
 62
     7
  6
CONTINUOUS
  0
ENDTAB
  0
TABLE
  2
STYLE
 70
     2
  0
STYLE
  2
STANDARD
 70
     0
 40
0.0
 41
1.0
 50
0.0
 71
     0
 42
0.2
  3
txt
  4

  0
ENDTAB
  0
TABLE
  2
VIEW
 70
     0
  0
ENDTAB
  0
TABLE
  2
UCS
 70
     0
  0
ENDTAB
  0
TABLE
  2
APPID
 70
     1
  0
APPID
  2
ACAD
 70
     0
  0
ENDTAB
  0
TABLE
  2
DIMSTYLE
 70
     3
  0
DIMSTYLE
  2
STANDARD
 70
     0
  3

  4

  5

  6

  7

 40
1.0
 41
0.18
 42
0.0625
 43
0.38
 44
0.18
 45
0.0
 46
0.0
 47
0.0
 48
0.0
140
0.18
141
0.09
142
0.0
143
25.4
144
1.0
145
0.0
146
1.0
147
0.09
 71
     0
 72
     0
 73
     1
 74
     1
 75
     0
 76
     0
 77
     0
 78
     0
170
     0
171
     2
172
     0
173
     0
174
     0
175
     0
176
     0
177
     0
178
     0
  0
ENDTAB
  0
ENDSEC
  0
SECTION
  2
BLOCKS
  0
BLOCK
  8
0
  2
$MODEL_SPACE
 70
     0
 10
0.0
 20
0.0
 30
0.0
  3
$MODEL_SPACE
  1

  0
ENDBLK
  5
1859B
  8
0
  0
BLOCK
 67
     1
  8
0
  2
$PAPER_SPACE
 70
     0
 10
0.0
 20
0.0
 30
0.0
  3
$PAPER_SPACE
  1

  0
ENDBLK
  5
18598
 67
     1
  8
0
  0
BLOCK
  8
0
  2
A$C3C4259C2
 70
     0
 10
0.0
 20
0.0
 30
0.0
  3
A$C3C4259C2
  1

  0
POLYLINE
  5
181A4
  8
HIDDEN
 66
     1
 10
0.0
 20
0.0
 30
0.0
 70
     8
  0
VERTEX
  5
181A5
  8
0
 10
0.0
 20
4.16
 30
0.0
 70
    32
  0
VERTEX
  5
181A6
  8
0
 10
-0.01641
 20
4.15969
 30
0.0
 70
    32
  0
VERTEX
  5
181A7
  8
0
 10
-0.032811
 20
4.15875
 30
0.0
 70
    32
  0
VERTEX
  5
181A8
  8
0
 10
-0.049191
 20
4.15718
 30
0.0
 70
    32
  0
VERTEX
  5
181A9
  8
0
 10
-0.065542
 20
4.15499
 30
0.0
 70
    32
  0
VERTEX
  5
181AA
  8
0
 10
-0.081853
 20
4.15218
 30
0.0
 70
    32
  0
VERTEX
  5
181AB
  8
0
 10
-0.098115
 20
4.14874
 30
0.0
 70
    32
  0
VERTEX
  5
181AC
  8
0
 10
-0.114318
 20
4.14469
 30
0.0
 70
    32
  0
VERTEX
  5
181AD
  8
0
 10
-0.130453
 20
4.14002
 30
0.0
 70
    32
  0
VERTEX
  5
181AE
  8
0
 10
-0.146508
 20
4.13473
 30
0.0
 70
    32
  0
VERTEX
  5
181AF
  8
0
 10
-0.162475
 20
4.12883
 30
0.0
 70
    32
  0
VERTEX
  5
181B0
  8
0
 10
-0.178345
 20
4.12233
 30
0.0
 70
    32
  0
VERTEX
  5
181B1
  8
0
 10
-0.194107
 20
4.11522
 30
0.0
 70
    32
  0
VERTEX
  5
181B2
  8
0
 10
-0.209752
 20
4.10751
 30
0.0
 70
    32
  0
VERTEX
  5
181B3
  8
0
 10
-0.225271
 20
4.09921
 30
0.0
 70
    32
  0
VERTEX
  5
181B4
  8
0
 10
-0.240654
 20
4.09031
 30
0.0
 70
    32
  0
VERTEX
  5
181B5
  8
0
 10
-0.255892
 20
4.08083
 30
0.0
 70
    32
  0
VERTEX
  5
181B6
  8
0
 10
-0.270976
 20
4.07078
 30
0.0
 70
    32
  0
VERTEX
  5
181B7
  8
0
 10
-0.285897
 20
4.06015
 30
0.0
 70
    32
  0
VERTEX
  5
181B8
  8
0
 10
-0.300645
 20
4.04895
 30
0.0
 70
    32
  0
VERTEX
  5
181B9
  8
0
 10
-0.315212
 20
4.0372
 30
0.0
 70
    32
  0
VERTEX
  5
181BA
  8
0
 10
-0.32959
 20
4.02489
 30
0.0
 70
    32
  0
VERTEX
  5
181BB
  8
0
 10
-0.343769
 20
4.01204
 30
0.0
 70
    32
  0
VERTEX
  5
181BC
  8
0
 10
-0.357741
 20
3.99865
 30
0.0
 70
    32
  0
VERTEX
  5
181BD
  8
0
 10
-0.371497
 20
3.98473
 30
0.0
 70
    32
  0
VERTEX
  5
181BE
  8
0
 10
-0.38503
 20
3.97029
 30
0.0
 70
    32
  0
VERTEX
  5
181BF
  8
0
 10
-0.398331
 20
3.95534
 30
0.0
 70
    32
  0
VERTEX
  5
181C0
  8
0
 10
-0.411392
 20
3.93988
 30
0.0
 70
    32
  0
VERTEX
  5
181C1
  8
0
 10
-0.424205
 20
3.92393
 30
0.0
 70
    32
  0
VERTEX
  5
181C2
  8
0
 10
-0.436762
 20
3.9075
 30
0.0
 70
    32
  0
VERTEX
  5
181C3
  8
0
 10
-0.449056
 20
3.89059
 30
0.0
 70
    32
  0
VERTEX
  5
181C4
  8
0
 10
-0.46108
 20
3.87322
 30
0.0
 70
    32
  0
VERTEX
  5
181C5
  8
0
 10
-0.472826
 20
3.85539
 30
0.0
 70
    32
  0
VERTEX
  5
181C6
  8
0
 10
-0.484288
 20
3.83712
 30
0.0
 70
    32
  0
VERTEX
  5
181C7
  8
0
 10
-0.495457
 20
3.81842
 30
0.0
 70
    32
  0
VERTEX
  5
181C8
  8
0
 10
-0.506329
 20
3.7993
 30
0.0
 70
    32
  0
VERTEX
  5
181C9
  8
0
 10
-0.516895
 20
3.77977
 30
0.0
 70
    32
  0
VERTEX
  5
181CA
  8
0
 10
-0.52715
 20
3.75984
 30
0.0
 70
    32
  0
VERTEX
  5
181CB
  8
0
 10
-0.537087
 20
3.73953
 30
0.0
 70
    32
  0
VERTEX
  5
181CC
  8
0
 10
-0.546701
 20
3.71884
 30
0.0
 70
    32
  0
VERTEX
  5
181CD
  8
0
 10
-0.555985
 20
3.69779
 30
0.0
 70
    32
  0
VERTEX
  5
181CE
  8
0
 10
-0.564935
 20
3.6764
 30
0.0
 70
    32
  0
VERTEX
  5
181CF
  8
0
 10
-0.573544
 20
3.65467
 30
0.0
 70
    32
  0
VERTEX
  5
181D0
  8
0
 10
-0.581808
 20
3.63261
 30
0.0
 70
    32
  0
VERTEX
  5
181D1
  8
0
 10
-0.589721
 20
3.61025
 30
0.0
 70
    32
  0
VERTEX
  5
181D2
  8
0
 10
-0.597279
 20
3.5876
 30
0.0
 70
    32
  0
VERTEX
  5
181D3
  8
0
 10
-0.604477
 20
3.56466
 30
0.0
 70
    32
  0
VERTEX
  5
181D4
  8
0
 10
-0.611312
 20
3.54145
 30
0.0
 70
    32
  0
VERTEX
  5
181D5
  8
0
 10
-0.617778
 20
3.51799
 30
0.0
 70
    32
  0
VERTEX
  5
181D6
  8
0
 10
-0.623871
 20
3.49429
 30
0.0
 70
    32
  0
VERTEX
  5
181D7
  8
0
 10
-0.629589
 20
3.47037
 30
0.0
 70
    32
  0
VERTEX
  5
181D8
  8
0
 10
-0.634928
 20
3.44623
 30
0.0
 70
    32
  0
VERTEX
  5
181D9
  8
0
 10
-0.639885
 20
3.4219
 30
0.0
 70
    32
  0
VERTEX
  5
181DA
  8
0
 10
-0.644456
 20
3.39738
 30
0.0
 70
    32
  0
VERTEX
  5
181DB
  8
0
 10
-0.648638
 20
3.3727
 30
0.0
 70
    32
  0
VERTEX
  5
181DC
  8
0
 10
-0.65243
 20
3.34787
 30
0.0
 70
    32
  0
VERTEX
  5
181DD
  8
0
 10
-0.655829
 20
3.32289
 30
0.0
 70
    32
  0
VERTEX
  5
181DE
  8
0
 10
-0.658833
 20
3.2978
 30
0.0
 70
    32
  0
VERTEX
  5
181DF
  8
0
 10
-0.66144
 20
3.2726
 30
0.0
 70
    32
  0
VERTEX
  5
181E0
  8
0
 10
-0.663649
 20
3.24731
 30
0.0
 70
    32
  0
VERTEX
  5
181E1
  8
0
 10
-0.665458
 20
3.22194
 30
0.0
 70
    32
  0
VERTEX
  5
181E2
  8
0
 10
-0.666866
 20
3.19651
 30
0.0
 70
    32
  0
VERTEX
  5
181E3
  8
0
 10
-0.667872
 20
3.17103
 30
0.0
 70
    32
  0
VERTEX
  5
181E4
  8
0
 10
-0.668476
 20
3.14552
 30
0.0
 70
    32
  0
VERTEX
  5
181E5
  8
0
 10
-0.668678
 20
3.12
 30
0.0
 70
    32
  0
VERTEX
  5
181E6
  8
0
 10
-0.668476
 20
3.09448
 30
0.0
 70
    32
  0
VERTEX
  5
181E7
  8
0
 10
-0.667872
 20
3.06897
 30
0.0
 70
    32
  0
VERTEX
  5
181E8
  8
0
 10
-0.666866
 20
3.04349
 30
0.0
 70
    32
  0
VERTEX
  5
181E9
  8
0
 10
-0.665458
 20
3.01806
 30
0.0
 70
    32
  0
VERTEX
  5
181EA
  8
0
 10
-0.663649
 20
2.99269
 30
0.0
 70
    32
  0
VERTEX
  5
181EB
  8
0
 10
-0.66144
 20
2.9674
 30
0.0
 70
    32
  0
VERTEX
  5
181EC
  8
0
 10
-0.658833
 20
2.9422
 30
0.0
 70
    32
  0
VERTEX
  5
181ED
  8
0
 10
-0.655829
 20
2.91711
 30
0.0
 70
    32
  0
VERTEX
  5
181EE
  8
0
 10
-0.65243
 20
2.89213
 30
0.0
 70
    32
  0
VERTEX
  5
181EF
  8
0
 10
-0.648638
 20
2.8673
 30
0.0
 70
    32
  0
VERTEX
  5
181F0
  8
0
 10
-0.644456
 20
2.84262
 30
0.0
 70
    32
  0
VERTEX
  5
181F1
  8
0
 10
-0.639885
 20
2.8181
 30
0.0
 70
    32
  0
VERTEX
  5
181F2
  8
0
 10
-0.634928
 20
2.79377
 30
0.0
 70
    32
  0
VERTEX
  5
181F3
  8
0
 10
-0.629589
 20
2.76963
 30
0.0
 70
    32
  0
VERTEX
  5
181F4
  8
0
 10
-0.623871
 20
2.74571
 30
0.0
 70
    32
  0
VERTEX
  5
181F5
  8
0
 10
-0.617778
 20
2.72201
 30
0.0
 70
    32
  0
VERTEX
  5
181F6
  8
0
 10
-0.611312
 20
2.69855
 30
0.0
 70
    32
  0
VERTEX
  5
181F7
  8
0
 10
-0.604477
 20
2.67534
 30
0.0
 70
    32
  0
VERTEX
  5
181F8
  8
0
 10
-0.597279
 20
2.6524
 30
0.0
 70
    32
  0
VERTEX
  5
181F9
  8
0
 10
-0.589721
 20
2.62975
 30
0.0
 70
    32
  0
VERTEX
  5
181FA
  8
0
 10
-0.581808
 20
2.60739
 30
0.0
 70
    32
  0
VERTEX
  5
181FB
  8
0
 10
-0.573544
 20
2.58533
 30
0.0
 70
    32
  0
VERTEX
  5
181FC
  8
0
 10
-0.564935
 20
2.5636
 30
0.0
 70
    32
  0
VERTEX
  5
181FD
  8
0
 10
-0.555985
 20
2.54221
 30
0.0
 70
    32
  0
VERTEX
  5
181FE
  8
0
 10
-0.546701
 20
2.52116
 30
0.0
 70
    32
  0
VERTEX
  5
181FF
  8
0
 10
-0.537087
 20
2.50047
 30
0.0
 70
    32
  0
VERTEX
  5
18200
  8
0
 10
-0.52715
 20
2.48016
 30
0.0
 70
    32
  0
VERTEX
  5
18201
  8
0
 10
-0.516895
 20
2.46023
 30
0.0
 70
    32
  0
VERTEX
  5
18202
  8
0
 10
-0.506329
 20
2.4407
 30
0.0
 70
    32
  0
VERTEX
  5
18203
  8
0
 10
-0.495457
 20
2.42158
 30
0.0
 70
    32
  0
VERTEX
  5
18204
  8
0
 10
-0.484288
 20
2.40288
 30
0.0
 70
    32
  0
VERTEX
  5
18205
  8
0
 10
-0.472826
 20
2.38461
 30
0.0
 70
    32
  0
VERTEX
  5
18206
  8
0
 10
-0.46108
 20
2.36678
 30
0.0
 70
    32
  0
VERTEX
  5
18207
  8
0
 10
-0.449056
 20
2.34941
 30
0.0
 70
    32
  0
VERTEX
  5
18208
  8
0
 10
-0.436762
 20
2.3325
 30
0.0
 70
    32
  0
VERTEX
  5
18209
  8
0
 10
-0.424205
 20
2.31607
 30
0.0
 70
    32
  0
VERTEX
  5
1820A
  8
0
 10
-0.411392
 20
2.30012
 30
0.0
 70
    32
  0
VERTEX
  5
1820B
  8
0
 10
-0.398331
 20
2.28466
 30
0.0
 70
    32
  0
VERTEX
  5
1820C
  8
0
 10
-0.38503
 20
2.26971
 30
0.0
 70
    32
  0
VERTEX
  5
1820D
  8
0
 10
-0.371497
 20
2.25527
 30
0.0
 70
    32
  0
VERTEX
  5
1820E
  8
0
 10
-0.357741
 20
2.24135
 30
0.0
 70
    32
  0
VERTEX
  5
1820F
  8
0
 10
-0.343769
 20
2.22796
 30
0.0
 70
    32
  0
VERTEX
  5
18210
  8
0
 10
-0.32959
 20
2.21511
 30
0.0
 70
    32
  0
VERTEX
  5
18211
  8
0
 10
-0.315212
 20
2.2028
 30
0.0
 70
    32
  0
VERTEX
  5
18212
  8
0
 10
-0.300645
 20
2.19105
 30
0.0
 70
    32
  0
VERTEX
  5
18213
  8
0
 10
-0.285897
 20
2.17985
 30
0.0
 70
    32
  0
VERTEX
  5
18214
  8
0
 10
-0.270976
 20
2.16922
 30
0.0
 70
    32
  0
VERTEX
  5
18215
  8
0
 10
-0.255892
 20
2.15917
 30
0.0
 70
    32
  0
VERTEX
  5
18216
  8
0
 10
-0.240654
 20
2.14969
 30
0.0
 70
    32
  0
VERTEX
  5
18217
  8
0
 10
-0.225271
 20
2.14079
 30
0.0
 70
    32
  0
VERTEX
  5
18218
  8
0
 10
-0.209752
 20
2.13249
 30
0.0
 70
    32
  0
VERTEX
  5
18219
  8
0
 10
-0.194107
 20
2.12478
 30
0.0
 70
    32
  0
VERTEX
  5
1821A
  8
0
 10
-0.178345
 20
2.11767
 30
0.0
 70
    32
  0
VERTEX
  5
1821B
  8
0
 10
-0.162475
 20
2.11117
 30
0.0
 70
    32
  0
VERTEX
  5
1821C
  8
0
 10
-0.146508
 20
2.10527
 30
0.0
 70
    32
  0
VERTEX
  5
1821D
  8
0
 10
-0.130453
 20
2.09998
 30
0.0
 70
    32
  0
VERTEX
  5
1821E
  8
0
 10
-0.114318
 20
2.09531
 30
0.0
 70
    32
  0
VERTEX
  5
1821F
  8
0
 10
-0.098115
 20
2.09126
 30
0.0
 70
    32
  0
VERTEX
  5
18220
  8
0
 10
-0.081853
 20
2.08782
 30
0.0
 70
    32
  0
VERTEX
  5
18221
  8
0
 10
-0.065542
 20
2.08501
 30
0.0
 70
    32
  0
VERTEX
  5
18222
  8
0
 10
-0.049191
 20
2.08282
 30
0.0
 70
    32
  0
VERTEX
  5
18223
  8
0
 10
-0.032811
 20
2.08125
 30
0.0
 70
    32
  0
VERTEX
  5
18224
  8
0
 10
-0.01641
 20
2.08031
 30
0.0
 70
    32
  0
VERTEX
  5
18225
  8
0
 10
0.0
 20
2.08
 30
0.0
 70
    32
  0
SEQEND
  5
18226
  8
0
  0
POLYLINE
  5
18227
  8
HIDDEN
 66
     1
 10
0.0
 20
0.0
 30
0.0
 70
     8
  0
VERTEX
  5
18228
  8
0
 10
0.0
 20
0.0
 30
0.0
 70
    32
  0
VERTEX
  5
18229
  8
0
 10
0.032811
 20
0.001253
 30
0.0
 70
    32
  0
VERTEX
  5
1822A
  8
0
 10
0.065542
 20
0.005008
 30
0.0
 70
    32
  0
VERTEX
  5
1822B
  8
0
 10
0.098115
 20
0.011256
 30
0.0
 70
    32
  0
VERTEX
  5
1822C
  8
0
 10
0.130453
 20
0.019983
 30
0.0
 70
    32
  0
VERTEX
  5
1822D
  8
0
 10
0.162475
 20
0.031168
 30
0.0
 70
    32
  0
VERTEX
  5
1822E
  8
0
 10
0.194107
 20
0.044782
 30
0.0
 70
    32
  0
VERTEX
  5
1822F
  8
0
 10
0.225271
 20
0.060794
 30
0.0
 70
    32
  0
VERTEX
  5
18230
  8
0
 10
0.255892
 20
0.079165
 30
0.0
 70
    32
  0
VERTEX
  5
18231
  8
0
 10
0.285897
 20
0.099851
 30
0.0
 70
    32
  0
VERTEX
  5
18232
  8
0
 10
0.315212
 20
0.122802
 30
0.0
 70
    32
  0
VERTEX
  5
18233
  8
0
 10
0.343769
 20
0.147962
 30
0.0
 70
    32
  0
VERTEX
  5
18234
  8
0
 10
0.371497
 20
0.175272
 30
0.0
 70
    32
  0
VERTEX
  5
18235
  8
0
 10
0.398331
 20
0.204664
 30
0.0
 70
    32
  0
VERTEX
  5
18236
  8
0
 10
0.424205
 20
0.236069
 30
0.0
 70
    32
  0
VERTEX
  5
18237
  8
0
 10
0.449056
 20
0.269411
 30
0.0
 70
    32
  0
VERTEX
  5
18238
  8
0
 10
0.472826
 20
0.304609
 30
0.0
 70
    32
  0
VERTEX
  5
18239
  8
0
 10
0.495457
 20
0.341579
 30
0.0
 70
    32
  0
VERTEX
  5
1823A
  8
0
 10
0.516895
 20
0.380231
 30
0.0
 70
    32
  0
VERTEX
  5
1823B
  8
0
 10
0.537087
 20
0.420473
 30
0.0
 70
    32
  0
VERTEX
  5
1823C
  8
0
 10
0.555985
 20
0.462207
 30
0.0
 70
    32
  0
VERTEX
  5
1823D
  8
0
 10
0.573544
 20
0.505333
 30
0.0
 70
    32
  0
VERTEX
  5
1823E
  8
0
 10
0.589721
 20
0.549747
 30
0.0
 70
    32
  0
VERTEX
  5
1823F
  8
0
 10
0.604477
 20
0.595343
 30
0.0
 70
    32
  0
VERTEX
  5
18240
  8
0
 10
0.617778
 20
0.642009
 30
0.0
 70
    32
  0
VERTEX
  5
18241
  8
0
 10
0.629589
 20
0.689635
 30
0.0
 70
    32
  0
VERTEX
  5
18242
  8
0
 10
0.639885
 20
0.738104
 30
0.0
 70
    32
  0
VERTEX
  5
18243
  8
0
 10
0.648638
 20
0.787301
 30
0.0
 70
    32
  0
VERTEX
  5
18244
  8
0
 10
0.655829
 20
0.837106
 30
0.0
 70
    32
  0
VERTEX
  5
18245
  8
0
 10
0.66144
 20
0.8874
 30
0.0
 70
    32
  0
VERTEX
  5
18246
  8
0
 10
0.665458
 20
0.938062
 30
0.0
 70
    32
  0
VERTEX
  5
18247
  8
0
 10
0.667872
 20
0.98897
 30
0.0
 70
    32
  0
VERTEX
  5
18248
  8
0
 10
0.668678
 20
1.04
 30
0.0
 70
    32
  0
VERTEX
  5
18249
  8
0
 10
0.667872
 20
1.09103
 30
0.0
 70
    32
  0
VERTEX
  5
1824A
  8
0
 10
0.665458
 20
1.14194
 30
0.0
 70
    32
  0
VERTEX
  5
1824B
  8
0
 10
0.66144
 20
1.1926
 30
0.0
 70
    32
  0
VERTEX
  5
1824C
  8
0
 10
0.655829
 20
1.24289
 30
0.0
 70
    32
  0
VERTEX
  5
1824D
  8
0
 10
0.648638
 20
1.2927
 30
0.0
 70
    32
  0
VERTEX
  5
1824E
  8
0
 10
0.639885
 20
1.3419
 30
0.0
 70
    32
  0
VERTEX
  5
1824F
  8
0
 10
0.629589
 20
1.39037
 30
0.0
 70
    32
  0
VERTEX
  5
18250
  8
0
 10
0.617778
 20
1.43799
 30
0.0
 70
    32
  0
VERTEX
  5
18251
  8
0
 10
0.604477
 20
1.48466
 30
0.0
 70
    32
  0
VERTEX
  5
18252
  8
0
 10
0.589721
 20
1.53025
 30
0.0
 70
    32
  0
VERTEX
  5
18253
  8
0
 10
0.573544
 20
1.57467
 30
0.0
 70
    32
  0
VERTEX
  5
18254
  8
0
 10
0.555985
 20
1.61779
 30
0.0
 70
    32
  0
VERTEX
  5
18255
  8
0
 10
0.537087
 20
1.65953
 30
0.0
 70
    32
  0
VERTEX
  5
18256
  8
0
 10
0.516895
 20
1.69977
 30
0.0
 70
    32
  0
VERTEX
  5
18257
  8
0
 10
0.495457
 20
1.73842
 30
0.0
 70
    32
  0
VERTEX
  5
18258
  8
0
 10
0.472826
 20
1.77539
 30
0.0
 70
    32
  0
VERTEX
  5
18259
  8
0
 10
0.449056
 20
1.81059
 30
0.0
 70
    32
  0
VERTEX
  5
1825A
  8
0
 10
0.424205
 20
1.84393
 30
0.0
 70
    32
  0
VERTEX
  5
1825B
  8
0
 10
0.398331
 20
1.87534
 30
0.0
 70
    32
  0
VERTEX
  5
1825C
  8
0
 10
0.371497
 20
1.90473
 30
0.0
 70
    32
  0
VERTEX
  5
1825D
  8
0
 10
0.343769
 20
1.93204
 30
0.0
 70
    32
  0
VERTEX
  5
1825E
  8
0
 10
0.315212
 20
1.9572
 30
0.0
 70
    32
  0
VERTEX
  5
1825F
  8
0
 10
0.285897
 20
1.98015
 30
0.0
 70
    32
  0
VERTEX
  5
18260
  8
0
 10
0.255892
 20
2.00083
 30
0.0
 70
    32
  0
VERTEX
  5
18261
  8
0
 10
0.225271
 20
2.01921
 30
0.0
 70
    32
  0
VERTEX
  5
18262
  8
0
 10
0.194107
 20
2.03522
 30
0.0
 70
    32
  0
VERTEX
  5
18263
  8
0
 10
0.162475
 20
2.04883
 30
0.0
 70
    32
  0
VERTEX
  5
18264
  8
0
 10
0.130453
 20
2.06002
 30
0.0
 70
    32
  0
VERTEX
  5
18265
  8
0
 10
0.098115
 20
2.06874
 30
0.0
 70
    32
  0
VERTEX
  5
18266
  8
0
 10
0.065542
 20
2.07499
 30
0.0
 70
    32
  0
VERTEX
  5
18267
  8
0
 10
0.032811
 20
2.07875
 30
0.0
 70
    32
  0
VERTEX
  5
18268
  8
0
 10
0.0
 20
2.08
 30
0.0
 70
    32
  0
VERTEX
  5
18269
  8
0
 10
-0.032811
 20
2.07875
 30
0.0
 70
    32
  0
VERTEX
  5
1826A
  8
0
 10
-0.065542
 20
2.07499
 30
0.0
 70
    32
  0
VERTEX
  5
1826B
  8
0
 10
-0.098115
 20
2.06874
 30
0.0
 70
    32
  0
VERTEX
  5
1826C
  8
0
 10
-0.130453
 20
2.06002
 30
0.0
 70
    32
  0
VERTEX
  5
1826D
  8
0
 10
-0.162475
 20
2.04883
 30
0.0
 70
    32
  0
VERTEX
  5
1826E
  8
0
 10
-0.194107
 20
2.03522
 30
0.0
 70
    32
  0
VERTEX
  5
1826F
  8
0
 10
-0.225271
 20
2.01921
 30
0.0
 70
    32
  0
VERTEX
  5
18270
  8
0
 10
-0.255892
 20
2.00083
 30
0.0
 70
    32
  0
VERTEX
  5
18271
  8
0
 10
-0.285897
 20
1.98015
 30
0.0
 70
    32
  0
VERTEX
  5
18272
  8
0
 10
-0.315212
 20
1.9572
 30
0.0
 70
    32
  0
VERTEX
  5
18273
  8
0
 10
-0.343769
 20
1.93204
 30
0.0
 70
    32
  0
VERTEX
  5
18274
  8
0
 10
-0.371497
 20
1.90473
 30
0.0
 70
    32
  0
VERTEX
  5
18275
  8
0
 10
-0.398331
 20
1.87534
 30
0.0
 70
    32
  0
VERTEX
  5
18276
  8
0
 10
-0.424205
 20
1.84393
 30
0.0
 70
    32
  0
VERTEX
  5
18277
  8
0
 10
-0.449056
 20
1.81059
 30
0.0
 70
    32
  0
VERTEX
  5
18278
  8
0
 10
-0.472826
 20
1.77539
 30
0.0
 70
    32
  0
VERTEX
  5
18279
  8
0
 10
-0.495457
 20
1.73842
 30
0.0
 70
    32
  0
VERTEX
  5
1827A
  8
0
 10
-0.516895
 20
1.69977
 30
0.0
 70
    32
  0
VERTEX
  5
1827B
  8
0
 10
-0.537087
 20
1.65953
 30
0.0
 70
    32
  0
VERTEX
  5
1827C
  8
0
 10
-0.555985
 20
1.61779
 30
0.0
 70
    32
  0
VERTEX
  5
1827D
  8
0
 10
-0.573544
 20
1.57467
 30
0.0
 70
    32
  0
VERTEX
  5
1827E
  8
0
 10
-0.589721
 20
1.53025
 30
0.0
 70
    32
  0
VERTEX
  5
1827F
  8
0
 10
-0.604477
 20
1.48466
 30
0.0
 70
    32
  0
VERTEX
  5
18280
  8
0
 10
-0.617778
 20
1.43799
 30
0.0
 70
    32
  0
VERTEX
  5
18281
  8
0
 10
-0.629589
 20
1.39037
 30
0.0
 70
    32
  0
VERTEX
  5
18282
  8
0
 10
-0.639885
 20
1.3419
 30
0.0
 70
    32
  0
VERTEX
  5
18283
  8
0
 10
-0.648638
 20
1.2927
 30
0.0
 70
    32
  0
VERTEX
  5
18284
  8
0
 10
-0.655829
 20
1.24289
 30
0.0
 70
    32
  0
VERTEX
  5
18285
  8
0
 10
-0.66144
 20
1.1926
 30
0.0
 70
    32
  0
VERTEX
  5
18286
  8
0
 10
-0.665458
 20
1.14194
 30
0.0
 70
    32
  0
VERTEX
  5
18287
  8
0
 10
-0.667872
 20
1.09103
 30
0.0
 70
    32
  0
VERTEX
  5
18288
  8
0
 10
-0.668678
 20
1.04
 30
0.0
 70
    32
  0
VERTEX
  5
18289
  8
0
 10
-0.667872
 20
0.98897
 30
0.0
 70
    32
  0
VERTEX
  5
1828A
  8
0
 10
-0.665458
 20
0.938062
 30
0.0
 70
    32
  0
VERTEX
  5
1828B
  8
0
 10
-0.66144
 20
0.8874
 30
0.0
 70
    32
  0
VERTEX
  5
1828C
  8
0
 10
-0.655829
 20
0.837106
 30
0.0
 70
    32
  0
VERTEX
  5
1828D
  8
0
 10
-0.648638
 20
0.787301
 30
0.0
 70
    32
  0
VERTEX
  5
1828E
  8
0
 10
-0.639885
 20
0.738104
 30
0.0
 70
    32
  0
VERTEX
  5
1828F
  8
0
 10
-0.629589
 20
0.689635
 30
0.0
 70
    32
  0
VERTEX
  5
18290
  8
0
 10
-0.617778
 20
0.642009
 30
0.0
 70
    32
  0
VERTEX
  5
18291
  8
0
 10
-0.604477
 20
0.595343
 30
0.0
 70
    32
  0
VERTEX
  5
18292
  8
0
 10
-0.589721
 20
0.549747
 30
0.0
 70
    32
  0
VERTEX
  5
18293
  8
0
 10
-0.573544
 20
0.505333
 30
0.0
 70
    32
  0
VERTEX
  5
18294
  8
0
 10
-0.555985
 20
0.462207
 30
0.0
 70
    32
  0
VERTEX
  5
18295
  8
0
 10
-0.537087
 20
0.420473
 30
0.0
 70
    32
  0
VERTEX
  5
18296
  8
0
 10
-0.516895
 20
0.380231
 30
0.0
 70
    32
  0
VERTEX
  5
18297
  8
0
 10
-0.495457
 20
0.341579
 30
0.0
 70
    32
  0
VERTEX
  5
18298
  8
0
 10
-0.472826
 20
0.304609
 30
0.0
 70
    32
  0
VERTEX
  5
18299
  8
0
 10
-0.449056
 20
0.269411
 30
0.0
 70
    32
  0
VERTEX
  5
1829A
  8
0
 10
-0.424205
 20
0.236069
 30
0.0
 70
    32
  0
VERTEX
  5
1829B
  8
0
 10
-0.398331
 20
0.204664
 30
0.0
 70
    32
  0
VERTEX
  5
1829C
  8
0
 10
-0.371497
 20
0.175272
 30
0.0
 70
    32
  0
VERTEX
  5
1829D
  8
0
 10
-0.343769
 20
0.147962
 30
0.0
 70
    32
  0
VERTEX
  5
1829E
  8
0
 10
-0.315212
 20
0.122802
 30
0.0
 70
    32
  0
VERTEX
  5
1829F
  8
0
 10
-0.285897
 20
0.099851
 30
0.0
 70
    32
  0
VERTEX
  5
182A0
  8
0
 10
-0.255892
 20
0.079165
 30
0.0
 70
    32
  0
VERTEX
  5
182A1
  8
0
 10
-0.225271
 20
0.060794
 30
0.0
 70
    32
  0
VERTEX
  5
182A2
  8
0
 10
-0.194107
 20
0.044782
 30
0.0
 70
    32
  0
VERTEX
  5
182A3
  8
0
 10
-0.162475
 20
0.031168
 30
0.0
 70
    32
  0
VERTEX
  5
182A4
  8
0
 10
-0.130453
 20
0.019983
 30
0.0
 70
    32
  0
VERTEX
  5
182A5
  8
0
 10
-0.098115
 20
0.011256
 30
0.0
 70
    32
  0
VERTEX
  5
182A6
  8
0
 10
-0.065542
 20
0.005008
 30
0.0
 70
    32
  0
VERTEX
  5
182A7
  8
0
 10
-0.032811
 20
0.001253
 30
0.0
 70
    32
  0
VERTEX
  5
182A8
  8
0
 10
0.0
 20
0.0
 30
0.0
 70
    32
  0
SEQEND
  5
182A9
  8
0
  0
ENDBLK
  5
182AB
  8
0
  0
ENDSEC
  0
SECTION
  2
ENTITIES
  0
TEXT
  5
11F87
  8
0
  6
CONTINUOUS
 62
     7
 10
77.043463
 20
478.166173
 30
0.0
 40
8.466667
  1
HF-KP73
 41
0.938368
  0
LINE
  5
11F88
  8
CENTER
 10
63.371125
 20
369.64261
 30
0.0
 11
158.745522
 21
369.64261
 31
0.0
  0
ARC
  5
11F89
  8
0
 62
     5
 10
144.59981
 20
336.64261
 30
0.0
 40
7.0
 50
270.0
 51
0.0
  0
ARC
  5
11F8A
  8
CENTER
 10
111.59981
 20
369.64261
 30
0.0
 40
45.0
 50
306.887245
 51
322.596169
  0
ARC
  5
11F8B
  8
0
 62
     5
 10
-320.991571
 20
369.64261
 30
0.0
 40
460.303689
 50
354.976812
 51
356.080423
  0
ARC
  5
11F8C
  8
0
 62
     5
 10
-320.991571
 20
369.64261
 30
0.0
 40
460.0
 50
355.125854
 51
356.080423
  0
CIRCLE
  5
11F8D
  8
0
 62
     5
 10
143.419615
 20
337.822805
 30
0.0
 40
3.3
  0
LINE
  5
11F8E
  8
CENTER
 10
143.419615
 20
337.822805
 30
0.0
 11
146.813728
 21
334.428692
 31
0.0
  0
LINE
  5
11F8F
  8
0
 62
     5
 10
132.518385
 20
335.859759
 30
0.0
 11
132.658385
 21
335.152558
 31
0.0
  0
LINE
  5
11F90
  8
0
 62
     5
 10
132.518385
 20
335.299759
 30
0.0
 11
132.518385
 21
335.859759
 31
0.0
  0
LINE
  5
11F91
  8
0
 62
     5
 10
133.078385
 20
335.859751
 30
0.0
 11
133.078385
 21
335.299759
 31
0.0
  0
LINE
  5
11F92
  8
0
 62
     5
 10
133.078385
 20
335.859759
 30
0.0
 11
132.938385
 21
335.152558
 31
0.0
  0
ARC
  5
11F93
  8
0
 62
     5
 10
132.798523
 20
334.081439
 30
0.0
 40
4.5
 50
90.0
 51
180.0
  0
ARC
  5
11F94
  8
0
 62
     5
 10
78.59981
 20
336.64261
 30
0.0
 40
7.0
 50
180.0
 51
270.0
  0
ARC
  5
11F95
  8
0
 62
     5
 10
544.191191
 20
369.64261
 30
0.0
 40
460.303689
 50
183.919577
 51
184.908938
  0
ARC
  5
11F96
  8
0
 62
     5
 10
544.191191
 20
369.64261
 30
0.0
 40
460.0
 50
183.919577
 51
184.874146
  0
ARC
  5
11F97
  8
CENTER
 10
111.59981
 20
369.64261
 30
0.0
 40
45.0
 50
216.887245
 51
232.596169
  0
CIRCLE
  5
11F98
  8
0
 62
     5
 10
79.780005
 20
337.822805
 30
0.0
 40
3.3
  0
LINE
  5
11F99
  8
CENTER
 10
79.780005
 20
337.822805
 30
0.0
 11
76.385892
 21
334.428692
 31
0.0
  0
CIRCLE
  5
11F9A
  8
0
 62
     5
 10
132.798385
 20
334.08167
 30
0.0
 40
2.75
  0
ARC
  5
11F9B
  8
0
 62
     5
 10
132.798385
 20
334.08167
 30
0.0
 40
2.95
 50
276.813854
 51
263.186146
  0
CIRCLE
  5
11F9C
  8
0
 62
     5
 10
132.798385
 20
334.08167
 30
0.0
 40
3.0
  0
LINE
  5
11F9D
  8
CENTER
 10
111.59981
 20
415.898159
 30
0.0
 11
111.59981
 21
311.04261
 31
0.0
  0
LINE
  5
11F9E
  8
0
 62
     5
 10
91.159858
 20
322.74261
 30
0.0
 11
95.283195
 21
322.74261
 31
0.0
  0
LINE
  5
11F9F
  8
0
 62
     5
 10
106.561661
 20
322.14261
 30
0.0
 11
90.677658
 21
322.14261
 31
0.0
  0
LINE
  5
11FA0
  8
0
 62
     5
 10
88.046405
 20
326.64261
 30
0.0
 11
112.153215
 21
326.64261
 31
0.0
  0
LINE
  5
11FA1
  8
HIDDEN
 10
88.046405
 20
326.64261
 30
0.0
 11
98.485538
 21
326.64261
 31
0.0
  0
LINE
  5
11FA2
  8
0
 62
     5
 10
113.59981
 20
327.64261
 30
0.0
 11
86.59981
 21
327.64261
 31
0.0
  0
LINE
  5
11FA3
  8
0
 62
     5
 10
90.379894
 20
322.44261
 30
0.0
 11
90.677658
 21
322.14261
 31
0.0
  0
LINE
  5
11FA4
  8
0
 62
     5
 10
90.379894
 20
322.44261
 30
0.0
 11
91.159858
 21
322.44261
 31
0.0
  0
LINE
  5
11FA5
  8
0
 62
     5
 10
90.379894
 20
322.74261
 30
0.0
 11
90.146465
 21
322.74261
 31
0.0
  0
LINE
  5
11FA6
  8
0
 62
     5
 10
90.379894
 20
322.74261
 30
0.0
 11
90.379894
 21
322.44261
 31
0.0
  0
LINE
  5
11FA7
  8
0
 62
     5
 10
91.159858
 20
322.44261
 30
0.0
 11
91.159858
 21
322.74261
 31
0.0
  0
LINE
  5
11FA8
  8
0
 62
     5
 10
91.457622
 20
322.14261
 30
0.0
 11
91.159858
 21
322.44261
 31
0.0
  0
LINE
  5
11FA9
  8
0
 62
     5
 10
88.046367
 20
326.64261
 30
0.0
 11
88.046367
 21
327.64261
 31
0.0
  0
LINE
  5
11FAA
  8
0
 62
     5
 10
90.146367
 20
326.64261
 30
0.0
 11
90.146367
 21
322.74261
 31
0.0
  0
LINE
  5
11FAB
  8
0
 62
     5
 10
86.39981
 20
327.84261
 30
0.0
 11
86.39981
 21
329.482811
 31
0.0
  0
ARC
  5
11FAC
  8
0
 62
     5
 10
85.89981
 20
329.482811
 30
0.0
 40
0.5
 50
0.0
 51
50.642033
  0
ARC
  5
11FAD
  8
0
 62
     5
 10
86.59981
 20
327.84261
 30
0.0
 40
0.2
 50
180.0
 51
270.0
  0
ARC
  5
11FAE
  8
0
 62
     5
 10
86.851055
 20
330.64261
 30
0.0
 40
1.0
 50
184.874146
 51
257.544368
  0
LINE
  5
121F1
  8
HIDDEN
 10
93.142173
 20
316.011485
 30
0.0
 11
93.142144
 21
316.011546
 31
0.0
  0
LINE
  5
121F2
  8
HIDDEN
 10
92.719528
 20
317.610032
 30
0.0
 11
92.719534
 21
317.609946
 31
0.0
  0
LINE
  5
121F3
  8
HIDDEN
 10
92.697607
 20
320.64261
 30
0.0
 11
92.697607
 21
318.030985
 31
0.0
  0
ARC
  5
121F4
  8
HIDDEN
 10
89.546367
 20
322.14261
 30
0.0
 40
1.5
 50
180.0
 51
270.0
  0
LINE
  5
121F5
  8
HIDDEN
 10
89.546319
 20
320.64261
 30
0.0
 11
92.697607
 21
320.64261
 31
0.0
  0
LINE
  5
121F6
  8
HIDDEN
 10
88.046367
 20
322.14261
 30
0.0
 11
88.046367
 21
324.89261
 31
0.0
  0
LINE
  5
121F7
  8
0
 62
     5
 10
78.59981
 20
329.64261
 30
0.0
 11
85.854779
 21
329.64261
 31
0.0
  0
LINE
  5
121F8
  8
0
 62
     5
 10
116.24151
 20
320.84261
 30
0.0
 11
130.95811
 21
320.84261
 31
0.0
  0
LINE
  5
121F9
  8
0
 62
     5
 10
127.09981
 20
326.26564
 30
0.0
 11
120.09981
 21
326.26564
 31
0.0
  0
LINE
  5
121FA
  8
0
 62
     5
 10
127.09981
 20
326.54261
 30
0.0
 11
120.09981
 21
326.54261
 31
0.0
  0
LINE
  5
121FB
  8
HIDDEN
 10
118.14981
 20
312.54261
 30
0.0
 11
129.04981
 21
312.54261
 31
0.0
  0
LINE
  5
121FC
  8
0
 62
     5
 10
137.064665
 20
326.24261
 30
0.0
 11
112.153253
 21
326.24261
 31
0.0
  0
LINE
  5
121FD
  8
0
 62
     5
 10
137.54425
 20
329.338921
 30
0.0
 11
113.840175
 21
329.338921
 31
0.0
  0
LINE
  5
121FE
  8
0
 62
     5
 10
113.672091
 20
329.64261
 30
0.0
 11
136.348565
 21
329.64261
 31
0.0
  0
ARC
  5
121FF
  8
HIDDEN
 10
102.614771
 20
319.599267
 30
0.0
 40
6.13679
 50
283.916569
 51
9.788662
  0
LINE
  5
12200
  8
CENTER
 10
100.09981
 20
330.64261
 30
0.0
 11
100.09981
 21
312.092213
 31
0.0
  0
LINE
  5
12201
  8
CENTER
 10
123.59981
 20
329.94261
 30
0.0
 11
123.59981
 21
311.04261
 31
0.0
  0
ARC
  5
12202
  8
HIDDEN
 10
118.14981
 20
316.54261
 30
0.0
 40
4.0
 50
180.0
 51
270.0
  0
LINE
  5
12203
  8
HIDDEN
 10
104.090723
 20
313.64261
 30
0.0
 11
101.257569
 21
313.64261
 31
0.0
  0
LINE
  5
12204
  8
HIDDEN
 10
95.170581
 20
313.877589
 30
0.0
 11
95.170473
 21
313.877624
 31
0.0
  0
LINE
  5
12205
  8
HIDDEN
 10
95.028729
 20
313.94887
 30
0.0
 11
95.031165
 21
313.947163
 31
0.0
  0
LINE
  5
12206
  8
HIDDEN
 10
101.01383
 20
313.64261
 30
0.0
 11
96.651475
 21
313.642614
 31
0.0
  0
LINE
  5
12207
  8
0
 62
     5
 10
109.521962
 20
322.14261
 30
0.0
 11
106.619672
 21
322.14261
 31
0.0
  0
LINE
  5
12208
  8
0
 62
     5
 10
106.598222
 20
322.74261
 30
0.0
 11
110.053155
 21
322.74261
 31
0.0
  0
LINE
  5
12209
  8
HIDDEN
 10
108.662205
 20
320.64261
 30
0.0
 11
110.653301
 21
320.64261
 31
0.0
  0
LINE
  5
1220A
  8
0
 62
     5
 10
96.474251
 20
325.44261
 30
0.0
 11
105.407166
 21
325.44261
 31
0.0
  0
LINE
  5
1220B
  8
0
 62
     5
 10
96.43769
 20
322.14261
 30
0.0
 11
96.474251
 21
322.44261
 31
0.0
  0
LINE
  5
1220C
  8
0
 62
     5
 10
96.474251
 20
322.44261
 30
0.0
 11
96.474251
 21
325.44261
 31
0.0
  0
LINE
  5
1220D
  8
0
 62
     5
 10
105.407166
 20
322.44261
 30
0.0
 11
106.598222
 21
322.44261
 31
0.0
  0
LINE
  5
1220E
  8
0
 62
     5
 10
106.598222
 20
322.44261
 30
0.0
 11
106.598222
 21
322.74261
 31
0.0
  0
LINE
  5
1220F
  8
0
 62
     5
 10
105.407166
 20
322.44261
 30
0.0
 11
105.370605
 21
322.14261
 31
0.0
  0
LINE
  5
12210
  8
0
 62
     5
 10
106.598222
 20
322.44261
 30
0.0
 11
106.561661
 21
322.14261
 31
0.0
  0
LINE
  5
12211
  8
0
 62
     5
 10
105.126867
 20
322.14261
 30
0.0
 11
105.126867
 21
325.44261
 31
0.0
  0
LINE
  5
12212
  8
0
 62
     5
 10
105.407166
 20
325.44261
 30
0.0
 11
105.407166
 21
322.44261
 31
0.0
  0
LINE
  5
12213
  8
0
 62
     5
 10
95.283195
 20
322.74261
 30
0.0
 11
95.283195
 21
322.44261
 31
0.0
  0
LINE
  5
12214
  8
0
 62
     5
 10
95.246635
 20
322.14261
 30
0.0
 11
95.283195
 21
322.44261
 31
0.0
  0
LINE
  5
12215
  8
0
 62
     5
 10
95.283195
 20
322.44261
 30
0.0
 11
96.474251
 21
322.44261
 31
0.0
  0
LINE
  5
12216
  8
HIDDEN
 10
95.649832
 20
322.440108
 30
0.0
 11
95.415365
 21
322.440108
 31
0.0
  0
LINE
  5
12217
  8
0
 62
     5
 10
116.24151
 20
320.84261
 30
0.0
 11
116.071808
 21
326.24261
 31
0.0
  0
LINE
  5
12218
  8
0
 62
     5
 10
116.858922
 20
326.24261
 30
0.0
 11
116.929215
 21
320.84261
 31
0.0
  0
LINE
  5
12219
  8
0
 62
     5
 10
109.819726
 20
322.74261
 30
0.0
 11
109.819726
 21
322.44261
 31
0.0
  0
LINE
  5
1221A
  8
0
 62
     5
 10
109.521962
 20
322.14261
 30
0.0
 11
109.819726
 21
322.44261
 31
0.0
  0
LINE
  5
1221B
  8
0
 62
     5
 10
112.153253
 20
326.64261
 30
0.0
 11
112.153253
 21
327.64261
 31
0.0
  0
LINE
  5
1221C
  8
0
 62
     5
 10
110.053253
 20
326.64261
 30
0.0
 11
110.053253
 21
322.74261
 31
0.0
  0
LINE
  5
1221D
  8
0
 62
     5
 10
120.09981
 20
326.26564
 30
0.0
 11
120.09981
 21
326.54261
 31
0.0
  0
ARC
  5
1221E
  8
0
 62
     5
 10
114.29981
 20
329.14261
 30
0.0
 40
0.5
 50
90.0
 51
180.0
  0
LINE
  5
1221F
  8
0
 62
     5
 10
113.79981
 20
329.14261
 30
0.0
 11
113.79981
 21
327.84261
 31
0.0
  0
ARC
  5
12220
  8
0
 62
     5
 10
113.59981
 20
327.84261
 30
0.0
 40
0.2
 50
270.0
 51
0.0
  0
ARC
  5
12221
  8
HIDDEN
 10
110.653253
 20
322.14261
 30
0.0
 40
1.5
 50
270.0
 51
0.0
  0
LINE
  5
12222
  8
HIDDEN
 10
114.14981
 20
316.54261
 30
0.0
 11
114.14981
 21
323.74261
 31
0.0
  0
LINE
  5
12223
  8
HIDDEN
 10
112.153253
 20
322.14261
 30
0.0
 11
112.153253
 21
324.935121
 31
0.0
  0
LINE
  5
12224
  8
HIDDEN
 10
114.14981
 20
323.74261
 30
0.0
 11
112.153253
 21
323.74261
 31
0.0
  0
ARC
  5
12225
  8
HIDDEN
 10
129.04981
 20
316.54261
 30
0.0
 40
4.0
 50
270.0
 51
0.0
  0
LINE
  5
12226
  8
0
 62
     5
 10
137.570452
 20
329.64261
 30
0.0
 11
144.59981
 21
329.64261
 31
0.0
  0
LINE
  5
12227
  8
0
 62
     5
 10
130.270405
 20
320.84261
 30
0.0
 11
130.340698
 21
326.24261
 31
0.0
  0
LINE
  5
12228
  8
0
 62
     5
 10
131.127812
 20
326.24261
 30
0.0
 11
130.95811
 21
320.84261
 31
0.0
  0
LINE
  5
12229
  8
0
 62
     5
 10
137.564665
 20
329.57554
 30
0.0
 11
137.564665
 21
326.74261
 31
0.0
  0
LINE
  5
12730
  8
HIDDEN
 10
135.84981
 20
325.24261
 30
0.0
 11
135.84981
 21
324.24261
 31
0.0
  0
ARC
  5
12731
  8
0
 62
     5
 10
136.348565
 20
330.64261
 30
0.0
 40
1.0
 50
270.0
 51
355.125854
  0
ARC
  5
12732
  8
HIDDEN
 10
135.34981
 20
324.24261
 30
0.0
 40
0.5
 50
270.0
 51
0.0
  0
LINE
  5
12733
  8
0
 62
     5
 10
132.338154
 20
333.621439
 30
0.0
 11
132.658385
 21
333.066783
 31
0.0
  0
LINE
  5
12734
  8
0
 62
     5
 10
132.938385
 20
333.066783
 30
0.0
 11
132.658385
 21
335.096558
 31
0.0
  0
LINE
  5
12735
  8
0
 62
     5
 10
132.938385
 20
333.010783
 30
0.0
 11
132.658385
 21
335.152558
 31
0.0
  0
LINE
  5
12736
  8
0
 62
     5
 10
132.658385
 20
333.010783
 30
0.0
 11
132.938385
 21
335.152558
 31
0.0
  0
LINE
  5
12737
  8
0
 62
     5
 10
132.658385
 20
333.066783
 30
0.0
 11
132.938385
 21
335.096558
 31
0.0
  0
LINE
  5
12738
  8
0
 62
     5
 10
132.938385
 20
333.066783
 30
0.0
 11
133.258616
 21
333.621439
 31
0.0
  0
LINE
  5
12739
  8
0
 62
     5
 10
134.016473
 20
333.80167
 30
0.0
 11
133.421749
 21
333.458306
 31
0.0
  0
LINE
  5
1273A
  8
0
 62
     5
 10
132.17502
 20
333.458306
 30
0.0
 11
131.580296
 21
333.80167
 31
0.0
  0
LINE
  5
1273B
  8
0
 62
     5
 10
128.298523
 20
334.081439
 30
0.0
 11
128.298523
 21
330.64261
 31
0.0
  0
LINE
  5
1273C
  8
0
 62
     5
 10
133.421749
 20
333.458306
 30
0.0
 11
132.17502
 21
334.705035
 31
0.0
  0
LINE
  5
1273D
  8
0
 62
     5
 10
132.17502
 20
333.458306
 30
0.0
 11
133.421749
 21
334.705035
 31
0.0
  0
LINE
  5
1273E
  8
0
 62
     5
 10
127.09981
 20
326.26564
 30
0.0
 11
127.09981
 21
326.54261
 31
0.0
  0
ARC
  5
1273F
  8
0
 62
     5
 10
127.298523
 20
330.64261
 30
0.0
 40
1.0
 50
270.0
 51
0.0
  0
LINE
  5
12740
  8
0
 62
     5
 10
133.078385
 20
332.863581
 30
0.0
 11
132.938385
 21
333.066783
 31
0.0
  0
LINE
  5
12741
  8
0
 62
     5
 10
133.078385
 20
332.303581
 30
0.0
 11
132.938385
 21
333.010783
 31
0.0
  0
LINE
  5
12742
  8
0
 62
     5
 10
132.448385
 20
331.35641
 30
0.0
 11
132.448385
 21
331.152507
 31
0.0
  0
LINE
  5
12743
  8
0
 62
     5
 10
132.518385
 20
332.303581
 30
0.0
 11
132.518385
 21
332.863581
 31
0.0
  0
LINE
  5
12744
  8
0
 62
     5
 10
132.658385
 20
333.066783
 30
0.0
 11
132.658385
 21
333.010783
 31
0.0
  0
LINE
  5
12745
  8
0
 62
     5
 10
132.938385
 20
333.010783
 30
0.0
 11
132.938385
 21
333.066783
 31
0.0
  0
LINE
  5
12746
  8
0
 62
     5
 10
133.078385
 20
332.863581
 30
0.0
 11
133.078385
 21
332.303581
 31
0.0
  0
LINE
  5
12747
  8
0
 62
     5
 10
133.148385
 20
331.152507
 30
0.0
 11
133.148385
 21
331.35641
 31
0.0
  0
LINE
  5
12748
  8
0
 62
     5
 10
132.518385
 20
332.303581
 30
0.0
 11
132.658385
 21
333.010783
 31
0.0
  0
LINE
  5
12749
  8
0
 62
     5
 10
133.421749
 20
333.458306
 30
0.0
 11
133.078385
 21
332.863581
 31
0.0
  0
LINE
  5
1274A
  8
0
 62
     5
 10
132.518385
 20
332.863581
 30
0.0
 11
132.658385
 21
333.066783
 31
0.0
  0
ARC
  5
1274B
  8
0
 62
     5
 10
132.798385
 20
334.08167
 30
0.0
 40
1.08
 50
262.551809
 51
277.448191
  0
ARC
  5
1274C
  8
0
 62
     5
 10
132.798385
 20
334.08167
 30
0.0
 40
1.8
 50
261.050982
 51
278.949018
  0
LINE
  5
1274D
  8
0
 62
     5
 10
132.518385
 20
332.863581
 30
0.0
 11
132.17502
 21
333.458306
 31
0.0
  0
LINE
  5
1274E
  8
0
 62
     5
 10
131.020296
 20
333.80167
 30
0.0
 11
131.727497
 21
333.94167
 31
0.0
  0
LINE
  5
1274F
  8
0
 62
     5
 10
131.580296
 20
333.80167
 30
0.0
 11
131.020296
 21
333.80167
 31
0.0
  0
LINE
  5
12750
  8
0
 62
     5
 10
131.020296
 20
334.36167
 30
0.0
 11
131.580296
 21
334.36167
 31
0.0
  0
LINE
  5
12751
  8
0
 62
     5
 10
131.020296
 20
334.36167
 30
0.0
 11
131.727497
 21
334.22167
 31
0.0
  0
ARC
  5
12752
  8
0
 62
     5
 10
132.798385
 20
334.08167
 30
0.0
 40
1.8
 50
171.050982
 51
188.949018
  0
LINE
  5
12753
  8
0
 62
     5
 10
134.576473
 20
334.36167
 30
0.0
 11
133.869272
 21
334.22167
 31
0.0
  0
LINE
  5
12754
  8
0
 62
     5
 10
134.576466
 20
333.80167
 30
0.0
 11
134.016473
 21
333.80167
 31
0.0
  0
LINE
  5
12755
  8
0
 62
     5
 10
133.813272
 20
333.94167
 30
0.0
 11
133.869272
 21
333.94167
 31
0.0
  0
LINE
  5
12756
  8
0
 62
     5
 10
133.869272
 20
334.22167
 30
0.0
 11
133.813272
 21
334.22167
 31
0.0
  0
LINE
  5
12757
  8
0
 62
     5
 10
134.016473
 20
334.36167
 30
0.0
 11
134.576473
 21
334.36167
 31
0.0
  0
LINE
  5
12758
  8
0
 62
     5
 10
134.576473
 20
333.80167
 30
0.0
 11
133.869272
 21
333.94167
 31
0.0
  0
LINE
  5
12759
  8
0
 62
     5
 10
133.813272
 20
334.22167
 30
0.0
 11
133.258616
 21
334.541901
 31
0.0
  0
LINE
  5
1275A
  8
0
 62
     5
 10
133.421749
 20
334.705035
 30
0.0
 11
134.016473
 21
334.36167
 31
0.0
  0
LINE
  5
1275B
  8
0
 62
     5
 10
134.016473
 20
333.80167
 30
0.0
 11
133.813272
 21
333.94167
 31
0.0
  0
LINE
  5
1275C
  8
0
 62
     5
 10
132.518385
 20
335.299759
 30
0.0
 11
132.658385
 21
335.096558
 31
0.0
  0
LINE
  5
1275D
  8
0
 62
     5
 10
133.258616
 20
334.541901
 30
0.0
 11
132.938385
 21
335.096558
 31
0.0
  0
LINE
  5
1275E
  8
0
 62
     5
 10
133.078385
 20
335.299759
 30
0.0
 11
133.421749
 21
334.705035
 31
0.0
  0
LINE
  5
1275F
  8
0
 62
     5
 10
132.658385
 20
335.152558
 30
0.0
 11
132.658385
 21
335.096558
 31
0.0
  0
LINE
  5
12760
  8
0
 62
     5
 10
132.938385
 20
335.096558
 30
0.0
 11
132.938385
 21
335.152558
 31
0.0
  0
LINE
  5
12761
  8
0
 62
     5
 10
132.658385
 20
335.096558
 30
0.0
 11
132.338154
 21
334.541901
 31
0.0
  0
LINE
  5
12762
  8
0
 62
     5
 10
133.078385
 20
335.299759
 30
0.0
 11
132.938385
 21
335.096558
 31
0.0
  0
LINE
  5
12763
  8
0
 62
     5
 10
134.016473
 20
334.36167
 30
0.0
 11
133.813272
 21
334.22167
 31
0.0
  0
LINE
  5
12764
  8
0
 62
     5
 10
133.258616
 20
333.621439
 30
0.0
 11
133.813272
 21
333.94167
 31
0.0
  0
ARC
  5
12765
  8
0
 62
     5
 10
132.798385
 20
334.08167
 30
0.0
 40
1.08
 50
352.551809
 51
7.448191
  0
ARC
  5
12766
  8
0
 62
     5
 10
132.798385
 20
334.08167
 30
0.0
 40
1.08
 50
82.551809
 51
97.448191
  0
ARC
  5
12767
  8
0
 62
     5
 10
132.798385
 20
334.08167
 30
0.0
 40
1.8
 50
351.05094
 51
8.949018
  0
LINE
  5
12768
  8
0
 62
     5
 10
131.727497
 20
333.94167
 30
0.0
 11
131.783497
 21
333.94167
 31
0.0
  0
LINE
  5
12769
  8
0
 62
     5
 10
131.783497
 20
334.22167
 30
0.0
 11
131.727497
 21
334.22167
 31
0.0
  0
LINE
  5
1276A
  8
0
 62
     5
 10
131.580296
 20
334.36167
 30
0.0
 11
131.783497
 21
334.22167
 31
0.0
  0
LINE
  5
1276B
  8
0
 62
     5
 10
131.580296
 20
333.80167
 30
0.0
 11
131.783497
 21
333.94167
 31
0.0
  0
LINE
  5
1276C
  8
0
 62
     5
 10
131.580296
 20
334.36167
 30
0.0
 11
132.17502
 21
334.705035
 31
0.0
  0
ARC
  5
1276D
  8
0
 62
     5
 10
132.798385
 20
334.08167
 30
0.0
 40
1.08
 50
172.551809
 51
187.448191
  0
LINE
  5
1276E
  8
0
 62
     5
 10
131.783497
 20
333.94167
 30
0.0
 11
133.813272
 21
334.22167
 31
0.0
  0
LINE
  5
1276F
  8
0
 62
     5
 10
131.727497
 20
333.94167
 30
0.0
 11
133.869272
 21
334.22167
 31
0.0
  0
LINE
  5
12770
  8
0
 62
     5
 10
131.727497
 20
334.22167
 30
0.0
 11
133.869272
 21
333.94167
 31
0.0
  0
LINE
  5
12771
  8
0
 62
     5
 10
131.783497
 20
334.22167
 30
0.0
 11
133.813272
 21
333.94167
 31
0.0
  0
LINE
  5
12772
  8
0
 62
     5
 10
131.783497
 20
333.94167
 30
0.0
 11
132.338154
 21
333.621439
 31
0.0
  0
LINE
  5
12773
  8
0
 62
     5
 10
132.17502
 20
334.705035
 30
0.0
 11
132.518385
 21
335.299759
 31
0.0
  0
LINE
  5
12774
  8
0
 62
     5
 10
132.338154
 20
334.541901
 30
0.0
 11
131.783497
 21
334.22167
 31
0.0
  0
LINE
  5
12775
  8
HIDDEN
 10
133.04981
 20
316.54261
 30
0.0
 11
133.04981
 21
323.74261
 31
0.0
  0
LINE
  5
12776
  8
HIDDEN
 10
135.34981
 20
323.74261
 30
0.0
 11
133.04981
 21
323.74261
 31
0.0
  0
ARC
  5
12777
  8
0
 62
     5
 10
90.401097
 20
405.203781
 30
0.0
 40
4.5
 50
270.0
 51
0.0
  0
ARC
  5
12778
  8
0
 62
     5
 10
90.401235
 20
405.20355
 30
0.0
 40
2.95
 50
276.813854
 51
263.186146
  0
CIRCLE
  5
12779
  8
0
 62
     5
 10
90.401235
 20
405.20355
 30
0.0
 40
3.0
  0
LINE
  5
1277A
  8
0
 62
     5
 10
86.851055
 20
409.64261
 30
0.0
 11
136.348565
 21
409.64261
 31
0.0
  0
LINE
  5
1277B
  8
0
 62
     5
 10
86.572237
 20
409.946299
 30
0.0
 11
136.627383
 21
409.946299
 31
0.0
  0
LINE
  5
1277C
  8
0
 62
     5
 10
71.296121
 20
344.615037
 30
0.0
 11
71.296121
 21
394.670183
 31
0.0
  0
LINE
  5
1277D
  8
0
 62
     5
 10
71.59981
 20
344.893855
 30
0.0
 11
71.59981
 21
394.391365
 31
0.0
  0
ARC
  5
1277E
  8
0
 62
     5
 10
111.59981
 20
802.233991
 30
0.0
 40
460.303689
 50
265.091062
 51
266.080423
  0
ARC
  5
1277F
  8
0
 62
     5
 10
111.59981
 20
802.233991
 30
0.0
 40
460.0
 50
265.125854
 51
266.080423
  0
LINE
  5
12780
  8
0
 62
     5
 10
77.816959
 20
348.164035
 30
0.0
 11
77.109758
 21
348.304035
 31
0.0
  0
LINE
  5
12781
  8
0
 62
     5
 10
77.816951
 20
348.164035
 30
0.0
 11
77.256959
 21
348.164035
 31
0.0
  0
LINE
  5
12782
  8
0
 62
     5
 10
77.256959
 20
348.724035
 30
0.0
 11
77.816959
 21
348.724035
 31
0.0
  0
LINE
  5
12783
  8
0
 62
     5
 10
77.816959
 20
348.724035
 30
0.0
 11
77.109758
 21
348.584035
 31
0.0
  0
CIRCLE
  5
12784
  8
0
 62
     5
 10
76.03887
 20
348.444035
 30
0.0
 40
2.75
  0
ARC
  5
12785
  8
0
 62
     5
 10
76.03887
 20
348.444035
 30
0.0
 40
2.95
 50
276.813854
 51
263.186146
  0
CIRCLE
  5
12786
  8
0
 62
     5
 10
76.03887
 20
348.444035
 30
0.0
 40
3.0
  0
ARC
  5
12787
  8
0
 62
     5
 10
76.038639
 20
348.443897
 30
0.0
 40
4.5
 50
0.0
 51
90.0
  0
LINE
  5
12788
  8
0
 62
     5
 10
76.038639
 20
352.943897
 30
0.0
 11
72.59981
 21
352.943897
 31
0.0
  0
LINE
  5
12789
  8
0
 62
     5
 10
75.75887
 20
349.662124
 30
0.0
 11
75.75887
 21
350.222124
 31
0.0
  0
LINE
  5
1278A
  8
0
 62
     5
 10
75.89887
 20
349.514923
 30
0.0
 11
75.89887
 21
349.458923
 31
0.0
  0
LINE
  5
1278B
  8
0
 62
     5
 10
76.17887
 20
349.458923
 30
0.0
 11
76.17887
 21
349.514923
 31
0.0
  0
LINE
  5
1278C
  8
0
 62
     5
 10
76.31887
 20
350.222116
 30
0.0
 11
76.31887
 21
349.662124
 31
0.0
  0
LINE
  5
1278D
  8
0
 62
     5
 10
75.75887
 20
349.662124
 30
0.0
 11
75.89887
 21
349.458923
 31
0.0
  0
LINE
  5
1278E
  8
0
 62
     5
 10
75.75887
 20
350.222124
 30
0.0
 11
75.89887
 21
349.514923
 31
0.0
  0
LINE
  5
1278F
  8
0
 62
     5
 10
76.31887
 20
350.222124
 30
0.0
 11
76.17887
 21
349.514923
 31
0.0
  0
LINE
  5
12790
  8
0
 62
     5
 10
76.31887
 20
349.662124
 30
0.0
 11
76.17887
 21
349.458923
 31
0.0
  0
ARC
  5
12791
  8
0
 62
     5
 10
76.03887
 20
348.444035
 30
0.0
 40
1.08
 50
82.551809
 51
97.448191
  0
ARC
  5
12792
  8
0
 62
     5
 10
76.03887
 20
348.444035
 30
0.0
 40
1.8
 50
81.05094
 51
98.949018
  0
ARC
  5
12793
  8
0
 62
     5
 10
72.59981
 20
353.943897
 30
0.0
 40
1.0
 50
180.0
 51
270.0
  0
LINE
  5
12794
  8
0
 62
     5
 10
75.023983
 20
348.304035
 30
0.0
 11
75.578639
 21
347.983804
 31
0.0
  0
LINE
  5
12795
  8
0
 62
     5
 10
74.967983
 20
348.584035
 30
0.0
 11
77.109758
 21
348.304035
 31
0.0
  0
LINE
  5
12796
  8
0
 62
     5
 10
75.023983
 20
348.584035
 30
0.0
 11
77.053758
 21
348.304035
 31
0.0
  0
LINE
  5
12797
  8
0
 62
     5
 10
74.967983
 20
348.304035
 30
0.0
 11
77.109758
 21
348.584035
 31
0.0
  0
LINE
  5
12798
  8
0
 62
     5
 10
75.578639
 20
348.904266
 30
0.0
 11
75.023983
 21
348.584035
 31
0.0
  0
LINE
  5
12799
  8
0
 62
     5
 10
75.023983
 20
348.304035
 30
0.0
 11
77.053758
 21
348.584035
 31
0.0
  0
LINE
  5
1279A
  8
0
 62
     5
 10
75.415506
 20
347.820671
 30
0.0
 11
74.820781
 21
348.164035
 31
0.0
  0
LINE
  5
1279B
  8
0
 62
     5
 10
74.820781
 20
348.724035
 30
0.0
 11
75.415506
 21
349.0674
 31
0.0
  0
LINE
  5
1279C
  8
0
 62
     5
 10
74.967983
 20
348.304035
 30
0.0
 11
75.023983
 21
348.304035
 31
0.0
  0
LINE
  5
1279D
  8
0
 62
     5
 10
75.023983
 20
348.584035
 30
0.0
 11
74.967983
 21
348.584035
 31
0.0
  0
ARC
  5
1279E
  8
0
 62
     5
 10
76.03887
 20
348.444035
 30
0.0
 40
1.08
 50
172.551809
 51
187.448191
  0
LINE
  5
1279F
  8
0
 62
     5
 10
74.820781
 20
348.164035
 30
0.0
 11
74.260781
 21
348.164035
 31
0.0
  0
LINE
  5
127A0
  8
0
 62
     5
 10
74.260781
 20
348.724035
 30
0.0
 11
74.820781
 21
348.724035
 31
0.0
  0
ARC
  5
127A1
  8
0
 62
     5
 10
76.03887
 20
348.444035
 30
0.0
 40
1.8
 50
171.050982
 51
188.949018
  0
LINE
  5
127A2
  8
0
 62
     5
 10
74.820781
 20
348.724035
 30
0.0
 11
75.023983
 21
348.584035
 31
0.0
  0
LINE
  5
127A3
  8
0
 62
     5
 10
74.260781
 20
348.724035
 30
0.0
 11
74.967983
 21
348.584035
 31
0.0
  0
LINE
  5
127A4
  8
0
 62
     5
 10
74.820781
 20
348.164035
 30
0.0
 11
75.023983
 21
348.304035
 31
0.0
  0
LINE
  5
127A5
  8
0
 62
     5
 10
74.260781
 20
348.164035
 30
0.0
 11
74.967983
 21
348.304035
 31
0.0
  0
LINE
  5
127A6
  8
0
 62
     5
 10
76.662235
 20
347.820671
 30
0.0
 11
75.415506
 21
349.0674
 31
0.0
  0
LINE
  5
127A7
  8
0
 62
     5
 10
77.256959
 20
348.164035
 30
0.0
 11
77.053758
 21
348.304035
 31
0.0
  0
LINE
  5
127A8
  8
0
 62
     5
 10
77.053758
 20
348.584035
 30
0.0
 11
76.499101
 21
348.904266
 31
0.0
  0
LINE
  5
127A9
  8
0
 62
     5
 10
76.662235
 20
349.0674
 30
0.0
 11
77.256959
 21
348.724035
 31
0.0
  0
LINE
  5
127AA
  8
0
 62
     5
 10
75.415506
 20
347.820671
 30
0.0
 11
76.662235
 21
349.0674
 31
0.0
  0
LINE
  5
127AB
  8
0
 62
     5
 10
77.053758
 20
348.304035
 30
0.0
 11
77.109758
 21
348.304035
 31
0.0
  0
LINE
  5
127AC
  8
0
 62
     5
 10
77.109758
 20
348.584035
 30
0.0
 11
77.053758
 21
348.584035
 31
0.0
  0
LINE
  5
127AD
  8
0
 62
     5
 10
77.256959
 20
348.724035
 30
0.0
 11
77.053758
 21
348.584035
 31
0.0
  0
LINE
  5
127AE
  8
0
 62
     5
 10
76.499101
 20
347.983804
 30
0.0
 11
77.053758
 21
348.304035
 31
0.0
  0
LINE
  5
127AF
  8
0
 62
     5
 10
77.256959
 20
348.164035
 30
0.0
 11
76.662235
 21
347.820671
 31
0.0
  0
ARC
  5
127B0
  8
0
 62
     5
 10
76.03887
 20
348.444035
 30
0.0
 40
1.08
 50
352.551809
 51
7.448191
  0
LINE
  5
127B1
  8
0
 62
     5
 10
76.31887
 20
346.665947
 30
0.0
 11
76.17887
 21
347.373148
 31
0.0
  0
LINE
  5
127B2
  8
0
 62
     5
 10
75.68887
 20
345.718775
 30
0.0
 11
75.68887
 21
345.514872
 31
0.0
  0
LINE
  5
127B3
  8
0
 62
     5
 10
75.75887
 20
346.665947
 30
0.0
 11
75.75887
 21
347.225947
 31
0.0
  0
LINE
  5
127B4
  8
0
 62
     5
 10
75.89887
 20
347.429148
 30
0.0
 11
75.89887
 21
347.373148
 31
0.0
  0
LINE
  5
127B5
  8
0
 62
     5
 10
76.17887
 20
347.373148
 30
0.0
 11
76.17887
 21
347.429148
 31
0.0
  0
LINE
  5
127B6
  8
0
 62
     5
 10
76.31887
 20
347.225947
 30
0.0
 11
76.31887
 21
346.665947
 31
0.0
  0
LINE
  5
127B7
  8
0
 62
     5
 10
76.38887
 20
345.514872
 30
0.0
 11
76.38887
 21
345.718775
 31
0.0
  0
LINE
  5
127B8
  8
0
 62
     5
 10
76.31887
 20
347.225947
 30
0.0
 11
76.17887
 21
347.429148
 31
0.0
  0
LINE
  5
127B9
  8
0
 62
     5
 10
75.75887
 20
346.665947
 30
0.0
 11
75.89887
 21
347.373148
 31
0.0
  0
LINE
  5
127BA
  8
0
 62
     5
 10
75.75887
 20
347.225947
 30
0.0
 11
75.89887
 21
347.429148
 31
0.0
  0
ARC
  5
127BB
  8
0
 62
     5
 10
76.03887
 20
348.444035
 30
0.0
 40
1.08
 50
262.551809
 51
277.448191
  0
ARC
  5
127BC
  8
0
 62
     5
 10
76.03887
 20
348.444035
 30
0.0
 40
1.8
 50
261.050982
 51
278.949018
  0
LINE
  5
127BD
  8
0
 62
     5
 10
75.75887
 20
347.225947
 30
0.0
 11
75.415506
 21
347.820671
 31
0.0
  0
LINE
  5
127BE
  8
0
 62
     5
 10
75.578639
 20
347.983804
 30
0.0
 11
75.89887
 21
347.429148
 31
0.0
  0
LINE
  5
127BF
  8
0
 62
     5
 10
76.17887
 20
347.429148
 30
0.0
 11
76.499101
 21
347.983804
 31
0.0
  0
LINE
  5
127C0
  8
0
 62
     5
 10
76.662235
 20
347.820671
 30
0.0
 11
76.31887
 21
347.225947
 31
0.0
  0
ARC
  5
127C1
  8
0
 62
     5
 10
72.59981
 20
344.893855
 30
0.0
 40
1.0
 50
180.0
 51
265.125854
  0
LINE
  5
12A24
  8
0
 62
     5
 10
76.499101
 20
348.904266
 30
0.0
 11
76.17887
 21
349.458923
 31
0.0
  0
LINE
  5
12A25
  8
0
 62
     5
 10
76.31887
 20
349.662124
 30
0.0
 11
76.662235
 21
349.0674
 31
0.0
  0
LINE
  5
12A26
  8
0
 62
     5
 10
75.415506
 20
349.0674
 30
0.0
 11
75.75887
 21
349.662124
 31
0.0
  0
LINE
  5
12A27
  8
0
 62
     5
 10
75.89887
 20
349.458923
 30
0.0
 11
75.578639
 21
348.904266
 31
0.0
  0
LINE
  5
12A28
  8
0
 62
     5
 10
75.89887
 20
347.373148
 30
0.0
 11
76.17887
 21
349.514923
 31
0.0
  0
LINE
  5
12A29
  8
0
 62
     5
 10
75.89887
 20
347.429148
 30
0.0
 11
76.17887
 21
349.458923
 31
0.0
  0
LINE
  5
12A2A
  8
0
 62
     5
 10
76.17887
 20
347.429148
 30
0.0
 11
75.89887
 21
349.458923
 31
0.0
  0
LINE
  5
12A2B
  8
0
 62
     5
 10
76.17887
 20
347.373148
 30
0.0
 11
75.89887
 21
349.514923
 31
0.0
  0
LINE
  5
12A2C
  8
0
 62
     5
 10
71.59981
 20
343.897579
 30
0.0
 11
71.59981
 21
336.64261
 31
0.0
  0
LINE
  5
12A2D
  8
0
 62
     5
 10
80.538639
 20
344.080377
 30
0.0
 11
80.538639
 21
348.443897
 31
0.0
  0
ARC
  5
12A2E
  8
0
 62
     5
 10
76.03887
 20
348.444035
 30
0.0
 40
1.8
 50
351.05094
 51
8.949018
  0
ARC
  5
12A2F
  8
0
 62
     5
 10
79.780005
 20
337.822805
 30
0.0
 40
5.196311
 50
3.919577
 51
86.080423
  0
ARC
  5
12A30
  8
0
 62
     5
 10
79.780005
 20
337.822805
 30
0.0
 40
5.5
 50
3.919577
 51
86.080423
  0
ARC
  5
12A31
  8
0
 62
     5
 10
81.538639
 20
344.080377
 30
0.0
 40
1.0
 50
180.0
 51
254.302463
  0
LINE
  5
12A32
  8
CENTER
 10
79.780005
 20
337.822805
 30
0.0
 11
83.174117
 21
341.216917
 31
0.0
  0
LINE
  5
12A33
  8
0
 62
     5
 10
71.59981
 20
402.64261
 30
0.0
 11
71.59981
 21
395.387641
 31
0.0
  0
ARC
  5
12A34
  8
CENTER
 10
111.59981
 20
369.64261
 30
0.0
 40
45.0
 50
126.887245
 51
142.596169
  0
ARC
  5
12A35
  8
0
 62
     5
 10
79.780005
 20
401.462415
 30
0.0
 40
5.196311
 50
273.919577
 51
356.080423
  0
ARC
  5
12A36
  8
0
 62
     5
 10
79.780005
 20
401.462415
 30
0.0
 40
5.5
 50
273.919577
 51
356.080423
  0
CIRCLE
  5
12A37
  8
0
 62
     5
 10
79.780005
 20
401.462415
 30
0.0
 40
3.3
  0
LINE
  5
12A38
  8
CENTER
 10
79.780005
 20
401.462415
 30
0.0
 11
83.174117
 21
398.068303
 31
0.0
  0
ARC
  5
12A39
  8
0
 62
     5
 10
111.59981
 20
-62.948771
 30
0.0
 40
460.303689
 50
93.919577
 51
94.908938
  0
ARC
  5
12A3A
  8
0
 62
     5
 10
111.59981
 20
-62.948771
 30
0.0
 40
460.0
 50
93.919577
 51
94.874146
  0
ARC
  5
12A3B
  8
0
 62
     5
 10
76.03887
 20
390.841185
 30
0.0
 40
4.0
 50
270.0
 51
0.0
  0
LINE
  5
12A3C
  8
0
 62
     5
 10
72.59981
 20
386.841185
 30
0.0
 11
76.03887
 21
386.841185
 31
0.0
  0
ARC
  5
12A3D
  8
0
 62
     5
 10
72.59981
 20
394.391365
 30
0.0
 40
1.0
 50
94.874146
 51
180.0
  0
ARC
  5
12CA0
  8
0
 62
     5
 10
72.59981
 20
385.841185
 30
0.0
 40
1.0
 50
90.0
 51
180.0
  0
ARC
  5
12CA1
  8
0
 62
     5
 10
81.03887
 20
395.085483
 30
0.0
 40
1.0
 50
101.167133
 51
180.0
  0
LINE
  5
12CA2
  8
0
 62
     5
 10
80.03887
 20
390.841185
 30
0.0
 11
80.03887
 21
395.085483
 31
0.0
  0
LINE
  5
12CA3
  8
CENTER
 10
79.780005
 20
401.462415
 30
0.0
 11
76.385892
 21
404.856528
 31
0.0
  0
ARC
  5
12CA4
  8
0
 62
     5
 10
78.59981
 20
402.64261
 30
0.0
 40
7.0
 50
90.0
 51
180.0
  0
LINE
  5
12CA5
  8
0
 62
     5
 10
90.261235
 20
404.132662
 30
0.0
 11
90.541235
 21
406.274437
 31
0.0
  0
LINE
  5
12CA6
  8
0
 62
     5
 10
90.261235
 20
404.188662
 30
0.0
 11
90.541235
 21
406.218437
 31
0.0
  0
LINE
  5
12CA7
  8
0
 62
     5
 10
90.541235
 20
404.188662
 30
0.0
 11
90.261235
 21
406.218437
 31
0.0
  0
LINE
  5
12CA8
  8
0
 62
     5
 10
90.541235
 20
404.132662
 30
0.0
 11
90.261235
 21
406.274437
 31
0.0
  0
LINE
  5
12CA9
  8
0
 62
     5
 10
91.416123
 20
405.34355
 30
0.0
 11
90.861466
 21
405.663781
 31
0.0
  0
LINE
  5
12CAA
  8
0
 62
     5
 10
91.0246
 20
405.826914
 30
0.0
 11
91.619324
 21
405.48355
 31
0.0
  0
LINE
  5
12CAB
  8
0
 62
     5
 10
90.681235
 20
406.421639
 30
0.0
 11
90.541235
 21
406.218437
 31
0.0
  0
LINE
  5
12CAC
  8
0
 62
     5
 10
90.681235
 20
406.981639
 30
0.0
 11
90.541235
 21
406.274437
 31
0.0
  0
LINE
  5
12CAD
  8
0
 62
     5
 10
90.121235
 20
406.421639
 30
0.0
 11
90.121235
 21
406.981639
 31
0.0
  0
LINE
  5
12CAE
  8
0
 62
     5
 10
90.261235
 20
406.274437
 30
0.0
 11
90.261235
 21
406.218437
 31
0.0
  0
LINE
  5
12CAF
  8
0
 62
     5
 10
90.541235
 20
406.218437
 30
0.0
 11
90.541235
 21
406.274437
 31
0.0
  0
LINE
  5
12CB0
  8
0
 62
     5
 10
90.681235
 20
406.981631
 30
0.0
 11
90.681235
 21
406.421639
 31
0.0
  0
LINE
  5
12CB1
  8
0
 62
     5
 10
90.121235
 20
406.981639
 30
0.0
 11
90.261235
 21
406.274437
 31
0.0
  0
LINE
  5
12CB2
  8
0
 62
     5
 10
90.861466
 20
405.663781
 30
0.0
 11
90.541235
 21
406.218437
 31
0.0
  0
LINE
  5
12CB3
  8
0
 62
     5
 10
90.681235
 20
406.421639
 30
0.0
 11
91.0246
 21
405.826914
 31
0.0
  0
LINE
  5
12CB4
  8
0
 62
     5
 10
90.121235
 20
406.421639
 30
0.0
 11
90.261235
 21
406.218437
 31
0.0
  0
ARC
  5
12CB5
  8
0
 62
     5
 10
90.401235
 20
405.20355
 30
0.0
 40
1.08
 50
82.551809
 51
97.448191
  0
ARC
  5
12CB6
  8
0
 62
     5
 10
90.401235
 20
405.20355
 30
0.0
 40
1.8
 50
81.05094
 51
98.949018
  0
LINE
  5
12CB7
  8
0
 62
     5
 10
91.619324
 20
405.48355
 30
0.0
 11
91.416123
 21
405.34355
 31
0.0
  0
LINE
  5
12CB8
  8
0
 62
     5
 10
91.619324
 20
404.92355
 30
0.0
 11
91.416123
 21
405.06355
 31
0.0
  0
LINE
  5
12CB9
  8
0
 62
     5
 10
92.179324
 20
404.92355
 30
0.0
 11
91.472123
 21
405.06355
 31
0.0
  0
LINE
  5
12CBA
  8
0
 62
     5
 10
92.179316
 20
404.92355
 30
0.0
 11
91.619324
 21
404.92355
 31
0.0
  0
LINE
  5
12CBB
  8
0
 62
     5
 10
91.416123
 20
405.06355
 30
0.0
 11
91.472123
 21
405.06355
 31
0.0
  0
LINE
  5
12CBC
  8
0
 62
     5
 10
91.472123
 20
405.34355
 30
0.0
 11
91.416123
 21
405.34355
 31
0.0
  0
LINE
  5
12CBD
  8
0
 62
     5
 10
91.619324
 20
405.48355
 30
0.0
 11
92.179324
 21
405.48355
 31
0.0
  0
LINE
  5
12CBE
  8
0
 62
     5
 10
92.179324
 20
405.48355
 30
0.0
 11
91.472123
 21
405.34355
 31
0.0
  0
ARC
  5
12CBF
  8
0
 62
     5
 10
90.401235
 20
405.20355
 30
0.0
 40
1.08
 50
352.551809
 51
7.448191
  0
ARC
  5
12CC0
  8
0
 62
     5
 10
90.401235
 20
405.20355
 30
0.0
 40
1.8
 50
351.05094
 51
8.949018
  0
LINE
  5
12CC1
  8
0
 62
     5
 10
90.121235
 20
403.985461
 30
0.0
 11
90.261235
 21
404.188662
 31
0.0
  0
LINE
  5
12CC2
  8
0
 62
     5
 10
90.541235
 20
404.188662
 30
0.0
 11
90.861466
 21
404.743319
 31
0.0
  0
LINE
  5
12CC3
  8
0
 62
     5
 10
91.0246
 20
404.580185
 30
0.0
 11
90.681235
 21
403.985461
 31
0.0
  0
LINE
  5
12CC4
  8
0
 62
     5
 10
90.121235
 20
403.425461
 30
0.0
 11
90.261235
 21
404.132662
 31
0.0
  0
LINE
  5
12CC5
  8
0
 62
     5
 10
90.051235
 20
402.478289
 30
0.0
 11
90.051235
 21
402.274386
 31
0.0
  0
LINE
  5
12CC6
  8
0
 62
     5
 10
90.121235
 20
403.425461
 30
0.0
 11
90.121235
 21
403.985461
 31
0.0
  0
LINE
  5
12CC7
  8
0
 62
     5
 10
90.261235
 20
404.188662
 30
0.0
 11
90.261235
 21
404.132662
 31
0.0
  0
LINE
  5
12CC8
  8
0
 62
     5
 10
90.541235
 20
404.132662
 30
0.0
 11
90.541235
 21
404.188662
 31
0.0
  0
LINE
  5
12CC9
  8
0
 62
     5
 10
90.681235
 20
403.985461
 30
0.0
 11
90.681235
 21
403.425461
 31
0.0
  0
LINE
  5
12CCA
  8
0
 62
     5
 10
90.751235
 20
402.274386
 30
0.0
 11
90.751235
 21
402.478289
 31
0.0
  0
LINE
  5
12CCB
  8
0
 62
     5
 10
90.681235
 20
403.425461
 30
0.0
 11
90.541235
 21
404.132662
 31
0.0
  0
LINE
  5
12CCC
  8
0
 62
     5
 10
90.681235
 20
403.985461
 30
0.0
 11
90.541235
 21
404.188662
 31
0.0
  0
ARC
  5
12CCD
  8
0
 62
     5
 10
90.401235
 20
405.20355
 30
0.0
 40
1.08
 50
262.551809
 51
277.448191
  0
ARC
  5
12CCE
  8
0
 62
     5
 10
90.401235
 20
405.20355
 30
0.0
 40
1.8
 50
261.050982
 51
278.949018
  0
LINE
  5
12CCF
  8
0
 62
     5
 10
90.861466
 20
404.743319
 30
0.0
 11
91.416123
 21
405.06355
 31
0.0
  0
LINE
  5
12CD0
  8
0
 62
     5
 10
91.619324
 20
404.92355
 30
0.0
 11
91.0246
 21
404.580185
 31
0.0
  0
ARC
  5
12CD1
  8
0
 62
     5
 10
86.037577
 20
399.703781
 30
0.0
 40
1.0
 50
90.0
 51
164.302463
  0
ARC
  5
12CD2
  8
0
 62
     5
 10
544.191191
 20
369.64261
 30
0.0
 40
460.303689
 50
175.091062
 51
176.080423
  0
ARC
  5
12CD3
  8
0
 62
     5
 10
544.191191
 20
369.64261
 30
0.0
 40
460.0
 50
175.125854
 51
176.080423
  0
ARC
  5
12CD4
  8
0
 62
     5
 10
86.851055
 20
408.64261
 30
0.0
 40
1.0
 50
90.0
 51
175.125854
  0
LINE
  5
12F37
  8
0
 62
     5
 10
89.183147
 20
405.48355
 30
0.0
 11
89.777871
 21
405.826914
 31
0.0
  0
LINE
  5
12F38
  8
0
 62
     5
 10
89.941004
 20
405.663781
 30
0.0
 11
89.386348
 21
405.34355
 31
0.0
  0
LINE
  5
12F39
  8
0
 62
     5
 10
89.183147
 20
404.92355
 30
0.0
 11
89.386348
 21
405.06355
 31
0.0
  0
LINE
  5
12F3A
  8
0
 62
     5
 10
89.183147
 20
405.48355
 30
0.0
 11
89.386348
 21
405.34355
 31
0.0
  0
LINE
  5
12F3B
  8
0
 62
     5
 10
89.777871
 20
404.580185
 30
0.0
 11
89.183147
 21
404.92355
 31
0.0
  0
LINE
  5
12F3C
  8
0
 62
     5
 10
89.386348
 20
405.06355
 30
0.0
 11
89.941004
 21
404.743319
 31
0.0
  0
LINE
  5
12F3D
  8
0
 62
     5
 10
88.623147
 20
405.48355
 30
0.0
 11
89.330348
 21
405.34355
 31
0.0
  0
LINE
  5
12F3E
  8
0
 62
     5
 10
89.183147
 20
404.92355
 30
0.0
 11
88.623147
 21
404.92355
 31
0.0
  0
LINE
  5
12F3F
  8
0
 62
     5
 10
89.330348
 20
405.06355
 30
0.0
 11
89.386348
 21
405.06355
 31
0.0
  0
LINE
  5
12F40
  8
0
 62
     5
 10
89.386348
 20
405.34355
 30
0.0
 11
89.330348
 21
405.34355
 31
0.0
  0
LINE
  5
12F41
  8
0
 62
     5
 10
88.623147
 20
405.48355
 30
0.0
 11
89.183147
 21
405.48355
 31
0.0
  0
LINE
  5
12F42
  8
0
 62
     5
 10
88.623147
 20
404.92355
 30
0.0
 11
89.330348
 21
405.06355
 31
0.0
  0
ARC
  5
12F43
  8
0
 62
     5
 10
90.401235
 20
405.20355
 30
0.0
 40
1.08
 50
172.551809
 51
187.448191
  0
ARC
  5
12F44
  8
0
 62
     5
 10
90.401235
 20
405.20355
 30
0.0
 40
1.8
 50
171.050982
 51
188.949018
  0
CIRCLE
  5
12F45
  8
0
 62
     5
 10
90.401235
 20
405.20355
 30
0.0
 40
2.75
  0
LINE
  5
12F46
  8
0
 62
     5
 10
86.037577
 20
400.703781
 30
0.0
 11
90.401097
 21
400.703781
 31
0.0
  0
LINE
  5
12F47
  8
0
 62
     5
 10
89.777871
 20
404.580185
 30
0.0
 11
91.0246
 21
405.826914
 31
0.0
  0
LINE
  5
12F48
  8
0
 62
     5
 10
91.0246
 20
404.580185
 30
0.0
 11
89.777871
 21
405.826914
 31
0.0
  0
LINE
  5
12F49
  8
0
 62
     5
 10
89.777871
 20
405.826914
 30
0.0
 11
90.121235
 21
406.421639
 31
0.0
  0
LINE
  5
12F4A
  8
0
 62
     5
 10
90.261235
 20
406.218437
 30
0.0
 11
89.941004
 21
405.663781
 31
0.0
  0
LINE
  5
12F4B
  8
0
 62
     5
 10
90.121235
 20
403.985461
 30
0.0
 11
89.777871
 21
404.580185
 31
0.0
  0
LINE
  5
12F4C
  8
0
 62
     5
 10
89.941004
 20
404.743319
 30
0.0
 11
90.261235
 21
404.188662
 31
0.0
  0
LINE
  5
12F4D
  8
0
 62
     5
 10
89.330348
 20
405.34355
 30
0.0
 11
91.472123
 21
405.06355
 31
0.0
  0
LINE
  5
12F4E
  8
0
 62
     5
 10
89.386348
 20
405.34355
 30
0.0
 11
91.416123
 21
405.06355
 31
0.0
  0
LINE
  5
12F4F
  8
0
 62
     5
 10
89.386348
 20
405.06355
 30
0.0
 11
91.416123
 21
405.34355
 31
0.0
  0
LINE
  5
12F50
  8
0
 62
     5
 10
89.330348
 20
405.06355
 30
0.0
 11
91.472123
 21
405.34355
 31
0.0
  0
LINE
  5
12F51
  8
0
 62
     5
 10
85.854779
 20
409.64261
 30
0.0
 11
78.59981
 21
409.64261
 31
0.0
  0
LINE
  5
12F52
  8
0
 62
     5
 10
151.59981
 20
344.893855
 30
0.0
 11
151.59981
 21
394.391365
 31
0.0
  0
LINE
  5
12F53
  8
0
 62
     5
 10
151.903499
 20
394.670183
 30
0.0
 11
151.903499
 21
344.615037
 31
0.0
  0
ARC
  5
12F54
  8
0
 62
     5
 10
143.419615
 20
337.822805
 30
0.0
 40
5.196311
 50
93.919577
 51
176.080423
  0
ARC
  5
12F55
  8
0
 62
     5
 10
143.419615
 20
337.822805
 30
0.0
 40
5.5
 50
93.919577
 51
176.080423
  0
LINE
  5
12F56
  8
CENTER
 10
143.419615
 20
337.822805
 30
0.0
 11
140.025503
 21
341.216917
 31
0.0
  0
ARC
  5
12F57
  8
0
 62
     5
 10
137.162043
 20
339.581439
 30
0.0
 40
1.0
 50
270.0
 51
344.302463
  0
ARC
  5
12F58
  8
0
 62
     5
 10
132.798385
 20
334.08167
 30
0.0
 40
1.8
 50
81.05094
 51
98.949018
  0
LINE
  5
12F59
  8
0
 62
     5
 10
137.162043
 20
338.581439
 30
0.0
 11
132.798523
 21
338.581439
 31
0.0
  0
LINE
  5
12F5A
  8
0
 62
     5
 10
150.59981
 20
352.444035
 30
0.0
 11
147.16075
 21
352.444035
 31
0.0
  0
ARC
  5
12F5B
  8
0
 62
     5
 10
150.59981
 20
353.444035
 30
0.0
 40
1.0
 50
270.0
 51
0.0
  0
ARC
  5
12F5C
  8
0
 62
     5
 10
150.59981
 20
344.893855
 30
0.0
 40
1.0
 50
274.874146
 51
0.0
  0
LINE
  5
131BF
  8
0
 62
     5
 10
143.16075
 20
348.444035
 30
0.0
 11
143.16075
 21
344.199737
 31
0.0
  0
ARC
  5
131C0
  8
0
 62
     5
 10
142.16075
 20
344.199737
 30
0.0
 40
1.0
 50
281.167133
 51
0.0
  0
ARC
  5
131C1
  8
0
 62
     5
 10
111.59981
 20
802.233991
 30
0.0
 40
460.303689
 50
273.919577
 51
274.908938
  0
ARC
  5
131C2
  8
0
 62
     5
 10
111.59981
 20
802.233991
 30
0.0
 40
460.0
 50
273.919577
 51
274.874146
  0
ARC
  5
131C3
  8
0
 62
     5
 10
147.16075
 20
348.444035
 30
0.0
 40
4.0
 50
90.0
 51
180.0
  0
LINE
  5
131C4
  8
0
 62
     5
 10
151.59981
 20
336.64261
 30
0.0
 11
151.59981
 21
343.897579
 31
0.0
  0
LINE
  5
131C5
  8
0
 62
     5
 10
94.901097
 20
405.203781
 30
0.0
 11
94.901097
 21
408.64261
 31
0.0
  0
ARC
  5
131C6
  8
0
 62
     5
 10
95.901097
 20
408.64261
 30
0.0
 40
1.0
 50
90.0
 51
180.0
  0
ARC
  5
131C7
  8
CENTER
 10
111.59981
 20
369.64261
 30
0.0
 40
45.0
 50
36.887245
 51
52.596169
  0
CIRCLE
  5
131C8
  8
0
 62
     5
 10
143.419615
 20
401.462415
 30
0.0
 40
3.3
  0
ARC
  5
131C9
  8
0
 62
     5
 10
143.419615
 20
401.462415
 30
0.0
 40
5.196311
 50
183.919577
 51
266.080423
  0
ARC
  5
131CA
  8
0
 62
     5
 10
143.419615
 20
401.462415
 30
0.0
 40
5.5
 50
183.919577
 51
266.080423
  0
LINE
  5
131CB
  8
CENTER
 10
143.419615
 20
401.462415
 30
0.0
 11
140.025503
 21
398.068303
 31
0.0
  0
LINE
  5
131CC
  8
0
 62
     5
 10
151.59981
 20
395.387641
 30
0.0
 11
151.59981
 21
402.64261
 31
0.0
  0
ARC
  5
131CD
  8
0
 62
     5
 10
147.16075
 20
390.841185
 30
0.0
 40
1.8
 50
261.050982
 51
278.949018
  0
CIRCLE
  5
131CE
  8
0
 62
     5
 10
147.16075
 20
390.841185
 30
0.0
 40
2.75
  0
ARC
  5
131CF
  8
0
 62
     5
 10
147.16075
 20
390.841185
 30
0.0
 40
2.95
 50
276.813854
 51
263.186146
  0
CIRCLE
  5
131D0
  8
0
 62
     5
 10
147.16075
 20
390.841185
 30
0.0
 40
3.0
  0
LINE
  5
131D1
  8
0
 62
     5
 10
146.81075
 20
388.115924
 30
0.0
 11
146.81075
 21
387.912021
 31
0.0
  0
LINE
  5
131D2
  8
0
 62
     5
 10
147.51075
 20
387.912021
 30
0.0
 11
147.51075
 21
388.115924
 31
0.0
  0
LINE
  5
131D3
  8
0
 62
     5
 10
148.938839
 20
391.121185
 30
0.0
 11
148.231637
 21
390.981185
 31
0.0
  0
LINE
  5
131D4
  8
0
 62
     5
 10
148.938831
 20
390.561185
 30
0.0
 11
148.378839
 21
390.561185
 31
0.0
  0
LINE
  5
131D5
  8
0
 62
     5
 10
148.378839
 20
391.121185
 30
0.0
 11
148.938839
 21
391.121185
 31
0.0
  0
LINE
  5
131D6
  8
0
 62
     5
 10
148.938839
 20
390.561185
 30
0.0
 11
148.231637
 21
390.701185
 31
0.0
  0
LINE
  5
131D7
  8
0
 62
     5
 10
145.942661
 20
391.121185
 30
0.0
 11
146.537385
 21
391.464549
 31
0.0
  0
LINE
  5
131D8
  8
0
 62
     5
 10
146.700519
 20
391.301416
 30
0.0
 11
146.145862
 21
390.981185
 31
0.0
  0
LINE
  5
131D9
  8
0
 62
     5
 10
145.942661
 20
390.561185
 30
0.0
 11
146.145862
 21
390.701185
 31
0.0
  0
LINE
  5
131DA
  8
0
 62
     5
 10
148.378839
 20
391.121185
 30
0.0
 11
148.175637
 21
390.981185
 31
0.0
  0
LINE
  5
131DB
  8
0
 62
     5
 10
147.620981
 20
390.380954
 30
0.0
 11
148.175637
 21
390.701185
 31
0.0
  0
LINE
  5
131DC
  8
0
 62
     5
 10
148.378839
 20
390.561185
 30
0.0
 11
147.784114
 21
390.21782
 31
0.0
  0
LINE
  5
131DD
  8
0
 62
     5
 10
146.537385
 20
390.21782
 30
0.0
 11
147.784114
 21
391.464549
 31
0.0
  0
LINE
  5
131DE
  8
0
 62
     5
 10
147.44075
 20
392.059273
 30
0.0
 11
147.30075
 21
391.856072
 31
0.0
  0
LINE
  5
131DF
  8
0
 62
     5
 10
146.88075
 20
389.623096
 30
0.0
 11
147.02075
 21
389.826297
 31
0.0
  0
LINE
  5
131E0
  8
0
 62
     5
 10
146.537385
 20
391.464549
 30
0.0
 11
146.88075
 21
392.059273
 31
0.0
  0
LINE
  5
131E1
  8
0
 62
     5
 10
147.02075
 20
391.856072
 30
0.0
 11
146.700519
 21
391.301416
 31
0.0
  0
LINE
  5
131E2
  8
0
 62
     5
 10
147.30075
 20
389.826297
 30
0.0
 11
147.620981
 21
390.380954
 31
0.0
  0
LINE
  5
131E3
  8
0
 62
     5
 10
147.784114
 20
390.21782
 30
0.0
 11
147.44075
 21
389.623096
 31
0.0
  0
LINE
  5
131E4
  8
0
 62
     5
 10
145.382661
 20
390.561185
 30
0.0
 11
146.089862
 21
390.701185
 31
0.0
  0
LINE
  5
131E5
  8
0
 62
     5
 10
146.145862
 20
390.701185
 30
0.0
 11
148.175637
 21
390.981185
 31
0.0
  0
LINE
  5
131E6
  8
0
 62
     5
 10
146.089862
 20
390.701185
 30
0.0
 11
148.231637
 21
390.981185
 31
0.0
  0
LINE
  5
131E7
  8
0
 62
     5
 10
147.44075
 20
392.619273
 30
0.0
 11
147.30075
 21
391.912072
 31
0.0
  0
LINE
  5
131E8
  8
0
 62
     5
 10
146.88075
 20
389.063096
 30
0.0
 11
147.02075
 21
389.770297
 31
0.0
  0
LINE
  5
131E9
  8
0
 62
     5
 10
145.942661
 20
390.561185
 30
0.0
 11
145.382661
 21
390.561185
 31
0.0
  0
LINE
  5
131EA
  8
0
 62
     5
 10
146.089862
 20
390.701185
 30
0.0
 11
146.145862
 21
390.701185
 31
0.0
  0
LINE
  5
131EB
  8
0
 62
     5
 10
148.175637
 20
390.701185
 30
0.0
 11
148.231637
 21
390.701185
 31
0.0
  0
LINE
  5
131EC
  8
0
 62
     5
 10
148.231637
 20
390.981185
 30
0.0
 11
148.175637
 21
390.981185
 31
0.0
  0
LINE
  5
131ED
  8
0
 62
     5
 10
146.145862
 20
390.981185
 30
0.0
 11
146.089862
 21
390.981185
 31
0.0
  0
LINE
  5
131EE
  8
0
 62
     5
 10
145.382661
 20
391.121185
 30
0.0
 11
145.942661
 21
391.121185
 31
0.0
  0
LINE
  5
131EF
  8
0
 62
     5
 10
147.02075
 20
389.770297
 30
0.0
 11
147.30075
 21
391.912072
 31
0.0
  0
LINE
  5
131F0
  8
0
 62
     5
 10
147.02075
 20
389.826297
 30
0.0
 11
147.30075
 21
391.856072
 31
0.0
  0
LINE
  5
131F1
  8
0
 62
     5
 10
146.089862
 20
390.981185
 30
0.0
 11
148.231637
 21
390.701185
 31
0.0
  0
LINE
  5
131F2
  8
0
 62
     5
 10
146.145862
 20
390.981185
 30
0.0
 11
148.175637
 21
390.701185
 31
0.0
  0
LINE
  5
131F3
  8
0
 62
     5
 10
146.88075
 20
389.063096
 30
0.0
 11
146.88075
 21
389.623096
 31
0.0
  0
LINE
  5
131F4
  8
0
 62
     5
 10
146.88075
 20
392.059273
 30
0.0
 11
146.88075
 21
392.619273
 31
0.0
  0
LINE
  5
131F5
  8
0
 62
     5
 10
147.02075
 20
391.912072
 30
0.0
 11
147.02075
 21
391.856072
 31
0.0
  0
LINE
  5
131F6
  8
0
 62
     5
 10
147.02075
 20
389.826297
 30
0.0
 11
147.02075
 21
389.770297
 31
0.0
  0
LINE
  5
131F7
  8
0
 62
     5
 10
147.30075
 20
389.770297
 30
0.0
 11
147.30075
 21
389.826297
 31
0.0
  0
LINE
  5
131F8
  8
0
 62
     5
 10
147.30075
 20
391.856072
 30
0.0
 11
147.30075
 21
391.912072
 31
0.0
  0
LINE
  5
131F9
  8
0
 62
     5
 10
147.44075
 20
392.619266
 30
0.0
 11
147.44075
 21
392.059273
 31
0.0
  0
LINE
  5
131FA
  8
0
 62
     5
 10
147.44075
 20
389.623096
 30
0.0
 11
147.44075
 21
389.063096
 31
0.0
  0
LINE
  5
131FB
  8
0
 62
     5
 10
145.382661
 20
391.121185
 30
0.0
 11
146.089862
 21
390.981185
 31
0.0
  0
LINE
  5
131FC
  8
0
 62
     5
 10
146.537385
 20
390.21782
 30
0.0
 11
145.942661
 21
390.561185
 31
0.0
  0
LINE
  5
131FD
  8
0
 62
     5
 10
147.44075
 20
389.063096
 30
0.0
 11
147.30075
 21
389.770297
 31
0.0
  0
LINE
  5
131FE
  8
0
 62
     5
 10
146.88075
 20
392.619273
 30
0.0
 11
147.02075
 21
391.912072
 31
0.0
  0
LINE
  5
131FF
  8
0
 62
     5
 10
147.30075
 20
389.826297
 30
0.0
 11
147.02075
 21
391.856072
 31
0.0
  0
LINE
  5
13200
  8
0
 62
     5
 10
147.30075
 20
389.770297
 30
0.0
 11
147.02075
 21
391.912072
 31
0.0
  0
LINE
  5
13201
  8
0
 62
     5
 10
146.145862
 20
390.701185
 30
0.0
 11
146.700519
 21
390.380954
 31
0.0
  0
LINE
  5
13202
  8
0
 62
     5
 10
148.175637
 20
390.981185
 30
0.0
 11
147.620981
 21
391.301416
 31
0.0
  0
LINE
  5
13203
  8
0
 62
     5
 10
147.784114
 20
391.464549
 30
0.0
 11
148.378839
 21
391.121185
 31
0.0
  0
LINE
  5
13204
  8
0
 62
     5
 10
145.942661
 20
391.121185
 30
0.0
 11
146.145862
 21
390.981185
 31
0.0
  0
LINE
  5
13205
  8
0
 62
     5
 10
148.378839
 20
390.561185
 30
0.0
 11
148.175637
 21
390.701185
 31
0.0
  0
LINE
  5
13206
  8
0
 62
     5
 10
147.784114
 20
390.21782
 30
0.0
 11
146.537385
 21
391.464549
 31
0.0
  0
LINE
  5
13207
  8
0
 62
     5
 10
147.44075
 20
389.623096
 30
0.0
 11
147.30075
 21
389.826297
 31
0.0
  0
LINE
  5
13208
  8
0
 62
     5
 10
146.88075
 20
392.059273
 30
0.0
 11
147.02075
 21
391.856072
 31
0.0
  0
LINE
  5
13209
  8
0
 62
     5
 10
146.88075
 20
389.623096
 30
0.0
 11
146.537385
 21
390.21782
 31
0.0
  0
LINE
  5
1320A
  8
0
 62
     5
 10
146.700519
 20
390.380954
 30
0.0
 11
147.02075
 21
389.826297
 31
0.0
  0
LINE
  5
1320B
  8
0
 62
     5
 10
147.620981
 20
391.301416
 30
0.0
 11
147.30075
 21
391.856072
 31
0.0
  0
LINE
  5
1320C
  8
0
 62
     5
 10
147.44075
 20
392.059273
 30
0.0
 11
147.784114
 21
391.464549
 31
0.0
  0
ARC
  5
1320D
  8
0
 62
     5
 10
147.16075
 20
390.841185
 30
0.0
 40
1.08
 50
172.551809
 51
187.448191
  0
ARC
  5
1320E
  8
0
 62
     5
 10
147.16075
 20
390.841185
 30
0.0
 40
1.08
 50
262.551809
 51
277.448191
  0
ARC
  5
1320F
  8
0
 62
     5
 10
147.16075
 20
390.841185
 30
0.0
 40
1.08
 50
352.551809
 51
7.448191
  0
ARC
  5
13210
  8
0
 62
     5
 10
147.16075
 20
390.841185
 30
0.0
 40
1.08
 50
82.551809
 51
97.448191
  0
ARC
  5
13211
  8
0
 62
     5
 10
147.16075
 20
390.841185
 30
0.0
 40
1.8
 50
171.050982
 51
188.949018
  0
ARC
  5
13212
  8
0
 62
     5
 10
147.16075
 20
390.841185
 30
0.0
 40
1.8
 50
81.05094
 51
98.949018
  0
ARC
  5
13213
  8
0
 62
     5
 10
150.59981
 20
394.391365
 30
0.0
 40
1.0
 50
0.0
 51
85.125854
  0
ARC
  5
13476
  8
0
 62
     5
 10
147.16075
 20
390.841185
 30
0.0
 40
1.8
 50
351.05094
 51
8.949018
  0
ARC
  5
13477
  8
0
 62
     5
 10
141.660981
 20
395.204843
 30
0.0
 40
1.0
 50
0.0
 51
74.302463
  0
LINE
  5
13478
  8
0
 62
     5
 10
142.660981
 20
395.204843
 30
0.0
 11
142.660981
 21
390.841323
 31
0.0
  0
ARC
  5
13479
  8
0
 62
     5
 10
111.59981
 20
-62.948771
 30
0.0
 40
460.303689
 50
85.091062
 51
86.080423
  0
ARC
  5
1347A
  8
0
 62
     5
 10
111.59981
 20
-62.948771
 30
0.0
 40
460.0
 50
85.125854
 51
86.080423
  0
LINE
  5
1347B
  8
0
 62
     5
 10
147.160981
 20
386.341323
 30
0.0
 11
150.59981
 21
386.341323
 31
0.0
  0
ARC
  5
1347C
  8
0
 62
     5
 10
150.59981
 20
385.341323
 30
0.0
 40
1.0
 50
0.0
 51
90.0
  0
ARC
  5
1347D
  8
0
 62
     5
 10
147.160981
 20
390.841323
 30
0.0
 40
4.5
 50
180.0
 51
270.0
  0
LINE
  5
1347E
  8
0
 62
     5
 10
144.59981
 20
409.64261
 30
0.0
 11
137.344841
 21
409.64261
 31
0.0
  0
ARC
  5
1347F
  8
0
 62
     5
 10
-320.991571
 20
369.64261
 30
0.0
 40
460.303689
 50
3.919577
 51
4.908938
  0
ARC
  5
13480
  8
0
 62
     5
 10
-320.991571
 20
369.64261
 30
0.0
 40
460.0
 50
3.919577
 51
4.874146
  0
ARC
  5
13481
  8
0
 62
     5
 10
137.042683
 20
400.20355
 30
0.0
 40
1.0
 50
11.167133
 51
90.0
  0
ARC
  5
136E4
  8
0
 62
     5
 10
136.348565
 20
408.64261
 30
0.0
 40
1.0
 50
4.874146
 51
90.0
  0
ARC
  5
136E5
  8
0
 62
     5
 10
132.798385
 20
405.20355
 30
0.0
 40
4.0
 50
180.0
 51
270.0
  0
LINE
  5
136E6
  8
0
 62
     5
 10
128.798385
 20
408.64261
 30
0.0
 11
128.798385
 21
405.20355
 31
0.0
  0
ARC
  5
136E7
  8
0
 62
     5
 10
127.798385
 20
408.64261
 30
0.0
 40
1.0
 50
0.0
 51
90.0
  0
LINE
  5
136E8
  8
0
 62
     5
 10
132.798385
 20
401.20355
 30
0.0
 11
137.042683
 21
401.20355
 31
0.0
  0
LINE
  5
136E9
  8
CENTER
 10
143.419615
 20
401.462415
 30
0.0
 11
146.813728
 21
404.856528
 31
0.0
  0
ARC
  5
136EA
  8
0
 62
     5
 10
144.59981
 20
402.64261
 30
0.0
 40
7.0
 50
0.0
 51
90.0
  0
CIRCLE
  5
136EB
  8
0
 62
     5
 10
411.750057
 20
405.20355
 30
0.0
 40
1.65
  0
LINE
  5
136EC
  8
HIDDEN
 10
409.198632
 20
323.74261
 30
0.0
 11
411.498632
 21
323.74261
 31
0.0
  0
LINE
  5
136ED
  8
0
 62
     5
 10
407.483777
 20
326.24261
 30
0.0
 11
434.282444
 21
326.24261
 31
0.0
  0
CIRCLE
  5
136EE
  8
0
 62
     5
 10
432.948632
 20
369.64261
 30
0.0
 40
35.0
  0
CIRCLE
  5
136EF
  8
0
 62
     5
 10
432.948632
 20
369.64261
 30
0.0
 40
34.8
  0
LINE
  5
136F0
  8
CENTER
 10
475.364245
 20
369.64261
 30
0.0
 11
390.471866
 21
369.64261
 31
0.0
  0
LINE
  5
136F1
  8
0
 62
     5
 10
399.948632
 20
329.64261
 30
0.0
 11
465.948632
 21
329.64261
 31
0.0
  0
LINE
  5
136F2
  8
0
 62
     5
 10
465.948632
 20
409.64261
 30
0.0
 11
399.948632
 21
409.64261
 31
0.0
  0
LINE
  5
136F3
  8
0
 62
     5
 10
457.976205
 20
409.946299
 30
0.0
 11
407.921059
 21
409.946299
 31
0.0
  0
LINE
  5
136F4
  8
0
 62
     5
 10
222.809481
 20
343.69817
 30
0.0
 11
292.409481
 21
343.69817
 31
0.0
  0
LINE
  5
136F5
  8
0
 62
     5
 10
222.809481
 20
395.58705
 30
0.0
 11
292.409481
 21
395.58705
 31
0.0
  0
LINE
  5
136F6
  8
0
 62
     5
 10
292.409481
 20
409.64261
 30
0.0
 11
222.809481
 21
409.946299
 31
0.0
  0
LINE
  5
136F7
  8
CENTER
 10
184.674511
 20
369.562756
 30
0.0
 11
349.988968
 21
369.64261
 31
0.0
  0
LINE
  5
136F8
  8
0
 62
     5
 10
292.409481
 20
329.64261
 30
0.0
 11
242.107299
 21
329.423124
 31
0.0
  0
LINE
  5
136F9
  8
0
 62
     5
 10
190.609481
 20
344.317978
 30
0.0
 11
190.609481
 21
327.84261
 31
0.0
  0
LINE
  5
137BC
  8
0
 62
     5
 10
208.909481
 20
331.152507
 30
0.0
 11
208.909481
 21
337.029868
 31
0.0
  0
LINE
  5
137BD
  8
0
 62
     5
 10
209.609481
 20
331.084475
 30
0.0
 11
209.609481
 21
337.078865
 31
0.0
  0
LINE
  5
137BE
  8
0
 62
     5
 10
210.109481
 20
329.84261
 30
0.0
 11
210.109481
 21
338.193806
 31
0.0
  0
LINE
  5
137BF
  8
0
 62
     5
 10
214.109481
 20
335.094118
 30
0.0
 11
214.109481
 21
344.677074
 31
0.0
  0
LINE
  5
137C0
  8
0
 62
     5
 10
214.609481
 20
409.44261
 30
0.0
 11
214.609481
 21
329.64261
 31
0.0
  0
LINE
  5
137C1
  8
0
 62
     5
 10
222.809481
 20
329.338921
 30
0.0
 11
222.809481
 21
409.946299
 31
0.0
  0
LINE
  5
137C2
  8
0
 62
     5
 10
222.609481
 20
329.64261
 30
0.0
 11
214.809481
 21
329.64261
 31
0.0
  0
LINE
  5
137C3
  8
HIDDEN
 10
220.90047
 20
326.04261
 30
0.0
 11
219.638481
 21
326.943506
 31
0.0
  0
LINE
  5
137C4
  8
HIDDEN
 10
220.90047
 20
314.84261
 30
0.0
 11
219.638481
 21
313.941714
 31
0.0
  0
LINE
  5
137C5
  8
CENTER
 10
202.409481
 20
330.64261
 30
0.0
 11
202.409481
 21
312.092213
 31
0.0
  0
LINE
  5
137C6
  8
HIDDEN
 10
218.710978
 20
313.64261
 30
0.0
 11
199.046408
 21
313.642614
 31
0.0
  0
LINE
  5
137C7
  8
0
 62
     5
 10
200.378905
 20
322.44261
 30
0.0
 11
206.731201
 21
322.44261
 31
0.0
  0
LINE
  5
137C8
  8
0
 62
     5
 10
192.532768
 20
326.64261
 30
0.0
 11
212.286194
 21
326.64261
 31
0.0
  0
LINE
  5
137C9
  8
0
 62
     5
 10
209.654941
 20
322.14261
 30
0.0
 11
195.164021
 21
322.14261
 31
0.0
  0
LINE
  5
137CA
  8
HIDDEN
 10
211.498988
 20
326.64261
 30
0.0
 11
192.532768
 21
326.64261
 31
0.0
  0
LINE
  5
137CB
  8
0
 62
     5
 10
213.909481
 20
327.64261
 30
0.0
 11
190.809481
 21
327.64261
 31
0.0
  0
LINE
  5
137CC
  8
0
 62
     5
 10
191.609481
 20
329.64261
 30
0.0
 11
214.609481
 21
329.64261
 31
0.0
  0
LINE
  5
137CD
  8
0
 62
     5
 10
200.342344
 20
322.14261
 30
0.0
 11
200.378905
 21
322.44261
 31
0.0
  0
LINE
  5
137CE
  8
0
 62
     5
 10
200.378905
 20
322.74261
 30
0.0
 11
200.378905
 21
322.44261
 31
0.0
  0
LINE
  5
137CF
  8
0
 62
     5
 10
192.53273
 20
326.64261
 30
0.0
 11
192.53273
 21
327.64261
 31
0.0
  0
LINE
  5
137D0
  8
0
 62
     5
 10
195.164021
 20
322.14261
 30
0.0
 11
194.866257
 21
322.44261
 31
0.0
  0
LINE
  5
137D1
  8
0
 62
     5
 10
195.310264
 20
322.14261
 30
0.0
 11
195.012501
 21
322.44261
 31
0.0
  0
LINE
  5
137D2
  8
0
 62
     5
 10
196.109325
 20
322.44261
 30
0.0
 11
196.407088
 21
322.14261
 31
0.0
  0
LINE
  5
137D3
  8
0
 62
     5
 10
196.255568
 20
322.44261
 30
0.0
 11
196.553332
 21
322.14261
 31
0.0
  0
LINE
  5
137D4
  8
0
 62
     5
 10
195.012501
 20
325.44261
 30
0.0
 11
196.109325
 21
325.44261
 31
0.0
  0
LINE
  5
137D5
  8
0
 62
     5
 10
194.866257
 20
322.74261
 30
0.0
 11
194.866257
 21
322.44261
 31
0.0
  0
LINE
  5
137D6
  8
0
 62
     5
 10
196.255568
 20
322.44261
 30
0.0
 11
196.255568
 21
322.74261
 31
0.0
  0
LINE
  5
137D7
  8
0
 62
     5
 10
194.866257
 20
322.44261
 30
0.0
 11
195.012501
 21
322.44261
 31
0.0
  0
LINE
  5
137D8
  8
0
 62
     5
 10
196.109325
 20
322.44261
 30
0.0
 11
196.255568
 21
322.44261
 31
0.0
  0
LINE
  5
137D9
  8
0
 62
     5
 10
194.632828
 20
322.74261
 30
0.0
 11
194.866257
 21
322.74261
 31
0.0
  0
LINE
  5
137DA
  8
0
 62
     5
 10
195.012501
 20
322.44261
 30
0.0
 11
195.012501
 21
325.44261
 31
0.0
  0
LINE
  5
137DB
  8
0
 62
     5
 10
196.109325
 20
325.44261
 30
0.0
 11
196.109325
 21
322.44261
 31
0.0
  0
LINE
  5
137DC
  8
0
 62
     5
 10
194.63273
 20
326.64261
 30
0.0
 11
194.63273
 21
322.74261
 31
0.0
  0
LINE
  5
137DD
  8
0
 62
     5
 10
196.255568
 20
322.74261
 30
0.0
 11
200.378905
 21
322.74261
 31
0.0
  0
LINE
  5
137DE
  8
HIDDEN
 10
192.53273
 20
322.34261
 30
0.0
 11
192.53273
 21
327.64261
 31
0.0
  0
ARC
  5
137DF
  8
0
 62
     5
 10
190.809481
 20
327.84261
 30
0.0
 40
0.2
 50
180.0
 51
270.0
  0
ARC
  5
137E0
  8
0
 62
     5
 10
191.609481
 20
330.64261
 30
0.0
 40
1.0
 50
180.0
 51
270.0
  0
LINE
  5
137E1
  8
0
 62
     5
 10
212.286232
 20
326.64261
 30
0.0
 11
212.286232
 21
327.64261
 31
0.0
  0
LINE
  5
137E2
  8
0
 62
     5
 10
209.654941
 20
322.14261
 30
0.0
 11
209.952705
 21
322.44261
 31
0.0
  0
LINE
  5
137E3
  8
0
 62
     5
 10
209.952705
 20
322.74261
 30
0.0
 11
209.952705
 21
322.44261
 31
0.0
  0
LINE
  5
137E4
  8
0
 62
     5
 10
206.69464
 20
322.14261
 30
0.0
 11
206.731201
 21
322.44261
 31
0.0
  0
LINE
  5
137E5
  8
0
 62
     5
 10
206.731201
 20
322.44261
 30
0.0
 11
206.731201
 21
322.74261
 31
0.0
  0
LINE
  5
137E6
  8
0
 62
     5
 10
210.186134
 20
322.74261
 30
0.0
 11
206.731201
 21
322.74261
 31
0.0
  0
LINE
  5
137E7
  8
0
 62
     5
 10
210.186232
 20
326.64261
 30
0.0
 11
210.186232
 21
322.74261
 31
0.0
  0
ARC
  5
137E8
  8
0
 62
     5
 10
210.309481
 20
329.84261
 30
0.0
 40
0.2
 50
180.0
 51
270.0
  0
LINE
  5
137E9
  8
0
 62
     5
 10
214.109481
 20
329.64261
 30
0.0
 11
214.109481
 21
327.84261
 31
0.0
  0
ARC
  5
137EA
  8
0
 62
     5
 10
214.809481
 20
329.84261
 30
0.0
 40
0.2
 50
180.0
 51
270.0
  0
ARC
  5
137EB
  8
0
 62
     5
 10
213.909481
 20
327.84261
 30
0.0
 40
0.2
 50
270.0
 51
0.0
  0
ARC
  5
138CE
  8
0
 62
     5
 10
208.909481
 20
333.265494
 30
0.0
 40
1.933824
 50
210.580287
 51
270.0
  0
LINE
  5
138CF
  8
0
 62
     5
 10
207.244619
 20
332.303581
 30
0.0
 11
207.244619
 21
332.28167
 31
0.0
  0
LINE
  5
13B36
  8
0
 62
     5
 10
209.609481
 20
331.152507
 30
0.0
 11
208.909481
 21
331.152507
 31
0.0
  0
LINE
  5
13B37
  8
0
 62
     5
 10
207.244619
 20
334.36167
 30
0.0
 11
207.244619
 21
333.801669
 31
0.0
  0
LINE
  5
13B38
  8
0
 62
     5
 10
207.244619
 20
333.80167
 30
0.0
 11
207.024913
 21
333.80167
 31
0.0
  0
LINE
  5
13B39
  8
0
 62
     5
 10
207.024913
 20
334.36167
 30
0.0
 11
207.244619
 21
334.36167
 31
0.0
  0
LINE
  5
13F44
  8
0
 62
     5
 10
210.109481
 20
331.08167
 30
0.0
 11
209.609481
 21
331.08167
 31
0.0
  0
LINE
  5
13F45
  8
HIDDEN
 10
212.286232
 20
327.24261
 30
0.0
 11
212.286232
 21
327.64261
 31
0.0
  0
LINE
  5
13F46
  8
HIDDEN
 10
218.710978
 20
327.24261
 30
0.0
 11
215.119432
 21
327.24261
 31
0.0
  0
LINE
  5
13F47
  8
HIDDEN
 10
251.210725
 20
315.84261
 30
0.0
 11
265.661448
 21
315.84261
 31
0.0
  0
LINE
  5
13F48
  8
HIDDEN
 10
251.21079
 20
322.34261
 30
0.0
 11
265.661448
 21
322.34261
 31
0.0
  0
LINE
  5
13F49
  8
HIDDEN
 10
250.811269
 20
314.70368
 30
0.0
 11
247.646842
 21
312.858334
 31
0.0
  0
LINE
  5
13F4A
  8
CENTER
 10
232.109481
 20
329.94261
 30
0.0
 11
232.109481
 21
311.04261
 31
0.0
  0
ARC
  5
13F4B
  8
HIDDEN
 10
231.759481
 20
318.54261
 30
0.0
 40
6.0
 50
180.0
 51
270.0
  0
LINE
  5
13F4C
  8
HIDDEN
 10
240.839942
 20
312.54261
 30
0.0
 11
231.759481
 21
312.54261
 31
0.0
  0
LINE
  5
13F4D
  8
HIDDEN
 10
247.644504
 20
312.857
 30
0.0
 11
247.64045
 21
312.854828
 31
0.0
  0
LINE
  5
13F4E
  8
HIDDEN
 10
247.646842
 20
312.858334
 30
0.0
 11
247.644504
 21
312.857
 31
0.0
  0
POLYLINE
  5
13F4F
  8
HIDDEN
 66
     1
 10
0.0
 20
0.0
 30
0.0
  0
VERTEX
  5
18547
  8
HIDDEN
 10
247.077104
 20
312.54261
 30
0.0
  0
VERTEX
  5
18548
  8
HIDDEN
 10
247.070138
 20
312.542859
 30
0.0
  0
VERTEX
  5
18549
  8
HIDDEN
 10
247.063747
 20
312.543527
 30
0.0
  0
VERTEX
  5
1854A
  8
HIDDEN
 10
247.057357
 20
312.544615
 30
0.0
  0
VERTEX
  5
1854B
  8
HIDDEN
 10
247.050967
 20
312.546122
 30
0.0
  0
SEQEND
  5
1854C
  8
HIDDEN
  0
POLYLINE
  5
13F56
  8
HIDDEN
 66
     1
 10
0.0
 20
0.0
 30
0.0
  0
VERTEX
  5
1854D
  8
HIDDEN
 10
247.089313
 20
312.543376
 30
0.0
  0
VERTEX
  5
1854E
  8
HIDDEN
 10
247.082922
 20
312.542784
 30
0.0
  0
VERTEX
  5
1854F
  8
HIDDEN
 10
247.077104
 20
312.54261
 30
0.0
  0
SEQEND
  5
18550
  8
HIDDEN
  0
LINE
  5
13F5B
  8
HIDDEN
 10
247.050967
 20
312.54261
 30
0.0
 11
241.741086
 21
312.54261
 31
0.0
  0
LINE
  5
13F5C
  8
HIDDEN
 10
241.714949
 20
312.546122
 30
0.0
 11
247.050967
 21
312.546122
 31
0.0
  0
LINE
  5
13F5D
  8
0
 62
     5
 10
241.109481
 20
326.24261
 30
0.0
 11
223.959481
 21
326.24261
 31
0.0
  0
LINE
  5
13F5E
  8
0
 62
     5
 10
223.961663
 20
329.629602
 30
0.0
 11
240.842863
 21
329.63281
 31
0.0
  0
ARC
  5
13F5F
  8
HIDDEN
 10
202.979272
 20
320.442572
 30
0.0
 40
20.953986
 50
349.968214
 51
10.031792
  0
LINE
  5
13F60
  8
0
 62
     5
 10
234.955076
 20
320.84261
 30
0.0
 11
235.025369
 21
326.24261
 31
0.0
  0
LINE
  5
13F61
  8
0
 62
     5
 10
235.812483
 20
326.24261
 30
0.0
 11
235.642781
 21
320.84261
 31
0.0
  0
LINE
  5
13F62
  8
0
 62
     5
 10
228.576181
 20
320.84261
 30
0.0
 11
235.642781
 21
320.84261
 31
0.0
  0
LINE
  5
13F63
  8
0
 62
     5
 10
229.193593
 20
326.24261
 30
0.0
 11
229.263886
 21
320.84261
 31
0.0
  0
LINE
  5
13F64
  8
0
 62
     5
 10
228.576181
 20
320.84261
 30
0.0
 11
228.406479
 21
326.24261
 31
0.0
  0
LINE
  5
13F65
  8
HIDDEN
 10
224.109481
 20
324.24261
 30
0.0
 11
224.109481
 21
326.24261
 31
0.0
  0
LINE
  5
13F66
  8
HIDDEN
 10
225.759481
 20
318.54261
 30
0.0
 11
225.759481
 21
323.74261
 31
0.0
  0
ARC
  5
13F67
  8
HIDDEN
 10
224.609481
 20
324.24261
 30
0.0
 40
0.5
 50
180.0
 51
270.0
  0
LINE
  5
13F68
  8
0
 62
     5
 10
223.459481
 20
328.839571
 30
0.0
 11
223.459481
 21
326.74261
 31
0.0
  0
LINE
  5
13F69
  8
0
 62
     5
 10
222.809481
 20
329.338921
 30
0.0
 11
223.079215
 21
329.340098
 31
0.0
  0
ARC
  5
13F6A
  8
0
 62
     5
 10
222.609481
 20
329.84261
 30
0.0
 40
0.2
 50
270.0
 51
0.0
  0
ARC
  5
13F6B
  8
0
 62
     5
 10
222.959481
 20
328.839571
 30
0.0
 40
0.5
 50
360.0
 51
90.250045
  0
ARC
  5
13F6C
  8
0
 62
     5
 10
223.959481
 20
326.74261
 30
0.0
 40
0.5
 50
180.0
 51
270.0
  0
LINE
  5
144F1
  8
HIDDEN
 10
225.759481
 20
323.74261
 30
0.0
 11
224.609481
 21
323.74261
 31
0.0
  0
LINE
  5
144F2
  8
HIDDEN
 10
222.260404
 20
314.84261
 30
0.0
 11
220.870839
 21
314.84261
 31
0.0
  0
LINE
  5
144F3
  8
HIDDEN
 10
222.260404
 20
326.04261
 30
0.0
 11
220.870839
 21
326.04261
 31
0.0
  0
LINE
  5
144F4
  8
HIDDEN
 10
223.612916
 20
316.79261
 30
0.0
 11
226.020361
 21
316.79261
 31
0.0
  0
LINE
  5
144F5
  8
HIDDEN
 10
223.612903
 20
324.09261
 30
0.0
 11
224.132511
 21
324.09261
 31
0.0
  0
ARC
  5
144F6
  8
0
 62
     5
 10
242.109481
 20
328.923129
 30
0.0
 40
0.5
 50
90.25
 51
180.0
  0
ARC
  5
144F7
  8
0
 62
     5
 10
241.109481
 20
326.74261
 30
0.0
 40
0.5
 50
270.0
 51
0.0
  0
LINE
  5
144F8
  8
0
 62
     5
 10
241.609481
 20
329.297902
 30
0.0
 11
241.609481
 21
326.74261
 31
0.0
  0
POLYLINE
  5
1495D
  8
HIDDEN
 66
     1
 10
0.0
 20
0.0
 30
0.0
  0
VERTEX
  5
18551
  8
HIDDEN
 10
247.077104
 20
325.64261
 30
0.0
  0
VERTEX
  5
18552
  8
HIDDEN
 10
247.08407
 20
325.642361
 30
0.0
  0
VERTEX
  5
18553
  8
HIDDEN
 10
247.090461
 20
325.641693
 30
0.0
  0
VERTEX
  5
18554
  8
HIDDEN
 10
247.096852
 20
325.640605
 30
0.0
  0
SEQEND
  5
18555
  8
HIDDEN
  0
POLYLINE
  5
14963
  8
HIDDEN
 66
     1
 10
0.0
 20
0.0
 30
0.0
  0
VERTEX
  5
18556
  8
HIDDEN
 10
247.064895
 20
325.641844
 30
0.0
  0
VERTEX
  5
18557
  8
HIDDEN
 10
247.071287
 20
325.642436
 30
0.0
  0
VERTEX
  5
18558
  8
HIDDEN
 10
247.077104
 20
325.64261
 30
0.0
  0
SEQEND
  5
18559
  8
HIDDEN
  0
LINE
  5
14968
  8
HIDDEN
 10
247.096852
 20
325.640605
 30
0.0
 11
247.103241
 21
325.639098
 31
0.0
  0
POLYLINE
  5
14969
  8
HIDDEN
 66
     1
 10
0.0
 20
0.0
 30
0.0
  0
VERTEX
  5
1855A
  8
HIDDEN
 10
250.811313
 20
323.481494
 30
0.0
  0
VERTEX
  5
1855B
  8
HIDDEN
 10
250.84937
 20
323.49249
 30
0.0
  0
VERTEX
  5
1855C
  8
HIDDEN
 10
250.898846
 20
323.473839
 30
0.0
  0
VERTEX
  5
1855D
  8
HIDDEN
 10
250.947898
 20
323.417572
 30
0.0
  0
VERTEX
  5
1855E
  8
HIDDEN
 10
250.996113
 20
323.324641
 30
0.0
  0
VERTEX
  5
1855F
  8
HIDDEN
 10
251.043069
 20
323.195374
 30
0.0
  0
VERTEX
  5
18560
  8
HIDDEN
 10
251.088381
 20
323.031326
 30
0.0
  0
VERTEX
  5
18561
  8
HIDDEN
 10
251.131642
 20
322.83346
 30
0.0
  0
VERTEX
  5
18562
  8
HIDDEN
 10
251.172509
 20
322.603882
 30
0.0
  0
VERTEX
  5
18563
  8
HIDDEN
 10
251.210601
 20
322.344157
 30
0.0
  0
VERTEX
  5
18564
  8
HIDDEN
 10
251.245631
 20
322.056866
 30
0.0
  0
VERTEX
  5
18565
  8
HIDDEN
 10
251.277258
 20
321.744125
 30
0.0
  0
VERTEX
  5
18566
  8
HIDDEN
 10
251.305257
 20
321.408907
 30
0.0
  0
VERTEX
  5
18567
  8
HIDDEN
 10
251.329341
 20
321.0538
 30
0.0
  0
VERTEX
  5
18568
  8
HIDDEN
 10
251.349357
 20
320.682068
 30
0.0
  0
VERTEX
  5
18569
  8
HIDDEN
 10
251.365079
 20
320.296689
 30
0.0
  0
VERTEX
  5
1856A
  8
HIDDEN
 10
251.376429
 20
319.901102
 30
0.0
  0
VERTEX
  5
1856B
  8
HIDDEN
 10
251.383234
 20
319.500295
 30
0.0
  0
VERTEX
  5
1856C
  8
HIDDEN
 10
251.385551
 20
319.092604
 30
0.0
  0
SEQEND
  5
1856D
  8
HIDDEN
  0
POLYLINE
  5
1497E
  8
HIDDEN
 66
     1
 10
0.0
 20
0.0
 30
0.0
  0
VERTEX
  5
1856E
  8
HIDDEN
 10
251.385551
 20
319.092604
 30
0.0
  0
VERTEX
  5
1856F
  8
HIDDEN
 10
251.383225
 20
318.684914
 30
0.0
  0
VERTEX
  5
18570
  8
HIDDEN
 10
251.376412
 20
318.284106
 30
0.0
  0
VERTEX
  5
18571
  8
HIDDEN
 10
251.365055
 20
317.88852
 30
0.0
  0
VERTEX
  5
18572
  8
HIDDEN
 10
251.349325
 20
317.503141
 30
0.0
  0
VERTEX
  5
18573
  8
HIDDEN
 10
251.329302
 20
317.131409
 30
0.0
  0
VERTEX
  5
18574
  8
HIDDEN
 10
251.30521
 20
316.776304
 30
0.0
  0
VERTEX
  5
18575
  8
HIDDEN
 10
251.277204
 20
316.441085
 30
0.0
  0
VERTEX
  5
18576
  8
HIDDEN
 10
251.245571
 20
316.128345
 30
0.0
  0
VERTEX
  5
18577
  8
HIDDEN
 10
251.210536
 20
315.841055
 30
0.0
  0
VERTEX
  5
18578
  8
HIDDEN
 10
251.172438
 20
315.581331
 30
0.0
  0
VERTEX
  5
18579
  8
HIDDEN
 10
251.131567
 20
315.351753
 30
0.0
  0
VERTEX
  5
1857A
  8
HIDDEN
 10
251.088302
 20
315.153889
 30
0.0
  0
VERTEX
  5
1857B
  8
HIDDEN
 10
251.042986
 20
314.989842
 30
0.0
  0
VERTEX
  5
1857C
  8
HIDDEN
 10
250.996028
 20
314.860575
 30
0.0
  0
VERTEX
  5
1857D
  8
HIDDEN
 10
250.947811
 20
314.767645
 30
0.0
  0
VERTEX
  5
1857E
  8
HIDDEN
 10
250.898758
 20
314.711379
 30
0.0
  0
VERTEX
  5
1857F
  8
HIDDEN
 10
250.849281
 20
314.69273
 30
0.0
  0
VERTEX
  5
18580
  8
HIDDEN
 10
250.811225
 20
314.703726
 30
0.0
  0
SEQEND
  5
18581
  8
HIDDEN
  0
LINE
  5
14993
  8
HIDDEN
 10
250.811269
 20
323.48154
 30
0.0
 11
247.553154
 21
325.381521
 31
0.0
  0
LINE
  5
14994
  8
HIDDEN
 10
247.064895
 20
325.641844
 30
0.0
 11
241.728877
 21
325.641844
 31
0.0
  0
LINE
  5
14A9B
  8
0
 62
     5
 10
214.609481
 20
343.976422
 30
0.0
 11
222.809481
 21
343.976422
 31
0.0
  0
LINE
  5
14A9C
  8
0
 62
     5
 10
214.609481
 20
395.308798
 30
0.0
 11
222.809481
 21
395.308798
 31
0.0
  0
LINE
  5
14A9D
  8
0
 62
     5
 10
214.809481
 20
409.64261
 30
0.0
 11
222.609481
 21
409.64261
 31
0.0
  0
LINE
  5
14A9E
  8
0
 62
     5
 10
190.609481
 20
395.014987
 30
0.0
 11
190.609481
 21
344.317978
 31
0.0
  0
LINE
  5
14A9F
  8
0
 62
     5
 10
214.109481
 20
352.244035
 30
0.0
 11
214.109481
 21
389.791185
 31
0.0
  0
LINE
  5
14AA0
  8
0
 62
     5
 10
191.609481
 20
343.317978
 30
0.0
 11
214.109481
 21
343.317978
 31
0.0
  0
LINE
  5
14AA1
  8
0
 62
     5
 10
209.609481
 20
338.581439
 30
0.0
 11
191.609481
 21
338.581439
 31
0.0
  0
LINE
  5
14AA2
  8
0
 62
     5
 10
191.609481
 20
352.444035
 30
0.0
 11
206.109481
 21
352.444035
 31
0.0
  0
ARC
  5
14AA3
  8
0
 62
     5
 10
191.609481
 20
344.317978
 30
0.0
 40
1.0
 50
180.0
 51
270.0
  0
ARC
  5
14AA4
  8
0
 62
     5
 10
191.609481
 20
353.444035
 30
0.0
 40
1.0
 50
180.0
 51
270.0
  0
ARC
  5
14AA5
  8
0
 62
     5
 10
191.609481
 20
339.581439
 30
0.0
 40
1.0
 50
180.0
 51
270.0
  0
LINE
  5
14AA6
  8
0
 62
     5
 10
209.909481
 20
352.44361
 30
0.0
 11
214.109481
 21
352.44361
 31
0.0
  0
ARC
  5
14AA7
  8
0
 62
     5
 10
213.609481
 20
349.417672
 30
0.0
 40
2.526364
 50
90.0
 51
153.522661
  0
LINE
  5
14AA8
  8
0
 62
     5
 10
211.348106
 20
350.544035
 30
0.0
 11
211.348106
 21
350.511182
 31
0.0
  0
LINE
  5
14C0D
  8
0
 62
     5
 10
214.609481
 20
352.244035
 30
0.0
 11
213.609481
 21
352.244035
 31
0.0
  0
LINE
  5
14C0E
  8
0
 62
     5
 10
214.609481
 20
352.69361
 30
0.0
 11
214.109481
 21
352.69361
 31
0.0
  0
ARC
  5
14C0F
  8
0
 62
     5
 10
206.109481
 20
351.944035
 30
0.0
 40
0.5
 50
0.0
 51
90.0
  0
ARC
  5
14C10
  8
0
 62
     5
 10
209.909481
 20
352.14361
 30
0.0
 40
0.3
 50
90.0
 51
180.0
  0
ARC
  5
14C11
  8
0
 62
     5
 10
213.609481
 20
347.470399
 30
0.0
 40
2.526364
 50
206.477339
 51
270.0
  0
LINE
  5
14C12
  8
0
 62
     5
 10
211.348106
 20
348.814035
 30
0.0
 11
211.348106
 21
348.074035
 31
0.0
  0
LINE
  5
14C13
  8
0
 62
     5
 10
211.348106
 20
348.074035
 30
0.0
 11
211.115649
 21
348.074035
 31
0.0
  0
LINE
  5
14C14
  8
0
 62
     5
 10
211.115649
 20
348.814035
 30
0.0
 11
211.348106
 21
348.814035
 31
0.0
  0
POLYLINE
  5
14E9D
  8
0
 62
     5
 66
     1
 10
0.0
 20
0.0
 30
0.0
 70
     8
  0
VERTEX
  5
14E9E
  8
0
 62
     5
 10
211.067
 20
349.164
 30
0.0
 70
    32
  0
VERTEX
  5
14E9F
  8
0
 62
     5
 10
211.067
 20
349.163
 30
0.0
 70
    32
  0
VERTEX
  5
14EA0
  8
0
 62
     5
 10
211.068
 20
349.161
 30
0.0
 70
    32
  0
VERTEX
  5
14EA1
  8
0
 62
     5
 10
211.068
 20
349.159
 30
0.0
 70
    32
  0
VERTEX
  5
14EA2
  8
0
 62
     5
 10
211.068
 20
349.157
 30
0.0
 70
    32
  0
VERTEX
  5
14EA3
  8
0
 62
     5
 10
211.068
 20
349.156
 30
0.0
 70
    32
  0
VERTEX
  5
14EA4
  8
0
 62
     5
 10
211.068
 20
349.154
 30
0.0
 70
    32
  0
VERTEX
  5
14EA5
  8
0
 62
     5
 10
211.068
 20
349.152
 30
0.0
 70
    32
  0
VERTEX
  5
14EA6
  8
0
 62
     5
 10
211.068
 20
349.15
 30
0.0
 70
    32
  0
VERTEX
  5
14EA7
  8
0
 62
     5
 10
211.069
 20
349.149
 30
0.0
 70
    32
  0
VERTEX
  5
14EA8
  8
0
 62
     5
 10
211.069
 20
349.147
 30
0.0
 70
    32
  0
VERTEX
  5
14EA9
  8
0
 62
     5
 10
211.069
 20
349.145
 30
0.0
 70
    32
  0
VERTEX
  5
14EAA
  8
0
 62
     5
 10
211.069
 20
349.143
 30
0.0
 70
    32
  0
VERTEX
  5
14EAB
  8
0
 62
     5
 10
211.069
 20
349.142
 30
0.0
 70
    32
  0
VERTEX
  5
14EAC
  8
0
 62
     5
 10
211.069
 20
349.14
 30
0.0
 70
    32
  0
VERTEX
  5
14EAD
  8
0
 62
     5
 10
211.069
 20
349.138
 30
0.0
 70
    32
  0
VERTEX
  5
14EAE
  8
0
 62
     5
 10
211.069
 20
349.136
 30
0.0
 70
    32
  0
VERTEX
  5
14EAF
  8
0
 62
     5
 10
211.07
 20
349.135
 30
0.0
 70
    32
  0
VERTEX
  5
14EB0
  8
0
 62
     5
 10
211.07
 20
349.133
 30
0.0
 70
    32
  0
VERTEX
  5
14EB1
  8
0
 62
     5
 10
211.07
 20
349.131
 30
0.0
 70
    32
  0
VERTEX
  5
14EB2
  8
0
 62
     5
 10
211.07
 20
349.129
 30
0.0
 70
    32
  0
VERTEX
  5
14EB3
  8
0
 62
     5
 10
211.07
 20
349.128
 30
0.0
 70
    32
  0
VERTEX
  5
14EB4
  8
0
 62
     5
 10
211.07
 20
349.126
 30
0.0
 70
    32
  0
VERTEX
  5
14EB5
  8
0
 62
     5
 10
211.07
 20
349.124
 30
0.0
 70
    32
  0
VERTEX
  5
14EB6
  8
0
 62
     5
 10
211.071
 20
349.122
 30
0.0
 70
    32
  0
VERTEX
  5
14EB7
  8
0
 62
     5
 10
211.071
 20
349.12
 30
0.0
 70
    32
  0
VERTEX
  5
14EB8
  8
0
 62
     5
 10
211.071
 20
349.119
 30
0.0
 70
    32
  0
VERTEX
  5
14EB9
  8
0
 62
     5
 10
211.071
 20
349.117
 30
0.0
 70
    32
  0
VERTEX
  5
14EBA
  8
0
 62
     5
 10
211.071
 20
349.115
 30
0.0
 70
    32
  0
VERTEX
  5
14EBB
  8
0
 62
     5
 10
211.071
 20
349.113
 30
0.0
 70
    32
  0
VERTEX
  5
14EBC
  8
0
 62
     5
 10
211.071
 20
349.112
 30
0.0
 70
    32
  0
VERTEX
  5
14EBD
  8
0
 62
     5
 10
211.072
 20
349.11
 30
0.0
 70
    32
  0
VERTEX
  5
14EBE
  8
0
 62
     5
 10
211.072
 20
349.108
 30
0.0
 70
    32
  0
VERTEX
  5
14EBF
  8
0
 62
     5
 10
211.072
 20
349.106
 30
0.0
 70
    32
  0
VERTEX
  5
14EC0
  8
0
 62
     5
 10
211.072
 20
349.105
 30
0.0
 70
    32
  0
VERTEX
  5
14EC1
  8
0
 62
     5
 10
211.072
 20
349.103
 30
0.0
 70
    32
  0
VERTEX
  5
14EC2
  8
0
 62
     5
 10
211.072
 20
349.101
 30
0.0
 70
    32
  0
VERTEX
  5
14EC3
  8
0
 62
     5
 10
211.072
 20
349.099
 30
0.0
 70
    32
  0
VERTEX
  5
14EC4
  8
0
 62
     5
 10
211.073
 20
349.098
 30
0.0
 70
    32
  0
VERTEX
  5
14EC5
  8
0
 62
     5
 10
211.073
 20
349.096
 30
0.0
 70
    32
  0
VERTEX
  5
14EC6
  8
0
 62
     5
 10
211.073
 20
349.094
 30
0.0
 70
    32
  0
VERTEX
  5
14EC7
  8
0
 62
     5
 10
211.073
 20
349.092
 30
0.0
 70
    32
  0
VERTEX
  5
14EC8
  8
0
 62
     5
 10
211.073
 20
349.091
 30
0.0
 70
    32
  0
VERTEX
  5
14EC9
  8
0
 62
     5
 10
211.073
 20
349.089
 30
0.0
 70
    32
  0
VERTEX
  5
14ECA
  8
0
 62
     5
 10
211.073
 20
349.087
 30
0.0
 70
    32
  0
VERTEX
  5
14ECB
  8
0
 62
     5
 10
211.074
 20
349.085
 30
0.0
 70
    32
  0
VERTEX
  5
14ECC
  8
0
 62
     5
 10
211.074
 20
349.084
 30
0.0
 70
    32
  0
VERTEX
  5
14ECD
  8
0
 62
     5
 10
211.074
 20
349.082
 30
0.0
 70
    32
  0
VERTEX
  5
14ECE
  8
0
 62
     5
 10
211.074
 20
349.08
 30
0.0
 70
    32
  0
VERTEX
  5
14ECF
  8
0
 62
     5
 10
211.074
 20
349.078
 30
0.0
 70
    32
  0
VERTEX
  5
14ED0
  8
0
 62
     5
 10
211.074
 20
349.077
 30
0.0
 70
    32
  0
VERTEX
  5
14ED1
  8
0
 62
     5
 10
211.075
 20
349.075
 30
0.0
 70
    32
  0
VERTEX
  5
14ED2
  8
0
 62
     5
 10
211.075
 20
349.073
 30
0.0
 70
    32
  0
VERTEX
  5
14ED3
  8
0
 62
     5
 10
211.075
 20
349.071
 30
0.0
 70
    32
  0
VERTEX
  5
14ED4
  8
0
 62
     5
 10
211.075
 20
349.07
 30
0.0
 70
    32
  0
VERTEX
  5
14ED5
  8
0
 62
     5
 10
211.075
 20
349.068
 30
0.0
 70
    32
  0
VERTEX
  5
14ED6
  8
0
 62
     5
 10
211.075
 20
349.066
 30
0.0
 70
    32
  0
VERTEX
  5
14ED7
  8
0
 62
     5
 10
211.076
 20
349.064
 30
0.0
 70
    32
  0
VERTEX
  5
14ED8
  8
0
 62
     5
 10
211.076
 20
349.063
 30
0.0
 70
    32
  0
VERTEX
  5
14ED9
  8
0
 62
     5
 10
211.076
 20
349.061
 30
0.0
 70
    32
  0
VERTEX
  5
14EDA
  8
0
 62
     5
 10
211.076
 20
349.059
 30
0.0
 70
    32
  0
VERTEX
  5
14EDB
  8
0
 62
     5
 10
211.076
 20
349.057
 30
0.0
 70
    32
  0
VERTEX
  5
14EDC
  8
0
 62
     5
 10
211.076
 20
349.056
 30
0.0
 70
    32
  0
VERTEX
  5
14EDD
  8
0
 62
     5
 10
211.077
 20
349.054
 30
0.0
 70
    32
  0
VERTEX
  5
14EDE
  8
0
 62
     5
 10
211.077
 20
349.052
 30
0.0
 70
    32
  0
VERTEX
  5
14EDF
  8
0
 62
     5
 10
211.077
 20
349.05
 30
0.0
 70
    32
  0
VERTEX
  5
14EE0
  8
0
 62
     5
 10
211.077
 20
349.049
 30
0.0
 70
    32
  0
VERTEX
  5
14EE1
  8
0
 62
     5
 10
211.077
 20
349.047
 30
0.0
 70
    32
  0
VERTEX
  5
14EE2
  8
0
 62
     5
 10
211.078
 20
349.045
 30
0.0
 70
    32
  0
VERTEX
  5
14EE3
  8
0
 62
     5
 10
211.078
 20
349.043
 30
0.0
 70
    32
  0
VERTEX
  5
14EE4
  8
0
 62
     5
 10
211.078
 20
349.042
 30
0.0
 70
    32
  0
VERTEX
  5
14EE5
  8
0
 62
     5
 10
211.078
 20
349.04
 30
0.0
 70
    32
  0
VERTEX
  5
14EE6
  8
0
 62
     5
 10
211.078
 20
349.038
 30
0.0
 70
    32
  0
VERTEX
  5
14EE7
  8
0
 62
     5
 10
211.079
 20
349.036
 30
0.0
 70
    32
  0
VERTEX
  5
14EE8
  8
0
 62
     5
 10
211.079
 20
349.035
 30
0.0
 70
    32
  0
VERTEX
  5
14EE9
  8
0
 62
     5
 10
211.079
 20
349.033
 30
0.0
 70
    32
  0
VERTEX
  5
14EEA
  8
0
 62
     5
 10
211.079
 20
349.031
 30
0.0
 70
    32
  0
VERTEX
  5
14EEB
  8
0
 62
     5
 10
211.079
 20
349.029
 30
0.0
 70
    32
  0
VERTEX
  5
14EEC
  8
0
 62
     5
 10
211.08
 20
349.028
 30
0.0
 70
    32
  0
VERTEX
  5
14EED
  8
0
 62
     5
 10
211.08
 20
349.026
 30
0.0
 70
    32
  0
VERTEX
  5
14EEE
  8
0
 62
     5
 10
211.08
 20
349.024
 30
0.0
 70
    32
  0
VERTEX
  5
14EEF
  8
0
 62
     5
 10
211.08
 20
349.022
 30
0.0
 70
    32
  0
VERTEX
  5
14EF0
  8
0
 62
     5
 10
211.08
 20
349.021
 30
0.0
 70
    32
  0
VERTEX
  5
14EF1
  8
0
 62
     5
 10
211.081
 20
349.019
 30
0.0
 70
    32
  0
VERTEX
  5
14EF2
  8
0
 62
     5
 10
211.081
 20
349.017
 30
0.0
 70
    32
  0
VERTEX
  5
14EF3
  8
0
 62
     5
 10
211.081
 20
349.015
 30
0.0
 70
    32
  0
VERTEX
  5
14EF4
  8
0
 62
     5
 10
211.081
 20
349.014
 30
0.0
 70
    32
  0
VERTEX
  5
14EF5
  8
0
 62
     5
 10
211.081
 20
349.012
 30
0.0
 70
    32
  0
VERTEX
  5
14EF6
  8
0
 62
     5
 10
211.082
 20
349.01
 30
0.0
 70
    32
  0
VERTEX
  5
14EF7
  8
0
 62
     5
 10
211.082
 20
349.008
 30
0.0
 70
    32
  0
VERTEX
  5
14EF8
  8
0
 62
     5
 10
211.082
 20
349.007
 30
0.0
 70
    32
  0
VERTEX
  5
14EF9
  8
0
 62
     5
 10
211.082
 20
349.005
 30
0.0
 70
    32
  0
VERTEX
  5
14EFA
  8
0
 62
     5
 10
211.083
 20
349.003
 30
0.0
 70
    32
  0
VERTEX
  5
14EFB
  8
0
 62
     5
 10
211.083
 20
349.001
 30
0.0
 70
    32
  0
VERTEX
  5
14EFC
  8
0
 62
     5
 10
211.083
 20
349.0
 30
0.0
 70
    32
  0
VERTEX
  5
14EFD
  8
0
 62
     5
 10
211.083
 20
348.998
 30
0.0
 70
    32
  0
VERTEX
  5
14EFE
  8
0
 62
     5
 10
211.083
 20
348.996
 30
0.0
 70
    32
  0
VERTEX
  5
14EFF
  8
0
 62
     5
 10
211.084
 20
348.994
 30
0.0
 70
    32
  0
VERTEX
  5
14F00
  8
0
 62
     5
 10
211.084
 20
348.993
 30
0.0
 70
    32
  0
VERTEX
  5
14F01
  8
0
 62
     5
 10
211.084
 20
348.991
 30
0.0
 70
    32
  0
VERTEX
  5
14F02
  8
0
 62
     5
 10
211.084
 20
348.989
 30
0.0
 70
    32
  0
VERTEX
  5
14F03
  8
0
 62
     5
 10
211.085
 20
348.987
 30
0.0
 70
    32
  0
VERTEX
  5
14F04
  8
0
 62
     5
 10
211.085
 20
348.986
 30
0.0
 70
    32
  0
VERTEX
  5
14F05
  8
0
 62
     5
 10
211.085
 20
348.984
 30
0.0
 70
    32
  0
VERTEX
  5
14F06
  8
0
 62
     5
 10
211.085
 20
348.982
 30
0.0
 70
    32
  0
VERTEX
  5
14F07
  8
0
 62
     5
 10
211.086
 20
348.981
 30
0.0
 70
    32
  0
VERTEX
  5
14F08
  8
0
 62
     5
 10
211.086
 20
348.979
 30
0.0
 70
    32
  0
VERTEX
  5
14F09
  8
0
 62
     5
 10
211.086
 20
348.977
 30
0.0
 70
    32
  0
VERTEX
  5
14F0A
  8
0
 62
     5
 10
211.086
 20
348.975
 30
0.0
 70
    32
  0
VERTEX
  5
14F0B
  8
0
 62
     5
 10
211.087
 20
348.974
 30
0.0
 70
    32
  0
VERTEX
  5
14F0C
  8
0
 62
     5
 10
211.087
 20
348.972
 30
0.0
 70
    32
  0
VERTEX
  5
14F0D
  8
0
 62
     5
 10
211.087
 20
348.97
 30
0.0
 70
    32
  0
VERTEX
  5
14F0E
  8
0
 62
     5
 10
211.087
 20
348.968
 30
0.0
 70
    32
  0
VERTEX
  5
14F0F
  8
0
 62
     5
 10
211.088
 20
348.967
 30
0.0
 70
    32
  0
VERTEX
  5
14F10
  8
0
 62
     5
 10
211.088
 20
348.965
 30
0.0
 70
    32
  0
VERTEX
  5
14F11
  8
0
 62
     5
 10
211.088
 20
348.963
 30
0.0
 70
    32
  0
VERTEX
  5
14F12
  8
0
 62
     5
 10
211.088
 20
348.961
 30
0.0
 70
    32
  0
VERTEX
  5
14F13
  8
0
 62
     5
 10
211.089
 20
348.96
 30
0.0
 70
    32
  0
VERTEX
  5
14F14
  8
0
 62
     5
 10
211.089
 20
348.958
 30
0.0
 70
    32
  0
VERTEX
  5
14F15
  8
0
 62
     5
 10
211.089
 20
348.956
 30
0.0
 70
    32
  0
VERTEX
  5
14F16
  8
0
 62
     5
 10
211.089
 20
348.954
 30
0.0
 70
    32
  0
VERTEX
  5
14F17
  8
0
 62
     5
 10
211.09
 20
348.953
 30
0.0
 70
    32
  0
VERTEX
  5
14F18
  8
0
 62
     5
 10
211.09
 20
348.951
 30
0.0
 70
    32
  0
VERTEX
  5
14F19
  8
0
 62
     5
 10
211.09
 20
348.949
 30
0.0
 70
    32
  0
VERTEX
  5
14F1A
  8
0
 62
     5
 10
211.091
 20
348.947
 30
0.0
 70
    32
  0
VERTEX
  5
14F1B
  8
0
 62
     5
 10
211.091
 20
348.946
 30
0.0
 70
    32
  0
VERTEX
  5
14F1C
  8
0
 62
     5
 10
211.091
 20
348.944
 30
0.0
 70
    32
  0
VERTEX
  5
14F1D
  8
0
 62
     5
 10
211.091
 20
348.942
 30
0.0
 70
    32
  0
VERTEX
  5
14F1E
  8
0
 62
     5
 10
211.092
 20
348.94
 30
0.0
 70
    32
  0
VERTEX
  5
14F1F
  8
0
 62
     5
 10
211.092
 20
348.939
 30
0.0
 70
    32
  0
VERTEX
  5
14F20
  8
0
 62
     5
 10
211.092
 20
348.937
 30
0.0
 70
    32
  0
VERTEX
  5
14F21
  8
0
 62
     5
 10
211.093
 20
348.935
 30
0.0
 70
    32
  0
VERTEX
  5
14F22
  8
0
 62
     5
 10
211.093
 20
348.934
 30
0.0
 70
    32
  0
VERTEX
  5
14F23
  8
0
 62
     5
 10
211.093
 20
348.932
 30
0.0
 70
    32
  0
VERTEX
  5
14F24
  8
0
 62
     5
 10
211.093
 20
348.93
 30
0.0
 70
    32
  0
VERTEX
  5
14F25
  8
0
 62
     5
 10
211.094
 20
348.928
 30
0.0
 70
    32
  0
VERTEX
  5
14F26
  8
0
 62
     5
 10
211.094
 20
348.927
 30
0.0
 70
    32
  0
VERTEX
  5
14F27
  8
0
 62
     5
 10
211.094
 20
348.925
 30
0.0
 70
    32
  0
VERTEX
  5
14F28
  8
0
 62
     5
 10
211.095
 20
348.923
 30
0.0
 70
    32
  0
VERTEX
  5
14F29
  8
0
 62
     5
 10
211.095
 20
348.921
 30
0.0
 70
    32
  0
VERTEX
  5
14F2A
  8
0
 62
     5
 10
211.095
 20
348.92
 30
0.0
 70
    32
  0
VERTEX
  5
14F2B
  8
0
 62
     5
 10
211.096
 20
348.918
 30
0.0
 70
    32
  0
VERTEX
  5
14F2C
  8
0
 62
     5
 10
211.096
 20
348.916
 30
0.0
 70
    32
  0
VERTEX
  5
14F2D
  8
0
 62
     5
 10
211.096
 20
348.914
 30
0.0
 70
    32
  0
VERTEX
  5
14F2E
  8
0
 62
     5
 10
211.096
 20
348.913
 30
0.0
 70
    32
  0
VERTEX
  5
14F2F
  8
0
 62
     5
 10
211.097
 20
348.911
 30
0.0
 70
    32
  0
VERTEX
  5
14F30
  8
0
 62
     5
 10
211.097
 20
348.909
 30
0.0
 70
    32
  0
VERTEX
  5
14F31
  8
0
 62
     5
 10
211.097
 20
348.908
 30
0.0
 70
    32
  0
VERTEX
  5
14F32
  8
0
 62
     5
 10
211.098
 20
348.906
 30
0.0
 70
    32
  0
VERTEX
  5
14F33
  8
0
 62
     5
 10
211.098
 20
348.904
 30
0.0
 70
    32
  0
VERTEX
  5
14F34
  8
0
 62
     5
 10
211.098
 20
348.902
 30
0.0
 70
    32
  0
VERTEX
  5
14F35
  8
0
 62
     5
 10
211.099
 20
348.901
 30
0.0
 70
    32
  0
VERTEX
  5
14F36
  8
0
 62
     5
 10
211.099
 20
348.899
 30
0.0
 70
    32
  0
VERTEX
  5
14F37
  8
0
 62
     5
 10
211.099
 20
348.897
 30
0.0
 70
    32
  0
VERTEX
  5
14F38
  8
0
 62
     5
 10
211.1
 20
348.895
 30
0.0
 70
    32
  0
VERTEX
  5
14F39
  8
0
 62
     5
 10
211.1
 20
348.894
 30
0.0
 70
    32
  0
VERTEX
  5
14F3A
  8
0
 62
     5
 10
211.1
 20
348.892
 30
0.0
 70
    32
  0
VERTEX
  5
14F3B
  8
0
 62
     5
 10
211.101
 20
348.89
 30
0.0
 70
    32
  0
VERTEX
  5
14F3C
  8
0
 62
     5
 10
211.101
 20
348.888
 30
0.0
 70
    32
  0
VERTEX
  5
14F3D
  8
0
 62
     5
 10
211.101
 20
348.887
 30
0.0
 70
    32
  0
VERTEX
  5
14F3E
  8
0
 62
     5
 10
211.102
 20
348.885
 30
0.0
 70
    32
  0
VERTEX
  5
14F3F
  8
0
 62
     5
 10
211.102
 20
348.883
 30
0.0
 70
    32
  0
VERTEX
  5
14F40
  8
0
 62
     5
 10
211.102
 20
348.882
 30
0.0
 70
    32
  0
VERTEX
  5
14F41
  8
0
 62
     5
 10
211.102
 20
348.88
 30
0.0
 70
    32
  0
VERTEX
  5
14F42
  8
0
 62
     5
 10
211.103
 20
348.878
 30
0.0
 70
    32
  0
VERTEX
  5
14F43
  8
0
 62
     5
 10
211.103
 20
348.876
 30
0.0
 70
    32
  0
VERTEX
  5
14F44
  8
0
 62
     5
 10
211.103
 20
348.875
 30
0.0
 70
    32
  0
VERTEX
  5
14F45
  8
0
 62
     5
 10
211.104
 20
348.873
 30
0.0
 70
    32
  0
VERTEX
  5
14F46
  8
0
 62
     5
 10
211.104
 20
348.871
 30
0.0
 70
    32
  0
VERTEX
  5
14F47
  8
0
 62
     5
 10
211.104
 20
348.869
 30
0.0
 70
    32
  0
VERTEX
  5
14F48
  8
0
 62
     5
 10
211.105
 20
348.868
 30
0.0
 70
    32
  0
VERTEX
  5
14F49
  8
0
 62
     5
 10
211.105
 20
348.866
 30
0.0
 70
    32
  0
VERTEX
  5
14F4A
  8
0
 62
     5
 10
211.105
 20
348.864
 30
0.0
 70
    32
  0
VERTEX
  5
14F4B
  8
0
 62
     5
 10
211.106
 20
348.863
 30
0.0
 70
    32
  0
VERTEX
  5
14F4C
  8
0
 62
     5
 10
211.106
 20
348.861
 30
0.0
 70
    32
  0
VERTEX
  5
14F4D
  8
0
 62
     5
 10
211.106
 20
348.859
 30
0.0
 70
    32
  0
VERTEX
  5
14F4E
  8
0
 62
     5
 10
211.107
 20
348.857
 30
0.0
 70
    32
  0
VERTEX
  5
14F4F
  8
0
 62
     5
 10
211.107
 20
348.856
 30
0.0
 70
    32
  0
VERTEX
  5
14F50
  8
0
 62
     5
 10
211.107
 20
348.854
 30
0.0
 70
    32
  0
VERTEX
  5
14F51
  8
0
 62
     5
 10
211.108
 20
348.852
 30
0.0
 70
    32
  0
VERTEX
  5
14F52
  8
0
 62
     5
 10
211.108
 20
348.85
 30
0.0
 70
    32
  0
VERTEX
  5
14F53
  8
0
 62
     5
 10
211.108
 20
348.849
 30
0.0
 70
    32
  0
VERTEX
  5
14F54
  8
0
 62
     5
 10
211.109
 20
348.847
 30
0.0
 70
    32
  0
VERTEX
  5
14F55
  8
0
 62
     5
 10
211.109
 20
348.845
 30
0.0
 70
    32
  0
VERTEX
  5
14F56
  8
0
 62
     5
 10
211.109
 20
348.844
 30
0.0
 70
    32
  0
VERTEX
  5
14F57
  8
0
 62
     5
 10
211.11
 20
348.842
 30
0.0
 70
    32
  0
VERTEX
  5
14F58
  8
0
 62
     5
 10
211.11
 20
348.84
 30
0.0
 70
    32
  0
VERTEX
  5
14F59
  8
0
 62
     5
 10
211.111
 20
348.838
 30
0.0
 70
    32
  0
VERTEX
  5
14F5A
  8
0
 62
     5
 10
211.111
 20
348.837
 30
0.0
 70
    32
  0
VERTEX
  5
14F5B
  8
0
 62
     5
 10
211.111
 20
348.835
 30
0.0
 70
    32
  0
VERTEX
  5
14F5C
  8
0
 62
     5
 10
211.112
 20
348.833
 30
0.0
 70
    32
  0
VERTEX
  5
14F5D
  8
0
 62
     5
 10
211.112
 20
348.831
 30
0.0
 70
    32
  0
SEQEND
  5
14F5E
  8
0
 62
     5
  0
LINE
  5
14F5F
  8
0
 62
     5
 10
211.348106
 20
346.376888
 30
0.0
 11
211.348106
 21
346.344035
 31
0.0
  0
LINE
  5
15186
  8
0
 62
     5
 10
214.609481
 20
344.677074
 30
0.0
 11
213.609481
 21
344.677074
 31
0.0
  0
LINE
  5
15309
  8
0
 62
     5
 10
209.609481
 20
337.03167
 30
0.0
 11
208.909481
 21
337.03167
 31
0.0
  0
LINE
  5
1530A
  8
0
 62
     5
 10
210.109481
 20
337.08167
 30
0.0
 11
209.609481
 21
337.08167
 31
0.0
  0
ARC
  5
1530B
  8
0
 62
     5
 10
209.609481
 20
338.081439
 30
0.0
 40
0.5
 50
12.679722
 51
90.0
  0
LINE
  5
1530C
  8
0
 62
     5
 10
206.609481
 20
343.850985
 30
0.0
 11
206.609481
 21
352.029822
 31
0.0
  0
LINE
  5
1530D
  8
0
 62
     5
 10
209.609481
 20
352.24361
 30
0.0
 11
209.609481
 21
343.836318
 31
0.0
  0
LINE
  5
153D0
  8
0
 62
     5
 10
213.609481
 20
344.677074
 30
0.0
 11
213.609481
 21
352.244035
 31
0.0
  0
LINE
  5
153D1
  8
0
 62
     5
 10
214.609481
 20
336.03167
 30
0.0
 11
214.109481
 21
336.03167
 31
0.0
  0
LINE
  5
153D2
  8
0
 62
     5
 10
214.609481
 20
335.63167
 30
0.0
 11
214.109481
 21
335.63167
 31
0.0
  0
LINE
  5
153D3
  8
0
 62
     5
 10
207.244619
 20
335.88167
 30
0.0
 11
207.244619
 21
335.859759
 31
0.0
  0
ARC
  5
153D4
  8
0
 62
     5
 10
208.909481
 20
334.897847
 30
0.0
 40
1.933824
 50
90.0
 51
149.419713
  0
LINE
  5
153D5
  8
0
 62
     5
 10
214.109481
 20
395.752005
 30
0.0
 11
214.109481
 21
401.436588
 31
0.0
  0
LINE
  5
153D6
  8
0
 62
     5
 10
190.609481
 20
408.64261
 30
0.0
 11
190.609481
 21
395.014987
 31
0.0
  0
LINE
  5
153D7
  8
0
 62
     5
 10
191.609481
 20
396.014987
 30
0.0
 11
214.109481
 21
396.014987
 31
0.0
  0
LINE
  5
153D8
  8
0
 62
     5
 10
209.609481
 20
386.341323
 30
0.0
 11
191.609481
 21
386.341323
 31
0.0
  0
ARC
  5
153D9
  8
0
 62
     5
 10
191.609481
 20
395.014987
 30
0.0
 40
1.0
 50
90.0
 51
180.0
  0
ARC
  5
153DA
  8
0
 62
     5
 10
191.609481
 20
385.341323
 30
0.0
 40
1.0
 50
90.0
 51
180.0
  0
LINE
  5
153DB
  8
0
 62
     5
 10
210.109481
 20
386.61018
 30
0.0
 11
210.109481
 21
395.774471
 31
0.0
  0
LINE
  5
153DC
  8
0
 62
     5
 10
214.609481
 20
388.891185
 30
0.0
 11
214.109481
 21
388.891185
 31
0.0
  0
LINE
  5
153DD
  8
0
 62
     5
 10
214.609481
 20
395.753417
 30
0.0
 11
214.109481
 21
395.753417
 31
0.0
  0
LINE
  5
153DE
  8
0
 62
     5
 10
214.609481
 20
389.291185
 30
0.0
 11
214.109481
 21
389.291185
 31
0.0
  0
ARC
  5
153DF
  8
0
 62
     5
 10
208.909481
 20
391.657361
 30
0.0
 40
1.933824
 50
90.0
 51
149.419713
  0
ARC
  5
153E0
  8
0
 62
     5
 10
208.909481
 20
390.025008
 30
0.0
 40
1.933824
 50
210.580287
 51
270.0
  0
LINE
  5
153E1
  8
0
 62
     5
 10
207.244619
 20
389.063096
 30
0.0
 11
207.244619
 21
389.041185
 31
0.0
  0
LINE
  5
153E2
  8
0
 62
     5
 10
207.244619
 20
392.641185
 30
0.0
 11
207.244619
 21
392.619273
 31
0.0
  0
LINE
  5
153E3
  8
0
 62
     5
 10
207.244619
 20
391.121185
 30
0.0
 11
207.244619
 21
390.561183
 31
0.0
  0
LINE
  5
153E4
  8
0
 62
     5
 10
207.244619
 20
390.561185
 30
0.0
 11
207.024913
 21
390.561185
 31
0.0
  0
LINE
  5
153E5
  8
0
 62
     5
 10
207.024913
 20
391.121185
 30
0.0
 11
207.244619
 21
391.121185
 31
0.0
  0
LINE
  5
15BFA
  8
0
 62
     5
 10
208.909481
 20
387.912021
 30
0.0
 11
208.909481
 21
393.789383
 31
0.0
  0
LINE
  5
15BFB
  8
0
 62
     5
 10
209.609481
 20
387.84399
 30
0.0
 11
209.609481
 21
393.83838
 31
0.0
  0
LINE
  5
15BFC
  8
0
 62
     5
 10
209.609481
 20
387.912021
 30
0.0
 11
208.909481
 21
387.912021
 31
0.0
  0
LINE
  5
15BFD
  8
0
 62
     5
 10
209.609481
 20
393.791185
 30
0.0
 11
208.909481
 21
393.791185
 31
0.0
  0
LINE
  5
15BFE
  8
0
 62
     5
 10
210.109481
 20
387.841185
 30
0.0
 11
209.609481
 21
387.841185
 31
0.0
  0
LINE
  5
15BFF
  8
0
 62
     5
 10
210.109481
 20
393.841185
 30
0.0
 11
209.609481
 21
393.841185
 31
0.0
  0
ARC
  5
15C00
  8
0
 62
     5
 10
209.609481
 20
386.841323
 30
0.0
 40
0.5
 50
270.0
 51
0.0
  0
LINE
  5
15C01
  8
0
 62
     5
 10
191.609481
 20
409.64261
 30
0.0
 11
214.609481
 21
409.64261
 31
0.0
  0
LINE
  5
15C02
  8
0
 62
     5
 10
191.609481
 20
401.20355
 30
0.0
 11
206.109481
 21
401.20355
 31
0.0
  0
ARC
  5
15C03
  8
0
 62
     5
 10
191.609481
 20
400.20355
 30
0.0
 40
1.0
 50
90.0
 51
180.0
  0
ARC
  5
15C04
  8
0
 62
     5
 10
191.609481
 20
408.64261
 30
0.0
 40
1.0
 50
90.0
 51
180.0
  0
LINE
  5
15C05
  8
0
 62
     5
 10
209.909481
 20
401.20361
 30
0.0
 11
214.109481
 21
401.20361
 31
0.0
  0
ARC
  5
15C06
  8
0
 62
     5
 10
213.609481
 20
404.229913
 30
0.0
 40
2.526364
 50
206.477339
 51
270.0
  0
ARC
  5
15C07
  8
0
 62
     5
 10
213.609481
 20
406.177186
 30
0.0
 40
2.526364
 50
90.0
 51
153.522661
  0
LINE
  5
15CCA
  8
0
 62
     5
 10
211.348106
 20
405.57355
 30
0.0
 11
211.348106
 21
404.83355
 31
0.0
  0
LINE
  5
15CCB
  8
0
 62
     5
 10
211.348106
 20
403.136402
 30
0.0
 11
211.348106
 21
403.10355
 31
0.0
  0
LINE
  5
15CCC
  8
0
 62
     5
 10
211.348106
 20
404.83355
 30
0.0
 11
211.115649
 21
404.83355
 31
0.0
  0
LINE
  5
15CCD
  8
0
 62
     5
 10
211.115649
 20
405.57355
 30
0.0
 11
211.348106
 21
405.57355
 31
0.0
  0
LINE
  5
1617C
  8
0
 62
     5
 10
211.348106
 20
407.30355
 30
0.0
 11
211.348106
 21
407.270697
 31
0.0
  0
LINE
  5
163A3
  8
0
 62
     5
 10
213.609481
 20
401.436588
 30
0.0
 11
213.609481
 21
409.00355
 31
0.0
  0
LINE
  5
163A4
  8
0
 62
     5
 10
214.609481
 20
400.95361
 30
0.0
 11
214.109481
 21
400.95361
 31
0.0
  0
LINE
  5
163A5
  8
0
 62
     5
 10
214.609481
 20
401.436588
 30
0.0
 11
213.609481
 21
401.436588
 31
0.0
  0
LINE
  5
163A6
  8
0
 62
     5
 10
214.109481
 20
409.64261
 30
0.0
 11
214.109481
 21
409.00355
 31
0.0
  0
LINE
  5
163A7
  8
0
 62
     5
 10
214.609481
 20
409.64261
 30
0.0
 11
214.609481
 21
409.450968
 31
0.0
  0
LINE
  5
163A8
  8
0
 62
     5
 10
214.609481
 20
409.00355
 30
0.0
 11
213.609481
 21
409.00355
 31
0.0
  0
LINE
  5
163A9
  8
0
 62
     5
 10
214.609481
 20
409.39267
 30
0.0
 11
214.109481
 21
409.39267
 31
0.0
  0
ARC
  5
163AA
  8
0
 62
     5
 10
214.809481
 20
409.44261
 30
0.0
 40
0.2
 50
90.0
 51
180.0
  0
LINE
  5
163AB
  8
0
 62
     5
 10
206.609481
 20
401.662444
 30
0.0
 11
206.609481
 21
409.14261
 31
0.0
  0
ARC
  5
163AC
  8
0
 62
     5
 10
206.109481
 20
401.70355
 30
0.0
 40
0.5
 50
270.0
 51
356.538461
  0
ARC
  5
163AD
  8
0
 62
     5
 10
207.109481
 20
409.14261
 30
0.0
 40
0.5
 50
90.0
 51
180.0
  0
LINE
  5
163AE
  8
0
 62
     5
 10
209.609481
 20
409.14261
 30
0.0
 11
209.609481
 21
401.451776
 31
0.0
  0
ARC
  5
163AF
  8
0
 62
     5
 10
209.109481
 20
409.14261
 30
0.0
 40
0.5
 50
0.0
 51
90.0
  0
ARC
  5
163B0
  8
0
 62
     5
 10
209.909481
 20
401.50361
 30
0.0
 40
0.3
 50
187.499991
 51
270.0
  0
ARC
  5
163B1
  8
0
 62
     5
 10
222.609481
 20
409.44261
 30
0.0
 40
0.2
 50
0.0
 51
90.0
  0
ARC
  5
163B2
  8
0
 62
     5
 10
399.948632
 20
336.64261
 30
0.0
 40
7.0
 50
180.0
 51
270.0
  0
ARC
  5
163B3
  8
CENTER
 10
432.948632
 20
369.64261
 30
0.0
 40
45.0
 50
216.016
 51
234.821428
  0
CIRCLE
  5
163B4
  8
0
 62
     5
 10
401.128827
 20
337.822805
 30
0.0
 40
3.3
  0
LINE
  5
163B5
  8
CENTER
 10
401.128827
 20
337.822805
 30
0.0
 11
397.734714
 21
334.428692
 31
0.0
  0
LINE
  5
163B6
  8
0
 62
     5
 10
296.409481
 20
329.84261
 30
0.0
 11
296.409481
 21
343.999428
 31
0.0
  0
LINE
  5
163B7
  8
0
 62
     5
 10
292.409481
 20
329.64261
 30
0.0
 11
292.409481
 21
409.64261
 31
0.0
  0
LINE
  5
163B8
  8
0
 62
     5
 10
304.409481
 20
409.64261
 30
0.0
 11
304.409481
 21
329.64261
 31
0.0
  0
LINE
  5
163B9
  8
0
 62
     5
 10
307.209481
 20
404.64261
 30
0.0
 11
307.209481
 21
334.64261
 31
0.0
  0
LINE
  5
163BA
  8
0
 62
     5
 10
307.409481
 20
404.442607
 30
0.0
 11
307.409481
 21
334.842613
 31
0.0
  0
LINE
  5
163BB
  8
0
 62
     5
 10
304.409481
 20
329.64261
 30
0.0
 11
292.609481
 21
329.64261
 31
0.0
  0
ARC
  5
163BC
  8
0
 62
     5
 10
292.609481
 20
329.84261
 30
0.0
 40
0.2
 50
180.0
 51
270.0
  0
ARC
  5
163BD
  8
0
 62
     5
 10
296.609481
 20
329.84261
 30
0.0
 40
0.2
 50
180.0
 51
270.0
  0
LINE
  5
163BE
  8
0
 62
     5
 10
304.609481
 20
334.64261
 30
0.0
 11
307.209481
 21
334.64261
 31
0.0
  0
ARC
  5
163BF
  8
0
 62
     5
 10
304.609481
 20
334.44261
 30
0.0
 40
0.2
 50
90.0
 51
180.0
  0
LINE
  5
163C0
  8
0
 62
     5
 10
307.209481
 20
334.64261
 30
0.0
 11
307.409481
 21
334.84261
 31
0.0
  0
LINE
  5
163C1
  8
HIDDEN
 10
408.698632
 20
326.24261
 30
0.0
 11
408.698632
 21
324.24261
 31
0.0
  0
LINE
  5
16786
  8
0
 62
     5
 10
406.983782
 20
329.629602
 30
0.0
 11
407.05744
 21
329.63281
 31
0.0
  0
LINE
  5
16787
  8
0
 62
     5
 10
406.983777
 20
329.629363
 30
0.0
 11
406.983777
 21
326.74261
 31
0.0
  0
ARC
  5
16788
  8
0
 62
     5
 10
865.540013
 20
369.64261
 30
0.0
 40
460.303689
 50
184.985246
 51
184.993626
  0
POLYLINE
  5
16789
  8
0
 62
     5
 66
     1
 10
0.0
 20
0.0
 30
0.0
 70
     8
  0
VERTEX
  5
1678A
  8
0
 62
     5
 10
407.058
 20
329.643
 30
0.0
 70
    32
  0
VERTEX
  5
1678B
  8
0
 62
     5
 10
407.058
 20
329.643
 30
0.0
 70
    32
  0
VERTEX
  5
1678C
  8
0
 62
     5
 10
407.058
 20
329.643
 30
0.0
 70
    32
  0
VERTEX
  5
1678D
  8
0
 62
     5
 10
407.058
 20
329.642
 30
0.0
 70
    32
  0
VERTEX
  5
1678E
  8
0
 62
     5
 10
407.058
 20
329.642
 30
0.0
 70
    32
  0
VERTEX
  5
1678F
  8
0
 62
     5
 10
407.058
 20
329.642
 30
0.0
 70
    32
  0
VERTEX
  5
16790
  8
0
 62
     5
 10
407.058
 20
329.642
 30
0.0
 70
    32
  0
VERTEX
  5
16791
  8
0
 62
     5
 10
407.058
 20
329.642
 30
0.0
 70
    32
  0
VERTEX
  5
16792
  8
0
 62
     5
 10
407.058
 20
329.642
 30
0.0
 70
    32
  0
VERTEX
  5
16793
  8
0
 62
     5
 10
407.058
 20
329.642
 30
0.0
 70
    32
  0
VERTEX
  5
16794
  8
0
 62
     5
 10
407.058
 20
329.642
 30
0.0
 70
    32
  0
VERTEX
  5
16795
  8
0
 62
     5
 10
407.058
 20
329.642
 30
0.0
 70
    32
  0
VERTEX
  5
16796
  8
0
 62
     5
 10
407.058
 20
329.642
 30
0.0
 70
    32
  0
VERTEX
  5
16797
  8
0
 62
     5
 10
407.058
 20
329.642
 30
0.0
 70
    32
  0
VERTEX
  5
16798
  8
0
 62
     5
 10
407.058
 20
329.642
 30
0.0
 70
    32
  0
VERTEX
  5
16799
  8
0
 62
     5
 10
407.058
 20
329.642
 30
0.0
 70
    32
  0
VERTEX
  5
1679A
  8
0
 62
     5
 10
407.058
 20
329.642
 30
0.0
 70
    32
  0
VERTEX
  5
1679B
  8
0
 62
     5
 10
407.058
 20
329.642
 30
0.0
 70
    32
  0
VERTEX
  5
1679C
  8
0
 62
     5
 10
407.058
 20
329.642
 30
0.0
 70
    32
  0
VERTEX
  5
1679D
  8
0
 62
     5
 10
407.058
 20
329.642
 30
0.0
 70
    32
  0
VERTEX
  5
1679E
  8
0
 62
     5
 10
407.058
 20
329.642
 30
0.0
 70
    32
  0
VERTEX
  5
1679F
  8
0
 62
     5
 10
407.058
 20
329.642
 30
0.0
 70
    32
  0
VERTEX
  5
167A0
  8
0
 62
     5
 10
407.058
 20
329.641
 30
0.0
 70
    32
  0
VERTEX
  5
167A1
  8
0
 62
     5
 10
407.058
 20
329.641
 30
0.0
 70
    32
  0
VERTEX
  5
167A2
  8
0
 62
     5
 10
407.058
 20
329.641
 30
0.0
 70
    32
  0
VERTEX
  5
167A3
  8
0
 62
     5
 10
407.058
 20
329.641
 30
0.0
 70
    32
  0
VERTEX
  5
167A4
  8
0
 62
     5
 10
407.058
 20
329.641
 30
0.0
 70
    32
  0
VERTEX
  5
167A5
  8
0
 62
     5
 10
407.058
 20
329.641
 30
0.0
 70
    32
  0
VERTEX
  5
167A6
  8
0
 62
     5
 10
407.058
 20
329.641
 30
0.0
 70
    32
  0
VERTEX
  5
167A7
  8
0
 62
     5
 10
407.058
 20
329.641
 30
0.0
 70
    32
  0
VERTEX
  5
167A8
  8
0
 62
     5
 10
407.058
 20
329.641
 30
0.0
 70
    32
  0
VERTEX
  5
167A9
  8
0
 62
     5
 10
407.058
 20
329.641
 30
0.0
 70
    32
  0
VERTEX
  5
167AA
  8
0
 62
     5
 10
407.058
 20
329.641
 30
0.0
 70
    32
  0
VERTEX
  5
167AB
  8
0
 62
     5
 10
407.058
 20
329.641
 30
0.0
 70
    32
  0
VERTEX
  5
167AC
  8
0
 62
     5
 10
407.058
 20
329.641
 30
0.0
 70
    32
  0
VERTEX
  5
167AD
  8
0
 62
     5
 10
407.058
 20
329.641
 30
0.0
 70
    32
  0
VERTEX
  5
167AE
  8
0
 62
     5
 10
407.058
 20
329.641
 30
0.0
 70
    32
  0
VERTEX
  5
167AF
  8
0
 62
     5
 10
407.058
 20
329.641
 30
0.0
 70
    32
  0
VERTEX
  5
167B0
  8
0
 62
     5
 10
407.058
 20
329.641
 30
0.0
 70
    32
  0
VERTEX
  5
167B1
  8
0
 62
     5
 10
407.058
 20
329.641
 30
0.0
 70
    32
  0
VERTEX
  5
167B2
  8
0
 62
     5
 10
407.058
 20
329.641
 30
0.0
 70
    32
  0
VERTEX
  5
167B3
  8
0
 62
     5
 10
407.058
 20
329.641
 30
0.0
 70
    32
  0
VERTEX
  5
167B4
  8
0
 62
     5
 10
407.058
 20
329.64
 30
0.0
 70
    32
  0
VERTEX
  5
167B5
  8
0
 62
     5
 10
407.058
 20
329.64
 30
0.0
 70
    32
  0
VERTEX
  5
167B6
  8
0
 62
     5
 10
407.058
 20
329.64
 30
0.0
 70
    32
  0
VERTEX
  5
167B7
  8
0
 62
     5
 10
407.058
 20
329.64
 30
0.0
 70
    32
  0
VERTEX
  5
167B8
  8
0
 62
     5
 10
407.058
 20
329.64
 30
0.0
 70
    32
  0
VERTEX
  5
167B9
  8
0
 62
     5
 10
407.058
 20
329.64
 30
0.0
 70
    32
  0
VERTEX
  5
167BA
  8
0
 62
     5
 10
407.058
 20
329.64
 30
0.0
 70
    32
  0
VERTEX
  5
167BB
  8
0
 62
     5
 10
407.058
 20
329.64
 30
0.0
 70
    32
  0
VERTEX
  5
167BC
  8
0
 62
     5
 10
407.058
 20
329.64
 30
0.0
 70
    32
  0
VERTEX
  5
167BD
  8
0
 62
     5
 10
407.058
 20
329.64
 30
0.0
 70
    32
  0
VERTEX
  5
167BE
  8
0
 62
     5
 10
407.058
 20
329.64
 30
0.0
 70
    32
  0
VERTEX
  5
167BF
  8
0
 62
     5
 10
407.058
 20
329.64
 30
0.0
 70
    32
  0
VERTEX
  5
167C0
  8
0
 62
     5
 10
407.058
 20
329.64
 30
0.0
 70
    32
  0
VERTEX
  5
167C1
  8
0
 62
     5
 10
407.058
 20
329.64
 30
0.0
 70
    32
  0
VERTEX
  5
167C2
  8
0
 62
     5
 10
407.058
 20
329.64
 30
0.0
 70
    32
  0
VERTEX
  5
167C3
  8
0
 62
     5
 10
407.058
 20
329.64
 30
0.0
 70
    32
  0
VERTEX
  5
167C4
  8
0
 62
     5
 10
407.058
 20
329.64
 30
0.0
 70
    32
  0
VERTEX
  5
167C5
  8
0
 62
     5
 10
407.058
 20
329.64
 30
0.0
 70
    32
  0
VERTEX
  5
167C6
  8
0
 62
     5
 10
407.058
 20
329.64
 30
0.0
 70
    32
  0
VERTEX
  5
167C7
  8
0
 62
     5
 10
407.058
 20
329.639
 30
0.0
 70
    32
  0
VERTEX
  5
167C8
  8
0
 62
     5
 10
407.058
 20
329.639
 30
0.0
 70
    32
  0
VERTEX
  5
167C9
  8
0
 62
     5
 10
407.058
 20
329.639
 30
0.0
 70
    32
  0
VERTEX
  5
167CA
  8
0
 62
     5
 10
407.058
 20
329.639
 30
0.0
 70
    32
  0
VERTEX
  5
167CB
  8
0
 62
     5
 10
407.058
 20
329.639
 30
0.0
 70
    32
  0
VERTEX
  5
167CC
  8
0
 62
     5
 10
407.058
 20
329.639
 30
0.0
 70
    32
  0
VERTEX
  5
167CD
  8
0
 62
     5
 10
407.058
 20
329.639
 30
0.0
 70
    32
  0
VERTEX
  5
167CE
  8
0
 62
     5
 10
407.058
 20
329.639
 30
0.0
 70
    32
  0
VERTEX
  5
167CF
  8
0
 62
     5
 10
407.058
 20
329.639
 30
0.0
 70
    32
  0
VERTEX
  5
167D0
  8
0
 62
     5
 10
407.058
 20
329.639
 30
0.0
 70
    32
  0
VERTEX
  5
167D1
  8
0
 62
     5
 10
407.058
 20
329.639
 30
0.0
 70
    32
  0
VERTEX
  5
167D2
  8
0
 62
     5
 10
407.058
 20
329.639
 30
0.0
 70
    32
  0
VERTEX
  5
167D3
  8
0
 62
     5
 10
407.058
 20
329.639
 30
0.0
 70
    32
  0
VERTEX
  5
167D4
  8
0
 62
     5
 10
407.058
 20
329.639
 30
0.0
 70
    32
  0
VERTEX
  5
167D5
  8
0
 62
     5
 10
407.058
 20
329.639
 30
0.0
 70
    32
  0
VERTEX
  5
167D6
  8
0
 62
     5
 10
407.058
 20
329.639
 30
0.0
 70
    32
  0
VERTEX
  5
167D7
  8
0
 62
     5
 10
407.058
 20
329.639
 30
0.0
 70
    32
  0
VERTEX
  5
167D8
  8
0
 62
     5
 10
407.058
 20
329.639
 30
0.0
 70
    32
  0
VERTEX
  5
167D9
  8
0
 62
     5
 10
407.058
 20
329.639
 30
0.0
 70
    32
  0
VERTEX
  5
167DA
  8
0
 62
     5
 10
407.058
 20
329.639
 30
0.0
 70
    32
  0
VERTEX
  5
167DB
  8
0
 62
     5
 10
407.058
 20
329.638
 30
0.0
 70
    32
  0
VERTEX
  5
167DC
  8
0
 62
     5
 10
407.058
 20
329.638
 30
0.0
 70
    32
  0
VERTEX
  5
167DD
  8
0
 62
     5
 10
407.058
 20
329.638
 30
0.0
 70
    32
  0
VERTEX
  5
167DE
  8
0
 62
     5
 10
407.058
 20
329.638
 30
0.0
 70
    32
  0
VERTEX
  5
167DF
  8
0
 62
     5
 10
407.058
 20
329.638
 30
0.0
 70
    32
  0
VERTEX
  5
167E0
  8
0
 62
     5
 10
407.058
 20
329.638
 30
0.0
 70
    32
  0
VERTEX
  5
167E1
  8
0
 62
     5
 10
407.058
 20
329.638
 30
0.0
 70
    32
  0
VERTEX
  5
167E2
  8
0
 62
     5
 10
407.058
 20
329.638
 30
0.0
 70
    32
  0
VERTEX
  5
167E3
  8
0
 62
     5
 10
407.058
 20
329.638
 30
0.0
 70
    32
  0
VERTEX
  5
167E4
  8
0
 62
     5
 10
407.058
 20
329.638
 30
0.0
 70
    32
  0
VERTEX
  5
167E5
  8
0
 62
     5
 10
407.058
 20
329.638
 30
0.0
 70
    32
  0
VERTEX
  5
167E6
  8
0
 62
     5
 10
407.058
 20
329.638
 30
0.0
 70
    32
  0
VERTEX
  5
167E7
  8
0
 62
     5
 10
407.058
 20
329.638
 30
0.0
 70
    32
  0
VERTEX
  5
167E8
  8
0
 62
     5
 10
407.058
 20
329.638
 30
0.0
 70
    32
  0
VERTEX
  5
167E9
  8
0
 62
     5
 10
407.058
 20
329.638
 30
0.0
 70
    32
  0
VERTEX
  5
167EA
  8
0
 62
     5
 10
407.058
 20
329.638
 30
0.0
 70
    32
  0
VERTEX
  5
167EB
  8
0
 62
     5
 10
407.058
 20
329.638
 30
0.0
 70
    32
  0
VERTEX
  5
167EC
  8
0
 62
     5
 10
407.058
 20
329.638
 30
0.0
 70
    32
  0
VERTEX
  5
167ED
  8
0
 62
     5
 10
407.058
 20
329.638
 30
0.0
 70
    32
  0
VERTEX
  5
167EE
  8
0
 62
     5
 10
407.058
 20
329.637
 30
0.0
 70
    32
  0
VERTEX
  5
167EF
  8
0
 62
     5
 10
407.058
 20
329.637
 30
0.0
 70
    32
  0
VERTEX
  5
167F0
  8
0
 62
     5
 10
407.058
 20
329.637
 30
0.0
 70
    32
  0
VERTEX
  5
167F1
  8
0
 62
     5
 10
407.058
 20
329.637
 30
0.0
 70
    32
  0
VERTEX
  5
167F2
  8
0
 62
     5
 10
407.058
 20
329.637
 30
0.0
 70
    32
  0
VERTEX
  5
167F3
  8
0
 62
     5
 10
407.058
 20
329.637
 30
0.0
 70
    32
  0
VERTEX
  5
167F4
  8
0
 62
     5
 10
407.058
 20
329.637
 30
0.0
 70
    32
  0
VERTEX
  5
167F5
  8
0
 62
     5
 10
407.058
 20
329.637
 30
0.0
 70
    32
  0
VERTEX
  5
167F6
  8
0
 62
     5
 10
407.058
 20
329.637
 30
0.0
 70
    32
  0
VERTEX
  5
167F7
  8
0
 62
     5
 10
407.058
 20
329.637
 30
0.0
 70
    32
  0
VERTEX
  5
167F8
  8
0
 62
     5
 10
407.058
 20
329.637
 30
0.0
 70
    32
  0
VERTEX
  5
167F9
  8
0
 62
     5
 10
407.058
 20
329.637
 30
0.0
 70
    32
  0
VERTEX
  5
167FA
  8
0
 62
     5
 10
407.058
 20
329.637
 30
0.0
 70
    32
  0
VERTEX
  5
167FB
  8
0
 62
     5
 10
407.058
 20
329.637
 30
0.0
 70
    32
  0
VERTEX
  5
167FC
  8
0
 62
     5
 10
407.058
 20
329.637
 30
0.0
 70
    32
  0
VERTEX
  5
167FD
  8
0
 62
     5
 10
407.058
 20
329.637
 30
0.0
 70
    32
  0
VERTEX
  5
167FE
  8
0
 62
     5
 10
407.058
 20
329.637
 30
0.0
 70
    32
  0
VERTEX
  5
167FF
  8
0
 62
     5
 10
407.058
 20
329.637
 30
0.0
 70
    32
  0
VERTEX
  5
16800
  8
0
 62
     5
 10
407.058
 20
329.637
 30
0.0
 70
    32
  0
VERTEX
  5
16801
  8
0
 62
     5
 10
407.058
 20
329.637
 30
0.0
 70
    32
  0
VERTEX
  5
16802
  8
0
 62
     5
 10
407.058
 20
329.636
 30
0.0
 70
    32
  0
VERTEX
  5
16803
  8
0
 62
     5
 10
407.058
 20
329.636
 30
0.0
 70
    32
  0
VERTEX
  5
16804
  8
0
 62
     5
 10
407.058
 20
329.636
 30
0.0
 70
    32
  0
VERTEX
  5
16805
  8
0
 62
     5
 10
407.058
 20
329.636
 30
0.0
 70
    32
  0
VERTEX
  5
16806
  8
0
 62
     5
 10
407.058
 20
329.636
 30
0.0
 70
    32
  0
VERTEX
  5
16807
  8
0
 62
     5
 10
407.058
 20
329.636
 30
0.0
 70
    32
  0
VERTEX
  5
16808
  8
0
 62
     5
 10
407.058
 20
329.636
 30
0.0
 70
    32
  0
VERTEX
  5
16809
  8
0
 62
     5
 10
407.058
 20
329.636
 30
0.0
 70
    32
  0
VERTEX
  5
1680A
  8
0
 62
     5
 10
407.058
 20
329.636
 30
0.0
 70
    32
  0
VERTEX
  5
1680B
  8
0
 62
     5
 10
407.058
 20
329.636
 30
0.0
 70
    32
  0
VERTEX
  5
1680C
  8
0
 62
     5
 10
407.058
 20
329.636
 30
0.0
 70
    32
  0
VERTEX
  5
1680D
  8
0
 62
     5
 10
407.058
 20
329.636
 30
0.0
 70
    32
  0
VERTEX
  5
1680E
  8
0
 62
     5
 10
407.058
 20
329.636
 30
0.0
 70
    32
  0
VERTEX
  5
1680F
  8
0
 62
     5
 10
407.058
 20
329.636
 30
0.0
 70
    32
  0
VERTEX
  5
16810
  8
0
 62
     5
 10
407.058
 20
329.636
 30
0.0
 70
    32
  0
VERTEX
  5
16811
  8
0
 62
     5
 10
407.058
 20
329.636
 30
0.0
 70
    32
  0
VERTEX
  5
16812
  8
0
 62
     5
 10
407.058
 20
329.636
 30
0.0
 70
    32
  0
VERTEX
  5
16813
  8
0
 62
     5
 10
407.058
 20
329.636
 30
0.0
 70
    32
  0
VERTEX
  5
16814
  8
0
 62
     5
 10
407.058
 20
329.636
 30
0.0
 70
    32
  0
VERTEX
  5
16815
  8
0
 62
     5
 10
407.058
 20
329.635
 30
0.0
 70
    32
  0
VERTEX
  5
16816
  8
0
 62
     5
 10
407.058
 20
329.635
 30
0.0
 70
    32
  0
VERTEX
  5
16817
  8
0
 62
     5
 10
407.058
 20
329.635
 30
0.0
 70
    32
  0
VERTEX
  5
16818
  8
0
 62
     5
 10
407.058
 20
329.635
 30
0.0
 70
    32
  0
VERTEX
  5
16819
  8
0
 62
     5
 10
407.058
 20
329.635
 30
0.0
 70
    32
  0
VERTEX
  5
1681A
  8
0
 62
     5
 10
407.058
 20
329.635
 30
0.0
 70
    32
  0
VERTEX
  5
1681B
  8
0
 62
     5
 10
407.058
 20
329.635
 30
0.0
 70
    32
  0
VERTEX
  5
1681C
  8
0
 62
     5
 10
407.058
 20
329.635
 30
0.0
 70
    32
  0
VERTEX
  5
1681D
  8
0
 62
     5
 10
407.058
 20
329.635
 30
0.0
 70
    32
  0
VERTEX
  5
1681E
  8
0
 62
     5
 10
407.058
 20
329.635
 30
0.0
 70
    32
  0
VERTEX
  5
1681F
  8
0
 62
     5
 10
407.058
 20
329.635
 30
0.0
 70
    32
  0
VERTEX
  5
16820
  8
0
 62
     5
 10
407.058
 20
329.635
 30
0.0
 70
    32
  0
VERTEX
  5
16821
  8
0
 62
     5
 10
407.058
 20
329.635
 30
0.0
 70
    32
  0
VERTEX
  5
16822
  8
0
 62
     5
 10
407.058
 20
329.635
 30
0.0
 70
    32
  0
VERTEX
  5
16823
  8
0
 62
     5
 10
407.058
 20
329.635
 30
0.0
 70
    32
  0
VERTEX
  5
16824
  8
0
 62
     5
 10
407.058
 20
329.635
 30
0.0
 70
    32
  0
VERTEX
  5
16825
  8
0
 62
     5
 10
407.058
 20
329.635
 30
0.0
 70
    32
  0
VERTEX
  5
16826
  8
0
 62
     5
 10
407.058
 20
329.635
 30
0.0
 70
    32
  0
VERTEX
  5
16827
  8
0
 62
     5
 10
407.058
 20
329.635
 30
0.0
 70
    32
  0
VERTEX
  5
16828
  8
0
 62
     5
 10
407.058
 20
329.635
 30
0.0
 70
    32
  0
VERTEX
  5
16829
  8
0
 62
     5
 10
407.058
 20
329.634
 30
0.0
 70
    32
  0
VERTEX
  5
1682A
  8
0
 62
     5
 10
407.058
 20
329.634
 30
0.0
 70
    32
  0
VERTEX
  5
1682B
  8
0
 62
     5
 10
407.058
 20
329.634
 30
0.0
 70
    32
  0
VERTEX
  5
1682C
  8
0
 62
     5
 10
407.058
 20
329.634
 30
0.0
 70
    32
  0
VERTEX
  5
1682D
  8
0
 62
     5
 10
407.058
 20
329.634
 30
0.0
 70
    32
  0
VERTEX
  5
1682E
  8
0
 62
     5
 10
407.058
 20
329.634
 30
0.0
 70
    32
  0
VERTEX
  5
1682F
  8
0
 62
     5
 10
407.058
 20
329.634
 30
0.0
 70
    32
  0
VERTEX
  5
16830
  8
0
 62
     5
 10
407.058
 20
329.634
 30
0.0
 70
    32
  0
VERTEX
  5
16831
  8
0
 62
     5
 10
407.058
 20
329.634
 30
0.0
 70
    32
  0
VERTEX
  5
16832
  8
0
 62
     5
 10
407.058
 20
329.634
 30
0.0
 70
    32
  0
VERTEX
  5
16833
  8
0
 62
     5
 10
407.058
 20
329.634
 30
0.0
 70
    32
  0
VERTEX
  5
16834
  8
0
 62
     5
 10
407.058
 20
329.634
 30
0.0
 70
    32
  0
VERTEX
  5
16835
  8
0
 62
     5
 10
407.058
 20
329.634
 30
0.0
 70
    32
  0
VERTEX
  5
16836
  8
0
 62
     5
 10
407.058
 20
329.634
 30
0.0
 70
    32
  0
VERTEX
  5
16837
  8
0
 62
     5
 10
407.057
 20
329.634
 30
0.0
 70
    32
  0
VERTEX
  5
16838
  8
0
 62
     5
 10
407.057
 20
329.634
 30
0.0
 70
    32
  0
VERTEX
  5
16839
  8
0
 62
     5
 10
407.057
 20
329.634
 30
0.0
 70
    32
  0
VERTEX
  5
1683A
  8
0
 62
     5
 10
407.057
 20
329.634
 30
0.0
 70
    32
  0
VERTEX
  5
1683B
  8
0
 62
     5
 10
407.057
 20
329.634
 30
0.0
 70
    32
  0
VERTEX
  5
1683C
  8
0
 62
     5
 10
407.057
 20
329.633
 30
0.0
 70
    32
  0
VERTEX
  5
1683D
  8
0
 62
     5
 10
407.057
 20
329.633
 30
0.0
 70
    32
  0
VERTEX
  5
1683E
  8
0
 62
     5
 10
407.057
 20
329.633
 30
0.0
 70
    32
  0
VERTEX
  5
1683F
  8
0
 62
     5
 10
407.057
 20
329.633
 30
0.0
 70
    32
  0
VERTEX
  5
16840
  8
0
 62
     5
 10
407.057
 20
329.633
 30
0.0
 70
    32
  0
VERTEX
  5
16841
  8
0
 62
     5
 10
407.057
 20
329.633
 30
0.0
 70
    32
  0
VERTEX
  5
16842
  8
0
 62
     5
 10
407.057
 20
329.633
 30
0.0
 70
    32
  0
VERTEX
  5
16843
  8
0
 62
     5
 10
407.057
 20
329.633
 30
0.0
 70
    32
  0
VERTEX
  5
16844
  8
0
 62
     5
 10
407.057
 20
329.633
 30
0.0
 70
    32
  0
VERTEX
  5
16845
  8
0
 62
     5
 10
407.057
 20
329.633
 30
0.0
 70
    32
  0
VERTEX
  5
16846
  8
0
 62
     5
 10
407.057
 20
329.633
 30
0.0
 70
    32
  0
VERTEX
  5
16847
  8
0
 62
     5
 10
407.057
 20
329.633
 30
0.0
 70
    32
  0
VERTEX
  5
16848
  8
0
 62
     5
 10
407.057
 20
329.633
 30
0.0
 70
    32
  0
VERTEX
  5
16849
  8
0
 62
     5
 10
407.057
 20
329.633
 30
0.0
 70
    32
  0
SEQEND
  5
1684A
  8
0
 62
     5
  0
ARC
  5
1692D
  8
HIDDEN
 10
409.198632
 20
324.24261
 30
0.0
 40
0.5
 50
180.0
 51
270.0
  0
LINE
  5
1692E
  8
0
 62
     5
 10
344.409481
 20
378.74261
 30
0.0
 11
344.409481
 21
360.54261
 31
0.0
  0
LINE
  5
1692F
  8
0
 62
     5
 10
344.009481
 20
379.14261
 30
0.0
 11
344.009481
 21
360.14261
 31
0.0
  0
LINE
  5
16930
  8
0
 62
     5
 10
307.809481
 20
360.14261
 30
0.0
 11
344.009481
 21
360.14261
 31
0.0
  0
LINE
  5
16931
  8
0
 62
     5
 10
292.609481
 20
343.638799
 30
0.0
 11
296.209481
 21
343.638799
 31
0.0
  0
ARC
  5
16932
  8
0
 62
     5
 10
292.609481
 20
343.838799
 30
0.0
 40
0.2
 50
180.000004
 51
270.0
  0
ARC
  5
16933
  8
0
 62
     5
 10
296.209481
 20
343.438799
 30
0.0
 40
0.2
 50
0.0
 51
90.0
  0
ARC
  5
16934
  8
0
 62
     5
 10
307.809481
 20
359.74261
 30
0.0
 40
0.4
 50
90.0
 51
180.0
  0
LINE
  5
16935
  8
0
 62
     5
 10
344.009481
 20
360.14261
 30
0.0
 11
344.409481
 21
360.54261
 31
0.0
  0
LINE
  5
16936
  8
0
 62
     5
 10
307.809481
 20
379.14261
 30
0.0
 11
344.009481
 21
379.14261
 31
0.0
  0
LINE
  5
16937
  8
0
 62
     5
 10
296.409481
 20
395.285792
 30
0.0
 11
296.409481
 21
409.44261
 31
0.0
  0
LINE
  5
16938
  8
0
 62
     5
 10
296.209481
 20
395.646421
 30
0.0
 11
292.609481
 21
395.646421
 31
0.0
  0
ARC
  5
16939
  8
0
 62
     5
 10
292.609481
 20
395.446421
 30
0.0
 40
0.2
 50
90.0
 51
179.999996
  0
ARC
  5
1693A
  8
0
 62
     5
 10
296.209481
 20
395.846421
 30
0.0
 40
0.2
 50
270.0
 51
0.0
  0
ARC
  5
1693B
  8
0
 62
     5
 10
307.809481
 20
379.54261
 30
0.0
 40
0.4
 50
180.0
 51
270.0
  0
LINE
  5
1693C
  8
0
 62
     5
 10
292.609481
 20
409.64261
 30
0.0
 11
304.409481
 21
409.64261
 31
0.0
  0
ARC
  5
1693D
  8
0
 62
     5
 10
292.609481
 20
409.44261
 30
0.0
 40
0.2
 50
90.0
 51
180.0
  0
ARC
  5
1693E
  8
0
 62
     5
 10
296.609481
 20
409.44261
 30
0.0
 40
0.2
 50
90.0
 51
180.0
  0
LINE
  5
1693F
  8
0
 62
     5
 10
304.609481
 20
404.64261
 30
0.0
 11
307.209481
 21
404.64261
 31
0.0
  0
ARC
  5
16940
  8
0
 62
     5
 10
304.609481
 20
404.84261
 30
0.0
 40
0.2
 50
180.0
 51
270.0
  0
LINE
  5
16941
  8
0
 62
     5
 10
307.209481
 20
404.64261
 30
0.0
 11
307.409481
 21
404.44261
 31
0.0
  0
LINE
  5
16942
  8
0
 62
     5
 10
344.009481
 20
379.14261
 30
0.0
 11
344.409481
 21
378.74261
 31
0.0
  0
LINE
  5
16943
  8
0
 62
     5
 10
392.644943
 20
394.670183
 30
0.0
 11
392.644943
 21
344.615037
 31
0.0
  0
LINE
  5
16944
  8
0
 62
     5
 10
392.948632
 20
402.64261
 30
0.0
 11
392.948632
 21
336.64261
 31
0.0
  0
LINE
  5
16AC7
  8
CENTER
 10
401.128827
 20
337.822805
 30
0.0
 11
404.522939
 21
341.216917
 31
0.0
  0
CIRCLE
  5
16AC8
  8
0
 62
     5
 10
397.387692
 20
348.444035
 30
0.0
 40
1.65
  0
LINE
  5
16AC9
  8
CENTER
 10
401.128827
 20
401.462415
 30
0.0
 11
404.522939
 21
398.068303
 31
0.0
  0
ARC
  5
16ACA
  8
CENTER
 10
432.948632
 20
369.64261
 30
0.0
 40
45.0
 50
126.016
 51
144.821428
  0
CIRCLE
  5
16ACB
  8
0
 62
     5
 10
401.128827
 20
401.462415
 30
0.0
 40
3.3
  0
ARC
  5
16C4E
  8
0
 62
     5
 10
399.948632
 20
402.64261
 30
0.0
 40
7.0
 50
90.0
 51
180.0
  0
LINE
  5
16DD1
  8
CENTER
 10
401.128827
 20
401.462415
 30
0.0
 11
397.734714
 21
404.856528
 31
0.0
  0
ARC
  5
16DD2
  8
0
 62
     5
 10
465.948632
 20
336.64261
 30
0.0
 40
7.0
 50
270.0
 51
0.0
  0
ARC
  5
16DD3
  8
CENTER
 10
432.948632
 20
369.64261
 30
0.0
 40
45.0
 50
306.016
 51
324.821428
  0
CIRCLE
  5
16DD4
  8
0
 62
     5
 10
464.768437
 20
337.822805
 30
0.0
 40
3.3
  0
LINE
  5
16DD5
  8
CENTER
 10
464.768437
 20
337.822805
 30
0.0
 11
468.16255
 21
334.428692
 31
0.0
  0
CIRCLE
  5
16DD6
  8
0
 62
     5
 10
454.147207
 20
334.08167
 30
0.0
 40
1.65
  0
LINE
  5
16DD7
  8
CENTER
 10
432.948632
 20
415.898159
 30
0.0
 11
432.948632
 21
311.04261
 31
0.0
  0
LINE
  5
16DD8
  8
0
 62
     5
 10
440.823073
 20
325.44261
 30
0.0
 11
449.755988
 21
325.44261
 31
0.0
  0
LINE
  5
16DD9
  8
0
 62
     5
 10
450.910483
 20
322.14261
 30
0.0
 11
435.02648
 21
322.14261
 31
0.0
  0
LINE
  5
16DDA
  8
0
 62
     5
 10
434.772148
 20
326.64261
 30
0.0
 11
456.502037
 21
326.64261
 31
0.0
  0
LINE
  5
16DDB
  8
HIDDEN
 10
447.896967
 20
313.642614
 30
0.0
 11
440.457719
 21
313.64261
 31
0.0
  0
LINE
  5
16DDC
  8
HIDDEN
 10
434.772148
 20
326.64261
 30
0.0
 11
456.502037
 21
326.64261
 31
0.0
  0
LINE
  5
16DDD
  8
0
 62
     5
 10
457.948632
 20
327.64261
 30
0.0
 11
434.782444
 21
327.64261
 31
0.0
  0
LINE
  5
16DDE
  8
0
 62
     5
 10
435.213221
 20
329.338921
 30
0.0
 11
457.976205
 21
329.338921
 31
0.0
  0
ARC
  5
16DDF
  8
HIDDEN
 10
415.498632
 20
316.54261
 30
0.0
 40
4.0
 50
180.0
 51
270.0
  0
LINE
  5
16DE0
  8
CENTER
 10
420.948632
 20
329.94261
 30
0.0
 11
420.948632
 21
311.04261
 31
0.0
  0
ARC
  5
16DE1
  8
HIDDEN
 10
426.398632
 20
316.54261
 30
0.0
 40
4.0
 50
270.0
 51
0.0
  0
LINE
  5
16DE2
  8
HIDDEN
 10
415.498632
 20
312.54261
 30
0.0
 11
426.398632
 21
312.54261
 31
0.0
  0
LINE
  5
16DE3
  8
0
 62
     5
 10
413.590332
 20
320.84261
 30
0.0
 11
428.306932
 21
320.84261
 31
0.0
  0
LINE
  5
16DE4
  8
0
 62
     5
 10
413.590332
 20
320.84261
 30
0.0
 11
413.42063
 21
326.24261
 31
0.0
  0
LINE
  5
16DE5
  8
0
 62
     5
 10
414.207744
 20
326.24261
 30
0.0
 11
414.278037
 21
320.84261
 31
0.0
  0
ARC
  5
16DE6
  8
0
 62
     5
 10
424.648632
 20
326.44261
 30
0.0
 40
0.2
 50
180.0
 51
270.0
  0
LINE
  5
16DE7
  8
0
 62
     5
 10
424.45802
 20
326.54261
 30
0.0
 11
417.439244
 21
326.54261
 31
0.0
  0
LINE
  5
16DE8
  8
0
 62
     5
 10
417.448632
 20
326.54261
 30
0.0
 11
417.448632
 21
326.44261
 31
0.0
  0
ARC
  5
16DE9
  8
0
 62
     5
 10
417.248632
 20
326.44261
 30
0.0
 40
0.2
 50
270.0
 51
0.0
  0
LINE
  5
16FCC
  8
0
 62
     5
 10
424.448632
 20
326.44261
 30
0.0
 11
424.448632
 21
326.54261
 31
0.0
  0
LINE
  5
171AF
  8
HIDDEN
 10
411.498632
 20
323.74261
 30
0.0
 11
411.498632
 21
316.54261
 31
0.0
  0
LINE
  5
171B0
  8
HIDDEN
 10
430.398632
 20
323.74261
 30
0.0
 11
432.698632
 21
323.74261
 31
0.0
  0
LINE
  5
171B1
  8
0
 62
     5
 10
439.632017
 20
322.44261
 30
0.0
 11
440.823073
 21
322.44261
 31
0.0
  0
LINE
  5
171B2
  8
0
 62
     5
 10
439.632017
 20
322.74261
 30
0.0
 11
439.632017
 21
322.44261
 31
0.0
  0
LINE
  5
171B3
  8
0
 62
     5
 10
439.595457
 20
322.14261
 30
0.0
 11
439.632017
 21
322.44261
 31
0.0
  0
LINE
  5
171B4
  8
0
 62
     5
 10
440.786512
 20
322.14261
 30
0.0
 11
440.823073
 21
322.44261
 31
0.0
  0
LINE
  5
171B5
  8
0
 62
     5
 10
440.823073
 20
322.44261
 30
0.0
 11
440.823073
 21
325.44261
 31
0.0
  0
LINE
  5
171B6
  8
0
 62
     5
 10
434.728716
 20
322.44261
 30
0.0
 11
435.50868
 21
322.44261
 31
0.0
  0
LINE
  5
171B7
  8
0
 62
     5
 10
434.728716
 20
322.74261
 30
0.0
 11
434.495287
 21
322.74261
 31
0.0
  0
LINE
  5
171B8
  8
0
 62
     5
 10
435.02648
 20
322.14261
 30
0.0
 11
434.728716
 21
322.44261
 31
0.0
  0
LINE
  5
171B9
  8
0
 62
     5
 10
435.806444
 20
322.14261
 30
0.0
 11
435.50868
 21
322.44261
 31
0.0
  0
LINE
  5
171BA
  8
0
 62
     5
 10
434.728716
 20
322.74261
 30
0.0
 11
434.728716
 21
322.44261
 31
0.0
  0
LINE
  5
171BB
  8
0
 62
     5
 10
435.50868
 20
322.44261
 30
0.0
 11
435.50868
 21
322.74261
 31
0.0
  0
LINE
  5
171BC
  8
0
 62
     5
 10
434.495189
 20
326.290248
 30
0.0
 11
434.495189
 21
322.74261
 31
0.0
  0
LINE
  5
171BD
  8
0
 62
     5
 10
435.50868
 20
322.74261
 30
0.0
 11
439.632017
 21
322.74261
 31
0.0
  0
LINE
  5
171BE
  8
0
 62
     5
 10
427.619227
 20
320.84261
 30
0.0
 11
427.68952
 21
326.24261
 31
0.0
  0
LINE
  5
171BF
  8
0
 62
     5
 10
428.476634
 20
326.24261
 30
0.0
 11
428.306932
 21
320.84261
 31
0.0
  0
LINE
  5
171C0
  8
0
 62
     5
 10
434.782444
 20
328.918765
 30
0.0
 11
434.782444
 21
326.74261
 31
0.0
  0
LINE
  5
17A29
  8
HIDDEN
 10
437.216636
 20
315.393694
 30
0.0
 11
437.216673
 21
315.393633
 31
0.0
  0
LINE
  5
17A2A
  8
HIDDEN
 10
436.476354
 20
317.64261
 30
0.0
 11
436.476354
 21
320.653515
 31
0.0
  0
LINE
  5
17A2B
  8
HIDDEN
 10
437.782708
 20
314.679972
 30
0.0
 11
437.783999
 21
314.678795
 31
0.0
  0
LINE
  5
17A2C
  8
HIDDEN
 10
433.198632
 20
326.24261
 30
0.0
 11
433.198632
 21
324.24261
 31
0.0
  0
ARC
  5
17A2D
  8
HIDDEN
 10
433.895189
 20
322.14261
 30
0.0
 40
1.5
 50
195.729644
 51
270.0
  0
LINE
  5
17A2E
  8
HIDDEN
 10
430.398632
 20
323.74261
 30
0.0
 11
430.398632
 21
316.54261
 31
0.0
  0
ARC
  5
17A2F
  8
HIDDEN
 10
432.698632
 20
324.24261
 30
0.0
 40
0.5
 50
270.0
 51
0.0
  0
LINE
  5
17A30
  8
HIDDEN
 10
433.895141
 20
320.64261
 30
0.0
 11
436.476354
 21
320.653515
 31
0.0
  0
ARC
  5
17A31
  8
0
 62
     5
 10
434.282444
 20
326.74261
 30
0.0
 40
0.5
 50
270.0
 51
0.0
  0
LINE
  5
17A32
  8
CENTER
 10
444.448632
 20
330.64261
 30
0.0
 11
444.448632
 21
312.092213
 31
0.0
  0
LINE
  5
17A33
  8
HIDDEN
 10
449.519713
 20
313.94887
 30
0.0
 11
449.517277
 21
313.947163
 31
0.0
  0
LINE
  5
17A34
  8
HIDDEN
 10
449.377861
 20
313.877589
 30
0.0
 11
449.377969
 21
313.877624
 31
0.0
  0
LINE
  5
17A35
  8
0
 62
     5
 10
456.502075
 20
326.64261
 30
0.0
 11
456.502075
 21
327.64261
 31
0.0
  0
LINE
  5
17A36
  8
0
 62
     5
 10
453.870784
 20
322.14261
 30
0.0
 11
450.968494
 21
322.14261
 31
0.0
  0
LINE
  5
17A37
  8
0
 62
     5
 10
450.947044
 20
322.44261
 30
0.0
 11
450.947044
 21
322.74261
 31
0.0
  0
LINE
  5
17A38
  8
0
 62
     5
 10
454.168548
 20
322.74261
 30
0.0
 11
454.168548
 21
322.44261
 31
0.0
  0
LINE
  5
17A39
  8
0
 62
     5
 10
450.947044
 20
322.44261
 30
0.0
 11
450.910483
 21
322.14261
 31
0.0
  0
LINE
  5
17A3A
  8
0
 62
     5
 10
454.168548
 20
322.44261
 30
0.0
 11
453.870784
 21
322.14261
 31
0.0
  0
LINE
  5
17A3B
  8
0
 62
     5
 10
449.755988
 20
322.44261
 30
0.0
 11
449.719427
 21
322.14261
 31
0.0
  0
LINE
  5
17A3C
  8
0
 62
     5
 10
449.755988
 20
322.44261
 30
0.0
 11
450.947044
 21
322.44261
 31
0.0
  0
LINE
  5
17A3D
  8
0
 62
     5
 10
450.947044
 20
322.74261
 30
0.0
 11
454.401977
 21
322.74261
 31
0.0
  0
LINE
  5
17A3E
  8
0
 62
     5
 10
449.475689
 20
322.14261
 30
0.0
 11
449.475689
 21
325.44261
 31
0.0
  0
LINE
  5
17A3F
  8
0
 62
     5
 10
449.755988
 20
325.44261
 30
0.0
 11
449.755988
 21
322.44261
 31
0.0
  0
LINE
  5
17A40
  8
0
 62
     5
 10
454.402075
 20
326.64261
 30
0.0
 11
454.402075
 21
322.74261
 31
0.0
  0
ARC
  5
17A41
  8
HIDDEN
 10
455.002075
 20
322.14261
 30
0.0
 40
1.5
 50
270.0
 51
0.0
  0
LINE
  5
17A42
  8
HIDDEN
 10
456.502075
 20
322.14261
 30
0.0
 11
456.502075
 21
327.64261
 31
0.0
  0
LINE
  5
17B25
  8
HIDDEN
 10
451.828914
 20
317.610032
 30
0.0
 11
451.828908
 21
317.609946
 31
0.0
  0
LINE
  5
17B26
  8
HIDDEN
 10
451.406269
 20
316.011485
 30
0.0
 11
451.406298
 21
316.011546
 31
0.0
  0
LINE
  5
17B27
  8
HIDDEN
 10
451.850835
 20
320.64261
 30
0.0
 11
451.850835
 21
318.030985
 31
0.0
  0
LINE
  5
17B28
  8
HIDDEN
 10
451.850835
 20
320.64261
 30
0.0
 11
455.002123
 21
320.64261
 31
0.0
  0
LINE
  5
17B29
  8
0
 62
     5
 10
458.148632
 20
329.354113
 30
0.0
 11
458.148632
 21
327.84261
 31
0.0
  0
ARC
  5
17B2A
  8
0
 62
     5
 10
457.648632
 20
329.14261
 30
0.0
 40
0.5
 50
0.0
 51
24.180062
  0
ARC
  5
17B2B
  8
0
 62
     5
 10
457.948632
 20
327.84261
 30
0.0
 40
0.2
 50
270.0
 51
0.0
  0
ARC
  5
17CAE
  8
0
 62
     5
 10
465.948632
 20
402.64261
 30
0.0
 40
7.0
 50
0.0
 51
90.0
  0
LINE
  5
17CAF
  8
0
 62
     5
 10
472.948632
 20
336.64261
 30
0.0
 11
472.948632
 21
402.64261
 31
0.0
  0
LINE
  5
17CB0
  8
0
 62
     5
 10
473.252321
 20
344.615037
 30
0.0
 11
473.252321
 21
394.670183
 31
0.0
  0
CIRCLE
  5
17CB1
  8
0
 62
     5
 10
432.948632
 20
369.64261
 30
0.0
 40
9.5
  0
CIRCLE
  5
17CB2
  8
0
 62
     5
 10
432.948632
 20
369.64261
 30
0.0
 40
9.1
  0
CIRCLE
  5
17CB3
  8
0
 62
     5
 10
432.948632
 20
369.64261
 30
0.0
 40
12.5
  0
LINE
  5
17E36
  8
CENTER
 10
464.768437
 20
337.822805
 30
0.0
 11
461.374325
 21
341.216917
 31
0.0
  0
ARC
  5
17E37
  8
CENTER
 10
432.948632
 20
369.64261
 30
0.0
 40
45.0
 50
36.016
 51
54.821428
  0
CIRCLE
  5
17E38
  8
0
 62
     5
 10
464.768437
 20
401.462415
 30
0.0
 40
3.3
  0
LINE
  5
17E39
  8
CENTER
 10
464.768437
 20
401.462415
 30
0.0
 11
461.374325
 21
398.068303
 31
0.0
  0
CIRCLE
  5
17FBC
  8
0
 62
     5
 10
468.509572
 20
390.841185
 30
0.0
 40
1.65
  0
LINE
  5
17FBD
  8
CENTER
 10
464.768437
 20
401.462415
 30
0.0
 11
468.16255
 21
404.856528
 31
0.0
  0
POLYLINE
  5
18140
  8
HIDDEN
 66
     1
 10
0.0
 20
0.0
 30
0.0
 70
     2
  0
VERTEX
  5
18141
  8
HIDDEN
 10
96.6515
 20
313.643
 30
0.0
 42
-0.048363
  0
VERTEX
  5
18142
  8
HIDDEN
 10
95.937942
 20
313.652867
 30
0.0
 42
-0.073922
 70
     1
  0
VERTEX
  5
18143
  8
HIDDEN
 10
95.485108
 20
313.772388
 30
0.0
 42
-0.022415
  0
VERTEX
  5
18144
  8
HIDDEN
 10
94.796476
 20
314.105419
 30
0.0
 42
-0.04292
 70
     1
  0
VERTEX
  5
18145
  8
HIDDEN
 10
94.4621
 20
314.325
 30
0.0
 42
-0.036088
  0
VERTEX
  5
18146
  8
HIDDEN
 10
93.939481
 20
314.801236
 30
0.0
 42
-0.041904
 70
     1
  0
VERTEX
  5
18147
  8
HIDDEN
 10
93.558361
 20
315.276508
 30
0.0
 42
-0.029104
  0
VERTEX
  5
18148
  8
HIDDEN
 10
93.18259
 20
315.912081
 30
0.0
 42
-0.040096
 70
     1
  0
VERTEX
  5
18149
  8
HIDDEN
 10
92.9759
 20
316.407
 30
0.0
 42
-0.016212
  0
VERTEX
  5
1814A
  8
HIDDEN
 10
92.895011
 20
316.685119
 30
0.0
 42
-0.008215
 70
     1
  0
VERTEX
  5
1814B
  8
HIDDEN
 10
92.7624
 20
317.241
 30
0.0
 42
-0.033993
  0
VERTEX
  5
1814C
  8
HIDDEN
 10
92.71819
 20
317.533928
 30
0.0
 42
-0.020227
 70
     1
  0
VERTEX
  5
1814D
  8
HIDDEN
 10
92.697607
 20
318.030985
 30
0.0
  0
SEQEND
  5
1814E
  8
HIDDEN
  0
ARC
  5
18160
  8
HIDDEN
 10
218.709993
 20
325.654034
 30
0.0
 40
1.588967
 50
54.398536
 51
89.963686
  0
POLYLINE
  5
18161
  8
HIDDEN
 66
     1
 10
0.0
 20
0.0
 30
0.0
 70
     2
  0
VERTEX
  5
18162
  8
HIDDEN
 10
222.26
 20
326.043
 30
0.0
 42
-0.050881
  0
VERTEX
  5
18163
  8
HIDDEN
 10
222.520349
 20
326.014523
 30
0.0
 42
-0.071755
 70
     1
  0
VERTEX
  5
18164
  8
HIDDEN
 10
222.695
 20
325.95
 30
0.0
 42
-0.023608
  0
VERTEX
  5
18165
  8
HIDDEN
 10
222.914805
 20
325.816937
 30
0.0
 42
-0.045671
 70
     1
  0
VERTEX
  5
18166
  8
HIDDEN
 10
223.018
 20
325.733
 30
0.0
 42
-0.052215
  0
VERTEX
  5
18167
  8
HIDDEN
 10
223.206253
 20
325.505991
 30
0.0
 42
-0.055396
 70
     1
  0
VERTEX
  5
18168
  8
HIDDEN
 10
223.334
 20
325.259
 30
0.0
 42
-0.018165
  0
VERTEX
  5
18169
  8
HIDDEN
 10
223.387062
 20
325.104248
 30
0.0
 42
-0.006745
 70
     1
  0
VERTEX
  5
1816A
  8
HIDDEN
 10
223.509
 20
324.681
 30
0.0
 42
-0.023061
  0
VERTEX
  5
1816B
  8
HIDDEN
 10
223.560267
 20
324.452706
 30
0.0
 42
-0.014822
 70
     1
  0
VERTEX
  5
1816C
  8
HIDDEN
 10
223.612903
 20
324.09261
 30
0.0
  0
SEQEND
  5
1816D
  8
HIDDEN
  0
ARC
  5
1816E
  8
HIDDEN
 10
218.726041
 20
315.191031
 30
0.0
 40
1.547042
 50
270.220706
 51
306.142564
  0
POLYLINE
  5
1816F
  8
HIDDEN
 66
     1
 10
0.0
 20
0.0
 30
0.0
 70
     2
  0
VERTEX
  5
18170
  8
HIDDEN
 10
222.26
 20
314.843
 30
0.0
 42
0.049159
  0
VERTEX
  5
18171
  8
HIDDEN
 10
222.515364
 20
314.869114
 30
0.0
 42
0.072769
 70
     1
  0
VERTEX
  5
18172
  8
HIDDEN
 10
222.679
 20
314.928
 30
0.0
 42
0.03357
  0
VERTEX
  5
18173
  8
HIDDEN
 10
222.949562
 20
315.09681
 30
0.0
 42
0.060029
 70
     1
  0
VERTEX
  5
18174
  8
HIDDEN
 10
223.081
 20
315.218
 30
0.0
 42
0.043741
  0
VERTEX
  5
18175
  8
HIDDEN
 10
223.257093
 20
315.46539
 30
0.0
 42
0.05201
 70
     1
  0
VERTEX
  5
18176
  8
HIDDEN
 10
223.363
 20
315.698
 30
0.0
 42
0.016061
  0
VERTEX
  5
18177
  8
HIDDEN
 10
223.431239
 20
315.925672
 30
0.0
 42
0.007876
 70
     1
  0
VERTEX
  5
18178
  8
HIDDEN
 10
223.548
 20
316.396
 30
0.0
 42
0.01632
  0
VERTEX
  5
18179
  8
HIDDEN
 10
223.574977
 20
316.532625
 30
0.0
 42
0.008649
 70
     1
  0
VERTEX
  5
1817A
  8
HIDDEN
 10
223.612944
 20
316.79261
 30
0.0
  0
SEQEND
  5
1817B
  8
HIDDEN
  0
LINE
  5
1817C
  8
HIDDEN
 10
247.103241
 20
325.639098
 30
0.0
 11
247.551
 21
325.383
 31
0.0
  0
LINE
  5
1817D
  8
HIDDEN
 10
247.089
 20
312.543
 30
0.0
 11
247.646842
 21
312.858334
 31
0.0
  0
ARC
  5
1817E
  8
HIDDEN
 10
440.516324
 20
317.682749
 30
0.0
 40
4.04017
 50
180.569245
 51
269.172843
  0
POLYLINE
  5
1817F
  8
HIDDEN
 66
     1
 10
0.0
 20
0.0
 30
0.0
 70
     2
  0
VERTEX
  5
18180
  8
HIDDEN
 10
447.913
 20
313.643
 30
0.0
 42
0.043703
  0
VERTEX
  5
18181
  8
HIDDEN
 10
448.591225
 20
313.666026
 30
0.0
 42
0.064603
 70
     1
  0
VERTEX
  5
18182
  8
HIDDEN
 10
449.037
 20
313.78
 30
0.0
 42
0.021588
  0
VERTEX
  5
18183
  8
HIDDEN
 10
449.68155
 20
314.069781
 30
0.0
 42
0.038635
 70
     1
  0
VERTEX
  5
18184
  8
HIDDEN
 10
450.02
 20
314.274
 30
0.0
 42
0.050228
  0
VERTEX
  5
18185
  8
HIDDEN
 10
450.560871
 20
314.748871
 30
0.0
 42
0.043969
 70
     1
  0
VERTEX
  5
18186
  8
HIDDEN
 10
451.066
 20
315.397
 30
0.0
 42
0.035842
  0
VERTEX
  5
18187
  8
HIDDEN
 10
451.31653
 20
315.852883
 30
0.0
 42
0.019517
 70
     1
  0
VERTEX
  5
18188
  8
HIDDEN
 10
451.681
 20
316.735
 30
0.0
 42
0.055678
  0
VERTEX
  5
18189
  8
HIDDEN
 10
451.802987
 20
317.230171
 30
0.0
 42
0.035328
 70
     1
  0
VERTEX
  5
1818A
  8
HIDDEN
 10
451.850835
 20
318.030985
 30
0.0
  0
SEQEND
  5
1818B
  8
HIDDEN
  0
ARC
  5
18192
  8
0
 62
     5
 10
457.976474
 20
408.945911
 30
0.0
 40
1.000388
 50
44.141159
 51
90.015432
  0
ARC
  5
18193
  8
0
 62
     5
 10
407.92079
 20
408.945911
 30
0.0
 40
1.000388
 50
89.984568
 51
135.858841
  0
ARC
  5
18194
  8
0
 62
     5
 10
393.645331
 20
344.614768
 30
0.0
 40
1.000388
 50
179.984568
 51
225.858841
  0
ARC
  5
18195
  8
0
 62
     5
 10
393.645331
 20
394.670452
 30
0.0
 40
1.000388
 50
134.141159
 51
180.015432
  0
ARC
  5
18196
  8
0
 62
     5
 10
457.976474
 20
330.339309
 30
0.0
 40
1.000388
 50
269.984568
 51
315.858841
  0
ARC
  5
18198
  8
0
 62
     5
 10
472.251933
 20
394.670452
 30
0.0
 40
1.000388
 50
359.984568
 51
45.858841
  0
ARC
  5
18199
  8
0
 62
     5
 10
472.251933
 20
344.614768
 30
0.0
 40
1.000388
 50
314.141159
 51
0.015432
  0
ARC
  5
1819A
  8
0
 62
     5
 10
456.86403
 20
337.30247
 30
0.0
 40
9.963001
 50
233.064484
 51
234.982534
  0
ARC
  5
1819C
  8
0
 62
     5
 10
410.452168
 20
333.037697
 30
0.0
 40
4.728187
 50
225.887138
 51
240.487506
  0
ARC
  5
1819D
  8
0
 62
     5
 10
407.491454
 20
326.750287
 30
0.0
 40
0.507735
 50
180.866318
 51
269.133682
  0
ARC
  5
1819E
  8
0
 62
     5
 10
435.276643
 20
328.849871
 30
0.0
 40
0.494158
 50
89.378834
 51
180.448848
  0
ARC
  5
1819F
  8
0
 62
     5
 10
417.458211
 20
326.622006
 30
0.0
 40
0.08163
 50
221.421627
 51
256.564429
  0
ARC
  5
181A0
  8
0
 62
     5
 10
418.56755
 20
327.708034
 30
0.0
 40
1.633972
 50
216.200028
 51
224.243329
  0
ARC
  5
181A1
  8
0
 62
     5
 10
424.439053
 20
326.622006
 30
0.0
 40
0.08163
 50
283.435571
 51
318.578373
  0
ARC
  5
181A2
  8
0
 62
     5
 10
423.329714
 20
327.708034
 30
0.0
 40
1.633972
 50
315.756671
 51
323.799972
  0
INSERT
  5
182B2
  8
1
  2
A$C3C4259C2
 10
265.610212
 20
315.840654
 30
0.0
 41
-1.561577
 42
1.561577
 43
1.561578
  0
ARC
  5
182F5
  8
0
 62
     5
 10
214.221415
 20
405.968243
 30
0.0
 40
3.154725
 50
155.615501
 51
180.803567
  0
ARC
  5
182F6
  8
0
 62
     5
 10
213.463278
 20
406.078047
 30
0.0
 40
2.401224
 50
183.678244
 51
192.128205
  0
ARC
  5
182F7
  8
0
 62
     5
 10
214.227758
 20
404.440176
 30
0.0
 40
3.161048
 50
179.223774
 51
204.358837
  0
ARC
  5
182F8
  8
0
 62
     5
 10
213.463279
 20
404.329096
 30
0.0
 40
2.401216
 50
167.872816
 51
176.325164
  0
ARC
  5
182F9
  8
0
 62
     5
 10
209.166795
 20
391.542627
 30
0.0
 40
2.203163
 50
150.746002
 51
182.01919
  0
ARC
  5
182FA
  8
0
 62
     5
 10
208.350355
 20
391.529284
 30
0.0
 40
1.386846
 50
182.656776
 51
197.11345
  0
ARC
  5
182FB
  8
0
 62
     5
 10
208.365459
 20
390.150329
 30
0.0
 40
1.402093
 50
162.960554
 51
177.2336
  0
ARC
  5
182FC
  8
0
 62
     5
 10
209.164811
 20
390.139305
 30
0.0
 40
2.201219
 50
177.951189
 51
209.269293
  0
ARC
  5
182FD
  8
0
 62
     5
 10
214.225009
 20
349.207963
 30
0.0
 40
3.158315
 50
155.629763
 51
180.797568
  0
ARC
  5
182FE
  8
0
 62
     5
 10
213.383495
 20
349.307656
 30
0.0
 40
2.320946
 50
183.548611
 51
192.279495
  0
ARC
  5
18300
  8
0
 62
     5
 10
214.232517
 20
347.681672
 30
0.0
 40
3.1658
 50
179.233901
 51
204.339958
  0
ARC
  5
18301
  8
0
 62
     5
 10
213.346089
 20
347.585643
 30
0.0
 40
2.283285
 50
167.649055
 51
176.525999
  0
ARC
  5
18302
  8
0
 62
     5
 10
209.033496
 20
343.839406
 30
0.0
 40
0.575993
 50
318.666985
 51
359.692828
  0
ARC
  5
18343
  8
0
 62
     5
 10
209.163853
 20
334.783792
 30
0.0
 40
2.200264
 50
150.724001
 51
182.052218
  0
ARC
  5
18344
  8
0
 62
     5
 10
208.333327
 20
334.76689
 30
0.0
 40
1.369726
 50
182.589735
 51
197.207905
  0
ARC
  5
18345
  8
0
 62
     5
 10
209.379259
 20
333.4317
 30
0.0
 40
2.414402
 50
179.375863
 51
207.855644
  0
ARC
  5
18346
  8
0
 62
     5
 10
208.596955
 20
333.350553
 30
0.0
 40
1.635489
 50
163.988487
 51
176.233102
  0
ARC
  5
18347
  8
0
 62
     5
 10
136.626866
 20
408.945745
 30
0.0
 40
1.000554
 50
4.938544
 51
89.970395
  0
ARC
  5
18348
  8
0
 62
     5
 10
150.902945
 20
394.669666
 30
0.0
 40
1.000554
 50
0.029605
 51
85.061456
  0
ARC
  5
18349
  8
0
 62
     5
 10
86.572754
 20
408.945745
 30
0.0
 40
1.000554
 50
90.029605
 51
175.061456
  0
ARC
  5
1834A
  8
0
 62
     5
 10
72.296675
 20
394.669666
 30
0.0
 40
1.000554
 50
94.938544
 51
179.970395
  0
ARC
  5
1834C
  8
0
 62
     5
 10
72.296675
 20
344.615554
 30
0.0
 40
1.000554
 50
180.029605
 51
265.061456
  0
ARC
  5
1834E
  8
0
 62
     5
 10
86.572712
 20
330.339455
 30
0.0
 40
1.00051
 50
184.937654
 51
260.047947
  0
ARC
  5
1834F
  8
0
 62
     5
 10
137.064602
 20
326.742673
 30
0.0
 40
0.500063
 50
270.007255
 51
359.992745
  0
ARC
  5
18351
  8
0
 62
     5
 10
177.01116
 20
325.255993
 30
0.0
 40
39.677542
 50
174.093652
 51
174.814603
  0
ARC
  5
18352
  8
0
 62
     5
 10
150.902945
 20
344.615554
 30
0.0
 40
1.000554
 50
274.938544
 51
359.970395
  0
ARC
  5
18393
  8
HIDDEN
 10
205.293789
 20
322.194469
 30
0.0
 40
12.761918
 50
179.334891
 51
208.04125
  0
ARC
  5
18394
  8
HIDDEN
 10
198.896596
 20
319.553945
 30
0.0
 40
5.913228
 50
214.613596
 51
271.451743
  0
POLYLINE
  5
183D7
  8
0
 62
     5
 66
     1
 10
0.0
 20
0.0
 30
0.0
 70
     2
  0
VERTEX
  5
183D8
  8
0
 62
     5
 10
223.961663
 20
329.629602
 30
0.0
 42
0.037043
  0
VERTEX
  5
183DF
  8
0
 62
     5
 10
223.941749
 20
329.624534
 30
0.0
 42
0.077597
 70
     1
  0
VERTEX
  5
183D9
  8
0
 62
     5
 10
223.933
 20
329.62
 30
0.0
 42
0.06723
  0
VERTEX
  5
183E0
  8
0
 62
     5
 10
223.905995
 20
329.593956
 30
0.0
 42
0.051902
 70
     1
  0
VERTEX
  5
183DA
  8
0
 62
     5
 10
223.88
 20
329.553
 30
0.0
 42
0.02641
  0
VERTEX
  5
183E1
  8
0
 62
     5
 10
223.84484
 20
329.471889
 30
0.0
 42
0.024483
 70
     1
  0
VERTEX
  5
183DB
  8
0
 62
     5
 10
223.816
 20
329.381
 30
0.0
 42
0.008177
  0
VERTEX
  5
183E3
  8
0
 62
     5
 10
223.800017
 20
329.316237
 30
0.0
 42
0.002215
 70
     1
  0
VERTEX
  5
183DC
  8
0
 62
     5
 10
223.746
 20
329.076
 30
0.0
 42
0.012899
  0
VERTEX
  5
183E2
  8
0
 62
     5
 10
223.730885
 20
328.997804
 30
0.0
 42
0.006517
 70
     1
  0
VERTEX
  5
183DD
  8
0
 62
     5
 10
223.707
 20
328.842
 30
0.0
  0
SEQEND
  5
183DE
  8
0
 62
     5
  0
POLYLINE
  5
183E4
  8
0
 62
     5
 66
     1
 10
0.0
 20
0.0
 30
0.0
 70
     2
  0
VERTEX
  5
183E5
  8
0
 62
     5
 10
223.079215
 20
329.340098
 30
0.0
 42
-0.024139
  0
VERTEX
  5
183EF
  8
0
 62
     5
 10
223.161624
 20
329.336414
 30
0.0
 42
-0.041431
 70
     1
  0
VERTEX
  5
183E6
  8
0
 62
     5
 10
223.209
 20
329.328
 30
0.0
 42
-0.009856
  0
VERTEX
  5
183F0
  8
0
 62
     5
 10
223.307598
 20
329.299831
 30
0.0
 42
-0.02299
 70
     1
  0
VERTEX
  5
183E7
  8
0
 62
     5
 10
223.349
 20
329.285
 30
0.0
 42
-0.030621
  0
VERTEX
  5
183F1
  8
0
 62
     5
 10
223.435251
 20
329.243212
 30
0.0
 42
-0.033314
 70
     1
  0
VERTEX
  5
183E8
  8
0
 62
     5
 10
223.509
 20
329.195
 30
0.0
 42
-0.021156
  0
VERTEX
  5
183F2
  8
0
 62
     5
 10
223.56564
 20
329.148453
 30
0.0
 42
-0.028198
 70
     1
  0
VERTEX
  5
183E9
  8
0
 62
     5
 10
223.6045
 20
329.1095
 30
0.0
 42
-0.020591
  0
VERTEX
  5
183F3
  8
0
 62
     5
 10
223.641317
 20
329.064586
 30
0.0
 42
-0.027538
 70
     1
  0
VERTEX
  5
183EA
  8
0
 62
     5
 10
223.6655
 20
329.0285
 30
0.0
 42
-0.022736
  0
VERTEX
  5
183F4
  8
0
 62
     5
 10
223.683873
 20
328.994044
 30
0.0
 42
-0.028815
 70
     1
  0
VERTEX
  5
183EB
  8
0
 62
     5
 10
223.6955
 20
328.9655
 30
0.0
 42
-0.029936
  0
VERTEX
  5
183F6
  8
0
 62
     5
 10
223.700006
 20
328.949175
 30
0.0
 42
-0.010549
 70
     1
  0
VERTEX
  5
183EC
  8
0
 62
     5
 10
223.709
 20
328.902
 30
0.0
 42
-0.045695
  0
VERTEX
  5
183F5
  8
0
 62
     5
 10
223.710889
 20
328.877183
 30
0.0
 42
-0.028147
 70
     1
  0
VERTEX
  5
183ED
  8
0
 62
     5
 10
223.708
 20
328.836933
 30
0.0
  0
SEQEND
  5
183EE
  8
0
 62
     5
  0
POLYLINE
  5
18417
  8
0
 62
     5
 66
     1
 10
0.0
 20
0.0
 30
0.0
 70
     2
  0
VERTEX
  5
18418
  8
0
 62
     5
 10
240.842863
 20
329.63281
 30
0.0
 42
0.059183
  0
VERTEX
  5
18428
  8
0
 62
     5
 10
240.877825
 20
329.631327
 30
0.0
 42
0.099447
 70
     1
  0
VERTEX
  5
18419
  8
0
 62
     5
 10
240.898
 20
329.637
 30
0.0
 42
0.009031
  0
VERTEX
  5
18429
  8
0
 62
     5
 10
240.920698
 20
329.649118
 30
0.0
 42
-0.015518
 70
     1
  0
VERTEX
  5
1841A
  8
0
 62
     5
 10
240.934
 20
329.656
 30
0.0
 42
-0.005983
  0
VERTEX
  5
1842A
  8
0
 62
     5
 10
240.967648
 20
329.671612
 30
0.0
 42
0.013028
 70
     1
  0
VERTEX
  5
1841B
  8
0
 62
     5
 10
240.983
 20
329.679
 30
0.0
 42
0.005463
  0
VERTEX
  5
1842B
  8
0
 62
     5
 10
240.991982
 20
329.683739
 30
0.0
 42
0.001249
 70
     1
  0
VERTEX
  5
1841C
  8
0
 62
     5
 10
241.031
 20
329.705
 30
0.0
 42
0.010939
  0
VERTEX
  5
1842C
  8
0
 62
     5
 10
241.066423
 20
329.725437
 30
0.0
 42
-0.009534
 70
     1
  0
VERTEX
  5
1841D
  8
0
 62
     5
 10
241.107
 20
329.749
 30
0.0
 42
-0.037622
  0
VERTEX
  5
1842D
  8
0
 62
     5
 10
241.131094
 20
329.760103
 30
0.0
 42
-0.035589
 70
     1
  0
VERTEX
  5
1841E
  8
0
 62
     5
 10
241.158
 20
329.768
 30
0.0
 42
-0.063662
  0
VERTEX
  5
1842E
  8
0
 62
     5
 10
241.177014
 20
329.769662
 30
0.0
 42
-0.038844
 70
     1
  0
VERTEX
  5
1841F
  8
0
 62
     5
 10
241.208
 20
329.766
 30
0.0
 42
-0.043413
  0
VERTEX
  5
1842F
  8
0
 62
     5
 10
241.247199
 20
329.754641
 30
0.0
 42
-0.037798
 70
     1
  0
VERTEX
  5
18420
  8
0
 62
     5
 10
241.2895
 20
329.7345
 30
0.0
 42
-0.024611
  0
VERTEX
  5
18430
  8
0
 62
     5
 10
241.341193
 20
329.701428
 30
0.0
 42
-0.024313
 70
     1
  0
VERTEX
  5
18421
  8
0
 62
     5
 10
241.39
 20
329.663
 30
0.0
 42
-0.013166
  0
VERTEX
  5
18431
  8
0
 62
     5
 10
241.441587
 20
329.615714
 30
0.0
 42
-0.017116
 70
     1
  0
VERTEX
  5
18422
  8
0
 62
     5
 10
241.479
 20
329.577
 30
0.0
 42
-0.01635
  0
VERTEX
  5
18432
  8
0
 62
     5
 10
241.513347
 20
329.536337
 30
0.0
 42
-0.017384
 70
     1
  0
VERTEX
  5
18423
  8
0
 62
     5
 10
241.543
 20
329.496
 30
0.0
 42
-0.025593
  0
VERTEX
  5
18433
  8
0
 62
     5
 10
241.569891
 20
329.45194
 30
0.0
 42
-0.030771
 70
     1
  0
VERTEX
  5
18424
  8
0
 62
     5
 10
241.588
 20
329.413
 30
0.0
 42
-0.023311
  0
VERTEX
  5
18435
  8
0
 62
     5
 10
241.593714
 20
329.396162
 30
0.0
 42
-0.009493
 70
     1
  0
VERTEX
  5
18425
  8
0
 62
     5
 10
241.605
 20
329.354
 30
0.0
 42
-0.040737
  0
VERTEX
  5
18434
  8
0
 62
     5
 10
241.608357
 20
329.333346
 30
0.0
 42
-0.024011
 70
     1
  0
VERTEX
  5
18426
  8
0
 62
     5
 10
241.609481
 20
329.297902
 30
0.0
  0
SEQEND
  5
18427
  8
0
 62
     5
  0
VIEWPORT
  5
1818E
 67
     1
  8
0
  6
CONTINUOUS
 10
5.71875
 20
4.006666
 30
0.0
 40
13.201555
 41
8.742606
 68
    -1
 69
     1
1001
ACAD
1000
MVIEW
1002
{
1070
    16
1010
0.0
1020
0.0
1030
0.0
1010
0.0
1020
0.0
1030
1.0
1040
0.0
1040
8.742606
1040
5.71875
1040
4.006666
1040
50.0
1040
0.0
1040
0.0
1070
     0
1070
   100
1070
     1
1070
     1
1070
     0
1070
     0
1070
     0
1070
     0
1040
0.0
1040
0.0
1040
0.0
1040
10.0
1040
10.0
1040
10.0
1040
10.0
1070
     0
1002
{
1002
}
1002
}
  0
VIEWPORT
  5
18190
 67
     1
  8
0
  6
CONTINUOUS
 10
5.71875
 20
4.006666
 30
0.0
 40
9.149999
 41
6.410666
 68
     1
 69
     2
1001
ACAD
1000
MVIEW
1002
{
1070
    16
1010
0.0
1020
0.0
1030
0.0
1010
0.0
1020
0.0
1030
1.0
1040
0.0
1040
308.671465
1040
286.721347
1040
383.793448
1040
50.0
1040
0.0
1040
0.0
1070
     0
1070
   100
1070
     1
1070
     1
1070
     0
1070
     0
1070
     0
1070
     0
1040
0.0
1040
0.0
1040
0.0
1040
1.0
1040
1.0
1040
0.0
1040
0.0
1070
     0
1002
{
1002
}
1002
}
  0
ENDSEC
  0
EOF
