  0
SECTION
  2
HEADER
  9
$EXTMAX
 10
12
 20
9
 30
0
  9
$EXTMIN
 10
0
 20
0
 30
0
  9
$LIMMAX
 10
12
 20
9
  9
$LIMMIN
 10
0
 20
0
  9
$PLIMMAX
 10
12
 20
9
  9
$PLIMMIN
 10
0
 20
0
  9
$TEXTSIZE
 40
3.2
  9
$DIMSHO
 70
     0
  9
$DIMASZ
 40
1.0
  9
$DIMTAD
 70
     1
  9
$DIMTIH
 70
     0
  9
$DIMTOH
 70
     0
  9
$DIMEXE
 40
2.54
  9
$DIMEXO
 40
2.54
  9
$DIMTVP
 40
1.0
  9
$DIMSAH
 70
     1
  9
$DIMDLE
 40
0.0
  9
$DIMTXT
 40
3.200000047683716
  9
$DIMGAP
 40
1.600000023841858
  0
ENDSEC
  0
SECTION
  2
TABLES
  0
TABLE
  2
LTYPE
 70
     6
  0
LTYPE
  2
CONTINUOUS
 70
    64
  3
Solid line
 72
    65
 73
     0
 40
0.0
  0
LTYPE
  2
DASHED
 70
    64
  3
__ __ __ __ __ __ __ __ __ __ __ __ __ __ __
 72
    65
 73
     2
 40
3.5
 49
2.0
 49
-1.5
  0
LTYPE
  2
CENTER
 70
    64
  3
____ _ ____ _ ____ _ ____ _ ____ _ ____ _ ____
 72
    65
 73
     4
 40
17.5
 49
13.0
 49
-1.5
 49
1.5
 49
-1.5
  0
LTYPE
  2
PHANTOM
 70
    64
  3
_____ _ _ _____ _ _ _____ _ _ _____ _ _ ____  
 72
    65
 73
     6
 40
15.5
 49
8.0
 49
-1.5
 49
1.5
 49
-1.5
 49
1.5
 49
-1.5
  0
LTYPE
  2
DOT
 70
    64
  3
. . . . . . . . . . . . . . . . . . . . . . . .
 72
    65
 73
     2
 40
0.25
 49
0.0
 49
-0.25
  0
LTYPE
  2
HIDDEN
 70
    64
  3
__ __ __ __ __ __ __ __ __ __ __ __ __ __ __
 72
    65
 73
     2
 40
3.5
 49
2.0
 49
-1.5
  0
ENDTAB
  0
TABLE
  2
LAYER
 70
    10
  0
LAYER
  2
0
 70
     0
 62
     7
  6
CONTINUOUS
  0
LAYER
  2
1
 70
     0
 62
     7
  6
CONTINUOUS
  0
LAYER
  2
2
 70
     0
 62
     7
  6
CONTINUOUS
  0
LAYER
  2
3
 70
     0
 62
     7
  6
CONTINUOUS
  0
LAYER
  2
4
 70
     0
 62
     7
  6
CONTINUOUS
  0
LAYER
  2
5
 70
     0
 62
     7
  6
CONTINUOUS
  0
LAYER
  2
6
 70
     0
 62
     7
  6
CONTINUOUS
  0
LAYER
  2
7
 70
     0
 62
     7
  6
CONTINUOUS
  0
LAYER
  2
8
 70
     0
 62
     7
  6
CONTINUOUS
  0
LAYER
  2
9
 70
     0
 62
     7
  6
CONTINUOUS
  0
ENDTAB
  0
TABLE
  2
STYLE
 70
     1
  0
STYLE
  2
STANDARD
 70
     0
 40
0.0
 41
1.0
 50
0.0
 71
     0
 42
0.2
  3
txt
  4
BIGFONT
  0
ENDTAB
  0
TABLE
  2
DIMSTYLE
 70
     0
  0
ENDTAB
  0
ENDSEC
  0
SECTION
  2
BLOCKS
  0
BLOCK
  8
0
  2
KOZU0001
 70
    64
 10
0
 20
0
  0
ENDBLK
  8
0
  0
BLOCK
  8
0
  2
KOZU0002
 70
    64
 10
0
 20
0
  0
ENDBLK
  8
0
  0
BLOCK
  8
0
  2
KOZU0003
 70
    64
 10
0
 20
0
  0
POINT
  8
0
  6
CONTINUOUS
 62
     7
 10
-53.269287109375
 20
18.0051155090332
  0
POINT
  8
0
  6
CONTINUOUS
 62
     7
 10
-58.43936920166016
 20
-9.994831085205078
  0
POINT
  8
0
  6
CONTINUOUS
 62
     7
 10
-58
 20
-9.994831085205078
  0
LINE
  8
0
  6
CONTINUOUS
 62
     4
 10
-57.43936920166016
 20
-9.994831085205078
 11
-56
 21
-9.994831085205078
  0
LINE
  8
0
  6
CONTINUOUS
 62
     4
 10
-54.269287109375
 20
18.0051155090332
 11
-60
 21
18.0051155090332
  0
LINE
  8
0
  6
CONTINUOUS
 62
     4
 10
-58
 20
-9.994831085205078
 11
-58
 21
18.0051155090332
  0
LINE
  8
0
  6
CONTINUOUS
 62
     4
 10
-58
 20
-9.994831085205078
 11
-58.51763916015625
 21
-8.062978744506836
  0
LINE
  8
0
  6
CONTINUOUS
 62
     4
 10
-58
 20
-9.994831085205078
 11
-57.48236083984375
 21
-8.062978744506836
  0
LINE
  8
0
  6
CONTINUOUS
 62
     4
 10
-58
 20
18.0051155090332
 11
-57.48236083984375
 21
16.07326316833496
  0
LINE
  8
0
  6
CONTINUOUS
 62
     4
 10
-58
 20
18.0051155090332
 11
-58.51763916015625
 21
16.07326316833496
  0
TEXT
  8
0
  6
CONTINUOUS
 62
     4
 10
-60.32397540713912
 20
0.3691185363123201
 40
3.200000047683716
 41
0.6999999813735488
  1
140
 50
90.00000250447816
  0
ENDBLK
  8
0
  0
BLOCK
  8
0
  2
KOZU0004
 70
    64
 10
0
 20
0
  0
POINT
  8
0
  6
CONTINUOUS
 62
     7
 10
122.3252792358398
 20
5.479663848876953
  0
POINT
  8
0
  6
CONTINUOUS
 62
     7
 10
173.7272186279297
 20
-25.46932792663574
  0
LINE
  8
0
  6
CONTINUOUS
 62
     4
 10
122.3252792358398
 20
5.479663848876953
 11
173.7272186279297
 21
-25.46932792663574
  0
LINE
  8
0
  6
CONTINUOUS
 62
     4
 10
122.3252792358398
 20
5.479663848876953
 11
124.2472991943359
 21
4.926642894744873
  0
LINE
  8
0
  6
CONTINUOUS
 62
     4
 10
122.3252792358398
 20
5.479663848876953
 11
123.7132873535156
 21
4.039722919464111
  0
LINE
  8
0
  6
CONTINUOUS
 62
     4
 10
173.7272186279297
 20
-25.46932792663574
 11
171.8052062988281
 21
-24.91630554199219
  0
LINE
  8
0
  6
CONTINUOUS
 62
     4
 10
173.7272186279297
 20
-25.46932792663574
 11
172.3392181396484
 21
-24.02938652038574
  0
TEXT
  8
0
  6
CONTINUOUS
 62
     4
 10
158.8432398203775
 20
-15.56265372796212
 40
3.200000047683716
 41
0.583332978074212
  1
%%C
 50
-30.99999858592387
  0
TEXT
  8
0
  6
CONTINUOUS
 62
     4
 10
160.7664027616025
 20
-16.70310421415158
 40
3.200000047683716
 41
0.699999997747499
  1
300
 50
-30.99999858592387
  0
ENDBLK
  8
0
  0
BLOCK
  8
0
  2
KOZU0005
 70
    64
 10
0
 20
0
  0
POINT
  8
0
  6
CONTINUOUS
 62
     7
 10
79.40071105957031
 20
-15.4948320388794
  0
POINT
  8
0
  6
CONTINUOUS
 62
     7
 10
78.08070373535156
 20
-11.04483127593994
  0
POINT
  8
0
  6
CONTINUOUS
 62
     7
 10
78.08070373535156
 20
-22
  0
LINE
  8
0
  6
CONTINUOUS
 62
     4
 10
78.08070373535156
 20
-12.04483127593994
 11
78.08070373535156
 21
-24
  0
LINE
  8
0
  6
CONTINUOUS
 62
     4
 10
79.40071105957031
 20
-16.49483108520508
 11
79.40071105957031
 21
-24
  0
LINE
  8
0
  6
CONTINUOUS
 62
     4
 10
73.08070373535156
 20
-22
 11
91.31999969482422
 21
-22
  0
LINE
  8
0
  6
CONTINUOUS
 62
     4
 10
79.40071105957031
 20
-22
 11
81.33255767822266
 21
-22.51763725280762
  0
LINE
  8
0
  6
CONTINUOUS
 62
     4
 10
79.40071105957031
 20
-22
 11
81.33255767822266
 21
-21.48236274719238
  0
TEXT
  8
0
  6
CONTINUOUS
 62
     4
 10
82.99999845027924
 20
-20.99999922513962
 40
3.200000047683716
 41
0.6999999739229684
  1
6.6
  0
INSERT
  8
0
  6
CONTINUOUS
 62
     3
  2
KOZU0006
 10
78.08070373535156
 20
-22
 50
-180.0000050089563
  0
ENDBLK
  8
0
  0
BLOCK
  8
0
  2
KOZU0006
 70
    64
 10
0
 20
0
  0
LINE
  8
0
  6
CONTINUOUS
 62
     3
 10
-0.5
 20
0
 11
-1
 21
0
  0
INSERT
  8
0
  6
CONTINUOUS
 62
     3
  2
KOZU0035
 10
0
 20
0
  0
ENDBLK
  8
0
  0
BLOCK
  8
0
  2
KOZU0007
 70
    64
 10
0
 20
0
  0
POINT
  8
0
  6
CONTINUOUS
 62
     3
 10
0
 20
0
  0
LINE
  8
0
  6
CONTINUOUS
 62
     3
 10
-3.999996900558472
 20
-2.309396028518677
 11
-3.999999046325684
 21
2.314053058624268
  0
LINE
  8
0
  6
CONTINUOUS
 62
     3
 10
3.999999046325684
 20
2.314043998718262
 11
4
 21
-2.309402942657471
  0
LINE
  8
0
  6
CONTINUOUS
 62
     3
 10
3.999998092651367
 20
2.314043998718262
 11
7.000000096013537e-006
 21
4.623449802398682
  0
LINE
  8
0
  6
CONTINUOUS
 62
     3
 10
-7.000000096013537e-006
 20
-4.618799209594727
 11
-3.999996900558472
 21
-2.30939507484436
  0
LINE
  8
0
  6
CONTINUOUS
 62
     3
 10
-3.999999046325684
 20
2.314053058624268
 11
7.000000096013537e-006
 21
4.623448848724365
  0
LINE
  8
0
  6
CONTINUOUS
 62
     3
 10
3.999999046325684
 20
-2.309401988983154
 11
-7.000000096013537e-006
 21
-4.618799209594727
  0
CIRCLE
  8
0
  6
CONTINUOUS
 62
     3
 10
0
 20
0
 40
6.960738182067871
  0
CIRCLE
  8
0
  6
CONTINUOUS
 62
     3
 10
0
 20
0
 40
9.199996948242188
  0
CIRCLE
  8
0
  6
CONTINUOUS
 62
     3
 10
0
 20
0
 40
8
  0
ENDBLK
  8
0
  0
BLOCK
  8
0
  2
KOZU0008
 70
    64
 10
0
 20
0
  0
POINT
  8
0
  6
CONTINUOUS
 62
     3
 10
0
 20
0
  0
LINE
  8
0
  6
CONTINUOUS
 62
     3
 10
-2.499998092651367
 20
-1.443372011184692
 11
-2.499999046325684
 21
1.44337797164917
  0
LINE
  8
0
  6
CONTINUOUS
 62
     3
 10
2.499998092651367
 20
1.443372011184692
 11
2.499999046325684
 21
-1.443374037742615
  0
LINE
  8
0
  6
CONTINUOUS
 62
     3
 10
4.999999873689376e-006
 20
2.886749029159546
 11
2.499999046325684
 21
1.443372011184692
  0
LINE
  8
0
  6
CONTINUOUS
 62
     3
 10
-6.000000212225132e-006
 20
-2.886746883392334
 11
-2.499998092651367
 21
-1.443372011184692
  0
LINE
  8
0
  6
CONTINUOUS
 62
     3
 10
4.999999873689376e-006
 20
2.88674807548523
 11
-2.5
 21
1.443377017974854
  0
LINE
  8
0
  6
CONTINUOUS
 62
     3
 10
2.499999046325684
 20
-1.443374037742615
 11
-4.999999873689376e-006
 21
-2.88674807548523
  0
CIRCLE
  8
0
  6
CONTINUOUS
 62
     3
 10
0
 20
0
 40
5.75
  0
CIRCLE
  8
0
  6
CONTINUOUS
 62
     3
 10
0
 20
0
 40
5
  0
ENDBLK
  8
0
  0
BLOCK
  8
0
  2
KOZU0009
 70
    64
 10
0
 20
0
  0
LINE
  8
0
  6
CONTINUOUS
 62
     2
 10
2.5
 20
5.837841033935547
 11
1.916664958000183
 21
3
  0
LINE
  8
0
  6
CONTINUOUS
 62
     2
 10
2.499998092651367
 20
5.837840080261231
 11
3.083329916000366
 21
3
  0
LINE
  8
0
  6
CONTINUOUS
 62
     2
 10
3.700000047683716
 20
0
 11
5
 21
0
  0
LINE
  8
0
  6
CONTINUOUS
 62
     2
 10
3.150001049041748
 20
9
 11
5
 21
0
  0
LINE
  8
0
  6
CONTINUOUS
 62
     2
 10
1.850000023841858
 20
8.999999046325684
 11
0
 21
0
  0
LINE
  8
0
  6
CONTINUOUS
 62
     2
 10
1.916666984558106
 20
3
 11
3.083333015441895
 21
3
  0
LINE
  8
0
  6
CONTINUOUS
 62
     2
 10
3.350554943084717
 20
1.700000047683716
 11
1.649443030357361
 21
1.700000047683716
  0
LINE
  8
0
  6
CONTINUOUS
 62
     2
 10
3.150001049041748
 20
9
 11
1.850000023841858
 21
9
  0
LINE
  8
0
  6
CONTINUOUS
 62
     2
 10
1.299999952316284
 20
0
 11
0
 21
0
  0
LINE
  8
0
  6
CONTINUOUS
 62
     2
 10
1.29999303817749
 20
0
 11
1.649441957473755
 21
1.700000047683716
  0
LINE
  8
0
  6
CONTINUOUS
 62
     2
 10
3.700005054473877
 20
0
 11
3.350554943084717
 21
1.700000047683716
  0
ENDBLK
  8
0
  0
BLOCK
  8
0
  2
KOZU0010
 70
    64
 10
0
 20
0
  0
POINT
  8
0
  6
CONTINUOUS
 62
     7
 10
78.08070373535156
 20
-11.04483127593994
  0
POINT
  8
0
  6
CONTINUOUS
 62
     7
 10
74.00070953369141
 20
-10.99483108520508
  0
POINT
  8
0
  6
CONTINUOUS
 62
     7
 10
74.00070953369141
 20
-22
  0
LINE
  8
0
  6
CONTINUOUS
 62
     4
 10
74.00070953369141
 20
-11.99483108520508
 11
74.00070953369141
 21
-24
  0
LINE
  8
0
  6
CONTINUOUS
 62
     4
 10
78.08070373535156
 20
-12.04483127593994
 11
78.08070373535156
 21
-24
  0
LINE
  8
0
  6
CONTINUOUS
 62
     4
 10
63.40000152587891
 20
-22
 11
83.08070373535156
 21
-22
  0
LINE
  8
0
  6
CONTINUOUS
 62
     4
 10
74.00070953369141
 20
-22
 11
72.06885528564453
 21
-21.48236274719238
  0
LINE
  8
0
  6
CONTINUOUS
 62
     4
 10
74.00070953369141
 20
-22
 11
72.06885528564453
 21
-22.51763725280762
  0
TEXT
  8
0
  6
CONTINUOUS
 62
     4
 10
65.00000023841858
 20
-20.99999922513962
 40
3.200000047683716
 41
0.7000000319936692
  1
20.4
  0
INSERT
  8
0
  6
CONTINUOUS
 62
     3
  2
KOZU0006
 10
78.08070373535156
 20
-22
  0
ENDBLK
  8
0
  0
BLOCK
  8
0
  2
KOZU0011
 70
    64
 10
0
 20
0
  0
POINT
  8
0
  6
CONTINUOUS
 62
     7
 10
-151.0592956542969
 20
4.603148937225342
  0
POINT
  8
0
  6
CONTINUOUS
 62
     7
 10
-101.0592956542969
 20
4.603148937225342
  0
POINT
  8
0
  6
CONTINUOUS
 62
     7
 10
-101.0592956542969
 20
47.5
  0
LINE
  8
0
  6
CONTINUOUS
 62
     4
 10
-101.0592956542969
 20
5.603148937225342
 11
-101.0592956542969
 21
49.5
  0
LINE
  8
0
  6
CONTINUOUS
 62
     4
 10
-151.0592956542969
 20
5.603148937225342
 11
-151.0592956542969
 21
49.5
  0
LINE
  8
0
  6
CONTINUOUS
 62
     4
 10
-101.0592956542969
 20
47.5
 11
-151.0592956542969
 21
47.5
  0
LINE
  8
0
  6
CONTINUOUS
 62
     4
 10
-101.0592956542969
 20
47.5
 11
-102.9911499023438
 21
46.98236083984375
  0
LINE
  8
0
  6
CONTINUOUS
 62
     4
 10
-101.0592956542969
 20
47.5
 11
-102.9911499023438
 21
48.01763916015625
  0
LINE
  8
0
  6
CONTINUOUS
 62
     4
 10
-151.0592956542969
 20
47.5
 11
-149.12744140625
 21
48.01763916015625
  0
LINE
  8
0
  6
CONTINUOUS
 62
     4
 10
-151.0592956542969
 20
47.5
 11
-149.12744140625
 21
46.98236083984375
  0
TEXT
  8
0
  6
CONTINUOUS
 62
     4
 10
-129.4192926883698
 20
48.50000077486038
 40
3.200000047683716
 41
0.7000000119857165
  1
250
  0
ENDBLK
  8
0
  0
BLOCK
  8
0
  2
KOZU0012
 70
    64
 10
0
 20
0
  0
POINT
  8
0
  6
CONTINUOUS
 62
     7
 10
-144.0580291748047
 20
25.20511436462402
  0
POINT
  8
0
  6
CONTINUOUS
 62
     7
 10
-108.0580291748047
 20
25.20511436462402
  0
POINT
  8
0
  6
CONTINUOUS
 62
     7
 10
-108.0580291748047
 20
40
  0
LINE
  8
0
  6
CONTINUOUS
 62
     4
 10
-108.0580291748047
 20
26.20511436462402
 11
-108.0580291748047
 21
42
  0
LINE
  8
0
  6
CONTINUOUS
 62
     4
 10
-144.0580291748047
 20
26.20511436462402
 11
-144.0580291748047
 21
42
  0
LINE
  8
0
  6
CONTINUOUS
 62
     4
 10
-108.0580291748047
 20
40
 11
-144.0580291748047
 21
40
  0
LINE
  8
0
  6
CONTINUOUS
 62
     4
 10
-108.0580291748047
 20
40
 11
-109.9898834228516
 21
39.48236083984375
  0
LINE
  8
0
  6
CONTINUOUS
 62
     4
 10
-108.0580291748047
 20
40
 11
-109.9898834228516
 21
40.51763916015625
  0
LINE
  8
0
  6
CONTINUOUS
 62
     4
 10
-144.0580291748047
 20
40
 11
-142.1261749267578
 21
40.51763916015625
  0
LINE
  8
0
  6
CONTINUOUS
 62
     4
 10
-144.0580291748047
 20
40
 11
-142.1261749267578
 21
39.48236083984375
  0
TEXT
  8
0
  6
CONTINUOUS
 62
     4
 10
-129.4180247783661
 20
41.00000077486038
 40
3.200000047683716
 41
0.6999999813735488
  1
180
  0
ENDBLK
  8
0
  0
BLOCK
  8
0
  2
KOZU0013
 70
    64
 10
0
 20
0
  0
POINT
  8
0
  6
CONTINUOUS
 62
     7
 10
-52.39803314208984
 20
25.20511436462402
  0
POINT
  8
0
  6
CONTINUOUS
 62
     7
 10
-12.39803218841553
 20
25.20511436462402
  0
POINT
  8
0
  6
CONTINUOUS
 62
     7
 10
-12.39803218841553
 20
40
  0
LINE
  8
0
  6
CONTINUOUS
 62
     4
 10
-12.39803218841553
 20
26.20511436462402
 11
-12.39803218841553
 21
42
  0
LINE
  8
0
  6
CONTINUOUS
 62
     4
 10
-52.39803314208984
 20
26.20511436462402
 11
-52.39803314208984
 21
42
  0
LINE
  8
0
  6
CONTINUOUS
 62
     4
 10
-12.39803218841553
 20
40
 11
-52.39803314208984
 21
40
  0
LINE
  8
0
  6
CONTINUOUS
 62
     4
 10
-12.39803218841553
 20
40
 11
-14.32988357543945
 21
39.48236083984375
  0
LINE
  8
0
  6
CONTINUOUS
 62
     4
 10
-12.39803218841553
 20
40
 11
-14.32988357543945
 21
40.51763916015625
  0
LINE
  8
0
  6
CONTINUOUS
 62
     4
 10
-52.39803314208984
 20
40
 11
-50.46618270874023
 21
40.51763916015625
  0
LINE
  8
0
  6
CONTINUOUS
 62
     4
 10
-52.39803314208984
 20
40
 11
-50.46618270874023
 21
39.48236083984375
  0
TEXT
  8
0
  6
CONTINUOUS
 62
     4
 10
-35.75803327560425
 20
41.00000077486038
 40
3.200000047683716
 41
0.699999997747499
  1
200
  0
ENDBLK
  8
0
  0
BLOCK
  8
0
  2
KOZU0014
 70
    64
 10
0
 20
0
  0
POINT
  8
0
  6
CONTINUOUS
 62
     7
 10
-54.13936614990234
 20
8.973895072937012
  0
POINT
  8
0
  6
CONTINUOUS
 62
     7
 10
57.40070724487305
 20
15.00516796112061
  0
POINT
  8
0
  6
CONTINUOUS
 62
     7
 10
57.40070724487305
 20
47.5
  0
LINE
  8
0
  6
CONTINUOUS
 62
     4
 10
57.40070724487305
 20
16.00516891479492
 11
57.40070724487305
 21
49.5
  0
LINE
  8
0
  6
CONTINUOUS
 62
     4
 10
-54.13936614990234
 20
9.973895072937012
 11
-54.13936614990234
 21
49.5
  0
LINE
  8
0
  6
CONTINUOUS
 62
     4
 10
57.40070724487305
 20
47.5
 11
-54.13936614990234
 21
47.5
  0
LINE
  8
0
  6
CONTINUOUS
 62
     4
 10
57.40070724487305
 20
47.5
 11
55.46885681152344
 21
46.98236083984375
  0
LINE
  8
0
  6
CONTINUOUS
 62
     4
 10
57.40070724487305
 20
47.5
 11
55.46885681152344
 21
48.01763916015625
  0
LINE
  8
0
  6
CONTINUOUS
 62
     4
 10
-54.13936614990234
 20
47.5
 11
-52.20751571655273
 21
48.01763916015625
  0
LINE
  8
0
  6
CONTINUOUS
 62
     4
 10
-54.13936614990234
 20
47.5
 11
-52.20751571655273
 21
46.98236083984375
  0
TEXT
  8
0
  6
CONTINUOUS
 62
     4
 10
-3.360000014305115
 20
48.50000077486038
 40
3.200000047683716
 41
0.6999999785795812
  1
555
  0
ENDBLK
  8
0
  0
BLOCK
  8
0
  2
KOZU0015
 70
    64
 10
0
 20
0
  0
POINT
  8
0
  6
CONTINUOUS
 62
     7
 10
57.40070724487305
 20
15.00516796112061
  0
POINT
  8
0
  6
CONTINUOUS
 62
     7
 10
79.40071105957031
 20
-4.494831085205078
  0
POINT
  8
0
  6
CONTINUOUS
 62
     7
 10
79.40071105957031
 20
47.5
  0
LINE
  8
0
  6
CONTINUOUS
 62
     4
 10
79.40071105957031
 20
-3.494831085205078
 11
79.40071105957031
 21
49.5
  0
LINE
  8
0
  6
CONTINUOUS
 62
     4
 10
57.40070724487305
 20
16.00516891479492
 11
57.40070724487305
 21
49.5
  0
LINE
  8
0
  6
CONTINUOUS
 62
     4
 10
79.40071105957031
 20
47.5
 11
57.40070724487305
 21
47.5
  0
LINE
  8
0
  6
CONTINUOUS
 62
     4
 10
79.40071105957031
 20
47.5
 11
77.46885681152344
 21
46.98236083984375
  0
LINE
  8
0
  6
CONTINUOUS
 62
     4
 10
79.40071105957031
 20
47.5
 11
77.46885681152344
 21
48.01763916015625
  0
LINE
  8
0
  6
CONTINUOUS
 62
     4
 10
57.40070724487305
 20
47.5
 11
59.33256149291992
 21
48.01763916015625
  0
LINE
  8
0
  6
CONTINUOUS
 62
     4
 10
57.40070724487305
 20
47.5
 11
59.33256149291992
 21
46.98236083984375
  0
TEXT
  8
0
  6
CONTINUOUS
 62
     4
 10
65.04070937633514
 20
48.50000077486038
 40
3.200000047683716
 41
0.6999999794013363
  1
110
  0
ENDBLK
  8
0
  0
BLOCK
  8
0
  2
KOZU0016
 70
    64
 10
0
 20
0
  0
POINT
  8
0
  6
CONTINUOUS
 62
     7
 10
0
 20
0
  0
POINT
  8
0
  6
CONTINUOUS
 62
     7
 10
148.0317993164063
 20
-9.989282608032227
  0
POINT
  8
0
  6
CONTINUOUS
 62
     7
 10
168.7441253662109
 20
10.72304821014404
  0
POINT
  8
0
  6
CONTINUOUS
 62
     7
 10
148.0317993164063
 20
32.50104141235352
  0
POINT
  8
0
  6
CONTINUOUS
 62
     7
 10
835.8147583007813
 20
180.9870147705078
  0
LINE
  8
0
  6
CONTINUOUS
 62
     4
 10
169.4512329101563
 20
11.43015480041504
 11
184.7957763671875
 21
26.77469253540039
  0
LINE
  8
0
  6
CONTINUOUS
 62
     4
 10
148.0317993164063
 20
33.50104141235352
 11
148.0317993164063
 21
42.00283050537109
  0
LINE
  8
0
  6
CONTINUOUS
 62
     4
 10
183.3815612792969
 20
25.36047744750977
 11
181.6495208740234
 21
26.36047744750977
  0
LINE
  8
0
  6
CONTINUOUS
 62
     4
 10
183.3815612792969
 20
25.36047744750977
 11
182.3815612792969
 21
27.092529296875
  0
LINE
  8
0
  6
CONTINUOUS
 62
     4
 10
148.0317993164063
 20
40.00283050537109
 11
149.9636535644531
 21
40.52046585083008
  0
LINE
  8
0
  6
CONTINUOUS
 62
     4
 10
148.0317993164063
 20
40.00283050537109
 11
149.9636535644531
 21
39.48519134521484
  0
ARC
  8
0
  6
CONTINUOUS
 62
     4
 10
148.0317993164063
 20
-9.989282608032227
 40
49.99211883544922
 50
44.99999845426074
 51
90.00000000000019
  0
TEXT
  8
0
  6
CONTINUOUS
 62
     4
 10
164.7005468119827
 20
38.10990815035162
 40
3.200000047683716
 41
0.5776654263702027
  1
‚S‚T%%D
 50
-22.50000062611954
  0
ENDBLK
  8
0
  0
BLOCK
  8
0
  2
KOZU0017
 70
    64
 10
0
 20
0
  0
POINT
  8
0
  6
CONTINUOUS
 62
     7
 10
173.0262603759766
 20
6.588293075561523
  0
POINT
  8
0
  6
CONTINUOUS
 62
     7
 10
123.0262603759766
 20
6.588293075561523
  0
POINT
  8
0
  6
CONTINUOUS
 62
     7
 10
123.0262603759766
 20
47.5
  0
LINE
  8
0
  6
CONTINUOUS
 62
     4
 10
123.0262603759766
 20
7.588293075561523
 11
123.0262603759766
 21
49.5
  0
LINE
  8
0
  6
CONTINUOUS
 62
     4
 10
173.0262603759766
 20
7.588293075561523
 11
173.0262603759766
 21
49.5
  0
LINE
  8
0
  6
CONTINUOUS
 62
     4
 10
123.0262603759766
 20
47.5
 11
173.0262603759766
 21
47.5
  0
LINE
  8
0
  6
CONTINUOUS
 62
     4
 10
123.0262603759766
 20
47.5
 11
124.9581069946289
 21
48.01763916015625
  0
LINE
  8
0
  6
CONTINUOUS
 62
     4
 10
123.0262603759766
 20
47.5
 11
124.9581069946289
 21
46.98236083984375
  0
LINE
  8
0
  6
CONTINUOUS
 62
     4
 10
173.0262603759766
 20
47.5
 11
171.0944061279297
 21
46.98236083984375
  0
LINE
  8
0
  6
CONTINUOUS
 62
     4
 10
173.0262603759766
 20
47.5
 11
171.0944061279297
 21
48.01763916015625
  0
TEXT
  8
0
  6
CONTINUOUS
 62
     4
 10
143.5462583303452
 20
48.50000077486038
 40
3.200000047683716
 41
0.583332978074212
  1
Ѓ 
  0
TEXT
  8
0
  6
CONTINUOUS
 62
     4
 10
145.7862584590912
 20
48.50000077486038
 40
3.200000047683716
 41
0.7000000119857165
  1
250
  0
ENDBLK
  8
0
  0
BLOCK
  8
0
  2
KOZU0018
 70
    64
 10
0
 20
0
  0
POINT
  8
0
  6
CONTINUOUS
 62
     7
 10
79.40071105957031
 20
-15.4948320388794
  0
POINT
  8
0
  6
CONTINUOUS
 62
     7
 10
79.40071105957031
 20
-4.494831085205078
  0
POINT
  8
0
  6
CONTINUOUS
 62
     7
 10
90
 20
-4.494831085205078
  0
LINE
  8
0
  6
CONTINUOUS
 62
     4
 10
80.40071105957031
 20
-4.494831085205078
 11
92
 21
-4.494831085205078
  0
LINE
  8
0
  6
CONTINUOUS
 62
     4
 10
80.40071105957031
 20
-15.4948320388794
 11
92
 21
-15.4948320388794
  0
LINE
  8
0
  6
CONTINUOUS
 62
     4
 10
90
 20
-4.494831085205078
 11
90
 21
-15.4948320388794
  0
LINE
  8
0
  6
CONTINUOUS
 62
     4
 10
90
 20
-4.494831085205078
 11
90.51763916015625
 21
-6.426682949066162
  0
LINE
  8
0
  6
CONTINUOUS
 62
     4
 10
90
 20
-4.494831085205078
 11
89.48236083984375
 21
-6.426682949066162
  0
LINE
  8
0
  6
CONTINUOUS
 62
     4
 10
90
 20
-15.4948320388794
 11
89.48236083984375
 21
-13.56297969818115
  0
LINE
  8
0
  6
CONTINUOUS
 62
     4
 10
90
 20
-15.4948320388794
 11
90.51763916015625
 21
-13.56297969818115
  0
TEXT
  8
0
  6
CONTINUOUS
 62
     4
 10
87.60764614138563
 20
-15.80247751395013
 40
3.200000047683716
 41
0.583332978074212
  1
%%C
 50
90.00000250447816
  0
TEXT
  8
0
  6
CONTINUOUS
 62
     4
 10
87.57777706049025
 20
-13.53260878245141
 40
3.200000047683716
 41
0.6999999925494195
  1
55
 50
90.00000250447816
  0
TEXT
  8
0
  6
CONTINUOUS
 62
     4
 10
87.57777706049025
 20
-9.052609240215084
 40
3.200000047683716
 41
0.6999999925494195
  1
m6
 50
90.00000250447816
  0
ENDBLK
  8
0
  0
BLOCK
  8
0
  2
KOZU0019
 70
    64
 10
0
 20
0
  0
POINT
  8
0
  6
CONTINUOUS
 62
     7
 10
58.40070724487305
 20
-32.99483108520508
  0
POINT
  8
0
  6
CONTINUOUS
 62
     7
 10
58.40070724487305
 20
13.00516796112061
  0
POINT
  8
0
  6
CONTINUOUS
 62
     7
 10
97.5
 20
13.00516796112061
  0
LINE
  8
0
  6
CONTINUOUS
 62
     4
 10
59.40070724487305
 20
13.00516796112061
 11
99.5
 21
13.00516796112061
  0
LINE
  8
0
  6
CONTINUOUS
 62
     4
 10
59.40070724487305
 20
-32.99483108520508
 11
99.5
 21
-32.99483108520508
  0
LINE
  8
0
  6
CONTINUOUS
 62
     4
 10
97.5
 20
13.00516796112061
 11
97.5
 21
-32.99483108520508
  0
LINE
  8
0
  6
CONTINUOUS
 62
     4
 10
97.5
 20
13.00516796112061
 11
98.01763916015625
 21
11.07331657409668
  0
LINE
  8
0
  6
CONTINUOUS
 62
     4
 10
97.5
 20
13.00516796112061
 11
96.98236083984375
 21
11.07331657409668
  0
LINE
  8
0
  6
CONTINUOUS
 62
     4
 10
97.5
 20
-32.99483108520508
 11
96.98236083984375
 21
-31.06297874450684
  0
LINE
  8
0
  6
CONTINUOUS
 62
     4
 10
97.5
 20
-32.99483108520508
 11
98.01763916015625
 21
-31.06297874450684
  0
TEXT
  8
0
  6
CONTINUOUS
 62
     4
 10
95.10764614138563
 20
-16.92764536062982
 40
3.200000047683716
 41
0.583332978074212
  1
%%C
 50
90.00000250447816
  0
TEXT
  8
0
  6
CONTINUOUS
 62
     4
 10
95.09743038166164
 20
-14.67742661158349
 40
3.200000047683716
 41
0.7000000119857165
  1
230
 50
90.00000250447816
  0
TEXT
  8
0
  6
CONTINUOUS
 62
     4
 10
95.07777706049025
 20
-7.937778269450925
 40
3.200000047683716
 41
0.6999999925494195
  1
h7
 50
90.00000250447816
  0
ENDBLK
  8
0
  0
BLOCK
  8
0
  2
KOZU0020
 70
    64
 10
0
 20
0
  0
POINT
  8
0
  6
CONTINUOUS
 62
     7
 10
59.40070724487305
 20
-2.994831085205078
  0
POINT
  8
0
  6
CONTINUOUS
 62
     7
 10
79.40071105957031
 20
-4.494831085205078
  0
POINT
  8
0
  6
CONTINUOUS
 62
     7
 10
79.40071105957031
 20
2.5
  0
LINE
  8
0
  6
CONTINUOUS
 62
     4
 10
79.40071105957031
 20
-3.494831085205078
 11
79.40071105957031
 21
4.5
  0
LINE
  8
0
  6
CONTINUOUS
 62
     4
 10
59.40070724487305
 20
-1.994830965995789
 11
59.40070724487305
 21
4.5
  0
LINE
  8
0
  6
CONTINUOUS
 62
     4
 10
79.40071105957031
 20
2.5
 11
59.40070724487305
 21
2.5
  0
LINE
  8
0
  6
CONTINUOUS
 62
     4
 10
79.40071105957031
 20
2.5
 11
77.46885681152344
 21
1.982362031936646
  0
LINE
  8
0
  6
CONTINUOUS
 62
     4
 10
79.40071105957031
 20
2.5
 11
77.46885681152344
 21
3.017637968063355
  0
LINE
  8
0
  6
CONTINUOUS
 62
     4
 10
59.40070724487305
 20
2.5
 11
61.33256149291992
 21
3.017637968063355
  0
LINE
  8
0
  6
CONTINUOUS
 62
     4
 10
59.40070724487305
 20
2.5
 11
61.33256149291992
 21
1.982362031936646
  0
TEXT
  8
0
  6
CONTINUOUS
 62
     4
 10
66.04070866107941
 20
3.500000059604645
 40
3.200000047683716
 41
0.6999999985904308
  1
100
  0
ENDBLK
  8
0
  0
BLOCK
  8
0
  2
KOZU0021
 70
    64
 10
0
 20
0
  0
POINT
  8
0
  6
CONTINUOUS
 62
     7
 10
122.3768463134766
 20
-16.65497016906738
  0
POINT
  8
0
  6
CONTINUOUS
 62
     7
 10
173.6756744384766
 20
-3.33469295501709
  0
LINE
  8
0
  6
CONTINUOUS
 62
     4
 10
122.3768463134766
 20
-16.65497016906738
 11
173.6756744384766
 21
-3.33469295501709
  0
LINE
  8
0
  6
CONTINUOUS
 62
     4
 10
122.3768463134766
 20
-16.65497016906738
 11
124.1165924072266
 21
-15.66842365264893
  0
LINE
  8
0
  6
CONTINUOUS
 62
     4
 10
122.3768463134766
 20
-16.65497016906738
 11
124.3767852783203
 21
-16.67046928405762
  0
LINE
  8
0
  6
CONTINUOUS
 62
     4
 10
173.6756744384766
 20
-3.33469295501709
 11
171.9359283447266
 21
-4.321240901947022
  0
LINE
  8
0
  6
CONTINUOUS
 62
     4
 10
173.6756744384766
 20
-3.33469295501709
 11
171.6757354736328
 21
-3.319195032119751
  0
TEXT
  8
0
  6
CONTINUOUS
 62
     4
 10
158.688948600711
 20
-6.01324702212638
 40
3.200000047683716
 41
0.583332978074212
  1
%%C
 50
14.49999983431683
  0
TEXT
  8
0
  6
CONTINUOUS
 62
     4
 10
160.8558887593511
 20
-5.44115787633922
 40
3.200000047683716
 41
0.6999999785795812
  1
265
 50
14.49999983431683
  0
ENDBLK
  8
0
  0
BLOCK
  8
0
  2
KOZU0022
 70
    64
 10
0
 20
0
  0
POINT
  8
0
  6
CONTINUOUS
 62
     7
 10
-101.0592956542969
 20
4.603148937225342
  0
POINT
  8
0
  6
CONTINUOUS
 62
     7
 10
-99.8992919921875
 20
-9.144830703735352
  0
POINT
  8
0
  6
CONTINUOUS
 62
     7
 10
-99.8992919921875
 20
47.5
  0
LINE
  8
0
  6
CONTINUOUS
 62
     4
 10
-99.8992919921875
 20
-8.144830703735352
 11
-99.8992919921875
 21
49.5
  0
LINE
  8
0
  6
CONTINUOUS
 62
     4
 10
-101.0592956542969
 20
5.603148937225342
 11
-101.0592956542969
 21
49.5
  0
LINE
  8
0
  6
CONTINUOUS
 62
     4
 10
-94.8992919921875
 20
47.5
 11
-106.0593032836914
 21
47.5
  0
LINE
  8
0
  6
CONTINUOUS
 62
     4
 10
-99.8992919921875
 20
47.5
 11
-97.96743774414063
 21
46.98236083984375
  0
LINE
  8
0
  6
CONTINUOUS
 62
     4
 10
-99.8992919921875
 20
47.5
 11
-97.96743774414063
 21
48.01763916015625
  0
LINE
  8
0
  6
CONTINUOUS
 62
     4
 10
-101.0592956542969
 20
47.5
 11
-102.9911499023438
 21
48.01763916015625
  0
LINE
  8
0
  6
CONTINUOUS
 62
     4
 10
-101.0592956542969
 20
47.5
 11
-102.9911499023438
 21
46.98236083984375
  0
TEXT
  8
0
  6
CONTINUOUS
 62
     4
 10
-97.50000238418579
 20
48.50000077486038
 40
3.200000047683716
 41
1
  1
6
  0
ENDBLK
  8
0
  0
BLOCK
  8
0
  2
KOZU0023
 70
    64
 10
0
 20
0
  0
POINT
  8
0
  6
CONTINUOUS
 62
     7
 10
-97.60475158691406
 20
-9.994831085205078
  0
POINT
  8
0
  6
CONTINUOUS
 62
     7
 10
-108.6580352783203
 20
30.40511512756348
  0
POINT
  8
0
  6
CONTINUOUS
 62
     7
 10
-90
 20
30.40511512756348
  0
LINE
  8
0
  6
CONTINUOUS
 62
     4
 10
-107.6580352783203
 20
30.40511512756348
 11
-88
 21
30.40511512756348
  0
LINE
  8
0
  6
CONTINUOUS
 62
     4
 10
-96.60475158691406
 20
-9.994831085205078
 11
-88
 21
-9.994831085205078
  0
LINE
  8
0
  6
CONTINUOUS
 62
     4
 10
-90
 20
30.40511512756348
 11
-90
 21
-9.994831085205078
  0
LINE
  8
0
  6
CONTINUOUS
 62
     4
 10
-90
 20
30.40511512756348
 11
-89.48236083984375
 21
28.47326278686523
  0
LINE
  8
0
  6
CONTINUOUS
 62
     4
 10
-90
 20
30.40511512756348
 11
-90.51763916015625
 21
28.47326278686523
  0
LINE
  8
0
  6
CONTINUOUS
 62
     4
 10
-90
 20
-9.994831085205078
 11
-90.51763916015625
 21
-8.062978744506836
  0
LINE
  8
0
  6
CONTINUOUS
 62
     4
 10
-90
 20
-9.994831085205078
 11
-89.48236083984375
 21
-8.062978744506836
  0
TEXT
  8
0
  6
CONTINUOUS
 62
     4
 10
-92.38946994735561
 20
6.429473722774723
 40
3.200000047683716
 41
0.6999999627470978
  1
205
 50
90.00000250447816
  0
ENDBLK
  8
0
  0
BLOCK
  8
0
  2
KOZU0024
 70
    64
 10
0
 20
0
  0
POINT
  8
0
  6
CONTINUOUS
 62
     7
 10
58.40070724487305
 20
13.00516796112061
  0
POINT
  8
0
  6
CONTINUOUS
 62
     7
 10
57.40070724487305
 20
15.00516796112061
  0
POINT
  8
0
  6
CONTINUOUS
 62
     7
 10
57.40070724487305
 20
40
  0
LINE
  8
0
  6
CONTINUOUS
 62
     4
 10
57.40070724487305
 20
16.00516891479492
 11
57.40070724487305
 21
42
  0
LINE
  8
0
  6
CONTINUOUS
 62
     4
 10
58.40070724487305
 20
14.00516796112061
 11
58.40070724487305
 21
42
  0
LINE
  8
0
  6
CONTINUOUS
 62
     4
 10
52.40070724487305
 20
40
 11
63.40070724487305
 21
40
  0
LINE
  8
0
  6
CONTINUOUS
 62
     4
 10
57.40070724487305
 20
40
 11
55.46885681152344
 21
40.51763916015625
  0
LINE
  8
0
  6
CONTINUOUS
 62
     4
 10
57.40070724487305
 20
40
 11
55.46885681152344
 21
39.48236083984375
  0
LINE
  8
0
  6
CONTINUOUS
 62
     4
 10
58.40070724487305
 20
40
 11
60.33256149291992
 21
39.48236083984375
  0
LINE
  8
0
  6
CONTINUOUS
 62
     4
 10
58.40070724487305
 20
40
 11
60.33256149291992
 21
40.51763916015625
  0
TEXT
  8
0
  6
CONTINUOUS
 62
     4
 10
60.00000143051148
 20
41.00000077486038
 40
3.200000047683716
 41
1
  1
5
  0
ENDBLK
  8
0
  0
BLOCK
  8
0
  2
KOZU0025
 70
    64
 10
0
 20
0
  0
POINT
  8
0
  6
CONTINUOUS
 62
     7
 10
52.40070724487305
 20
15.00516796112061
  0
POINT
  8
0
  6
CONTINUOUS
 62
     7
 10
57.40070724487305
 20
15.00516796112061
  0
POINT
  8
0
  6
CONTINUOUS
 62
     7
 10
57.40070724487305
 20
40
  0
LINE
  8
0
  6
CONTINUOUS
 62
     4
 10
57.40070724487305
 20
16.00516891479492
 11
57.40070724487305
 21
42
  0
LINE
  8
0
  6
CONTINUOUS
 62
     4
 10
52.40070724487305
 20
16.00516891479492
 11
52.40070724487305
 21
42
  0
LINE
  8
0
  6
CONTINUOUS
 62
     4
 10
57.40070724487305
 20
40
 11
52.40070724487305
 21
40
  0
LINE
  8
0
  6
CONTINUOUS
 62
     4
 10
57.40070724487305
 20
40
 11
55.46885681152344
 21
39.48236083984375
  0
LINE
  8
0
  6
CONTINUOUS
 62
     4
 10
57.40070724487305
 20
40
 11
55.46885681152344
 21
40.51763916015625
  0
LINE
  8
0
  6
CONTINUOUS
 62
     4
 10
52.40070724487305
 20
40
 11
54.33256149291992
 21
40.51763916015625
  0
LINE
  8
0
  6
CONTINUOUS
 62
     4
 10
52.40070724487305
 20
40
 11
54.33256149291992
 21
39.48236083984375
  0
TEXT
  8
0
  6
CONTINUOUS
 62
     4
 10
52.49999928474426
 20
41.00000077486038
 40
3.200000047683716
 41
0.6999999925494195
  1
25
  0
ENDBLK
  8
0
  0
BLOCK
  8
0
  2
KOZU0026
 70
    64
 10
0
 20
0
  0
POINT
  8
0
  6
CONTINUOUS
 62
     7
 10
-102.6980361938477
 20
21.15420722961426
  0
POINT
  8
0
  6
CONTINUOUS
 62
     7
 10
-108.0580291748047
 20
25.20511436462402
  0
POINT
  8
0
  6
CONTINUOUS
 62
     7
 10
-108.0580291748047
 20
40
  0
LINE
  8
0
  6
CONTINUOUS
 62
     4
 10
-108.0580291748047
 20
26.20511436462402
 11
-108.0580291748047
 21
42
  0
LINE
  8
0
  6
CONTINUOUS
 62
     4
 10
-102.6980361938477
 20
22.15420722961426
 11
-102.6980361938477
 21
42
  0
LINE
  8
0
  6
CONTINUOUS
 62
     4
 10
-108.0580291748047
 20
40
 11
-102.6980361938477
 21
40
  0
LINE
  8
0
  6
CONTINUOUS
 62
     4
 10
-108.0580291748047
 20
40
 11
-106.1261825561523
 21
40.51763916015625
  0
LINE
  8
0
  6
CONTINUOUS
 62
     4
 10
-108.0580291748047
 20
40
 11
-106.1261825561523
 21
39.48236083984375
  0
LINE
  8
0
  6
CONTINUOUS
 62
     4
 10
-102.6980361938477
 20
40
 11
-104.6298828125
 21
39.48236083984375
  0
LINE
  8
0
  6
CONTINUOUS
 62
     4
 10
-102.6980361938477
 20
40
 11
-104.6298828125
 21
40.51763916015625
  0
TEXT
  8
0
  6
CONTINUOUS
 62
     4
 10
-107.2399985790253
 20
41.00000077486038
 40
3.200000047683716
 41
0.6999999925494195
  1
27
  0
ENDBLK
  8
0
  0
BLOCK
  8
0
  2
KOZU0027
 70
    64
 10
0
 20
0
  0
LINE
  8
0
  6
CONTINUOUS
 62
     2
 10
1.299999952316284
 20
2.5
 11
0
 21
2.5
  0
LINE
  8
0
  6
CONTINUOUS
 62
     2
 10
3.700000047683716
 20
4.306828022003174
 11
3.700000047683716
 21
2.5
  0
LINE
  8
0
  6
CONTINUOUS
 62
     2
 10
5
 20
6.5
 11
5
 21
2.5
  0
ARC
  8
0
  6
CONTINUOUS
 62
     2
 10
2.5
 20
6.5
 40
2.5
 50
61.31455607488539
 51
298.6854831774538
  0
ARC
  8
0
  6
CONTINUOUS
 62
     2
 10
2.5
 20
2.5
 40
2.5
 50
180.0000163924547
 51
359.9999289660334
  0
ARC
  8
0
  6
CONTINUOUS
 62
     2
 10
2.5
 20
2.5
 40
1.200000047683716
 50
180.0000227672971
 51
3.41509444930231e-005
  0
ARC
  8
0
  6
CONTINUOUS
 62
     2
 10
2.5
 20
6.5
 40
2.5
 50
0
 51
61.31455607488539
  0
CIRCLE
  8
0
  6
CONTINUOUS
 62
     2
 10
2.5
 20
6.5
 40
1.200000047683716
  0
ENDBLK
  8
0
  0
BLOCK
  8
0
  2
KOZU0028
 70
    64
 10
0
 20
0
  0
LINE
  8
0
  6
CONTINUOUS
 62
     2
 10
2.699999094009399
 20
9
 11
-9.999999974752427e-007
 21
3
  0
LINE
  8
0
  6
CONTINUOUS
 62
     2
 10
1.299999952316284
 20
3
 11
2.699996948242188
 21
6.111108779907227
  0
LINE
  8
0
  6
CONTINUOUS
 62
     2
 10
1.299999952316284
 20
3
 11
2.700000047683716
 21
3
  0
LINE
  8
0
  6
CONTINUOUS
 62
     2
 10
0
 20
1.700000047683716
 11
2.700000047683716
 21
1.700000047683716
  0
LINE
  8
0
  6
CONTINUOUS
 62
     2
 10
2.700000047683716
 20
6.111108779907227
 11
2.700000047683716
 21
3
  0
LINE
  8
0
  6
CONTINUOUS
 62
     2
 10
4
 20
9
 11
4
 21
3
  0
LINE
  8
0
  6
CONTINUOUS
 62
     2
 10
5
 20
1.700000047683716
 11
5
 21
3
  0
LINE
  8
0
  6
CONTINUOUS
 62
     2
 10
0
 20
1.700000047683716
 11
0
 21
3
  0
LINE
  8
0
  6
CONTINUOUS
 62
     2
 10
2.700000047683716
 20
9
 11
4
 21
9
  0
LINE
  8
0
  6
CONTINUOUS
 62
     2
 10
4
 20
0
 11
2.700000047683716
 21
0
  0
LINE
  8
0
  6
CONTINUOUS
 62
     2
 10
2.700000047683716
 20
0
 11
2.700000047683716
 21
1.700000047683716
  0
LINE
  8
0
  6
CONTINUOUS
 62
     2
 10
4
 20
0
 11
4
 21
1.700000047683716
  0
LINE
  8
0
  6
CONTINUOUS
 62
     2
 10
5
 20
1.700000047683716
 11
4
 21
1.700000047683716
  0
LINE
  8
0
  6
CONTINUOUS
 62
     2
 10
5
 20
3
 11
4
 21
3
  0
ENDBLK
  8
0
  0
BLOCK
  8
0
  2
KOZU0029
 70
    64
 10
0
 20
0
  0
POINT
  8
0
  6
CONTINUOUS
 62
     7
 10
-144.0580291748047
 20
13.60511493682861
  0
POINT
  8
0
  6
CONTINUOUS
 62
     7
 10
-144.0580291748047
 20
22.40511512756348
  0
POINT
  8
0
  6
CONTINUOUS
 62
     7
 10
-159.8135375976563
 20
22.40511512756348
  0
LINE
  8
0
  6
CONTINUOUS
 62
     4
 10
-145.0580291748047
 20
22.40511512756348
 11
-161.8135375976563
 21
22.40511512756348
  0
LINE
  8
0
  6
CONTINUOUS
 62
     4
 10
-145.0580291748047
 20
13.60511493682861
 11
-161.8135375976563
 21
13.60511493682861
  0
LINE
  8
0
  6
CONTINUOUS
 62
     4
 10
-159.8135375976563
 20
35.59577560424805
 11
-159.8135375976563
 21
8.605114936828613
  0
LINE
  8
0
  6
CONTINUOUS
 62
     4
 10
-159.8135375976563
 20
22.40511512756348
 11
-159.2958984375
 21
24.33696556091309
  0
LINE
  8
0
  6
CONTINUOUS
 62
     4
 10
-159.8135375976563
 20
22.40511512756348
 11
-160.3311767578125
 21
24.33696556091309
  0
LINE
  8
0
  6
CONTINUOUS
 62
     4
 10
-159.8135375976563
 20
13.60511493682861
 11
-160.3311767578125
 21
11.67326259613037
  0
LINE
  8
0
  6
CONTINUOUS
 62
     4
 10
-159.8135375976563
 20
13.60511493682861
 11
-159.2958984375
 21
11.67326259613037
  0
TEXT
  8
0
  6
CONTINUOUS
 62
     4
 10
-162.2400635158699
 20
24.86230644067023
 40
3.200000047683716
 41
0.5833329908807865
  1
%%C‚S‚SЊЉ
 50
90.00000250447816
  0
ENDBLK
  8
0
  0
BLOCK
  8
0
  2
KOZU0030
 70
    64
 10
0
 20
0
  0
POINT
  8
0
  6
CONTINUOUS
 62
     7
 10
-152.2192993164063
 20
-9.144830703735352
  0
POINT
  8
0
  6
CONTINUOUS
 62
     7
 10
-151.0592956542969
 20
4.603148937225342
  0
POINT
  8
0
  6
CONTINUOUS
 62
     7
 10
-151.0592956542969
 20
47.5
  0
LINE
  8
0
  6
CONTINUOUS
 62
     4
 10
-151.0592956542969
 20
5.603148937225342
 11
-151.0592956542969
 21
49.5
  0
LINE
  8
0
  6
CONTINUOUS
 62
     4
 10
-152.2192993164063
 20
-8.144830703735352
 11
-152.2192993164063
 21
49.5
  0
LINE
  8
0
  6
CONTINUOUS
 62
     4
 10
-146.0592956542969
 20
47.5
 11
-159.1000061035156
 21
47.5
  0
LINE
  8
0
  6
CONTINUOUS
 62
     4
 10
-151.0592956542969
 20
47.5
 11
-149.12744140625
 21
46.98236083984375
  0
LINE
  8
0
  6
CONTINUOUS
 62
     4
 10
-151.0592956542969
 20
47.5
 11
-149.12744140625
 21
48.01763916015625
  0
LINE
  8
0
  6
CONTINUOUS
 62
     4
 10
-152.2192993164063
 20
47.5
 11
-154.1511535644531
 21
48.01763916015625
  0
LINE
  8
0
  6
CONTINUOUS
 62
     4
 10
-152.2192993164063
 20
47.5
 11
-154.1511535644531
 21
46.98236083984375
  0
TEXT
  8
0
  6
CONTINUOUS
 62
     4
 10
-157.5000023841858
 20
48.50000077486038
 40
3.200000047683716
 41
1
  1
6
  0
ENDBLK
  8
0
  0
BLOCK
  8
0
  2
KOZU0031
 70
    64
 10
0
 20
0
  0
LINE
  8
0
  6
CONTINUOUS
 62
     2
 10
3.150001049041748
 20
0
 11
1.850000023841858
 21
0
  0
LINE
  8
0
  6
CONTINUOUS
 62
     2
 10
1.850000023841858
 20
9
 11
3.150001049041748
 21
9
  0
LINE
  8
0
  6
CONTINUOUS
 62
     2
 10
1.850000023841858
 20
0
 11
1.850000023841858
 21
7.699999809265137
  0
LINE
  8
0
  6
CONTINUOUS
 62
     2
 10
3.150001049041748
 20
0
 11
3.150001049041748
 21
9
  0
LINE
  8
0
  6
CONTINUOUS
 62
     2
 10
1.850000023841858
 20
7.699999809265137
 11
1.200000047683716
 21
7.699999809265137
  0
LINE
  8
0
  6
CONTINUOUS
 62
     2
 10
1.200000047683716
 20
7.699999809265137
 11
1.850000023841858
 21
9
  0
ENDBLK
  8
0
  0
BLOCK
  8
0
  2
KOZU0032
 70
    64
 10
0
 20
0
  0
LINE
  8
0
  6
CONTINUOUS
 62
     2
 10
5
 20
6
 11
3.700000047683716
 21
6
  0
LINE
  8
0
  6
CONTINUOUS
 62
     2
 10
5
 20
3
 11
3.700000047683716
 21
3
  0
LINE
  8
0
  6
CONTINUOUS
 62
     2
 10
3.700000047683716
 20
6.999999046325684
 11
3.700000047683716
 21
6
  0
LINE
  8
0
  6
CONTINUOUS
 62
     2
 10
2.999999046325684
 20
7.699999809265137
 11
2
 21
7.699999809265137
  0
LINE
  8
0
  6
CONTINUOUS
 62
     2
 10
2
 20
1.299999952316284
 11
2.999999046325684
 21
1.299999952316284
  0
LINE
  8
0
  6
CONTINUOUS
 62
     2
 10
1.299999952316284
 20
2
 11
1.299999952316284
 21
6.999999046325684
  0
LINE
  8
0
  6
CONTINUOUS
 62
     2
 10
5
 20
2
 11
5
 21
3
  0
LINE
  8
0
  6
CONTINUOUS
 62
     2
 10
0
 20
7
 11
0
 21
2
  0
LINE
  8
0
  6
CONTINUOUS
 62
     2
 10
2
 20
9
 11
3
 21
9
  0
LINE
  8
0
  6
CONTINUOUS
 62
     2
 10
3
 20
0
 11
2
 21
0
  0
LINE
  8
0
  6
CONTINUOUS
 62
     2
 10
5
 20
7
 11
5
 21
6
  0
LINE
  8
0
  6
CONTINUOUS
 62
     2
 10
3.700000047683716
 20
2
 11
3.700000047683716
 21
3
  0
ARC
  8
0
  6
CONTINUOUS
 62
     2
 10
2
 20
2
 40
0.699999988079071
 50
180.0000195148256
 51
270.0000000000005
  0
ARC
  8
0
  6
CONTINUOUS
 62
     2
 10
2.999999046325684
 20
2
 40
0.699999988079071
 50
270.0000000000005
 51
359.9999316981136
  0
ARC
  8
0
  6
CONTINUOUS
 62
     2
 10
2.999999046325684
 20
6.999999046325684
 40
0.699999988079071
 50
0
 51
90.00000000000019
  0
ARC
  8
0
  6
CONTINUOUS
 62
     2
 10
2
 20
6.999999046325684
 40
0.699999988079071
 50
90.00000000000019
 51
180.0000390296505
  0
ARC
  8
0
  6
CONTINUOUS
 62
     2
 10
2
 20
7
 40
2
 50
90.00000000000019
 51
180.0000136603791
  0
ARC
  8
0
  6
CONTINUOUS
 62
     2
 10
3
 20
7
 40
2
 50
0
 51
90.00000000000019
  0
ARC
  8
0
  6
CONTINUOUS
 62
     2
 10
3
 20
2
 40
2
 50
270.0000000000005
 51
359.9999282830144
  0
ARC
  8
0
  6
CONTINUOUS
 62
     2
 10
2
 20
2
 40
2
 50
180.0000204905682
 51
270.0000000000005
  0
ENDBLK
  8
0
  0
BLOCK
  8
0
  2
KOZU0033
 70
    64
 10
0
 20
0
  0
LINE
  8
0
  6
CONTINUOUS
 62
     2
 10
1.200000047683716
 20
7.800000190734863
 11
1.200000047683716
 21
5.199999809265137
  0
LINE
  8
0
  6
CONTINUOUS
 62
     2
 10
1.200000047683716
 20
1.200000047683716
 11
2.5
 21
1.200000047683716
  0
LINE
  8
0
  6
CONTINUOUS
 62
     2
 10
1.200000047683716
 20
7.800000190734863
 11
2.5
 21
7.800000190734863
  0
LINE
  8
0
  6
CONTINUOUS
 62
     2
 10
1.200000047683716
 20
3.799999952316284
 11
2.5
 21
3.799999952316284
  0
LINE
  8
0
  6
CONTINUOUS
 62
     2
 10
1.200000047683716
 20
5.199999809265137
 11
2.5
 21
5.199999809265137
  0
LINE
  8
0
  6
CONTINUOUS
 62
     2
 10
0
 20
0
 11
0
 21
9
  0
LINE
  8
0
  6
CONTINUOUS
 62
     2
 10
0
 20
9
 11
2.5
 21
9
  0
LINE
  8
0
  6
CONTINUOUS
 62
     2
 10
0
 20
0
 11
2.5
 21
0
  0
LINE
  8
0
  6
CONTINUOUS
 62
     2
 10
1.200000047683716
 20
1.200000047683716
 11
1.200000047683716
 21
3.74000096321106
  0
ARC
  8
0
  6
CONTINUOUS
 62
     2
 10
2.5
 20
2.5
 40
2.5
 50
270.0000000000005
 51
53.13006301226785
  0
ARC
  8
0
  6
CONTINUOUS
 62
     2
 10
2.5
 20
6.5
 40
2.5
 50
306.869912945469
 51
90.00000000000019
  0
ARC
  8
0
  6
CONTINUOUS
 62
     2
 10
2.5
 20
6.5
 40
1.299999952316284
 50
270.0000000000005
 51
90.00000000000019
  0
ARC
  8
0
  6
CONTINUOUS
 62
     2
 10
2.5
 20
2.5
 40
1.299999952316284
 50
270.0000000000005
 51
90.00000000000019
  0
ENDBLK
  8
0
  0
BLOCK
  8
0
  2
KOZU0034
 70
    64
 10
0
 20
0
  0
POINT
  8
0
  6
CONTINUOUS
 62
     3
 10
86.75
 20
-131
  0
POINT
  8
0
  6
CONTINUOUS
 62
     3
 10
104.25
 20
-131
  0
POINT
  8
0
  6
CONTINUOUS
 62
     3
 10
196
 20
-140.5
  0
POINT
  8
0
  6
CONTINUOUS
 62
     3
 10
-34
 20
-136.5
  0
POINT
  8
0
  6
CONTINUOUS
 62
     3
 10
-34
 20
-126.5
  0
POINT
  8
0
  6
CONTINUOUS
 62
     3
 10
-34
 20
-116.5
  0
POINT
  8
0
  6
CONTINUOUS
 62
     3
 10
-34
 20
-106.5
  0
POINT
  8
0
  6
CONTINUOUS
 62
     3
 10
187
 20
-140.5
  0
POINT
  8
0
  6
CONTINUOUS
 62
     3
 10
178
 20
-140.5
  0
POINT
  8
0
  6
CONTINUOUS
 62
     3
 10
169
 20
-140.5
  0
POINT
  8
0
  6
CONTINUOUS
 62
     3
 10
160
 20
-140.5
  0
POINT
  8
0
  6
CONTINUOUS
 62
     3
 10
151
 20
-140.5
  0
POINT
  8
0
  6
CONTINUOUS
 62
     3
 10
142
 20
-140.5
  0
POINT
  8
0
  6
CONTINUOUS
 62
     3
 10
133
 20
-140.5
  0
POINT
  8
0
  6
CONTINUOUS
 62
     3
 10
124
 20
-140.5
  0
POINT
  8
0
  6
CONTINUOUS
 62
     3
 10
115
 20
-140.5
  0
POINT
  8
0
  6
CONTINUOUS
 62
     3
 10
0
 20
0
  0
LINE
  8
0
  6
CONTINUOUS
 62
     4
 10
34.39888000488281
 20
-106.6980209350586
 11
35.99881362915039
 21
-106.6980209350586
  0
LINE
  8
0
  6
CONTINUOUS
 62
     4
 10
34.34221267700195
 20
-106.5980224609375
 11
35.93881225585938
 21
-106.5980224609375
  0
LINE
  8
0
  6
CONTINUOUS
 62
     4
 10
34.28554534912109
 20
-106.4980239868164
 11
35.87881469726563
 21
-106.4980239868164
  0
LINE
  8
0
  6
CONTINUOUS
 62
     4
 10
34.22887802124023
 20
-106.3980255126953
 11
35.81881332397461
 21
-106.3980255126953
  0
LINE
  8
0
  6
CONTINUOUS
 62
     4
 10
34.17221069335938
 20
-106.2980194091797
 11
35.75881195068359
 21
-106.2980194091797
  0
LINE
  8
0
  6
CONTINUOUS
 62
     4
 10
34.11554718017578
 20
-106.1980209350586
 11
35.69881439208984
 21
-106.1980209350586
  0
LINE
  8
0
  6
CONTINUOUS
 62
     4
 10
34.05887985229492
 20
-106.0980224609375
 11
35.63881301879883
 21
-106.0980224609375
  0
LINE
  8
0
  6
CONTINUOUS
 62
     4
 10
34.00221252441406
 20
-105.9980239868164
 11
35.57881164550781
 21
-105.9980239868164
  0
LINE
  8
0
  6
CONTINUOUS
 62
     4
 10
33.9455451965332
 20
-105.8980255126953
 11
35.51881408691406
 21
-105.8980255126953
  0
LINE
  8
0
  6
CONTINUOUS
 62
     4
 10
33.88887786865234
 20
-105.7980194091797
 11
35.45881271362305
 21
-105.7980194091797
  0
LINE
  8
0
  6
CONTINUOUS
 62
     4
 10
33.83221054077148
 20
-105.6980209350586
 11
35.39881134033203
 21
-105.6980209350586
  0
LINE
  8
0
  6
CONTINUOUS
 62
     4
 10
33.77554702758789
 20
-105.5980224609375
 11
35.33881378173828
 21
-105.5980224609375
  0
LINE
  8
0
  6
CONTINUOUS
 62
     4
 10
33.71887969970703
 20
-105.4980239868164
 11
35.27881240844727
 21
-105.4980239868164
  0
LINE
  8
0
  6
CONTINUOUS
 62
     4
 10
33.66221237182617
 20
-105.3980255126953
 11
35.21881484985352
 21
-105.3980255126953
  0
LINE
  8
0
  6
CONTINUOUS
 62
     4
 10
33.60554504394531
 20
-105.2980194091797
 11
35.1588134765625
 21
-105.2980194091797
  0
LINE
  8
0
  6
CONTINUOUS
 62
     4
 10
33.54141235351563
 20
-102.2976455688477
 11
33.65207672119141
 21
-102.2976455688477
  0
LINE
  8
0
  6
CONTINUOUS
 62
     4
 10
33.48141098022461
 20
-102.3976440429688
 11
33.70541381835938
 21
-102.3976440429688
  0
LINE
  8
0
  6
CONTINUOUS
 62
     4
 10
33.42141342163086
 20
-102.4976501464844
 11
33.75874328613281
 21
-102.4976501464844
  0
LINE
  8
0
  6
CONTINUOUS
 62
     4
 10
33.36141204833984
 20
-102.5976486206055
 11
33.81207656860352
 21
-102.5976486206055
  0
LINE
  8
0
  6
CONTINUOUS
 62
     4
 10
33.30141067504883
 20
-102.6976470947266
 11
33.86541366577148
 21
-102.6976470947266
  0
LINE
  8
0
  6
CONTINUOUS
 62
     4
 10
33.24141311645508
 20
-102.7976455688477
 11
33.91874313354492
 21
-102.7976455688477
  0
LINE
  8
0
  6
CONTINUOUS
 62
     4
 10
33.18141174316406
 20
-102.8976440429688
 11
33.97207641601563
 21
-102.8976440429688
  0
LINE
  8
0
  6
CONTINUOUS
 62
     4
 10
33.12141036987305
 20
-102.9976501464844
 11
34.02541351318359
 21
-102.9976501464844
  0
LINE
  8
0
  6
CONTINUOUS
 62
     4
 10
33.0614128112793
 20
-103.0976486206055
 11
34.0787467956543
 21
-103.0976486206055
  0
LINE
  8
0
  6
CONTINUOUS
 62
     4
 10
33.00141143798828
 20
-103.1976470947266
 11
34.13207626342773
 21
-103.1976470947266
  0
LINE
  8
0
  6
CONTINUOUS
 62
     4
 10
32.94141387939453
 20
-103.2976455688477
 11
34.1854133605957
 21
-103.2976455688477
  0
LINE
  8
0
  6
CONTINUOUS
 62
     4
 10
32.88141250610352
 20
-103.3976440429688
 11
34.23874664306641
 21
-103.3976440429688
  0
LINE
  8
0
  6
CONTINUOUS
 62
     4
 10
32.8214111328125
 20
-103.4976501464844
 11
34.29207611083984
 21
-103.4976501464844
  0
LINE
  8
0
  6
CONTINUOUS
 62
     4
 10
32.76141357421875
 20
-103.5976486206055
 11
34.34541320800781
 21
-103.5976486206055
  0
LINE
  8
0
  6
CONTINUOUS
 62
     4
 10
32.70141220092773
 20
-103.6976470947266
 11
34.39874649047852
 21
-103.6976470947266
  0
LINE
  8
0
  6
CONTINUOUS
 62
     4
 10
32.75533294677734
 20
-103.7976455688477
 11
34.34466552734375
 21
-103.7976455688477
  0
LINE
  8
0
  6
CONTINUOUS
 62
     4
 10
32.8120002746582
 20
-103.8976440429688
 11
34.28799819946289
 21
-103.8976440429688
  0
LINE
  8
0
  6
CONTINUOUS
 62
     4
 10
32.86866760253906
 20
-103.9976501464844
 11
34.2313346862793
 21
-103.9976501464844
  0
LINE
  8
0
  6
CONTINUOUS
 62
     4
 10
32.92533111572266
 20
-104.0976486206055
 11
34.17466735839844
 21
-104.0976486206055
  0
LINE
  8
0
  6
CONTINUOUS
 62
     4
 10
32.98199844360352
 20
-104.1976470947266
 11
34.11800003051758
 21
-104.1976470947266
  0
LINE
  8
0
  6
CONTINUOUS
 62
     4
 10
33.03866577148438
 20
-104.2976455688477
 11
34.06133270263672
 21
-104.2976455688477
  0
LINE
  8
0
  6
CONTINUOUS
 62
     4
 10
33.09533309936523
 20
-104.3976440429688
 11
34.00466537475586
 21
-104.3976440429688
  0
LINE
  8
0
  6
CONTINUOUS
 62
     4
 10
33.15200042724609
 20
-104.4976501464844
 11
33.94800186157227
 21
-104.4976501464844
  0
LINE
  8
0
  6
CONTINUOUS
 62
     4
 10
33.20866775512695
 20
-104.5976486206055
 11
33.89133453369141
 21
-104.5976486206055
  0
LINE
  8
0
  6
CONTINUOUS
 62
     4
 10
33.26533126831055
 20
-104.6976470947266
 11
33.83466720581055
 21
-104.6976470947266
  0
LINE
  8
0
  6
CONTINUOUS
 62
     4
 10
33.32199859619141
 20
-104.7976455688477
 11
33.77799987792969
 21
-104.7976455688477
  0
LINE
  8
0
  6
CONTINUOUS
 62
     4
 10
33.37866592407227
 20
-104.8976440429688
 11
33.72133255004883
 21
-104.8976440429688
  0
LINE
  8
0
  6
CONTINUOUS
 62
     4
 10
33.43533325195313
 20
-104.9976501464844
 11
33.66466522216797
 21
-104.9976501464844
  0
LINE
  8
0
  6
CONTINUOUS
 62
     4
 10
33.49200057983398
 20
-105.0976486206055
 11
33.60800170898438
 21
-105.0976486206055
  0
LINE
  8
0
  6
CONTINUOUS
 62
     4
 10
33.54866790771484
 20
-105.1976470947266
 11
33.55133438110352
 21
-105.1976470947266
  0
LINE
  8
0
  6
CONTINUOUS
 62
     4
 10
31.00121688842773
 20
-106.6979751586914
 11
32.70114898681641
 21
-106.6979751586914
  0
LINE
  8
0
  6
CONTINUOUS
 62
     4
 10
31.06121635437012
 20
-106.5979690551758
 11
32.75781631469727
 21
-106.5979690551758
  0
LINE
  8
0
  6
CONTINUOUS
 62
     4
 10
31.12121772766113
 20
-106.4979705810547
 11
32.81448364257813
 21
-106.4979705810547
  0
LINE
  8
0
  6
CONTINUOUS
 62
     4
 10
31.18121719360352
 20
-106.3979721069336
 11
32.87114715576172
 21
-106.3979721069336
  0
LINE
  8
0
  6
CONTINUOUS
 62
     4
 10
31.2412166595459
 20
-106.2979736328125
 11
32.92781448364258
 21
-106.2979736328125
  0
LINE
  8
0
  6
CONTINUOUS
 62
     4
 10
31.30121612548828
 20
-106.1979751586914
 11
32.98448181152344
 21
-106.1979751586914
  0
LINE
  8
0
  6
CONTINUOUS
 62
     4
 10
31.3612174987793
 20
-106.0979690551758
 11
33.0411491394043
 21
-106.0979690551758
  0
LINE
  8
0
  6
CONTINUOUS
 62
     4
 10
31.42121696472168
 20
-105.9979705810547
 11
33.09781646728516
 21
-105.9979705810547
  0
LINE
  8
0
  6
CONTINUOUS
 62
     4
 10
31.48121643066406
 20
-105.8979721069336
 11
33.15448379516602
 21
-105.8979721069336
  0
LINE
  8
0
  6
CONTINUOUS
 62
     4
 10
31.54121780395508
 20
-105.7979736328125
 11
33.21114730834961
 21
-105.7979736328125
  0
LINE
  8
0
  6
CONTINUOUS
 62
     4
 10
31.60121726989746
 20
-105.6979751586914
 11
33.26781463623047
 21
-105.6979751586914
  0
LINE
  8
0
  6
CONTINUOUS
 62
     4
 10
31.66121673583984
 20
-105.5979690551758
 11
33.32448196411133
 21
-105.5979690551758
  0
LINE
  8
0
  6
CONTINUOUS
 62
     4
 10
31.72121620178223
 20
-105.4979705810547
 11
33.38114929199219
 21
-105.4979705810547
  0
LINE
  8
0
  6
CONTINUOUS
 62
     4
 10
31.78121757507324
 20
-105.3979721069336
 11
33.43781661987305
 21
-105.3979721069336
  0
LINE
  8
0
  6
CONTINUOUS
 62
     4
 10
31.84121704101563
 20
-105.2979736328125
 11
33.49448394775391
 21
-105.2979736328125
  0
LINE
  8
0
  6
CONTINUOUS
 62
     3
 10
-112.5
 20
129.5
 11
-195
 21
129.5
  0
LINE
  8
0
  6
CONTINUOUS
 62
     4
 10
-112.5
 20
135.5
 11
-195
 21
135.5
  0
LINE
  8
0
  6
CONTINUOUS
 62
     3
 10
-195
 20
-101.5
 11
203
 21
-101.5
  0
LINE
  8
0
  6
CONTINUOUS
 62
     3
 10
-195
 20
141.5
 11
-195
 21
-141.5
  0
LINE
  8
0
  6
CONTINUOUS
 62
     3
 10
-195
 20
-141.5
 11
203
 21
-141.5
  0
LINE
  8
0
  6
CONTINUOUS
 62
     3
 10
203
 20
141.5
 11
-195
 21
141.5
  0
LINE
  8
0
  6
CONTINUOUS
 62
     3
 10
203
 20
-141.5
 11
203
 21
141.5
  0
LINE
  8
0
  6
CONTINUOUS
 62
     4
 10
1
 20
-141.5
 11
1
 21
-101.5
  0
LINE
  8
0
  6
CONTINUOUS
 62
     4
 10
26
 20
-141.5
 11
26
 21
-101.5
  0
LINE
  8
0
  6
CONTINUOUS
 62
     4
 10
43
 20
-141.5
 11
43
 21
-113.5
  0
LINE
  8
0
  6
CONTINUOUS
 62
     4
 10
78
 20
-141.5
 11
78
 21
-113.5
  0
LINE
  8
0
  6
CONTINUOUS
 62
     4
 10
95.5
 20
-141.5
 11
95.5
 21
-140
  0
LINE
  8
0
  6
CONTINUOUS
 62
     4
 10
113
 20
-141.5
 11
113
 21
-101.5
  0
LINE
  8
0
  6
CONTINUOUS
 62
     4
 10
113
 20
-127.5
 11
203
 21
-127.5
  0
LINE
  8
0
  6
CONTINUOUS
 62
     4
 10
113
 20
-111.5
 11
203
 21
-111.5
  0
LINE
  8
0
  6
CONTINUOUS
 62
     4
 10
1
 20
-113.5
 11
113
 21
-113.5
  0
LINE
  8
0
  6
CONTINUOUS
 62
     4
 10
1
 20
-120.5
 11
113
 21
-120.5
  0
LINE
  8
0
  6
CONTINUOUS
 62
     4
 10
1.5
 20
-127.5
 11
25.5
 21
-127.5
  0
LINE
  8
0
  6
CONTINUOUS
 62
     4
 10
26
 20
-134.5
 11
78
 21
-134.5
  0
LINE
  8
0
  6
CONTINUOUS
 62
     4
 10
78
 20
-131
 11
79.5
 21
-131
  0
LINE
  8
0
  6
CONTINUOUS
 62
     4
 10
111.5
 20
-131
 11
113
 21
-131
  0
LINE
  8
0
  6
CONTINUOUS
 62
     4
 10
95.5
 20
-122
 11
95.5
 21
-120.5
  0
LINE
  8
0
  6
CONTINUOUS
 62
     4
 10
-189
 20
-101.5
 11
-189
 21
-141.5
  0
LINE
  8
0
  6
CONTINUOUS
 62
     4
 10
-4
 20
-141.5
 11
-4
 21
-106.5
  0
LINE
  8
0
  6
CONTINUOUS
 62
     4
 10
-14
 20
-141.5
 11
-14
 21
-106.5
  0
LINE
  8
0
  6
CONTINUOUS
 62
     4
 10
-19
 20
-141.5
 11
-19
 21
-106.5
  0
LINE
  8
0
  6
CONTINUOUS
 62
     4
 10
-29
 20
-141.5
 11
-29
 21
-101.5
  0
LINE
  8
0
  6
CONTINUOUS
 62
     4
 10
-29
 20
-106.5
 11
1
 21
-106.5
  0
LINE
  8
0
  6
CONTINUOUS
 62
     4
 10
-29
 20
-111.5
 11
1
 21
-111.5
  0
LINE
  8
0
  6
CONTINUOUS
 62
     4
 10
-29
 20
-116.5
 11
1
 21
-116.5
  0
LINE
  8
0
  6
CONTINUOUS
 62
     4
 10
-29
 20
-121.5
 11
1
 21
-121.5
  0
LINE
  8
0
  6
CONTINUOUS
 62
     4
 10
-29
 20
-126.5
 11
1
 21
-126.5
  0
LINE
  8
0
  6
CONTINUOUS
 62
     4
 10
-29
 20
-131.5
 11
1
 21
-131.5
  0
LINE
  8
0
  6
CONTINUOUS
 62
     4
 10
-29
 20
-136.5
 11
1
 21
-136.5
  0
LINE
  8
0
  6
CONTINUOUS
 62
     4
 10
-39
 20
-141.5
 11
-39
 21
-101.5
  0
LINE
  8
0
  6
CONTINUOUS
 62
     4
 10
-39
 20
-121.5
 11
-29
 21
-121.5
  0
LINE
  8
0
  6
CONTINUOUS
 62
     4
 10
-39
 20
-111.5
 11
-29
 21
-111.5
  0
LINE
  8
0
  6
CONTINUOUS
 62
     4
 10
-39
 20
-131.5
 11
-29
 21
-131.5
  0
LINE
  8
0
  6
CONTINUOUS
 62
     3
 10
0
 20
148.5
 11
0
 21
141.5
  0
LINE
  8
0
  6
CONTINUOUS
 62
     3
 10
-210
 20
0
 11
-195
 21
0
  0
LINE
  8
0
  6
CONTINUOUS
 62
     3
 10
203
 20
0
 11
210
 21
0
  0
LINE
  8
0
  6
CONTINUOUS
 62
     3
 10
52.5
 20
-141.5
 11
52.5
 21
-146.5
  0
LINE
  8
0
  6
CONTINUOUS
 62
     3
 10
105
 20
-141.5
 11
105
 21
-146.5
  0
LINE
  8
0
  6
CONTINUOUS
 62
     3
 10
157.5
 20
-141.5
 11
157.5
 21
-146.5
  0
LINE
  8
0
  6
CONTINUOUS
 62
     3
 10
-52.5
 20
-141.5
 11
-52.5
 21
-146.5
  0
LINE
  8
0
  6
CONTINUOUS
 62
     3
 10
-105
 20
-141.5
 11
-105
 21
-146.5
  0
LINE
  8
0
  6
CONTINUOUS
 62
     3
 10
-157.5
 20
-141.5
 11
-157.5
 21
-146.5
  0
LINE
  8
0
  6
CONTINUOUS
 62
     3
 10
52.5
 20
146.5
 11
52.5
 21
141.5
  0
LINE
  8
0
  6
CONTINUOUS
 62
     3
 10
105
 20
146.5
 11
105
 21
141.5
  0
LINE
  8
0
  6
CONTINUOUS
 62
     3
 10
157.5
 20
146.5
 11
157.5
 21
141.5
  0
LINE
  8
0
  6
CONTINUOUS
 62
     3
 10
-52.5
 20
146.5
 11
-52.5
 21
141.5
  0
LINE
  8
0
  6
CONTINUOUS
 62
     3
 10
-105
 20
146.5
 11
-105
 21
141.5
  0
LINE
  8
0
  6
CONTINUOUS
 62
     3
 10
-157.5
 20
146.5
 11
-157.5
 21
141.5
  0
LINE
  8
0
  6
CONTINUOUS
 62
     3
 10
-200
 20
49.5
 11
-195
 21
49.5
  0
LINE
  8
0
  6
CONTINUOUS
 62
     3
 10
-200
 20
99
 11
-195
 21
99
  0
LINE
  8
0
  6
CONTINUOUS
 62
     3
 10
-200
 20
-49.5
 11
-195
 21
-49.5
  0
LINE
  8
0
  6
CONTINUOUS
 62
     3
 10
-200
 20
-99
 11
-195
 21
-99
  0
LINE
  8
0
  6
CONTINUOUS
 62
     3
 10
203
 20
49.5
 11
208
 21
49.5
  0
LINE
  8
0
  6
CONTINUOUS
 62
     3
 10
203
 20
99
 11
208
 21
99
  0
LINE
  8
0
  6
CONTINUOUS
 62
     3
 10
203
 20
-49.5
 11
208
 21
-49.5
  0
LINE
  8
0
  6
CONTINUOUS
 62
     3
 10
203
 20
-99
 11
208
 21
-99
  0
LINE
  8
0
  6
CENTER
 62
     4
 10
6
 20
-103.5
 11
6
 21
-111.5
  0
LINE
  8
0
  6
CENTER
 62
     4
 10
2
 20
-107.5
 11
25
 21
-107.5
  0
LINE
  8
0
  6
CONTINUOUS
 62
     3
 10
12.60000038146973
 20
-105.9000015258789
 11
23.10000038146973
 21
-105.3000030517578
  0
LINE
  8
0
  6
CONTINUOUS
 62
     3
 10
23.10000038146973
 20
-109.6999969482422
 11
12.60000038146973
 21
-109.0999984741211
  0
LINE
  8
0
  6
CONTINUOUS
 62
     3
 10
12.60000038146973
 20
-105.9000015258789
 11
12.60000038146973
 21
-109.0999984741211
  0
LINE
  8
0
  6
CONTINUOUS
 62
     3
 10
23.10000038146973
 20
-109.6999969482422
 11
23.10000038146973
 21
-105.3000030517578
  0
LINE
  8
0
  6
CONTINUOUS
 62
     3
 10
10
 20
-141.5
 11
10
 21
-144.5
  0
LINE
  8
0
  6
CONTINUOUS
 62
     3
 10
0
 20
-141.5
 11
0
 21
-148.5
  0
LINE
  8
0
  6
CONTINUOUS
 62
     3
 10
-10
 20
-141.5
 11
-10
 21
-144.5
  0
LINE
  8
0
  6
CONTINUOUS
 62
     3
 10
20
 20
-141.5
 11
20
 21
-144.5
  0
LINE
  8
0
  6
CONTINUOUS
 62
     3
 10
30
 20
-141.5
 11
30
 21
-144.5
  0
LINE
  8
0
  6
CONTINUOUS
 62
     3
 10
40
 20
-141.5
 11
40
 21
-144.5
  0
LINE
  8
0
  6
CONTINUOUS
 62
     3
 10
50
 20
-141.5
 11
50
 21
-144.5
  0
LINE
  8
0
  6
CONTINUOUS
 62
     3
 10
-20
 20
-141.5
 11
-20
 21
-144.5
  0
LINE
  8
0
  6
CONTINUOUS
 62
     3
 10
-30
 20
-141.5
 11
-30
 21
-144.5
  0
LINE
  8
0
  6
CONTINUOUS
 62
     3
 10
-40
 20
-141.5
 11
-40
 21
-144.5
  0
LINE
  8
0
  6
CONTINUOUS
 62
     3
 10
-50
 20
-141.5
 11
-50
 21
-144.5
  0
LINE
  8
0
  6
CONTINUOUS
 62
     4
 10
26
 20
-127.5
 11
78
 21
-127.5
  0
LINE
  8
0
  6
CONTINUOUS
 62
     4
 10
194
 20
-141.5
 11
194
 21
-127.5
  0
LINE
  8
0
  6
CONTINUOUS
 62
     4
 10
122
 20
-141.5
 11
122
 21
-130.5
  0
LINE
  8
0
  6
CONTINUOUS
 62
     4
 10
131
 20
-141.5
 11
131
 21
-140.5
  0
LINE
  8
0
  6
CONTINUOUS
 62
     4
 10
140
 20
-141.5
 11
140
 21
-140.5
  0
LINE
  8
0
  6
CONTINUOUS
 62
     4
 10
149
 20
-141.5
 11
149
 21
-140.5
  0
LINE
  8
0
  6
CONTINUOUS
 62
     4
 10
158
 20
-141.5
 11
158
 21
-140.5
  0
LINE
  8
0
  6
CONTINUOUS
 62
     4
 10
167
 20
-141.5
 11
167
 21
-140.5
  0
LINE
  8
0
  6
CONTINUOUS
 62
     4
 10
176
 20
-141.5
 11
176
 21
-140.5
  0
LINE
  8
0
  6
CONTINUOUS
 62
     4
 10
185
 20
-141.5
 11
185
 21
-140.5
  0
LINE
  8
0
  6
CONTINUOUS
 62
     4
 10
31
 20
-106.6999969482422
 11
32.70000076293945
 21
-106.6999969482422
  0
LINE
  8
0
  6
CONTINUOUS
 62
     4
 10
34.40000152587891
 20
-103.6999969482422
 11
33.59999847412109
 21
-102.1999969482422
  0
LINE
  8
0
  6
CONTINUOUS
 62
     4
 10
32.70000076293945
 20
-103.6999969482422
 11
34.40000152587891
 21
-106.6999969482422
  0
LINE
  8
0
  6
CONTINUOUS
 62
     4
 10
36
 20
-106.6999969482422
 11
35.09999847412109
 21
-105.1999969482422
  0
LINE
  8
0
  6
CONTINUOUS
 62
     4
 10
33.59999847412109
 20
-102.1999969482422
 11
32.70000076293945
 21
-103.6999969482422
  0
LINE
  8
0
  6
CONTINUOUS
 62
     4
 10
34.40000152587891
 20
-103.6999969482422
 11
32.70000076293945
 21
-106.6999969482422
  0
LINE
  8
0
  6
CONTINUOUS
 62
     4
 10
34.40000152587891
 20
-106.6999969482422
 11
36
 21
-106.6999969482422
  0
LINE
  8
0
  6
CONTINUOUS
 62
     4
 10
31.89999961853027
 20
-105.1999969482422
 11
31
 21
-106.6999969482422
  0
LINE
  8
0
  6
CONTINUOUS
 62
     4
 10
35.09999847412109
 20
-105.1999969482422
 11
31.89999961853027
 21
-105.1999969482422
  0
LINE
  8
0
  6
CONTINUOUS
 62
     4
 10
27
 20
-107.5
 11
112
 21
-107.5
  0
LINE
  8
0
  6
DASHED
 62
     4
 10
-122.5
 20
135.5
 11
-122.5
 21
129.5
  0
LINE
  8
0
  6
CONTINUOUS
 62
     4
 10
-115
 20
134.5
 11
-115
 21
135.5
  0
LINE
  8
0
  6
CONTINUOUS
 62
     4
 10
-117.5
 20
134.5
 11
-117.5
 21
135.5
  0
LINE
  8
0
  6
CONTINUOUS
 62
     4
 10
-120
 20
134.5
 11
-120
 21
135.5
  0
LINE
  8
0
  6
CONTINUOUS
 62
     4
 10
-125
 20
134.5
 11
-125
 21
135.5
  0
LINE
  8
0
  6
CONTINUOUS
 62
     4
 10
-127.5
 20
134.5
 11
-127.5
 21
135.5
  0
LINE
  8
0
  6
CONTINUOUS
 62
     4
 10
-130
 20
134.5
 11
-130
 21
135.5
  0
LINE
  8
0
  6
CONTINUOUS
 62
     4
 10
-132.5
 20
134.5
 11
-132.5
 21
135.5
  0
LINE
  8
0
  6
CONTINUOUS
 62
     4
 10
-135
 20
134.5
 11
-135
 21
135.5
  0
LINE
  8
0
  6
CONTINUOUS
 62
     4
 10
-137.5
 20
134.5
 11
-137.5
 21
135.5
  0
LINE
  8
0
  6
CONTINUOUS
 62
     4
 10
-140
 20
134.5
 11
-140
 21
135.5
  0
LINE
  8
0
  6
CONTINUOUS
 62
     4
 10
-142.5
 20
134.5
 11
-142.5
 21
135.5
  0
LINE
  8
0
  6
CONTINUOUS
 62
     4
 10
-145
 20
134.5
 11
-145
 21
135.5
  0
LINE
  8
0
  6
CONTINUOUS
 62
     4
 10
-147.5
 20
134.5
 11
-147.5
 21
135.5
  0
LINE
  8
0
  6
CONTINUOUS
 62
     4
 10
-150
 20
134.5
 11
-150
 21
135.5
  0
LINE
  8
0
  6
CONTINUOUS
 62
     4
 10
-152.5
 20
134.5
 11
-152.5
 21
135.5
  0
LINE
  8
0
  6
CONTINUOUS
 62
     4
 10
-155
 20
134.5
 11
-155
 21
135.5
  0
LINE
  8
0
  6
CONTINUOUS
 62
     4
 10
-157.5
 20
134.5
 11
-157.5
 21
135.5
  0
LINE
  8
0
  6
CONTINUOUS
 62
     4
 10
-160
 20
134.5
 11
-160
 21
135.5
  0
LINE
  8
0
  6
CONTINUOUS
 62
     4
 10
-112.5
 20
129.5
 11
-112.5
 21
141.5
  0
LINE
  8
0
  6
CONTINUOUS
 62
     4
 10
-170
 20
134.5
 11
-170
 21
135.5
  0
LINE
  8
0
  6
CONTINUOUS
 62
     4
 10
-165
 20
134.5
 11
-165
 21
135.5
  0
LINE
  8
0
  6
CONTINUOUS
 62
     4
 10
-162.5
 20
129.5
 11
-162.5
 21
141.5
  0
LINE
  8
0
  6
CONTINUOUS
 62
     4
 10
-167.5
 20
129.5
 11
-167.5
 21
141.5
  0
LINE
  8
0
  6
CONTINUOUS
 62
     4
 10
-172.5
 20
129.5
 11
-172.5
 21
141.5
  0
LINE
  8
0
  6
CONTINUOUS
 62
     4
 10
-175
 20
134.5
 11
-175
 21
135.5
  0
LINE
  8
0
  6
CONTINUOUS
 62
     4
 10
-177.5
 20
134.5
 11
-177.5
 21
135.5
  0
LINE
  8
0
  6
CONTINUOUS
 62
     4
 10
-180
 20
134.5
 11
-180
 21
135.5
  0
LINE
  8
0
  6
CONTINUOUS
 62
     4
 10
-182.5
 20
134.5
 11
-182.5
 21
135.5
  0
LINE
  8
0
  6
CONTINUOUS
 62
     4
 10
-185
 20
134.5
 11
-185
 21
135.5
  0
LINE
  8
0
  6
CONTINUOUS
 62
     4
 10
-187.5
 20
134.5
 11
-187.5
 21
135.5
  0
LINE
  8
0
  6
CONTINUOUS
 62
     4
 10
-190
 20
134.5
 11
-190
 21
135.5
  0
LINE
  8
0
  6
DASHED
 62
     4
 10
-192.5
 20
129.5
 11
-192.5
 21
135.5
  0
CIRCLE
  8
0
  6
CONTINUOUS
 62
     3
 10
6
 20
-107.5
 40
1.5
  0
CIRCLE
  8
0
  6
CONTINUOUS
 62
     3
 10
6
 20
-107.5
 40
2.5
  0
TEXT
  8
0
  6
CONTINUOUS
 62
     4
 10
-140.9183596968651
 20
136.1330718994141
 40
2
 41
0.6700000281517323
  1
TITLE
  0
TEXT
  8
0
  6
CONTINUOUS
 62
     4
 10
-167.0700734257698
 20
136.1466064453125
 40
2
 41
0.670000028796494
  1
REV.
  0
TEXT
  8
0
  6
CONTINUOUS
 62
     4
 10
-172.4464988708496
 20
136.1466064453125
 40
2
 41
0.6700000112706965
  1
PAGE
  0
TEXT
  8
0
  6
CONTINUOUS
 62
     4
 10
-190.2334993481636
 20
136.1330718994141
 40
2
 41
0.6699999962435213
  1
DRAWING No.
  0
TEXT
  8
0
  6
CONTINUOUS
 62
     4
 10
-200.0000009536743
 20
122.5
 40
2.5
 41
1.03333296896029
  1
‚`
  0
TEXT
  8
0
  6
CONTINUOUS
 62
     4
 10
-200.0000009536743
 20
73
 40
2.5
 41
1.03333296896029
  1
‚a
  0
TEXT
  8
0
  6
CONTINUOUS
 62
     4
 10
-200.0000009536743
 20
23.5
 40
2.5
 41
1.03333296896029
  1
‚b
  0
TEXT
  8
0
  6
CONTINUOUS
 62
     4
 10
-200.0000009536743
 20
-26
 40
2.5
 41
1.03333296896029
  1
‚c
  0
TEXT
  8
0
  6
CONTINUOUS
 62
     4
 10
-200.0000009536743
 20
-75.5
 40
2.5
 41
1.03333296896029
  1
‚d
  0
TEXT
  8
0
  6
CONTINUOUS
 62
     4
 10
-200.0000009536743
 20
-124.6999969482422
 40
2.5
 41
1.03333296896029
  1
‚e
  0
TEXT
  8
0
  6
CONTINUOUS
 62
     4
 10
204.9999990463257
 20
122.5
 40
2.5
 41
1.03333296896029
  1
‚`
  0
TEXT
  8
0
  6
CONTINUOUS
 62
     4
 10
204.9999990463257
 20
73
 40
2.5
 41
1.03333296896029
  1
‚a
  0
TEXT
  8
0
  6
CONTINUOUS
 62
     4
 10
204.9999990463257
 20
23.5
 40
2.5
 41
1.03333296896029
  1
‚b
  0
TEXT
  8
0
  6
CONTINUOUS
 62
     4
 10
204.9999990463257
 20
-26
 40
2.5
 41
1.03333296896029
  1
‚c
  0
TEXT
  8
0
  6
CONTINUOUS
 62
     4
 10
204.9999990463257
 20
-75.5
 40
2.5
 41
1.03333296896029
  1
‚d
  0
TEXT
  8
0
  6
CONTINUOUS
 62
     4
 10
204.9999990463257
 20
-124.6999969482422
 40
2.5
 41
1.03333296896029
  1
‚e
  0
TEXT
  8
0
  6
CONTINUOUS
 62
     4
 10
-185.1999979019165
 20
-146
 40
2.5
 41
1.03333296896029
  1
‚P
  0
TEXT
  8
0
  6
CONTINUOUS
 62
     4
 10
-132.6999979019165
 20
-146
 40
2.5
 41
1.03333296896029
  1
‚Q
  0
TEXT
  8
0
  6
CONTINUOUS
 62
     4
 10
-80.1999979019165
 20
-146
 40
2.5
 41
1.03333296896029
  1
‚R
  0
TEXT
  8
0
  6
CONTINUOUS
 62
     4
 10
77.29998683929443
 20
-146
 40
2.5
 41
1.03333296896029
  1
‚U
  0
TEXT
  8
0
  6
CONTINUOUS
 62
     4
 10
129.7999868392944
 20
-146
 40
2.5
 41
1.03333296896029
  1
‚V
  0
TEXT
  8
0
  6
CONTINUOUS
 62
     4
 10
182.2999868392944
 20
-146
 40
2.5
 41
1.03333296896029
  1
‚W
  0
TEXT
  8
0
  6
CONTINUOUS
 62
     4
 10
-185.1999979019165
 20
143.5
 40
2.5
 41
1.03333296896029
  1
‚P
  0
TEXT
  8
0
  6
CONTINUOUS
 62
     4
 10
-132.6999979019165
 20
143.5
 40
2.5
 41
1.03333296896029
  1
‚Q
  0
TEXT
  8
0
  6
CONTINUOUS
 62
     4
 10
-80.1999979019165
 20
143.5
 40
2.5
 41
1.03333296896029
  1
‚R
  0
TEXT
  8
0
  6
CONTINUOUS
 62
     4
 10
-27.6999979019165
 20
143.5
 40
2.5
 41
1.03333296896029
  1
‚S
  0
TEXT
  8
0
  6
CONTINUOUS
 62
     4
 10
24.8000020980835
 20
143.5
 40
2.5
 41
1.03333296896029
  1
‚T
  0
TEXT
  8
0
  6
CONTINUOUS
 62
     4
 10
77.29998683929443
 20
143.5
 40
2.5
 41
1.03333296896029
  1
‚U
  0
TEXT
  8
0
  6
CONTINUOUS
 62
     4
 10
129.7999868392944
 20
143.5
 40
2.5
 41
1.03333296896029
  1
‚V
  0
TEXT
  8
0
  6
CONTINUOUS
 62
     4
 10
182.2999868392944
 20
143.5
 40
2.5
 41
1.03333296896029
  1
‚W
  0
TEXT
  8
0
  6
CONTINUOUS
 62
     4
 10
-191.7799377891608
 20
-136.2200582355271
 40
3
 41
1.02777801641897
  1
‰ьЃ@’и
 50
90.00000250447816
  0
TEXT
  8
0
  6
CONTINUOUS
 62
     4
 10
-191.4526672670427
 20
-120.547333034874
 40
3
 41
0.8266670142903048
  1
CHANGE
 50
90.00000250447816
  0
TEXT
  8
0
  6
CONTINUOUS
 62
     4
 10
-37.50000166893005
 20
-108.100001513958
 40
3.200000047683716
 41
0.9895830072073905
  1
Џн—p
  0
TEXT
  8
0
  6
CONTINUOUS
 62
     4
 10
-37.50000166893005
 20
-118.100001513958
 40
3.200000047683716
 41
0.9895830072073905
  1
•Ы—Ї
  0
TEXT
  8
0
  6
CONTINUOUS
 62
     4
 10
-37.50000166893005
 20
-128.1000091433525
 40
3.200000047683716
 41
0.9895830072073905
  1
€кЋћ
  0
TEXT
  8
0
  6
CONTINUOUS
 62
     4
 10
-37.50000166893005
 20
-138.1000091433525
 40
3.200000047683716
 41
0.9895830072073905
  1
Џ¤—p
  0
TEXT
  8
0
  6
CONTINUOUS
 62
     4
 10
-27.00000047683716
 20
-105.5000030398369
 40
3.200000047683716
 41
0.9895829696414386
  1
Џoђ}ђжЃiЃ@Ѓ@Ѓj
  0
TEXT
  8
0
  6
CONTINUOUS
 62
     4
 10
-27
 20
-110.5000030398369
 40
3.200000047683716
 41
0.9895829696414384
  1
ЌT
  0
TEXT
  8
0
  6
CONTINUOUS
 62
     4
 10
-26.99999976158142
 20
-115.5000030398369
 40
3.200000047683716
 41
0.9895830072073905
  1
ЌH’ц
  0
TEXT
  8
0
  6
CONTINUOUS
 62
     4
 10
-26.99999976158142
 20
-120.5000030398369
 40
3.200000047683716
 41
0.9895830072073905
  1
Њ»Џк
  0
TEXT
  8
0
  6
CONTINUOUS
 62
     4
 10
-26.99999976158142
 20
-125.5000030398369
 40
3.200000047683716
 41
0.9895830072073905
  1
•iЉЗ
  0
TEXT
  8
0
  6
CONTINUOUS
 62
     4
 10
-26.99999976158142
 20
-140.5000030398369
 40
3.200000047683716
 41
0.9895830072073905
  1
ЉO’Ќ
  0
TEXT
  8
0
  6
CONTINUOUS
 62
     4
 10
4.500000238418579
 20
-125.5000030398369
 40
2.700000047683716
 41
1.049383039846016
  1
ЋЪ“x
  0
TEXT
  8
0
  6
CONTINUOUS
 62
     4
 10
12.49999988079071
 20
-125.5000030398369
 40
2.700000047683716
 41
0.8740739724787006
  1
SCALE
  0
TEXT
  8
0
  6
CONTINUOUS
 62
     4
 10
4.99999988079071
 20
-118.5
 40
2
 41
0.9699999690055848
  1
DIM.IN
  0
TEXT
  8
0
  6
CONTINUOUS
 62
     4
 10
17.99999964237213
 20
-118.5000030398369
 40
2.700000047683716
 41
0.8518519516017357
  1
mm
  0
TEXT
  8
0
  6
CONTINUOUS
 62
     4
 10
29.50000059604645
 20
-116.5
 40
2
 41
1.125000054094972
  1
Ќмђ¬“ъ•t
  0
TEXT
  8
0
  6
CONTINUOUS
 62
     4
 10
29.99999928474426
 20
-119.5
 40
2
 41
0.9700000177730214
  1
DATE
  0
TEXT
  8
0
  6
CONTINUOUS
 62
     4
 10
29.50000059604645
 20
-123.5
 40
2
 41
1.125000054094972
  1
ЌмЃ@Ѓ@ђ¬
  0
TEXT
  8
0
  6
CONTINUOUS
 62
     4
 10
29.49999952316284
 20
-126.5
 40
2
 41
0.9699999809265136
  1
DRAWN
  0
TEXT
  8
0
  6
CONTINUOUS
 62
     4
 10
114.4999964237213
 20
-114.5
 40
2
 41
0.9700000652900109
  1
TITLE
  0
TEXT
  8
0
  6
CONTINUOUS
 62
     4
 10
114.5000015497208
 20
-130.5
 40
2
 41
0.9700000297348456
  1
DWG.No.
  0
TEXT
  8
0
  6
CONTINUOUS
 62
     4
 10
37.50000011920929
 20
-106.6999999880791
 40
2.700000047683716
 41
0.8518519835185462
  1
MITSUBISHI ELECTRIC CORPORATION
  0
TEXT
  8
0
  6
CONTINUOUS
 62
     4
 10
29.50000059604645
 20
-130.5
 40
2
 41
1.125000054094972
  1
ЏЖЃ@Ѓ@Ќё
  0
TEXT
  8
0
  6
CONTINUOUS
 62
     4
 10
28.00000059604645
 20
-133.5
 40
2
 41
0.9700000137090683
  1
CHECKED
  0
TEXT
  8
0
  6
CONTINUOUS
 62
     4
 10
29.50000059604645
 20
-137.5
 40
2
 41
1.125000054094972
  1
ђЭЃ@Ѓ@Њv
  0
TEXT
  8
0
  6
CONTINUOUS
 62
     4
 10
27.00000083446503
 20
-140.5
 40
2
 41
0.9699999933893031
  1
DESIGNED
  0
TEXT
  8
0
  6
CONTINUOUS
 62
     4
 10
88.00000369548798
 20
-116.5
 40
2
 41
1.1249999480264
  1
ЊџЃ@Ѓ@Ѓ@Ѓ@”F
  0
TEXT
  8
0
  6
CONTINUOUS
 62
     4
 10
88.00000095367432
 20
-119.5
 40
2
 41
0.9699999690055848
  1
APPROVED
  0
TEXT
  8
0
  6
CONTINUOUS
 62
     4
 10
10.49999952316284
 20
-138.5000030398369
 40
2.700000047683716
 41
0.8518519847154267
  1
NTS
  0
TEXT
  8
0
  6
CONTINUOUS
 62
     4
 10
11.8999936580658
 20
-132.5000030398369
 40
2.700000047683716
 41
1.018518030075259
  1
ЃF
  0
TEXT
  8
0
  6
CONTINUOUS
 62
     4
 10
-142.2822592258453
 20
139.1117553710938
 40
2
 41
0.7916669885651405
  1
–јЃ@Ѓ@Ѓ@ЏМ
  0
TEXT
  8
0
  6
CONTINUOUS
 62
     4
 10
-166.1412031650543
 20
139.0711975097656
 40
2
 41
0.6250000200351747
  1
•›”Ф
  0
TEXT
  8
0
  6
CONTINUOUS
 62
     4
 10
-172.2612056732178
 20
139.0711975097656
 40
2
 41
0.8088239958119947
  1
НЯ-јЮ
  0
TEXT
  8
0
  6
CONTINUOUS
 62
     4
 10
-188.9001485705376
 20
138.97119140625
 40
2
 41
0.5786842020118939
  1
ђ}Ѓ@–КЃ@”ФЃ@Ќ†
  0
ENDBLK
  8
0
  0
BLOCK
  8
0
  2
KOZU0035
 70
    64
 10
0
 20
0
  0
POLYLINE
  8
0
  6
CONTINUOUS
 62
     3
 66
     1
 10
0
 20
0
 70
     1
 40
0.5
 41
0.5
  0
VERTEX
  8
0
  6
CONTINUOUS
 62
     3
 10
-0.25
 20
0
 42
1
  0
VERTEX
  8
0
  6
CONTINUOUS
 62
     3
 10
0.25
 20
0
 42
1
  0
SEQEND
  8
0
  6
CONTINUOUS
 62
     3
  0
ENDBLK
  8
0
  0
ENDSEC
  0
SECTION
  2
ENTITIES
  0
LINE
  8
0
  6
DASHED
 62
     4
 10
74.00070953369141
 20
-10.99483108520508
 11
78.08070373535156
 21
-10.99483108520508
  0
LINE
  8
0
  6
DASHED
 62
     3
 10
71.48070526123047
 20
-9.994831085205078
 11
72.08070373535156
 21
-10.84483146667481
  0
LINE
  8
0
  6
DASHED
 62
     3
 10
72.08070373535156
 20
-10.84483146667481
 11
78.08070373535156
 21
-10.84483146667481
  0
LINE
  8
0
  6
DASHED
 62
     3
 10
78.70070648193359
 20
-11.04483127593994
 11
79.40070343017578
 21
-11.49483108520508
  0
LINE
  8
0
  6
DASHED
 62
     3
 10
78.08070373535156
 20
-11.04483127593994
 11
78.70070648193359
 21
-11.04483127593994
  0
LINE
  8
0
  6
DASHED
 62
     4
 10
74.00070953369141
 20
-8.994831085205078
 11
78.08070373535156
 21
-8.994831085205078
  0
LINE
  8
0
  6
DASHED
 62
     3
 10
71.48070526123047
 20
-9.994831085205078
 11
72.08070373535156
 21
-9.144830703735352
  0
LINE
  8
0
  6
DASHED
 62
     3
 10
72.08070373535156
 20
-9.144830703735352
 11
78.08070373535156
 21
-9.144830703735352
  0
LINE
  8
0
  6
DASHED
 62
     3
 10
72.08070373535156
 20
-9.144830703735352
 11
72.08070373535156
 21
-10.84483146667481
  0
LINE
  8
0
  6
DASHED
 62
     3
 10
78.70070648193359
 20
-8.944830894470215
 11
79.40070343017578
 21
-8.494831085205078
  0
LINE
  8
0
  6
DASHED
 62
     3
 10
78.08070373535156
 20
-8.944830894470215
 11
78.70070648193359
 21
-8.944830894470215
  0
LINE
  8
0
  6
DASHED
 62
     3
 10
74.00070953369141
 20
-8.994831085205078
 11
74.00070953369141
 21
-10.99483108520508
  0
LINE
  8
0
  6
DASHED
 62
     3
 10
78.08070373535156
 20
-8.944830894470215
 11
78.08070373535156
 21
-11.04483127593994
  0
LINE
  8
0
  6
DASHED
 62
     3
 10
78.70070648193359
 20
-8.944830894470215
 11
78.70070648193359
 21
-11.04483127593994
  0
LINE
  8
0
  6
CENTER
 62
     4
 10
-58.43936538696289
 20
-9.994831085205078
 11
83.29286956787109
 21
-9.994831085205078
  0
LINE
  8
0
  6
CONTINUOUS
 62
     3
 10
25.20070648193359
 20
-27.19483184814453
 11
52.40070724487305
 21
-27.19483184814453
  0
LINE
  8
0
  6
CONTINUOUS
 62
     3
 10
57.40070724487305
 20
-26.57795524597168
 11
52.40070724487305
 21
-26.57795524597168
  0
LINE
  8
0
  6
CONTINUOUS
 62
     3
 10
57.40070724487305
 20
6.588293075561523
 11
52.40070724487305
 21
6.588293075561523
  0
LINE
  8
0
  6
CONTINUOUS
 62
     3
 10
25.20070648193359
 20
5.205169200897217
 11
52.40070724487305
 21
5.205169200897217
  0
LINE
  8
0
  6
CONTINUOUS
 62
     3
 10
25.20070648193359
 20
-1.994830965995789
 11
52.40070724487305
 21
-1.994830965995789
  0
LINE
  8
0
  6
CENTER
 62
     4
 10
20.20070648193359
 20
-11.73002338409424
 11
20.20070648193359
 21
-8.169491767883301
  0
LINE
  8
0
  6
CONTINUOUS
 62
     3
 10
-8.999294281005859
 20
-10.22577095031738
 11
-8.999294281005859
 21
-9.763891220092773
  0
LINE
  8
0
  6
CONTINUOUS
 62
     3
 10
-8.999294281005859
 20
-9.763891220092773
 11
-9.399293899536133
 21
-9.532951354980469
  0
LINE
  8
0
  6
CONTINUOUS
 62
     3
 10
-9.399293899536133
 20
-9.532951354980469
 11
-9.799294471740723
 21
-9.763891220092773
  0
LINE
  8
0
  6
CONTINUOUS
 62
     3
 10
-9.799294471740723
 20
-9.763891220092773
 11
-9.799294471740723
 21
-10.22577095031738
  0
LINE
  8
0
  6
CONTINUOUS
 62
     3
 10
-9.799294471740723
 20
-10.22577095031738
 11
-9.399293899536133
 21
-10.45671081542969
  0
LINE
  8
0
  6
CONTINUOUS
 62
     3
 10
-9.399293899536133
 20
-10.45671081542969
 11
-8.999294281005859
 21
-10.22577095031738
  0
LINE
  8
0
  6
CONTINUOUS
 62
     3
 10
20.20070648193359
 20
-10.45671081542969
 11
20.60070610046387
 21
-10.22577095031738
  0
LINE
  8
0
  6
CONTINUOUS
 62
     3
 10
19.80070686340332
 20
-10.22577095031738
 11
20.20070648193359
 21
-10.45671081542969
  0
LINE
  8
0
  6
CONTINUOUS
 62
     3
 10
20.60070610046387
 20
-10.22577095031738
 11
20.60070610046387
 21
-9.763891220092773
  0
LINE
  8
0
  6
CONTINUOUS
 62
     3
 10
20.60070610046387
 20
-9.763891220092773
 11
20.20070648193359
 21
-9.532951354980469
  0
LINE
  8
0
  6
CONTINUOUS
 62
     3
 10
20.20070648193359
 20
-9.532951354980469
 11
19.80070686340332
 21
-9.763891220092773
  0
LINE
  8
0
  6
CONTINUOUS
 62
     3
 10
19.80070686340332
 20
-9.763891220092773
 11
19.80070686340332
 21
-10.22577095031738
  0
LINE
  8
0
  6
CENTER
 62
     4
 10
165.2281646728516
 20
-27.19673728942871
 11
168.744140625
 21
-30.71271133422852
  0
LINE
  8
0
  6
CENTER
 62
     4
 10
130.8243408203125
 20
-27.19673728942871
 11
127.3083724975586
 21
-30.71271133422852
  0
LINE
  8
0
  6
CENTER
 62
     4
 10
130.8243408203125
 20
7.207075119018555
 11
127.3083724975586
 21
10.72304821014404
  0
LINE
  8
0
  6
CONTINUOUS
 62
     3
 10
-100.8992919921875
 20
-9.144830703735352
 11
-99.8992919921875
 21
-9.144830703735352
  0
LINE
  8
0
  6
CONTINUOUS
 62
     3
 10
-100.8992919921875
 20
-8.794831275939941
 11
-100.8992919921875
 21
-11.19483089447022
  0
LINE
  8
0
  6
CONTINUOUS
 62
     3
 10
-100.8992919921875
 20
-8.794831275939941
 11
-101.0592880249023
 21
-8.794831275939941
  0
LINE
  8
0
  6
CONTINUOUS
 62
     3
 10
-99.8992919921875
 20
-9.144830703735352
 11
-99.8992919921875
 21
-10.84483146667481
  0
LINE
  8
0
  6
CONTINUOUS
 62
     3
 10
-100.8992919921875
 20
-10.84483146667481
 11
-99.8992919921875
 21
-10.84483146667481
  0
LINE
  8
0
  6
CONTINUOUS
 62
     3
 10
-100.8992919921875
 20
-11.19483089447022
 11
-101.0592880249023
 21
-11.19483089447022
  0
LINE
  8
0
  6
CONTINUOUS
 62
     3
 10
-151.2192993164063
 20
-8.794831275939941
 11
-151.0592956542969
 21
-8.794831275939941
  0
LINE
  8
0
  6
CONTINUOUS
 62
     3
 10
-151.2192993164063
 20
-9.144830703735352
 11
-152.2192993164063
 21
-9.144830703735352
  0
LINE
  8
0
  6
CONTINUOUS
 62
     3
 10
-151.2192993164063
 20
-8.794831275939941
 11
-151.2192993164063
 21
-11.19483089447022
  0
LINE
  8
0
  6
CONTINUOUS
 62
     3
 10
-152.2192993164063
 20
-9.144830703735352
 11
-152.2192993164063
 21
-10.84483146667481
  0
LINE
  8
0
  6
CONTINUOUS
 62
     3
 10
-151.2192993164063
 20
-10.84483146667481
 11
-152.2192993164063
 21
-10.84483146667481
  0
LINE
  8
0
  6
CONTINUOUS
 62
     3
 10
-151.2192993164063
 20
-11.19483089447022
 11
-151.0592956542969
 21
-11.19483089447022
  0
LINE
  8
0
  6
CONTINUOUS
 62
     3
 10
52.40070724487305
 20
15.00516891479492
 11
57.40070724487305
 21
15.00516891479492
  0
LINE
  8
0
  6
CONTINUOUS
 62
     3
 10
25.20070648193359
 20
14.4051685333252
 11
52.40070724487305
 21
14.4051685333252
  0
LINE
  8
0
  6
CONTINUOUS
 62
     3
 10
25.20070648193359
 20
-34.39483261108398
 11
52.40070724487305
 21
-34.39483261108398
  0
LINE
  8
0
  6
CONTINUOUS
 62
     3
 10
173.0262603759766
 20
6.588293075561523
 11
173.0262603759766
 21
-26.57795524597168
  0
LINE
  8
0
  6
CONTINUOUS
 62
     3
 10
123.026252746582
 20
6.588293075561523
 11
123.026252746582
 21
-26.57795524597168
  0
LINE
  8
0
  6
CENTER
 62
     4
 10
165.2281646728516
 20
7.207075119018555
 11
168.744140625
 21
10.72304821014404
  0
LINE
  8
0
  6
CONTINUOUS
 62
     3
 10
131.4431304931641
 20
15.00516891479492
 11
164.609375
 21
15.00516891479492
  0
LINE
  8
0
  6
CONTINUOUS
 62
     3
 10
131.4431304931641
 20
-34.99483108520508
 11
164.609375
 21
-34.99483108520508
  0
LINE
  8
0
  6
CENTER
 62
     4
 10
121.026252746582
 20
-9.994831085205078
 11
175.0262603759766
 21
-9.994831085205078
  0
LINE
  8
0
  6
CONTINUOUS
 62
     3
 10
59.40070724487305
 20
-4.494831085205078
 11
79.40070343017578
 21
-4.494831085205078
  0
LINE
  8
0
  6
CONTINUOUS
 62
     3
 10
79.40070343017578
 20
-4.494831085205078
 11
79.40070343017578
 21
-15.49483108520508
  0
LINE
  8
0
  6
CONTINUOUS
 62
     3
 10
57.40070724487305
 20
-32.99483108520508
 11
58.40070724487305
 21
-32.99483108520508
  0
LINE
  8
0
  6
CONTINUOUS
 62
     3
 10
59.40070724487305
 20
-15.49483108520508
 11
79.40070343017578
 21
-15.49483108520508
  0
LINE
  8
0
  6
CONTINUOUS
 62
     3
 10
58.40070724487305
 20
-15.99483108520508
 11
59.40070724487305
 21
-15.99483108520508
  0
LINE
  8
0
  6
CONTINUOUS
 62
     3
 10
57.40070724487305
 20
-9.994831085205078
 11
57.40070724487305
 21
-34.99483108520508
  0
LINE
  8
0
  6
CONTINUOUS
 62
     3
 10
58.40070724487305
 20
-9.994831085205078
 11
58.40070724487305
 21
-32.99483108520508
  0
LINE
  8
0
  6
CONTINUOUS
 62
     3
 10
52.40070724487305
 20
15.00516891479492
 11
52.40070724487305
 21
-34.99483108520508
  0
LINE
  8
0
  6
CONTINUOUS
 62
     3
 10
59.40070724487305
 20
-2.994831085205078
 11
59.40070724487305
 21
-15.99483108520508
  0
LINE
  8
0
  6
CONTINUOUS
 62
     3
 10
52.40070724487305
 20
-34.99483108520508
 11
57.40070724487305
 21
-34.99483108520508
  0
LINE
  8
0
  6
CONTINUOUS
 62
     3
 10
43.40070724487305
 20
-34.39483261108398
 11
43.40070724487305
 21
14.4051685333252
  0
LINE
  8
0
  6
CENTER
 62
     4
 10
148.0317993164063
 20
32.50104141235352
 11
148.0317993164063
 21
-36.99483108520508
  0
CIRCLE
  8
0
  6
CONTINUOUS
 62
     4
 10
148.0317993164063
 20
-9.994831085205078
 40
1
  0
CIRCLE
  8
0
  6
CONTINUOUS
 62
     3
 10
148.0317993164063
 20
-9.994831085205078
 40
0.8500000238418579
  0
CIRCLE
  8
0
  6
CONTINUOUS
 62
     3
 10
148.0317993164063
 20
-9.994831085205078
 40
1.049999952316284
  0
CIRCLE
  8
0
  6
CONTINUOUS
 62
     3
 10
148.0317993164063
 20
-9.994831085205078
 40
1.5
  0
CIRCLE
  8
0
  6
CONTINUOUS
 62
     3
 10
-9.399293899536133
 20
-9.994831085205078
 40
0.8500000238418579
  0
CIRCLE
  8
0
  6
CONTINUOUS
 62
     3
 10
-9.399293899536133
 20
-9.994831085205078
 40
1.200000047683716
  0
CIRCLE
  8
0
  6
CONTINUOUS
 62
     3
 10
20.20070648193359
 20
-9.994831085205078
 40
0.8500000238418579
  0
CIRCLE
  8
0
  6
CONTINUOUS
 62
     3
 10
20.20070648193359
 20
-9.994831085205078
 40
1.200000047683716
  0
CIRCLE
  8
0
  6
CONTINUOUS
 62
     3
 10
166.7645874023438
 20
-28.73316192626953
 40
1.450000047683716
  0
ARC
  8
0
  6
CENTER
 62
     4
 10
148.0262603759766
 20
-9.994831085205078
 40
26.5
 50
309.9668523968867
 51
321.2892279505123
  0
CIRCLE
  8
0
  6
CONTINUOUS
 62
     3
 10
129.2879180908203
 20
-28.73316192626953
 40
1.450000047683716
  0
ARC
  8
0
  6
CENTER
 62
     4
 10
148.0262603759766
 20
-9.994831085205078
 40
26.5
 50
199.3700327870012
 51
230.0331476031147
  0
CIRCLE
  8
0
  6
CONTINUOUS
 62
     3
 10
129.2879180908203
 20
8.743497848510742
 40
1.450000047683716
  0
ARC
  8
0
  6
CENTER
 62
     4
 10
148.0262603759766
 20
-9.994831085205078
 40
26.5
 50
129.966853721364
 51
141.2892501917554
  0
ARC
  8
0
  6
CENTER
 62
     4
 10
148.0262603759766
 20
-9.994831085205078
 40
26.5
 50
19.37003825804293
 51
50.03314627863608
  0
CIRCLE
  8
0
  6
CONTINUOUS
 62
     3
 10
148.0262603759766
 20
-9.994831085205078
 40
5.5
  0
CIRCLE
  8
0
  6
CONTINUOUS
 62
     3
 10
148.0262603759766
 20
-9.994831085205078
 40
9.5
  0
CIRCLE
  8
0
  6
CONTINUOUS
 62
     3
 10
148.0262603759766
 20
-9.994831085205078
 40
23
  0
CIRCLE
  8
0
  6
CONTINUOUS
 62
     3
 10
148.0262603759766
 20
-9.994831085205078
 40
22
  0
ARC
  8
0
  6
CONTINUOUS
 62
     3
 10
148.0262603759766
 20
-9.994831085205078
 40
30
 50
213.5573020400782
 51
236.4426807985448
  0
ARC
  8
0
  6
CONTINUOUS
 62
     3
 10
148.0262603759766
 20
-9.994831085205078
 40
30
 50
303.557294916338
 51
326.4426899054627
  0
ARC
  8
0
  6
CONTINUOUS
 62
     3
 10
148.0262603759766
 20
-9.994831085205078
 40
30
 50
33.557310094538
 51
56.44270508366272
  0
ARC
  8
0
  6
CONTINUOUS
 62
     3
 10
148.0262603759766
 20
-9.994831085205078
 40
30
 50
123.5573192014559
 51
146.4426979599225
  0
CIRCLE
  8
0
  6
CONTINUOUS
 62
     3
 10
166.7645874023438
 20
8.743497848510742
 40
1.450000047683716
  0
CIRCLE
  8
0
  6
CONTINUOUS
 62
     3
 10
148.0262603759766
 20
-9.994831085205078
 40
7
  0
CIRCLE
  8
0
  6
CONTINUOUS
 62
     3
 10
148.0262603759766
 20
-9.994831085205078
 40
10.5
  0
POLYLINE
  8
0
  6
CONTINUOUS
 62
     3
 66
     1
 10
0
 20
0
  0
VERTEX
  8
0
  6
CONTINUOUS
 62
     3
 10
58.40070724487305
 20
3.459386110305786
  0
VERTEX
  8
0
  6
CONTINUOUS
 62
     3
 10
58.24480056762695
 20
3.375955104827881
  0
VERTEX
  8
0
  6
CONTINUOUS
 62
     3
 10
58.11841201782227
 20
3.274672031402588
  0
VERTEX
  8
0
  6
CONTINUOUS
 62
     3
 10
57.91870880126953
 20
2.944308042526245
  0
VERTEX
  8
0
  6
CONTINUOUS
 62
     3
 10
57.73603439331055
 20
2.68372392654419
  0
VERTEX
  8
0
  6
CONTINUOUS
 62
     3
 10
57.41529846191406
 20
2.624811887741089
  0
VERTEX
  8
0
  6
CONTINUOUS
 62
     3
 10
57.11032485961914
 20
2.544677972793579
  0
VERTEX
  8
0
  6
CONTINUOUS
 62
     3
 10
56.96787261962891
 20
2.224268913269043
  0
VERTEX
  8
0
  6
CONTINUOUS
 62
     3
 10
56.79747009277344
 20
1.81468403339386
  0
VERTEX
  8
0
  6
CONTINUOUS
 62
     3
 10
56.42790985107422
 20
1.48667299747467
  0
VERTEX
  8
0
  6
CONTINUOUS
 62
     3
 10
56.10223770141602
 20
1.119451999664307
  0
VERTEX
  8
0
  6
CONTINUOUS
 62
     3
 10
56.05004119873047
 20
0.5879939794540405
  0
VERTEX
  8
0
  6
CONTINUOUS
 62
     3
 10
56.03271484375
 20
0.04184199869632721
  0
VERTEX
  8
0
  6
CONTINUOUS
 62
     3
 10
55.80969619750977
 20
-0.3661989867687225
  0
VERTEX
  8
0
  6
CONTINUOUS
 62
     3
 10
55.60070419311523
 20
-0.7448310256004334
  0
VERTEX
  8
0
  6
CONTINUOUS
 62
     3
 10
55.64805221557617
 20
-1.220736026763916
  0
VERTEX
  8
0
  6
CONTINUOUS
 62
     3
 10
55.82414627075195
 20
-1.731001019477844
  0
VERTEX
  8
0
  6
CONTINUOUS
 62
     3
 10
56.00482177734375
 20
-2.825752973556519
  0
VERTEX
  8
0
  6
CONTINUOUS
 62
     3
 10
55.89366912841797
 20
-3.573365926742554
  0
VERTEX
  8
0
  6
CONTINUOUS
 62
     3
 10
55.81778717041016
 20
-4.928453922271729
  0
VERTEX
  8
0
  6
CONTINUOUS
 62
     3
 10
55.96319198608398
 20
-6.528102874755859
  0
VERTEX
  8
0
  6
CONTINUOUS
 62
     3
 10
56.00057983398438
 20
-7.321396827697754
  0
VERTEX
  8
0
  6
CONTINUOUS
 62
     3
 10
55.99795532226563
 20
-8.127137184143066
  0
VERTEX
  8
0
  6
CONTINUOUS
 62
     3
 10
55.87935256958008
 20
-9.180890083312988
  0
VERTEX
  8
0
  6
CONTINUOUS
 62
     3
 10
55.64817428588867
 20
-9.994831085205078
  0
SEQEND
  8
0
  6
CONTINUOUS
 62
     3
  0
TEXT
  8
0
  6
CONTINUOUS
 62
     3
 10
-155.7719993591309
 20
57.7398002743721
 40
3.200000047683716
 41
0.9999999714224308
  1
HA-LF12K1
  0
INSERT
  8
0
  6
CONTINUOUS
 62
     3
  2
KOZU0007
 10
126.0292053222656
 20
2.705168962478638
 41
0.2000000029802322
 42
0.2000000029802322
 43
0.2000000029802322
  0
INSERT
  8
0
  6
CONTINUOUS
 62
     3
  2
KOZU0007
 10
135.3262481689453
 20
-31.99187660217285
 41
0.2000000029802322
 42
0.2000000029802322
 43
0.2000000029802322
  0
INSERT
  8
0
  6
CONTINUOUS
 62
     3
  2
KOZU0007
 10
170.0233001708984
 20
-22.69483184814453
 41
0.2000000029802322
 42
0.2000000029802322
 43
0.2000000029802322
  0
INSERT
  8
0
  6
CONTINUOUS
 62
     3
  2
KOZU0007
 10
160.7262573242188
 20
12.0022144317627
 41
0.2000000029802322
 42
0.2000000029802322
 43
0.2000000029802322
  0
INSERT
  8
0
  6
CONTINUOUS
 62
     3
  2
KOZU0008
 10
137.7732086181641
 20
-20.24788093566895
 41
0.2000000029802322
 42
0.2000000029802322
 43
0.2000000029802322
  0
INSERT
  8
0
  6
CONTINUOUS
 62
     3
  2
KOZU0008
 10
158.279296875
 20
-20.24788093566895
 41
0.2000000029802322
 42
0.2000000029802322
 43
0.2000000029802322
  0
INSERT
  8
0
  6
CONTINUOUS
 62
     3
  2
KOZU0008
 10
158.279296875
 20
0.2582170069217682
 41
0.2000000029802322
 42
0.2000000029802322
 43
0.2000000029802322
  0
INSERT
  8
0
  6
CONTINUOUS
 62
     3
  2
KOZU0008
 10
137.7732086181641
 20
0.2582170069217682
 41
0.2000000029802322
 42
0.2000000029802322
 43
0.2000000029802322
  0
LINE
  8
3
  6
CONTINUOUS
 62
     3
 10
-18.59936714172363
 20
15.20516872406006
 11
-18.59936714172363
 21
-35.19483184814453
  0
LINE
  8
3
  6
CONTINUOUS
 62
     3
 10
-20.59936714172363
 20
-24.59281158447266
 11
-18.59936714172363
 21
-24.59281158447266
  0
LINE
  8
3
  6
CONTINUOUS
 62
     3
 10
-35.79936599731445
 20
-19.17910385131836
 11
-20.59936714172363
 21
-24.59281158447266
  0
LINE
  8
3
  6
CONTINUOUS
 62
     3
 10
-20.59936714172363
 20
-34.99483108520508
 11
-18.59936714172363
 21
-34.99483108520508
  0
LINE
  8
3
  6
CONTINUOUS
 62
     3
 10
-35.79936599731445
 20
-29.29483032226563
 11
-20.59936714172363
 21
-34.99483108520508
  0
LINE
  8
3
  6
CONTINUOUS
 62
     3
 10
-20.59936714172363
 20
4.603147983551025
 11
-18.59936714172363
 21
4.603147983551025
  0
LINE
  8
3
  6
CONTINUOUS
 62
     3
 10
-35.79936599731445
 20
-0.8105599880218506
 11
-20.59936714172363
 21
4.603147983551025
  0
LINE
  8
3
  6
CONTINUOUS
 62
     3
 10
-33.39810562133789
 20
15.60511493682861
 11
-23.49936676025391
 21
15.60511493682861
  0
LINE
  8
3
  6
CONTINUOUS
 62
     3
 10
-20.59936714172363
 20
-34.99483108520508
 11
-20.59936714172363
 21
15.00516891479492
  0
LINE
  8
3
  6
CONTINUOUS
 62
     3
 10
-23.09936714172363
 20
15.00516891479492
 11
-18.59936714172363
 21
15.00516891479492
  0
LINE
  8
3
  6
CONTINUOUS
 62
     3
 10
-23.49936676025391
 20
16.0051155090332
 11
-23.49936676025391
 21
15.4051685333252
  0
LINE
  8
3
  6
CONTINUOUS
 62
     3
 10
-33.39810562133789
 20
15.40511512756348
 11
-23.49936676025391
 21
15.40511512756348
  0
LINE
  8
3
  6
CONTINUOUS
 62
     3
 10
-35.79936599731445
 20
9.305169105529785
 11
-20.59936714172363
 21
15.00516891479492
  0
LINE
  8
3
  6
CENTER
 62
     4
 10
-126.0592956542969
 20
29.63645553588867
 11
-126.0592956542969
 21
-39.25742721557617
  0
LINE
  8
3
  6
CONTINUOUS
 62
     3
 10
-132.9580383300781
 20
15.00516891479492
 11
-134.7101745605469
 21
15.00516891479492
  0
LINE
  8
3
  6
CONTINUOUS
 62
     3
 10
-52.39929580688477
 20
-19.17910385131836
 11
-35.79929351806641
 21
-19.17910385131836
  0
LINE
  8
3
  6
CONTINUOUS
 62
     3
 10
-35.79929351806641
 20
-19.17910385131836
 11
-20.59929466247559
 21
-24.59281158447266
  0
LINE
  8
3
  6
CONTINUOUS
 62
     3
 10
-35.79929351806641
 20
-0.8105599880218506
 11
-20.59929466247559
 21
4.603147983551025
  0
LINE
  8
3
  6
CONTINUOUS
 62
     3
 10
-52.39929580688477
 20
-0.8105599880218506
 11
-35.79929351806641
 21
-0.8105599880218506
  0
LINE
  8
3
  6
CONTINUOUS
 62
     3
 10
-20.59929466247559
 20
-34.33023071289063
 11
-20.59929466247559
 21
14.34056663513184
  0
LINE
  8
3
  6
CONTINUOUS
 62
     3
 10
-35.79929351806641
 20
-29.29483032226563
 11
-35.79929351806641
 21
9.305169105529785
  0
LINE
  8
3
  6
CONTINUOUS
 62
     3
 10
-52.71929550170898
 20
-29.29483032226563
 11
-35.79929351806641
 21
-29.29483032226563
  0
LINE
  8
3
  6
CONTINUOUS
 62
     3
 10
-52.39929580688477
 20
9.305169105529785
 11
-52.39929580688477
 21
-9.994831085205078
  0
LINE
  8
3
  6
CONTINUOUS
 62
     3
 10
-52.39929580688477
 20
7.405169010162354
 11
-52.39929580688477
 21
-29.29483032226563
  0
LINE
  8
3
  6
CONTINUOUS
 62
     3
 10
-52.39929580688477
 20
9.305169105529785
 11
-35.79929351806641
 21
9.305169105529785
  0
LINE
  8
3
  6
CONTINUOUS
 62
     3
 10
-145.1592864990234
 20
-0.8105599880218506
 11
-145.1592864990234
 21
-19.17910385131836
  0
LINE
  8
3
  6
CONTINUOUS
 62
     3
 10
-135.2435607910156
 20
9.105169296264648
 11
-116.8750228881836
 21
9.105169296264648
  0
LINE
  8
3
  6
CONTINUOUS
 62
     3
 10
-145.1592864990234
 20
-0.8105599880218506
 11
-135.2435607910156
 21
9.105169296264648
  0
LINE
  8
3
  6
CONTINUOUS
 62
     3
 10
-135.2435607910156
 20
-29.09483146667481
 11
-116.8750228881836
 21
-29.09483146667481
  0
LINE
  8
3
  6
CONTINUOUS
 62
     3
 10
-135.2435607910156
 20
-29.09483146667481
 11
-145.1592864990234
 21
-19.17910385131836
  0
LINE
  8
3
  6
CONTINUOUS
 62
     3
 10
-116.8750228881836
 20
-29.09483146667481
 11
-106.9592971801758
 21
-19.17910385131836
  0
LINE
  8
3
  6
CONTINUOUS
 62
     3
 10
-106.9592971801758
 20
-0.8105599880218506
 11
-106.9592971801758
 21
-19.17910385131836
  0
LINE
  8
3
  6
CONTINUOUS
 62
     3
 10
-106.9592971801758
 20
-0.8105599880218506
 11
-116.8750228881836
 21
9.105169296264648
  0
LINE
  8
3
  6
CENTER
 62
     4
 10
-156.0230407714844
 20
-9.994831085205078
 11
-97.60475158691406
 21
-9.994831085205078
  0
LINE
  8
3
  6
CONTINUOUS
 62
     3
 10
-37.29929351806641
 20
12.06175804138184
 11
-37.29929351806641
 21
9.305169105529785
  0
LINE
  8
3
  6
CONTINUOUS
 62
     3
 10
-33.39803314208984
 20
15.60511493682861
 11
-26.49803352355957
 21
15.60511493682861
  0
LINE
  8
3
  6
CONTINUOUS
 62
     3
 10
-101.0592956542969
 20
4.603147983551025
 11
-108.0580368041992
 21
11.60188674926758
  0
LINE
  8
3
  6
CONTINUOUS
 62
     3
 10
-116.8750228881836
 20
9.105169296264648
 11
-114.7646408081055
 21
11.40511512756348
  0
LINE
  8
3
  6
CONTINUOUS
 62
     3
 10
-119.1580352783203
 20
15.00516891479492
 11
-117.405891418457
 21
15.00516891479492
  0
LINE
  8
3
  6
CONTINUOUS
 62
     3
 10
-135.2435607910156
 20
9.105169296264648
 11
-137.3539428710938
 21
11.40511512756348
  0
LINE
  8
3
  6
CONTINUOUS
 62
     3
 10
-151.0592956542969
 20
4.603147983551025
 11
-144.0580291748047
 21
11.60441017150879
  0
LINE
  8
3
  6
CONTINUOUS
 62
     3
 10
-145.1592864990234
 20
-0.8105599880218506
 11
-151.0592956542969
 21
4.603147983551025
  0
LINE
  8
3
  6
CONTINUOUS
 62
     3
 10
-106.9592971801758
 20
-0.8105599880218506
 11
-101.0592956542969
 21
4.603147983551025
  0
LINE
  8
3
  6
CONTINUOUS
 62
     3
 10
-101.0592956542969
 20
-24.59281158447266
 11
-106.9592971801758
 21
-19.17910385131836
  0
LINE
  8
3
  6
CONTINUOUS
 62
     3
 10
-101.0592956542969
 20
4.603147983551025
 11
-101.0592956542969
 21
-24.59281158447266
  0
LINE
  8
3
  6
CONTINUOUS
 62
     3
 10
-145.1592864990234
 20
-19.17910385131836
 11
-151.0592956542969
 21
-24.59281158447266
  0
LINE
  8
3
  6
CONTINUOUS
 62
     3
 10
-151.0592956542969
 20
4.603147983551025
 11
-151.0592956542969
 21
-24.59281158447266
  0
LINE
  8
3
  6
CONTINUOUS
 62
     3
 10
-140.6572723388672
 20
-34.99483108520508
 11
-151.0592956542969
 21
-24.59281158447266
  0
LINE
  8
3
  6
CONTINUOUS
 62
     3
 10
-140.6572723388672
 20
-34.99483108520508
 11
-135.2435607910156
 21
-29.09483146667481
  0
LINE
  8
3
  6
CONTINUOUS
 62
     3
 10
-111.461311340332
 20
-34.99483108520508
 11
-116.8750228881836
 21
-29.09483146667481
  0
LINE
  8
3
  6
CONTINUOUS
 62
     3
 10
-111.461311340332
 20
-34.99483108520508
 11
-101.0592956542969
 21
-24.59281158447266
  0
LINE
  8
3
  6
CONTINUOUS
 62
     3
 10
-140.6572723388672
 20
-34.99483108520508
 11
-111.461311340332
 21
-34.99483108520508
  0
ARC
  8
3
  6
CONTINUOUS
 62
     3
 10
-23.09936714172363
 20
15.4051685333252
 40
0.4000000059604645
 50
180.0000000000004
 51
270.0000000000005
  0
CIRCLE
  8
3
  6
CONTINUOUS
 62
     3
 10
-126.0592956542969
 20
-9.994831085205078
 40
18
  0
CIRCLE
  8
3
  6
CONTINUOUS
 62
     3
 10
-126.0592956542969
 20
-9.994831085205078
 40
18.5
  0
LINE
  8
4
  6
CONTINUOUS
 62
     3
 10
19.50070571899414
 20
-11.19483089447022
 11
19.50070571899414
 21
-10.96951103210449
  0
LINE
  8
4
  6
CONTINUOUS
 62
     3
 10
20.90070533752441
 20
-11.19483089447022
 11
20.90070533752441
 21
-10.96951103210449
  0
LINE
  8
4
  6
CONTINUOUS
 62
     3
 10
-18.59936714172363
 20
-12.39483070373535
 11
25.20070648193359
 21
-12.39483070373535
  0
LINE
  8
4
  6
CONTINUOUS
 62
     3
 10
25.20070648193359
 20
-11.19483089447022
 11
-18.59936714172363
 21
-11.19483089447022
  0
LINE
  8
4
  6
CONTINUOUS
 62
     3
 10
-8.699294090270996
 20
-11.19483089447022
 11
-8.699294090270996
 21
-10.96951103210449
  0
LINE
  8
4
  6
CONTINUOUS
 62
     3
 10
-10.09929370880127
 20
-11.19483089447022
 11
-10.09929370880127
 21
-10.96951103210449
  0
LINE
  8
4
  6
CONTINUOUS
 62
     3
 10
25.20070648193359
 20
-35.19483184814453
 11
25.20070648193359
 21
15.20516872406006
  0
LINE
  8
4
  6
CENTER
 62
     4
 10
-9.399293899536133
 20
-7.64302921295166
 11
-9.399293899536133
 21
-11.68955516815186
  0
LINE
  8
4
  6
CONTINUOUS
 62
     3
 10
168.0905456542969
 20
12.55892086029053
 11
167.8082733154297
 21
12.55892086029053
  0
LINE
  8
4
  6
CONTINUOUS
 62
     3
 10
167.0905456542969
 20
13.40892124176025
 11
167.0905456542969
 21
13.1687822341919
  0
LINE
  8
4
  6
CONTINUOUS
 62
     3
 10
166.8305358886719
 20
13.38034343719482
 11
166.8305358886719
 21
24.20511436462402
  0
LINE
  8
4
  6
CONTINUOUS
 62
     3
 10
166.4305419921875
 20
13.69656372070313
 11
166.4305419921875
 21
24.20511436462402
  0
LINE
  8
4
  6
CONTINUOUS
 62
     3
 10
166.8305358886719
 20
24.20511436462402
 11
166.0305480957031
 21
24.20511436462402
  0
LINE
  8
4
  6
CENTER
 62
     4
 10
164.5098266601563
 20
18.0051155090332
 11
167.7729644775391
 21
18.0051155090332
  0
LINE
  8
4
  6
CONTINUOUS
 62
     3
 10
167.0905456542969
 20
14.3289213180542
 11
166.8305358886719
 21
14.3289213180542
  0
LINE
  8
4
  6
CONTINUOUS
 62
     3
 10
168.0905456542969
 20
14.25892066955566
 11
167.0905456542969
 21
14.25892066955566
  0
LINE
  8
4
  6
CONTINUOUS
 62
     3
 10
168.0905456542969
 20
13.40892124176025
 11
168.0905456542969
 21
12.55892086029053
  0
LINE
  8
4
  6
CONTINUOUS
 62
     3
 10
168.0905456542969
 20
13.40892124176025
 11
168.0905456542969
 21
14.25892066955566
  0
LINE
  8
4
  6
CONTINUOUS
 62
     3
 10
167.0905456542969
 20
13.40892124176025
 11
167.0905456542969
 21
14.3289213180542
  0
LINE
  8
4
  6
CENTER
 62
     4
 10
168.8703002929688
 20
13.40892124176025
 11
165.4733276367188
 21
13.40892124176025
  0
LINE
  8
4
  6
CONTINUOUS
 62
     3
 10
167.0905456542969
 20
21.68130874633789
 11
166.8305358886719
 21
21.68130874633789
  0
LINE
  8
4
  6
CONTINUOUS
 62
     3
 10
167.5788726806641
 20
21.75130844116211
 11
167.0905456542969
 21
21.75130844116211
  0
LINE
  8
4
  6
CONTINUOUS
 62
     3
 10
168.0905456542969
 20
21.75130844116211
 11
167.5305480957031
 21
21.75130844116211
  0
LINE
  8
4
  6
CONTINUOUS
 62
     3
 10
168.0905456542969
 20
22.60130882263184
 11
168.0905456542969
 21
21.75130844116211
  0
LINE
  8
4
  6
CONTINUOUS
 62
     3
 10
168.0905456542969
 20
22.60130882263184
 11
168.0905456542969
 21
23.45130920410156
  0
LINE
  8
4
  6
CONTINUOUS
 62
     3
 10
168.0905456542969
 20
23.45130920410156
 11
167.0905456542969
 21
23.45130920410156
  0
LINE
  8
4
  6
CONTINUOUS
 62
     3
 10
167.0905456542969
 20
22.60130882263184
 11
167.0905456542969
 21
23.52130889892578
  0
LINE
  8
4
  6
CONTINUOUS
 62
     3
 10
167.0905456542969
 20
23.52130889892578
 11
166.8305358886719
 21
23.52130889892578
  0
LINE
  8
4
  6
CONTINUOUS
 62
     3
 10
167.0905456542969
 20
22.60130882263184
 11
167.0905456542969
 21
21.68130874633789
  0
LINE
  8
4
  6
CENTER
 62
     4
 10
169.2098999023438
 20
22.60130882263184
 11
165.3833312988281
 21
22.60130882263184
  0
LINE
  8
4
  6
CONTINUOUS
 62
     3
 10
164.1805419921875
 20
25.20511436462402
 11
164.1805419921875
 21
26.20511436462402
  0
LINE
  8
4
  6
CONTINUOUS
 62
     3
 10
164.1805419921875
 20
26.20511436462402
 11
165.8805389404297
 21
26.20511436462402
  0
LINE
  8
4
  6
CONTINUOUS
 62
     3
 10
165.8805389404297
 20
25.20511436462402
 11
165.8805389404297
 21
26.20511436462402
  0
LINE
  8
4
  6
CONTINUOUS
 62
     3
 10
149.0407104492188
 20
17.2750415802002
 11
149.0407104492188
 21
25.00516891479492
  0
LINE
  8
4
  6
CONTINUOUS
 62
     3
 10
127.9705429077148
 20
12.55892086029053
 11
128.2442321777344
 21
12.55892086029053
  0
LINE
  8
4
  6
CONTINUOUS
 62
     3
 10
128.9705352783203
 20
13.40892124176025
 11
128.9705352783203
 21
13.17583560943604
  0
LINE
  8
4
  6
CONTINUOUS
 62
     3
 10
129.2305450439453
 20
13.38723754882813
 11
129.2305450439453
 21
24.20511436462402
  0
LINE
  8
4
  6
CONTINUOUS
 62
     3
 10
129.6305389404297
 20
13.70322227478027
 11
129.6305389404297
 21
24.20511436462402
  0
LINE
  8
4
  6
CONTINUOUS
 62
     3
 10
129.2305450439453
 20
24.20511436462402
 11
130.0318145751953
 21
24.20511436462402
  0
LINE
  8
4
  6
CENTER
 62
     4
 10
130.8795928955078
 20
18.0051155090332
 11
122.6397171020508
 21
18.0051155090332
  0
LINE
  8
4
  6
CONTINUOUS
 62
     3
 10
124.670539855957
 20
18.20420837402344
 11
124.670539855957
 21
21.15420722961426
  0
LINE
  8
4
  6
CONTINUOUS
 62
     3
 10
129.1305389404297
 20
14.1942081451416
 11
129.1305389404297
 21
21.81420707702637
  0
LINE
  8
4
  6
CONTINUOUS
 62
     3
 10
128.9705352783203
 20
14.3289213180542
 11
129.2305450439453
 21
14.3289213180542
  0
LINE
  8
4
  6
CONTINUOUS
 62
     3
 10
128.9705352783203
 20
13.40892124176025
 11
128.9705352783203
 21
14.3289213180542
  0
LINE
  8
4
  6
CONTINUOUS
 62
     3
 10
128.5305480957031
 20
14.1942081451416
 11
129.2305450439453
 21
14.1942081451416
  0
LINE
  8
4
  6
CONTINUOUS
 62
     4
 10
124.670539855957
 20
15.04420757293701
 11
127.9305419921875
 21
15.04420757293701
  0
LINE
  8
4
  6
CONTINUOUS
 62
     3
 10
124.670539855957
 20
14.85420799255371
 11
128.5305480957031
 21
14.85420799255371
  0
LINE
  8
4
  6
CONTINUOUS
 62
     3
 10
127.9305419921875
 20
18.00420761108398
 11
127.9305419921875
 21
14.85420799255371
  0
LINE
  8
4
  6
CONTINUOUS
 62
     3
 10
124.670539855957
 20
18.20420837402344
 11
124.670539855957
 21
14.85420799255371
  0
LINE
  8
4
  6
CONTINUOUS
 62
     3
 10
127.9705429077148
 20
13.40892124176025
 11
127.9705429077148
 21
14.25892066955566
  0
LINE
  8
4
  6
CONTINUOUS
 62
     3
 10
127.9705429077148
 20
14.25892066955566
 11
128.9705352783203
 21
14.25892066955566
  0
LINE
  8
4
  6
CONTINUOUS
 62
     3
 10
127.9705429077148
 20
13.40892124176025
 11
127.9705429077148
 21
12.55892086029053
  0
LINE
  8
4
  6
CONTINUOUS
 62
     3
 10
128.5305480957031
 20
14.25892066955566
 11
128.5305480957031
 21
14.1942081451416
  0
LINE
  8
4
  6
CENTER
 62
     4
 10
127.1907806396484
 20
13.40892124176025
 11
130.5877532958984
 21
13.40892124176025
  0
LINE
  8
4
  6
CONTINUOUS
 62
     3
 10
128.5305480957031
 20
21.81420707702637
 11
128.5305480957031
 21
14.25892066955566
  0
LINE
  8
4
  6
CONTINUOUS
 62
     4
 10
125.2705383300781
 20
20.96420860290527
 11
127.9305419921875
 21
20.96420860290527
  0
LINE
  8
4
  6
CONTINUOUS
 62
     3
 10
128.5305480957031
 20
21.81420707702637
 11
129.2305450439453
 21
21.81420707702637
  0
LINE
  8
4
  6
CONTINUOUS
 62
     3
 10
124.670539855957
 20
21.15420722961426
 11
128.5305480957031
 21
21.15420722961426
  0
LINE
  8
4
  6
CONTINUOUS
 62
     3
 10
127.9305419921875
 20
18.00420761108398
 11
127.9305419921875
 21
21.15420722961426
  0
LINE
  8
4
  6
CONTINUOUS
 62
     4
 10
124.670539855957
 20
20.96420860290527
 11
127.9305419921875
 21
20.96420860290527
  0
LINE
  8
4
  6
CONTINUOUS
 62
     3
 10
124.670539855957
 20
21.15420722961426
 11
128.5305480957031
 21
21.15420722961426
  0
LINE
  8
4
  6
CONTINUOUS
 62
     3
 10
128.9705352783203
 20
21.68130874633789
 11
129.2305450439453
 21
21.68130874633789
  0
LINE
  8
4
  6
CONTINUOUS
 62
     3
 10
128.9705352783203
 20
22.60130882263184
 11
128.9705352783203
 21
21.68130874633789
  0
LINE
  8
4
  6
CONTINUOUS
 62
     3
 10
127.9705429077148
 20
21.75130844116211
 11
128.5305480957031
 21
21.75130844116211
  0
LINE
  8
4
  6
CONTINUOUS
 62
     3
 10
127.9705429077148
 20
22.60130882263184
 11
127.9705429077148
 21
21.75130844116211
  0
LINE
  8
4
  6
CONTINUOUS
 62
     3
 10
127.9705429077148
 20
22.60130882263184
 11
127.9705429077148
 21
23.45130920410156
  0
LINE
  8
4
  6
CONTINUOUS
 62
     3
 10
127.9705429077148
 20
23.45130920410156
 11
128.9705352783203
 21
23.45130920410156
  0
LINE
  8
4
  6
CONTINUOUS
 62
     3
 10
128.9705352783203
 20
22.60130882263184
 11
128.9705352783203
 21
23.52130889892578
  0
LINE
  8
4
  6
CONTINUOUS
 62
     3
 10
128.9705352783203
 20
23.52130889892578
 11
129.2305450439453
 21
23.52130889892578
  0
LINE
  8
4
  6
CONTINUOUS
 62
     3
 10
128.4822082519531
 20
21.75130844116211
 11
128.9705352783203
 21
21.75130844116211
  0
LINE
  8
4
  6
CONTINUOUS
 62
     3
 10
128.5305480957031
 20
21.75130844116211
 11
128.5305480957031
 21
21.81420707702637
  0
LINE
  8
4
  6
CENTER
 62
     4
 10
126.8511810302734
 20
22.60130882263184
 11
130.6777496337891
 21
22.60130882263184
  0
LINE
  8
4
  6
CENTER
 62
     4
 10
131.520751953125
 20
18.0051155090332
 11
122.9662017822266
 21
18.0051155090332
  0
LINE
  8
4
  6
CONTINUOUS
 62
     3
 10
131.8805389404297
 20
25.20511436462402
 11
131.8805389404297
 21
26.20511436462402
  0
LINE
  8
4
  6
CONTINUOUS
 62
     3
 10
131.8805389404297
 20
26.20511436462402
 11
130.1805419921875
 21
26.20511436462402
  0
LINE
  8
4
  6
CONTINUOUS
 62
     3
 10
130.1805419921875
 20
25.20511436462402
 11
130.1805419921875
 21
26.20511436462402
  0
LINE
  8
4
  6
CONTINUOUS
 62
     3
 10
126.1265029907227
 20
10.5088472366333
 11
121.448112487793
 21
15.18723964691162
  0
LINE
  8
4
  6
CONTINUOUS
 62
     3
 10
127.5413208007813
 20
11.92245578765869
 11
122.8623199462891
 21
16.60145378112793
  0
LINE
  8
4
  6
CENTER
 62
     4
 10
-1.399294018745422
 20
-33.19483184814453
 11
-1.399294018745422
 21
-37.79030227661133
  0
LINE
  8
4
  6
CONTINUOUS
 62
     3
 10
-2.563293933868408
 20
-36.88251113891602
 11
-0.2352939993143082
 21
-36.88251113891602
  0
LINE
  8
4
  6
CONTINUOUS
 62
     3
 10
-18.59936714172363
 20
-24.29483032226563
 11
25.20070648193359
 21
-24.29483032226563
  0
LINE
  8
4
  6
CONTINUOUS
 62
     3
 10
-18.59936714172363
 20
-35.19483184814453
 11
25.20070648193359
 21
-35.19483184814453
  0
LINE
  8
4
  6
CENTER
 62
     4
 10
-142.5373077392578
 20
18.0051155090332
 11
-145.8004608154297
 21
18.0051155090332
  0
LINE
  8
4
  6
CONTINUOUS
 62
     3
 10
-145.1180267333984
 20
14.3289213180542
 11
-144.8580322265625
 21
14.3289213180542
  0
LINE
  8
4
  6
CONTINUOUS
 62
     3
 10
-146.1180267333984
 20
14.25892066955566
 11
-145.1180267333984
 21
14.25892066955566
  0
LINE
  8
4
  6
CONTINUOUS
 62
     3
 10
-145.1180267333984
 20
13.40892124176025
 11
-145.1180267333984
 21
12.48892116546631
  0
LINE
  8
4
  6
CONTINUOUS
 62
     3
 10
-145.1180267333984
 20
12.48632144927979
 11
-144.8580322265625
 21
12.48632144927979
  0
LINE
  8
4
  6
CONTINUOUS
 62
     3
 10
-146.1180267333984
 20
12.556321144104
 11
-145.1180267333984
 21
12.556321144104
  0
LINE
  8
4
  6
CONTINUOUS
 62
     3
 10
-146.1180267333984
 20
13.40892124176025
 11
-146.1180267333984
 21
12.55892086029053
  0
LINE
  8
4
  6
CONTINUOUS
 62
     3
 10
-146.1180267333984
 20
13.40892124176025
 11
-146.1180267333984
 21
14.25892066955566
  0
LINE
  8
4
  6
CONTINUOUS
 62
     3
 10
-145.1180267333984
 20
13.40892124176025
 11
-145.1180267333984
 21
14.3289213180542
  0
LINE
  8
4
  6
CENTER
 62
     4
 10
-146.8977966308594
 20
13.40892124176025
 11
-143.5008239746094
 21
13.40892124176025
  0
LINE
  8
4
  6
CONTINUOUS
 62
     3
 10
-145.1180267333984
 20
21.68130874633789
 11
-144.8580322265625
 21
21.68130874633789
  0
LINE
  8
4
  6
CONTINUOUS
 62
     3
 10
-145.6063690185547
 20
21.75130844116211
 11
-145.1180267333984
 21
21.75130844116211
  0
LINE
  8
4
  6
CONTINUOUS
 62
     3
 10
-146.1180267333984
 20
21.75130844116211
 11
-145.5580291748047
 21
21.75130844116211
  0
LINE
  8
4
  6
CONTINUOUS
 62
     3
 10
-146.1180267333984
 20
22.60130882263184
 11
-146.1180267333984
 21
21.75130844116211
  0
LINE
  8
4
  6
CONTINUOUS
 62
     3
 10
-146.1180267333984
 20
22.60130882263184
 11
-146.1180267333984
 21
23.45130920410156
  0
LINE
  8
4
  6
CONTINUOUS
 62
     3
 10
-146.1180267333984
 20
23.45130920410156
 11
-145.1180267333984
 21
23.45130920410156
  0
LINE
  8
4
  6
CONTINUOUS
 62
     3
 10
-145.1180267333984
 20
22.60130882263184
 11
-145.1180267333984
 21
23.52130889892578
  0
LINE
  8
4
  6
CONTINUOUS
 62
     3
 10
-145.1180267333984
 20
23.52130889892578
 11
-144.8580322265625
 21
23.52130889892578
  0
LINE
  8
4
  6
CONTINUOUS
 62
     3
 10
-145.1180267333984
 20
22.60130882263184
 11
-145.1180267333984
 21
21.68130874633789
  0
LINE
  8
4
  6
CENTER
 62
     4
 10
-147.2373962402344
 20
22.60130882263184
 11
-143.4108276367188
 21
22.60130882263184
  0
LINE
  8
4
  6
CONTINUOUS
 62
     3
 10
-142.2080383300781
 20
25.20511436462402
 11
-142.2080383300781
 21
26.20511436462402
  0
LINE
  8
4
  6
CONTINUOUS
 62
     3
 10
-142.2080383300781
 20
26.20511436462402
 11
-143.9080352783203
 21
26.20511436462402
  0
LINE
  8
4
  6
CONTINUOUS
 62
     3
 10
-143.9080352783203
 20
25.20511436462402
 11
-143.9080352783203
 21
26.20511436462402
  0
LINE
  8
4
  6
CONTINUOUS
 62
     3
 10
-144.8580322265625
 20
24.20511436462402
 11
-144.0580291748047
 21
24.20511436462402
  0
LINE
  8
4
  6
CONTINUOUS
 62
     3
 10
-144.4580383300781
 20
11.80511474609375
 11
-144.4580383300781
 21
24.20511436462402
  0
LINE
  8
4
  6
CONTINUOUS
 62
     3
 10
-144.8580322265625
 20
11.80511474609375
 11
-144.8580322265625
 21
24.20511436462402
  0
LINE
  8
4
  6
CONTINUOUS
 62
     3
 10
-144.8580322265625
 20
11.80511474609375
 11
-144.0580291748047
 21
11.80511474609375
  0
LINE
  8
4
  6
DASHED
 62
     3
 10
-144.0580291748047
 20
22.40511512756348
 11
-144.8580322265625
 21
22.40511512756348
  0
LINE
  8
4
  6
DASHED
 62
     3
 10
-144.0580291748047
 20
13.60511493682861
 11
-144.8580322265625
 21
13.60511493682861
  0
LINE
  8
4
  6
CENTER
 62
     4
 10
-108.9070892333984
 20
18.0051155090332
 11
-100.6672058105469
 21
18.0051155090332
  0
LINE
  8
4
  6
CONTINUOUS
 62
     3
 10
-102.6980361938477
 20
18.20420837402344
 11
-102.6980361938477
 21
21.15420722961426
  0
LINE
  8
4
  6
CONTINUOUS
 62
     3
 10
-107.1580352783203
 20
14.1942081451416
 11
-107.1580352783203
 21
21.81420707702637
  0
LINE
  8
4
  6
CONTINUOUS
 62
     3
 10
-106.9980316162109
 20
14.3289213180542
 11
-107.2580337524414
 21
14.3289213180542
  0
LINE
  8
4
  6
CONTINUOUS
 62
     3
 10
-106.9980316162109
 20
13.40892124176025
 11
-106.9980316162109
 21
14.3289213180542
  0
LINE
  8
4
  6
CONTINUOUS
 62
     3
 10
-106.5580368041992
 20
14.1942081451416
 11
-107.2580337524414
 21
14.1942081451416
  0
LINE
  8
4
  6
CONTINUOUS
 62
     4
 10
-102.6980361938477
 20
15.04420757293701
 11
-105.9580307006836
 21
15.04420757293701
  0
LINE
  8
4
  6
CONTINUOUS
 62
     3
 10
-102.6980361938477
 20
14.85420799255371
 11
-106.5580368041992
 21
14.85420799255371
  0
LINE
  8
4
  6
CONTINUOUS
 62
     3
 10
-105.9580307006836
 20
18.00420761108398
 11
-105.9580307006836
 21
14.85420799255371
  0
LINE
  8
4
  6
CONTINUOUS
 62
     3
 10
-102.6980361938477
 20
18.20420837402344
 11
-102.6980361938477
 21
14.85420799255371
  0
LINE
  8
4
  6
CONTINUOUS
 62
     3
 10
-105.9980316162109
 20
13.40892124176025
 11
-105.9980316162109
 21
14.25892066955566
  0
LINE
  8
4
  6
CONTINUOUS
 62
     3
 10
-105.9980316162109
 20
14.25892066955566
 11
-106.9980316162109
 21
14.25892066955566
  0
LINE
  8
4
  6
CONTINUOUS
 62
     3
 10
-105.9980316162109
 20
12.55892086029053
 11
-106.9980316162109
 21
12.55892086029053
  0
LINE
  8
4
  6
CONTINUOUS
 62
     3
 10
-105.9980316162109
 20
13.40892124176025
 11
-105.9980316162109
 21
12.55892086029053
  0
LINE
  8
4
  6
CONTINUOUS
 62
     3
 10
-106.5580368041992
 20
14.25892066955566
 11
-106.5580368041992
 21
14.1942081451416
  0
LINE
  8
4
  6
CENTER
 62
     4
 10
-105.2182693481445
 20
13.40892124176025
 11
-108.6152420043945
 21
13.40892124176025
  0
LINE
  8
4
  6
CONTINUOUS
 62
     3
 10
-106.5580368041992
 20
21.81420707702637
 11
-106.5580368041992
 21
14.25892066955566
  0
LINE
  8
4
  6
CONTINUOUS
 62
     4
 10
-103.2980346679688
 20
20.96420860290527
 11
-105.9580307006836
 21
20.96420860290527
  0
LINE
  8
4
  6
CONTINUOUS
 62
     3
 10
-106.5580368041992
 20
21.81420707702637
 11
-107.2580337524414
 21
21.81420707702637
  0
LINE
  8
4
  6
CONTINUOUS
 62
     3
 10
-102.6980361938477
 20
21.15420722961426
 11
-106.5580368041992
 21
21.15420722961426
  0
LINE
  8
4
  6
CONTINUOUS
 62
     3
 10
-105.9580307006836
 20
18.00420761108398
 11
-105.9580307006836
 21
21.15420722961426
  0
LINE
  8
4
  6
CONTINUOUS
 62
     4
 10
-102.6980361938477
 20
20.96420860290527
 11
-105.9580307006836
 21
20.96420860290527
  0
LINE
  8
4
  6
CONTINUOUS
 62
     3
 10
-102.6980361938477
 20
21.15420722961426
 11
-106.5580368041992
 21
21.15420722961426
  0
LINE
  8
4
  6
CONTINUOUS
 62
     3
 10
-107.6580352783203
 20
11.80511474609375
 11
-107.6580352783203
 21
24.20511436462402
  0
LINE
  8
4
  6
CONTINUOUS
 62
     3
 10
-106.9980316162109
 20
21.68130874633789
 11
-107.2580337524414
 21
21.68130874633789
  0
LINE
  8
4
  6
CONTINUOUS
 62
     3
 10
-106.9980316162109
 20
22.60130882263184
 11
-106.9980316162109
 21
21.68130874633789
  0
LINE
  8
4
  6
CONTINUOUS
 62
     3
 10
-105.9980316162109
 20
21.75130844116211
 11
-106.5580368041992
 21
21.75130844116211
  0
LINE
  8
4
  6
CONTINUOUS
 62
     3
 10
-105.9980316162109
 20
22.60130882263184
 11
-105.9980316162109
 21
21.75130844116211
  0
LINE
  8
4
  6
CONTINUOUS
 62
     3
 10
-105.9980316162109
 20
22.60130882263184
 11
-105.9980316162109
 21
23.45130920410156
  0
LINE
  8
4
  6
CONTINUOUS
 62
     3
 10
-106.5096969604492
 20
21.75130844116211
 11
-106.9980316162109
 21
21.75130844116211
  0
LINE
  8
4
  6
CONTINUOUS
 62
     3
 10
-106.5580368041992
 20
21.75130844116211
 11
-106.5580368041992
 21
21.81420707702637
  0
LINE
  8
4
  6
CENTER
 62
     4
 10
-104.8786773681641
 20
22.60130882263184
 11
-108.7052383422852
 21
22.60130882263184
  0
LINE
  8
4
  6
CENTER
 62
     4
 10
-109.5482406616211
 20
18.0051155090332
 11
-100.9936904907227
 21
18.0051155090332
  0
LINE
  8
4
  6
CONTINUOUS
 62
     3
 10
-109.9080352783203
 20
25.20511436462402
 11
-109.9080352783203
 21
26.20511436462402
  0
LINE
  8
4
  6
CONTINUOUS
 62
     3
 10
-109.9080352783203
 20
26.20511436462402
 11
-108.2080307006836
 21
26.20511436462402
  0
LINE
  8
4
  6
CONTINUOUS
 62
     3
 10
-108.2080307006836
 20
25.20511436462402
 11
-108.2080307006836
 21
26.20511436462402
  0
LINE
  8
4
  6
CONTINUOUS
 62
     3
 10
-107.2580337524414
 20
24.20511436462402
 11
-108.0592956542969
 21
24.20511436462402
  0
LINE
  8
4
  6
CONTINUOUS
 62
     3
 10
-105.9980316162109
 20
23.45130920410156
 11
-106.9980316162109
 21
23.45130920410156
  0
LINE
  8
4
  6
CONTINUOUS
 62
     3
 10
-106.9980316162109
 20
22.60130882263184
 11
-106.9980316162109
 21
23.52130889892578
  0
LINE
  8
4
  6
CONTINUOUS
 62
     3
 10
-106.9980316162109
 20
23.52130889892578
 11
-107.2580337524414
 21
23.52130889892578
  0
LINE
  8
4
  6
CONTINUOUS
 62
     3
 10
-107.2580337524414
 20
11.80511474609375
 11
-107.2580337524414
 21
24.20511436462402
  0
LINE
  8
4
  6
CONTINUOUS
 62
     3
 10
-107.2580337524414
 20
11.80511474609375
 11
-108.0592956542969
 21
11.80511474609375
  0
LINE
  8
4
  6
CONTINUOUS
 62
     3
 10
-106.9980316162109
 20
13.40892124176025
 11
-106.9980316162109
 21
12.48892116546631
  0
LINE
  8
4
  6
CONTINUOUS
 62
     3
 10
-106.9980316162109
 20
12.48892116546631
 11
-107.2580337524414
 21
12.48892116546631
  0
LINE
  8
4
  6
CONTINUOUS
 62
     3
 10
-104.1595916748047
 20
10.5088472366333
 11
-99.481201171875
 21
15.18723964691162
  0
LINE
  8
4
  6
CONTINUOUS
 62
     3
 10
-105.5744094848633
 20
11.92245578765869
 11
-100.8954162597656
 21
16.60145378112793
  0
LINE
  8
4
  6
CONTINUOUS
 62
     3
 10
-107.1886672973633
 20
12.4295244216919
 11
-105.1275329589844
 21
10.93698120117188
  0
LINE
  8
4
  6
CONTINUOUS
 62
     3
 10
-106.361442565918
 20
11.1354284286499
 11
-105.5744094848633
 21
11.92245578765869
  0
LINE
  8
4
  6
CONTINUOUS
 62
     3
 10
-106.1280059814453
 20
11.36886310577393
 11
-107.1886672973633
 21
12.4295244216919
  0
LINE
  8
4
  6
CONTINUOUS
 62
     3
 10
-108.0371704101563
 20
11.58102130889893
 11
-107.1886672973633
 21
12.4295244216919
  0
LINE
  8
4
  6
CENTER
 62
     4
 10
-53.26928329467773
 20
18.0051155090332
 11
-37.71059036254883
 21
18.0051155090332
  0
LINE
  8
4
  6
CONTINUOUS
 62
     3
 10
-49.66672134399414
 20
22.27470970153809
 11
-49.54717636108398
 21
22.72085189819336
  0
LINE
  8
4
  6
CONTINUOUS
 62
     3
 10
-50.11286544799805
 20
22.15516662597656
 11
-49.66672134399414
 21
22.27470970153809
  0
LINE
  8
4
  6
CONTINUOUS
 62
     3
 10
-50.43946075439453
 20
22.48176574707031
 11
-50.11286544799805
 21
22.15516662597656
  0
LINE
  8
4
  6
CONTINUOUS
 62
     3
 10
-50.31991958618164
 20
22.92790794372559
 11
-50.43946075439453
 21
22.48176574707031
  0
LINE
  8
4
  6
CONTINUOUS
 62
     3
 10
-49.87377548217773
 20
23.04745101928711
 11
-50.31991958618164
 21
22.92790794372559
  0
LINE
  8
4
  6
CONTINUOUS
 62
     3
 10
-49.54717636108398
 20
22.72085189819336
 11
-49.87377548217773
 21
23.04745101928711
  0
LINE
  8
4
  6
CENTER
 62
     4
 10
-48.33712768554688
 20
20.22832489013672
 11
-48.33712768554688
 21
22.14650344848633
  0
LINE
  8
4
  6
CENTER
 62
     4
 10
-42.45712661743164
 20
20.31478118896484
 11
-42.45712661743164
 21
21.83843231201172
  0
LINE
  8
4
  6
CENTER
 62
     4
 10
-42.45712661743164
 20
14.26284217834473
 11
-42.45712661743164
 21
16.11617851257324
  0
LINE
  8
4
  6
CENTER
 62
     4
 10
-43.10834503173828
 20
15.06511497497559
 11
-41.62792205810547
 21
15.06511497497559
  0
LINE
  8
4
  6
CENTER
 62
     4
 10
-48.33712768554688
 20
14.08992862701416
 11
-48.33712768554688
 21
15.72165203094482
  0
LINE
  8
4
  6
CENTER
 62
     4
 10
-49.28997039794922
 20
15.06511497497559
 11
-47.76631927490234
 21
15.06511497497559
  0
LINE
  8
4
  6
CENTER
 62
     4
 10
-43.15157318115234
 20
20.94511413574219
 11
-41.56307983398438
 21
20.94511413574219
  0
LINE
  8
4
  6
CENTER
 62
     4
 10
-49.55481338500977
 20
20.94511413574219
 11
-47.63663482666016
 21
20.94511413574219
  0
LINE
  8
4
  6
CONTINUOUS
 62
     3
 10
-51.59712600708008
 20
13.00511455535889
 11
-51.59712600708008
 21
23.0051155090332
  0
LINE
  8
4
  6
CONTINUOUS
 62
     3
 10
-50.39712524414063
 20
11.80511474609375
 11
-40.39712524414063
 21
11.80511474609375
  0
LINE
  8
4
  6
CONTINUOUS
 62
     3
 10
-39.19712448120117
 20
13.00511455535889
 11
-39.19712448120117
 21
23.0051155090332
  0
LINE
  8
4
  6
CENTER
 62
     4
 10
-45.39803314208984
 20
11.80511474609375
 11
-45.39803314208984
 21
26.48533248901367
  0
LINE
  8
4
  6
CONTINUOUS
 62
     3
 10
-49.20803451538086
 20
14.1951150894165
 11
-41.58803176879883
 21
14.1951150894165
  0
LINE
  8
4
  6
CONTINUOUS
 62
     3
 10
-49.20803451538086
 20
21.81511497497559
 11
-41.58803176879883
 21
21.81511497497559
  0
LINE
  8
4
  6
CONTINUOUS
 62
     3
 10
-49.20803451538086
 20
14.1951150894165
 11
-49.20803451538086
 21
21.81511497497559
  0
LINE
  8
4
  6
CONTINUOUS
 62
     3
 10
-41.58803176879883
 20
14.1951150894165
 11
-41.58803176879883
 21
21.81511497497559
  0
LINE
  8
4
  6
CENTER
 62
     4
 10
-45.39812469482422
 20
11.60511493682861
 11
-45.39812469482422
 21
13.75380039215088
  0
LINE
  8
4
  6
CONTINUOUS
 62
     3
 10
-50.39712524414063
 20
24.20511436462402
 11
-40.39712524414063
 21
24.20511436462402
  0
LINE
  8
4
  6
CONTINUOUS
 62
     3
 10
-49.87377548217773
 20
12.96277904510498
 11
-50.31991958618164
 21
13.0823221206665
  0
LINE
  8
4
  6
CONTINUOUS
 62
     3
 10
-50.31991958618164
 20
13.0823221206665
 11
-50.43946075439453
 21
13.52846431732178
  0
LINE
  8
4
  6
CONTINUOUS
 62
     3
 10
-50.43946075439453
 20
13.52846431732178
 11
-50.11286544799805
 21
13.85506343841553
  0
LINE
  8
4
  6
CONTINUOUS
 62
     3
 10
-50.11286544799805
 20
13.85506343841553
 11
-49.66672134399414
 21
13.73551940917969
  0
LINE
  8
4
  6
CONTINUOUS
 62
     3
 10
-49.54717636108398
 20
13.28937721252441
 11
-49.87377548217773
 21
12.96277904510498
  0
LINE
  8
4
  6
CONTINUOUS
 62
     3
 10
-49.66672134399414
 20
13.73551940917969
 11
-49.54717636108398
 21
13.28937721252441
  0
LINE
  8
4
  6
CONTINUOUS
 62
     3
 10
-40.92228698730469
 20
12.96277904510498
 11
-40.47614669799805
 21
13.0823221206665
  0
LINE
  8
4
  6
CONTINUOUS
 62
     3
 10
-40.47614669799805
 20
13.0823221206665
 11
-40.35660171508789
 21
13.52846431732178
  0
LINE
  8
4
  6
CONTINUOUS
 62
     3
 10
-40.35660171508789
 20
13.52846431732178
 11
-40.68320083618164
 21
13.85506343841553
  0
LINE
  8
4
  6
CONTINUOUS
 62
     3
 10
-40.68320083618164
 20
13.85506343841553
 11
-41.12934112548828
 21
13.73551940917969
  0
LINE
  8
4
  6
CONTINUOUS
 62
     3
 10
-41.24888610839844
 20
13.28937721252441
 11
-40.92228698730469
 21
12.96277904510498
  0
LINE
  8
4
  6
CONTINUOUS
 62
     3
 10
-41.12934112548828
 20
13.73551940917969
 11
-41.24888610839844
 21
13.28937721252441
  0
LINE
  8
4
  6
CONTINUOUS
 62
     3
 10
-40.92228698730469
 20
23.04745101928711
 11
-40.47614669799805
 21
22.92790794372559
  0
LINE
  8
4
  6
CONTINUOUS
 62
     3
 10
-40.47614669799805
 20
22.92790794372559
 11
-40.35660171508789
 21
22.48176574707031
  0
LINE
  8
4
  6
CONTINUOUS
 62
     3
 10
-40.35660171508789
 20
22.48176574707031
 11
-40.68320083618164
 21
22.15516662597656
  0
LINE
  8
4
  6
CONTINUOUS
 62
     3
 10
-40.68320083618164
 20
22.15516662597656
 11
-41.12934112548828
 21
22.27470970153809
  0
LINE
  8
4
  6
CONTINUOUS
 62
     3
 10
-41.24888610839844
 20
22.72085189819336
 11
-40.92228698730469
 21
23.04745101928711
  0
LINE
  8
4
  6
CONTINUOUS
 62
     3
 10
-41.12934112548828
 20
22.27470970153809
 11
-41.24888610839844
 21
22.72085189819336
  0
LINE
  8
4
  6
CENTER
 62
     4
 10
-45.39803314208984
 20
25.20511436462402
 11
-45.39803314208984
 21
11.40511512756348
  0
LINE
  8
4
  6
CONTINUOUS
 62
     3
 10
-2.563293933868408
 20
16.89285087585449
 11
-0.2352939993143082
 21
16.89285087585449
  0
LINE
  8
4
  6
CONTINUOUS
 62
     3
 10
-2.563293933868408
 20
9.220849990844727
 11
-0.2352939993143082
 21
9.220849990844727
  0
LINE
  8
4
  6
CONTINUOUS
 62
     3
 10
-2.131494045257568
 20
8.036384582519531
 11
-0.6670939922332764
 21
8.036384582519531
  0
LINE
  8
4
  6
CONTINUOUS
 62
     3
 10
-2.131494045257568
 20
11.57198524475098
 11
-0.6670939922332764
 21
11.57198524475098
  0
LINE
  8
4
  6
CONTINUOUS
 62
     3
 10
1.100705981254578
 20
7.816773891448975
 11
1.100705981254578
 21
10.22084999084473
  0
LINE
  8
4
  6
CONTINUOUS
 62
     3
 10
-3.899293899536133
 20
7.816773891448975
 11
-3.899293899536133
 21
10.22084999084473
  0
LINE
  8
4
  6
CONTINUOUS
 62
     3
 10
-2.563293933868408
 20
14.89284992218018
 11
-0.2352939993143082
 21
14.89284992218018
  0
LINE
  8
4
  6
CONTINUOUS
 62
     3
 10
-2.563293933868408
 20
11.22084999084473
 11
-0.2352939993143082
 21
11.22084999084473
  0
LINE
  8
4
  6
CONTINUOUS
 62
     3
 10
-2.424393892288208
 20
12.27908515930176
 11
-0.3741939961910248
 21
12.27908515930176
  0
LINE
  8
4
  6
CONTINUOUS
 62
     3
 10
-2.424393892288208
 20
7.329285144805908
 11
-0.3741939961910248
 21
7.329285144805908
  0
LINE
  8
4
  6
CENTER
 62
     4
 10
-1.399294018745422
 20
6.313117027282715
 11
-1.399294018745422
 21
17.80064010620117
  0
LINE
  8
4
  6
CONTINUOUS
 62
     3
 10
3.00070595741272
 20
15.20516872406006
 11
15.00070571899414
 21
15.20516872406006
  0
LINE
  8
4
  6
CONTINUOUS
 62
     3
 10
3.00070595741272
 20
15.20516872406006
 11
3.00070595741272
 21
15.80516910552979
  0
LINE
  8
4
  6
CONTINUOUS
 62
     3
 10
-18.59936714172363
 20
15.20516872406006
 11
-5.741283893585205
 21
15.20516872406006
  0
LINE
  8
4
  6
CONTINUOUS
 62
     3
 10
3.00070595741272
 20
15.80516910552979
 11
15.00070571899414
 21
15.80516910552979
  0
LINE
  8
4
  6
CONTINUOUS
 62
     3
 10
-146.5553741455078
 20
-31.91211891174316
 11
-151.234375
 21
-36.59111785888672
  0
LINE
  8
4
  6
CONTINUOUS
 62
     3
 10
-147.9701995849609
 20
-30.49851036071777
 11
-152.6485900878906
 21
-35.17690277099609
  0
LINE
  8
4
  6
CONTINUOUS
 62
     3
 10
-147.1825561523438
 20
-29.71087646484375
 11
-147.9701995849609
 21
-30.49851036071777
  0
LINE
  8
4
  6
CONTINUOUS
 62
     3
 10
-145.7683410644531
 20
-31.12509155273438
 11
-146.5553741455078
 21
-31.91211891174316
  0
LINE
  8
4
  6
CONTINUOUS
 62
     3
 10
-144.0870208740234
 20
-31.56508445739746
 11
-144.9411163330078
 21
-32.41918563842773
  0
LINE
  8
4
  6
CONTINUOUS
 62
     3
 10
-144.9411163330078
 20
-32.41918563842773
 11
-146.1714935302734
 21
-31.52823257446289
  0
LINE
  8
4
  6
CONTINUOUS
 62
     3
 10
-146.0017852783203
 20
-31.3585262298584
 11
-144.9411163330078
 21
-32.41918563842773
  0
LINE
  8
4
  6
CONTINUOUS
 62
     3
 10
-148.4766540527344
 20
-28.88365173339844
 11
-147.4160003662109
 21
-29.94431114196777
  0
LINE
  8
4
  6
CONTINUOUS
 62
     3
 10
-147.62255859375
 20
-28.02955055236816
 11
-148.4766540527344
 21
-28.88365173339844
  0
LINE
  8
4
  6
CONTINUOUS
 62
     3
 10
-148.4766540527344
 20
-28.88365173339844
 11
-147.5857086181641
 21
-30.11401748657227
  0
LINE
  8
4
  6
CONTINUOUS
 62
     3
 10
-104.5016326904297
 20
8.045487403869629
 11
-103.6531295776367
 21
8.893989562988281
  0
LINE
  8
4
  6
CONTINUOUS
 62
     3
 10
-103.6531295776367
 20
8.893989562988281
 11
-104.7137908935547
 21
9.954649925231934
  0
LINE
  8
4
  6
CONTINUOUS
 62
     3
 10
-104.9472274780273
 20
9.72121524810791
 11
-104.1595916748047
 21
10.5088472366333
  0
LINE
  8
4
  6
CONTINUOUS
 62
     3
 10
-103.6531295776367
 20
8.893989562988281
 11
-105.1304397583008
 21
10.93407821655273
  0
LINE
  8
4
  6
CONTINUOUS
 62
     3
 10
168.5222778320313
 20
-31.91211891174316
 11
173.2012786865234
 21
-36.59111785888672
  0
LINE
  8
4
  6
CONTINUOUS
 62
     3
 10
169.9371032714844
 20
-30.49851036071777
 11
174.6154937744141
 21
-35.17690277099609
  0
LINE
  8
4
  6
CONTINUOUS
 62
     3
 10
-33.39803314208984
 20
15.40511512756348
 11
-26.49803352355957
 21
15.40511512756348
  0
LINE
  8
4
  6
CONTINUOUS
 62
     3
 10
-18.59936714172363
 20
4.305169105529785
 11
25.20070648193359
 21
4.305169105529785
  0
LINE
  8
4
  6
CONTINUOUS
 62
     3
 10
25.20070648193359
 20
15.20516872406006
 11
25.20070648193359
 21
14.88516902923584
  0
LINE
  8
4
  6
CONTINUOUS
 62
     3
 10
15.00070571899414
 20
15.20516872406006
 11
15.00070571899414
 21
15.80516910552979
  0
LINE
  8
4
  6
CONTINUOUS
 62
     3
 10
15.00070571899414
 20
15.20516872406006
 11
25.20070648193359
 21
15.20516872406006
  0
LINE
  8
4
  6
CENTER
 62
     4
 10
3.00070595741272
 20
21.00516891479492
 11
15.00070571899414
 21
21.00516891479492
  0
LINE
  8
4
  6
CENTER
 62
     4
 10
9.000705718994141
 20
12.70516872406006
 11
9.000705718994141
 21
27.06291580200195
  0
LINE
  8
4
  6
CONTINUOUS
 62
     3
 10
6.500706195831299
 20
15.80516910552979
 11
6.500706195831299
 21
17.60516929626465
  0
LINE
  8
4
  6
CONTINUOUS
 62
     3
 10
6.500706195831299
 20
17.60516929626465
 11
11.50070571899414
 21
17.60516929626465
  0
LINE
  8
4
  6
CONTINUOUS
 62
     3
 10
11.50070571899414
 20
15.80516910552979
 11
11.50070571899414
 21
17.60516929626465
  0
LINE
  8
4
  6
CONTINUOUS
 62
     3
 10
6.500706195831299
 20
17.60516929626465
 11
9.000705718994141
 21
18.00516891479492
  0
LINE
  8
4
  6
CONTINUOUS
 62
     3
 10
11.50070571899414
 20
17.60516929626465
 11
9.000705718994141
 21
18.00516891479492
  0
LINE
  8
4
  6
CENTER
 62
     4
 10
142.0407104492188
 20
21.00516891479492
 11
154.0407104492188
 21
21.00516891479492
  0
LINE
  8
4
  6
CONTINUOUS
 62
     3
 10
145.5407104492188
 20
15.80516910552979
 11
145.5407104492188
 21
17.60516929626465
  0
LINE
  8
4
  6
CONTINUOUS
 62
     3
 10
150.5407104492188
 20
15.80516910552979
 11
150.5407104492188
 21
17.60516929626465
  0
LINE
  8
4
  6
CONTINUOUS
 62
     3
 10
142.0407104492188
 20
15.80516910552979
 11
154.0407104492188
 21
15.80516910552979
  0
LINE
  8
4
  6
CONTINUOUS
 62
     3
 10
154.0407104492188
 20
15.00516891479492
 11
154.0407104492188
 21
15.80516910552979
  0
LINE
  8
4
  6
CONTINUOUS
 62
     3
 10
142.0407104492188
 20
15.00516891479492
 11
142.0407104492188
 21
15.80516910552979
  0
LINE
  8
4
  6
CONTINUOUS
 62
     3
 10
150.5407104492188
 20
17.60516929626465
 11
149.0407104492188
 21
17.84516906738281
  0
LINE
  8
4
  6
CONTINUOUS
 62
     3
 10
149.0407104492188
 20
17.60516929626465
 11
150.5407104492188
 21
17.60516929626465
  0
LINE
  8
4
  6
CONTINUOUS
 62
     3
 10
145.5407104492188
 20
17.60516929626465
 11
147.0407104492188
 21
17.84516906738281
  0
LINE
  8
4
  6
CONTINUOUS
 62
     3
 10
145.5407104492188
 20
17.60516929626465
 11
147.0407104492188
 21
17.60516929626465
  0
LINE
  8
4
  6
CONTINUOUS
 62
     3
 10
147.0407104492188
 20
17.2750415802002
 11
147.0407104492188
 21
25.00516891479492
  0
ARC
  8
4
  6
CONTINUOUS
 62
     3
 10
20.20070648193359
 20
-9.294831275939941
 40
0.699999988079071
 50
27.9945928038129
 51
152.0054804763483
  0
ARC
  8
4
  6
CONTINUOUS
 62
     3
 10
20.20070648193359
 20
-9.094831466674805
 40
0.699999988079071
 50
6.379379227694352
 51
173.6206207723056
  0
ARC
  8
4
  6
CONTINUOUS
 62
     3
 10
20.20070648193359
 20
-10.69483089447022
 40
0.699999988079071
 50
207.9945195236524
 51
332.0054071961878
  0
ARC
  8
4
  6
CONTINUOUS
 62
     3
 10
-9.399293899536133
 20
-10.69483089447022
 40
0.699999988079071
 50
207.9945561636889
 51
332.0054438363125
  0
ARC
  8
4
  6
CONTINUOUS
 62
     3
 10
-9.399293899536133
 20
-9.294831275939941
 40
0.699999988079071
 50
27.99455616368823
 51
152.0054438363118
  0
ARC
  8
4
  6
CONTINUOUS
 62
     3
 10
-9.399293899536133
 20
-9.094831466674805
 40
0.699999988079071
 50
6.379379227694352
 51
173.6206207723056
  0
ARC
  8
4
  6
CONTINUOUS
 62
     3
 10
-0.2352939993143082
 20
-33.04651260375977
 40
3.835999965667725
 50
270.0000000000005
 51
325.9413321049514
  0
ARC
  8
4
  6
CONTINUOUS
 62
     3
 10
-2.563293933868408
 20
-33.04651260375977
 40
3.835999965667725
 50
214.0586650281527
 51
270.0000000000005
  0
CIRCLE
  8
4
  6
CONTINUOUS
 62
     3
 10
-49.99332046508789
 20
22.60130882263184
 40
0.8500000238418579
  0
CIRCLE
  8
4
  6
CONTINUOUS
 62
     3
 10
-49.99332046508789
 20
22.60130882263184
 40
0.9200000166893005
  0
CIRCLE
  8
4
  6
CONTINUOUS
 62
     3
 10
-42.45712661743164
 20
15.06511497497559
 40
0.550000011920929
  0
CIRCLE
  8
4
  6
CONTINUOUS
 62
     3
 10
-48.33712768554688
 20
15.06511497497559
 40
0.550000011920929
  0
CIRCLE
  8
4
  6
CONTINUOUS
 62
     3
 10
-48.33712768554688
 20
20.94511413574219
 40
0.550000011920929
  0
CIRCLE
  8
4
  6
CONTINUOUS
 62
     3
 10
-42.45712661743164
 20
20.94511413574219
 40
0.550000011920929
  0
ARC
  8
4
  6
CONTINUOUS
 62
     3
 10
-40.39712524414063
 20
13.00511455535889
 40
1.200000047683716
 50
270.0000000000005
 51
360
  0
ARC
  8
4
  6
CONTINUOUS
 62
     3
 10
-50.39712524414063
 20
13.00511455535889
 40
1.200000047683716
 50
180.0000000000004
 51
270.0000000000005
  0
ARC
  8
4
  6
CONTINUOUS
 62
     3
 10
-50.39712524414063
 20
23.0051155090332
 40
1.200000047683716
 50
90.00000000000019
 51
180.0000000000004
  0
ARC
  8
4
  6
CONTINUOUS
 62
     3
 10
-40.39712524414063
 20
23.0051155090332
 40
1.200000047683716
 50
0
 51
90.00000000000019
  0
CIRCLE
  8
4
  6
CONTINUOUS
 62
     3
 10
-45.39803314208984
 20
18.0051155090332
 40
3.150000095367432
  0
CIRCLE
  8
4
  6
CONTINUOUS
 62
     3
 10
-45.39803314208984
 20
18.0051155090332
 40
2.700000047683716
  0
CIRCLE
  8
4
  6
CONTINUOUS
 62
     4
 10
-45.39803314208984
 20
18.0051155090332
 40
2.960000038146973
  0
CIRCLE
  8
4
  6
CONTINUOUS
 62
     3
 10
-49.99332046508789
 20
13.40892124176025
 40
0.9200000166893005
  0
CIRCLE
  8
4
  6
CONTINUOUS
 62
     3
 10
-49.99332046508789
 20
13.40892124176025
 40
0.8500000238418579
  0
CIRCLE
  8
4
  6
CONTINUOUS
 62
     3
 10
-40.8027458190918
 20
13.40892124176025
 40
0.9200000166893005
  0
CIRCLE
  8
4
  6
CONTINUOUS
 62
     3
 10
-40.8027458190918
 20
13.40892124176025
 40
0.8500000238418579
  0
CIRCLE
  8
4
  6
CONTINUOUS
 62
     3
 10
-40.8027458190918
 20
22.60130882263184
 40
0.9200000166893005
  0
CIRCLE
  8
4
  6
CONTINUOUS
 62
     3
 10
-40.8027458190918
 20
22.60130882263184
 40
0.8500000238418579
  0
ARC
  8
4
  6
CONTINUOUS
 62
     3
 10
-2.563293933868408
 20
13.05685043334961
 40
3.835999965667725
 50
90.00000000000019
 51
270.0000000000005
  0
ARC
  8
4
  6
CONTINUOUS
 62
     3
 10
-0.2352939993143082
 20
13.05685043334961
 40
3.835999965667725
 50
270.0000000000005
 51
90.00000000000019
  0
ARC
  8
4
  6
CONTINUOUS
 62
     3
 10
-2.131494045257568
 20
9.804184913635254
 40
1.767799973487854
 50
90.00000000000019
 51
270.0000000000005
  0
ARC
  8
4
  6
CONTINUOUS
 62
     3
 10
-0.6670939922332764
 20
9.804184913635254
 40
1.767799973487854
 50
270.0000000000005
 51
90.00000000000019
  0
ARC
  8
4
  6
CONTINUOUS
 62
     3
 10
-0.3741939961910248
 20
9.804184913635254
 40
2.474900007247925
 50
53.51442227395114
 51
90.00000000000019
  0
ARC
  8
4
  6
CONTINUOUS
 62
     3
 10
-0.3741939961910248
 20
9.804184913635254
 40
2.474900007247925
 50
270.0000000000005
 51
4.717671068481997
  0
ARC
  8
4
  6
CONTINUOUS
 62
     3
 10
-2.424393892288208
 20
9.804184913635254
 40
2.474900007247925
 50
175.2823292152441
 51
270.0000000000005
  0
ARC
  8
4
  6
CONTINUOUS
 62
     3
 10
-2.424393892288208
 20
9.804184913635254
 40
2.474900007247925
 50
90.00000000000019
 51
126.4855827185386
  0
ARC
  8
4
  6
CONTINUOUS
 62
     3
 10
-0.2352939993143082
 20
13.05685043334961
 40
1.835999965667725
 50
270.0000000000005
 51
90.00000000000019
  0
ARC
  8
4
  6
CONTINUOUS
 62
     3
 10
-2.563293933868408
 20
13.05685043334961
 40
1.835999965667725
 50
90.00000000000019
 51
270.0000000000005
  0
ARC
  8
4
  6
CONTINUOUS
 62
     3
 10
-151.9414825439453
 20
-35.88401031494141
 40
1
 50
135
 51
315.0001545497894
  0
ARC
  8
4
  6
CONTINUOUS
 62
     3
 10
-145.3440856933594
 20
-31.54935455322266
 40
0.6000000238418579
 50
44.9994848382065
 51
134.9994848289424
  0
ARC
  8
4
  6
CONTINUOUS
 62
     3
 10
-147.6068267822266
 20
-29.28661346435547
 40
0.6000000238418579
 50
315.0005151617942
 51
44.99961362952336
  0
ARC
  8
4
  6
CONTINUOUS
 62
     3
 10
-106.7857055664063
 20
11.5596923828125
 40
0.6000000238418579
 50
225.0001287913176
 51
314.9998712086839
  0
ARC
  8
4
  6
CONTINUOUS
 62
     3
 10
-104.5229644775391
 20
9.296951293945313
 40
0.6000000238418579
 50
134.9999356042692
 51
225.0000643957316
  0
ARC
  8
4
  6
CONTINUOUS
 62
     3
 10
-100.1883087158203
 20
15.89434719085693
 40
1
 50
315.0000386373697
 51
135.000038637369
  0
ARC
  8
4
  6
CONTINUOUS
 62
     3
 10
173.9083862304688
 20
-35.88401031494141
 40
1
 50
224.999845450212
 51
45
  0
ARC
  8
4
  6
CONTINUOUS
 62
     3
 10
122.1552124023438
 20
15.89434719085693
 40
1
 50
44.99996136263099
 51
225.0002704630429
  0
CIRCLE
  8
4
  6
CONTINUOUS
 62
     3
 10
9.000705718994141
 20
21.00516891479492
 40
3
  0
ARC
  8
4
  6
CONTINUOUS
 62
     3
 10
9.000705718994141
 20
21.00516891479492
 40
5
 50
299.9999960056703
 51
240.0000087264249
  0
ARC
  8
4
  6
CONTINUOUS
 62
     3
 10
148.0407104492188
 20
25.00516891479492
 40
1
 50
0
 51
180.0000000000004
  0
ARC
  8
4
  6
CONTINUOUS
 62
     3
 10
149.6407012939453
 20
17.2750415802002
 40
0.6000000238418579
 50
180.0000000000004
 51
270.0000000000005
  0
ARC
  8
4
  6
CONTINUOUS
 62
     3
 10
146.4407043457031
 20
17.2750415802002
 40
0.6000000238418579
 50
270.0000000000005
 51
360
  0
LINE
  8
5
  6
CENTER
 62
     4
 10
-123.4232482910156
 20
-11.22403907775879
 11
-106.4242553710938
 21
-19.15080070495606
  0
LINE
  8
5
  6
CENTER
 62
     4
 10
-124.8293151855469
 20
-7.357141017913818
 11
-116.9031143188477
 21
9.640661239624023
  0
LINE
  8
5
  6
CONTINUOUS
 62
     3
 10
-123.2680587768555
 20
-10.63437843322754
 11
-123.1328201293945
 21
-10.34435939788818
  0
LINE
  8
5
  6
CONTINUOUS
 62
     3
 10
-124.3321762084961
 20
-7.710740089416504
 11
-124.0421600341797
 21
-7.845977783203125
  0
LINE
  8
5
  6
CONTINUOUS
 62
     3
 10
-128.3433837890625
 20
-8.267715454101563
 11
-128.2081451416016
 21
-7.977696895599365
  0
LINE
  8
5
  6
CONTINUOUS
 62
     3
 10
-126.6988372802734
 20
-12.78606414794922
 11
-126.408821105957
 21
-12.92130184173584
  0
LINE
  8
5
  6
CONTINUOUS
 62
     3
 10
-128.0764312744141
 20
-12.14368438720703
 11
-127.7864074707031
 21
-12.27892208099365
  0
LINE
  8
5
  6
CONTINUOUS
 62
     3
 10
-125.7097625732422
 20
-7.068360805511475
 11
-125.4197463989258
 21
-7.203598976135254
  0
LINE
  8
5
  6
CONTINUOUS
 62
     3
 10
-123.9104385375977
 20
-12.01196575164795
 11
-123.7751998901367
 21
-11.72194671630859
  0
LINE
  8
5
  6
CONTINUOUS
 62
     3
 10
-128.9857635498047
 20
-9.645302772521973
 11
-128.8505249023438
 21
-9.355284690856934
  0
LINE
  8
5
  6
CONTINUOUS
 62
     3
 10
-123.1328201293945
 20
-10.34435939788818
 11
-122.7039947509766
 21
-10.54432678222656
  0
LINE
  8
5
  6
CONTINUOUS
 62
     3
 10
-123.2680587768555
 20
-10.63437843322754
 11
-122.7726364135742
 21
-10.86539840698242
  0
LINE
  8
5
  6
CONTINUOUS
 62
     3
 10
-123.9104385375977
 20
-12.01196575164795
 11
-123.4816055297852
 21
-12.21193313598633
  0
LINE
  8
5
  6
CONTINUOUS
 62
     3
 10
-123.7751998901367
 20
-11.72194671630859
 11
-123.2797775268555
 21
-11.95296669006348
  0
LINE
  8
5
  6
CONTINUOUS
 62
     3
 10
-126.408821105957
 20
-12.92130184173584
 11
-126.6087875366211
 21
-13.35013389587402
  0
LINE
  8
5
  6
CONTINUOUS
 62
     3
 10
-126.6988372802734
 20
-12.78606414794922
 11
-126.9298629760742
 21
-13.2814884185791
  0
LINE
  8
5
  6
CONTINUOUS
 62
     3
 10
-127.7864074707031
 20
-12.27892208099365
 11
-128.0174255371094
 21
-12.77434635162354
  0
LINE
  8
5
  6
CONTINUOUS
 62
     3
 10
-128.0764312744141
 20
-12.14368438720703
 11
-128.2763977050781
 21
-12.57251644134522
  0
LINE
  8
5
  6
CONTINUOUS
 62
     3
 10
-127.4133758544922
 20
-11.46672058105469
 11
-128.8204040527344
 21
-11.97883605957031
  0
LINE
  8
5
  6
CONTINUOUS
 62
     3
 10
-127.6469039916992
 20
-11.21117973327637
 11
-128.9989013671875
 21
-11.70326519012451
  0
LINE
  8
5
  6
CONTINUOUS
 62
     3
 10
-128.0573272705078
 20
-10.0835485458374
 11
-129.4093170166016
 21
-10.57563400268555
  0
LINE
  8
5
  6
CONTINUOUS
 62
     3
 10
-128.0426940917969
 20
-9.737686157226563
 11
-129.4497222900391
 21
-10.24980163574219
  0
LINE
  8
5
  6
CONTINUOUS
 62
     3
 10
-127.2756423950195
 20
-8.407223701477051
 11
-127.7677307128906
 21
-7.055230140686035
  0
LINE
  8
5
  6
CONTINUOUS
 62
     3
 10
-127.5311813354492
 20
-8.640748023986816
 11
-128.0433044433594
 21
-7.23372220993042
  0
LINE
  8
5
  6
CONTINUOUS
 62
     3
 10
-125.8021469116211
 20
-8.011430740356445
 11
-126.3142623901367
 21
-6.604404926300049
  0
LINE
  8
5
  6
CONTINUOUS
 62
     3
 10
-126.1480102539063
 20
-7.996799945831299
 11
-126.6400985717773
 21
-6.644805908203125
  0
LINE
  8
5
  6
CENTER
 62
     4
 10
-145.7666778564453
 20
-0.8051249980926514
 11
-128.4994506835938
 21
-8.856967926025391
  0
LINE
  8
5
  6
CENTER
 62
     4
 10
-144.3761596679688
 20
-16.6616268157959
 11
-107.7868270874023
 21
-3.344197034835815
  0
LINE
  8
5
  6
CENTER
 62
     4
 10
-135.0865783691406
 20
-29.35390853881836
 11
-127.2106094360352
 21
-12.46383857727051
  0
LINE
  8
5
  6
CENTER
 62
     4
 10
-119.3942260742188
 20
-28.30695152282715
 11
-132.7344360351563
 21
8.344986915588379
  0
LINE
  8
5
  6
CONTINUOUS
 62
     3
 10
-109.1621017456055
 20
-3.206248998641968
 11
-109.2466125488281
 21
-3.237009048461914
  0
LINE
  8
5
  6
CONTINUOUS
 62
     3
 10
-109.2715454101563
 20
-2.90554690361023
 11
-109.3686828613281
 21
-2.9409019947052
  0
LINE
  8
5
  6
CONTINUOUS
 62
     3
 10
-108.7516784667969
 20
-4.333879947662354
 11
-108.8361892700195
 21
-4.364640235900879
  0
LINE
  8
5
  6
CONTINUOUS
 62
     3
 10
-108.6422271728516
 20
-4.634582042694092
 11
-108.7393646240234
 21
-4.669937133789063
  0
LINE
  8
5
  6
CONTINUOUS
 62
     3
 10
-109.0404663085938
 20
-4.779527187347412
 11
-110.245002746582
 21
-5.217944145202637
  0
LINE
  8
5
  6
CONTINUOUS
 62
     3
 10
-109.1370544433594
 20
-4.474147796630859
 11
-110.3405990600586
 21
-4.912201881408691
  0
LINE
  8
5
  6
CONTINUOUS
 62
     3
 10
-109.5474853515625
 20
-3.346517086029053
 11
-110.7510223388672
 21
-3.784570932388306
  0
LINE
  8
5
  6
CONTINUOUS
 62
     3
 10
-109.6697769165039
 20
-3.050493001937866
 11
-110.8743209838867
 21
-3.488909959793091
  0
LINE
  8
5
  6
CONTINUOUS
 62
     3
 10
-111.1754989624023
 20
-3.598530054092407
 11
-112.3804168701172
 21
-4.037084102630615
  0
LINE
  8
5
  6
CONTINUOUS
 62
     3
 10
-111.0519332885742
 20
-3.894090890884399
 11
-112.2556304931641
 21
-4.332202911376953
  0
LINE
  8
5
  6
CONTINUOUS
 62
     3
 10
-110.6415023803711
 20
-5.021721839904785
 11
-111.8452072143555
 21
-5.459834098815918
  0
LINE
  8
5
  6
CONTINUOUS
 62
     3
 10
-110.5461807250977
 20
-5.327563762664795
 11
-111.7510986328125
 21
-5.766118049621582
  0
LINE
  8
5
  6
CONTINUOUS
 62
     3
 10
-112.1461563110352
 20
-5.569371223449707
 11
-113.3500823974609
 21
-6.00756311416626
  0
LINE
  8
5
  6
CONTINUOUS
 62
     3
 10
-112.0523910522461
 20
-5.875778198242188
 11
-113.2578201293945
 21
-6.314519882202148
  0
LINE
  8
5
  6
CONTINUOUS
 62
     3
 10
-112.6817016601563
 20
-4.146743774414063
 11
-113.8871383666992
 21
-4.585484981536865
  0
LINE
  8
5
  6
CONTINUOUS
 62
     3
 10
-112.5565872192383
 20
-4.441740036010742
 11
-113.7605056762695
 21
-4.879931926727295
  0
LINE
  8
5
  6
CONTINUOUS
 62
     3
 10
-114.1885757446289
 20
-4.695199966430664
 11
-115.3947372436523
 21
-5.134206771850586
  0
LINE
  8
5
  6
CONTINUOUS
 62
     3
 10
-114.0615234375
 20
-4.989491939544678
 11
-115.2657470703125
 21
-5.427795886993408
  0
LINE
  8
5
  6
CONTINUOUS
 62
     3
 10
-113.6510925292969
 20
-6.117123126983643
 11
-114.8553237915039
 21
-6.555427074432373
  0
LINE
  8
5
  6
CONTINUOUS
 62
     3
 10
-113.5592575073242
 20
-6.424234867095947
 11
-114.7654190063477
 21
-6.863242149353027
  0
LINE
  8
5
  6
CONTINUOUS
 62
     3
 10
-115.6963958740234
 20
-5.244001865386963
 11
-116.9036407470703
 21
-5.683403015136719
  0
LINE
  8
5
  6
CONTINUOUS
 62
     3
 10
-115.5668563842773
 20
-5.537390232086182
 11
-116.7715454101563
 21
-5.975861072540283
  0
LINE
  8
5
  6
CONTINUOUS
 62
     3
 10
-115.1564331054688
 20
-6.665020942687988
 11
-116.3611221313477
 21
-7.10349178314209
  0
LINE
  8
5
  6
CONTINUOUS
 62
     3
 10
-115.0670776367188
 20
-6.97303581237793
 11
-116.2743225097656
 21
-7.412436962127686
  0
LINE
  8
5
  6
CONTINUOUS
 62
     3
 10
-117.2056350708008
 20
-5.793319225311279
 11
-118.4145812988281
 21
-6.233341217041016
  0
LINE
  8
5
  6
CONTINUOUS
 62
     3
 10
-117.0727920532227
 20
-6.085505962371826
 11
-118.2781982421875
 21
-6.52423906326294
  0
LINE
  8
5
  6
CONTINUOUS
 62
     3
 10
-116.6623687744141
 20
-7.213137149810791
 11
-117.8677749633789
 21
-7.651869773864746
  0
LINE
  8
5
  6
CONTINUOUS
 62
     3
 10
-116.5763168334961
 20
-7.522353172302246
 11
-117.785270690918
 21
-7.962375164031982
  0
LINE
  8
5
  6
CONTINUOUS
 62
     3
 10
-118.7171249389648
 20
-6.343455791473389
 11
-119.9290008544922
 21
-6.784544944763184
  0
LINE
  8
5
  6
CONTINUOUS
 62
     3
 10
-118.5796813964844
 20
-6.633967876434326
 11
-119.7863235473633
 21
-7.073150157928467
  0
LINE
  8
5
  6
CONTINUOUS
 62
     3
 10
-118.1692581176758
 20
-7.761599063873291
 11
-119.3759002685547
 21
-8.200780868530273
  0
LINE
  8
5
  6
CONTINUOUS
 62
     3
 10
-118.0878067016602
 20
-8.072490692138672
 11
-119.299690246582
 21
-8.513579368591309
  0
LINE
  8
5
  6
CONTINUOUS
 62
     3
 10
-119.6777954101563
 20
-8.310661315917969
 11
-120.8868103027344
 21
-8.75070858001709
  0
LINE
  8
5
  6
CONTINUOUS
 62
     3
 10
-119.6032104492188
 20
-8.624053955078125
 11
-120.8207855224609
 21
-9.067214965820313
  0
LINE
  8
5
  6
CONTINUOUS
 62
     3
 10
-120.2325286865234
 20
-6.895019054412842
 11
-121.4501037597656
 21
-7.338181018829346
  0
LINE
  8
5
  6
CONTINUOUS
 62
     3
 10
-120.0882186889648
 20
-7.183030128479004
 11
-121.297233581543
 21
-7.623077869415283
  0
LINE
  8
5
  6
CONTINUOUS
 62
     3
 10
-121.7557067871094
 20
-7.449410915374756
 11
-122.9868850708008
 21
-7.89752197265625
  0
LINE
  8
5
  6
CONTINUOUS
 62
     3
 10
-121.5999908447266
 20
-7.733272075653076
 11
-122.8146209716797
 21
-8.175358772277832
  0
LINE
  8
5
  6
CONTINUOUS
 62
     3
 10
-121.189567565918
 20
-8.860902786254883
 11
-122.4041976928711
 21
-9.302989959716797
  0
LINE
  8
5
  6
CONTINUOUS
 62
     3
 10
-121.1263961791992
 20
-9.178445816040039
 11
-122.3575668334961
 21
-9.626557350158691
  0
LINE
  8
5
  6
CONTINUOUS
 62
     3
 10
-123.2981872558594
 20
-8.010826110839844
 11
-124.705207824707
 21
-8.522941589355469
  0
LINE
  8
5
  6
CONTINUOUS
 62
     3
 10
-123.1196899414063
 20
-8.286396980285645
 11
-124.4716873168945
 21
-8.778483390808106
  0
LINE
  8
5
  6
CONTINUOUS
 62
     3
 10
-122.7092666625977
 20
-9.414029121398926
 11
-124.0612640380859
 21
-9.906113624572754
  0
LINE
  8
5
  6
CONTINUOUS
 62
     3
 10
-122.6688690185547
 20
-9.739860534667969
 11
-124.0758972167969
 21
-10.25197601318359
  0
LINE
  8
5
  6
CONTINUOUS
 62
     3
 10
-129.7610168457031
 20
-10.36310577392578
 11
-130.9921875
 21
-10.81121730804443
  0
LINE
  8
5
  6
CONTINUOUS
 62
     3
 10
-129.7144012451172
 20
-10.68667221069336
 11
-130.9290161132813
 21
-11.12875938415527
  0
LINE
  8
5
  6
CONTINUOUS
 62
     3
 10
-129.3039703369141
 20
-11.81430339813232
 11
-130.5186004638672
 21
-12.25638961791992
  0
LINE
  8
5
  6
CONTINUOUS
 62
     3
 10
-129.1316986083984
 20
-12.09214019775391
 11
-130.3628845214844
 21
-12.54025077819824
  0
LINE
  8
5
  6
CONTINUOUS
 62
     3
 10
-131.2977905273438
 20
-10.92244720458984
 11
-132.515380859375
 21
-11.36560916900635
  0
LINE
  8
5
  6
CONTINUOUS
 62
     3
 10
-131.2317810058594
 20
-11.23895359039307
 11
-132.4407958984375
 21
-11.67900085449219
  0
LINE
  8
5
  6
CONTINUOUS
 62
     3
 10
-130.6684875488281
 20
-12.65148162841797
 11
-131.8860626220703
 21
-13.09464263916016
  0
LINE
  8
5
  6
CONTINUOUS
 62
     3
 10
-130.8213500976563
 20
-12.36658477783203
 11
-132.0303649902344
 21
-12.80663299560547
  0
LINE
  8
5
  6
CONTINUOUS
 62
     3
 10
-132.8188934326172
 20
-11.47608375549316
 11
-134.0307769775391
 21
-11.9171724319458
  0
LINE
  8
5
  6
CONTINUOUS
 62
     3
 10
-132.7426910400391
 20
-11.7888822555542
 11
-133.9493255615234
 21
-12.22806262969971
  0
LINE
  8
5
  6
CONTINUOUS
 62
     3
 10
-132.3322601318359
 20
-12.91651344299316
 11
-133.5389099121094
 21
-13.35569381713867
  0
LINE
  8
5
  6
CONTINUOUS
 62
     3
 10
-132.1895904541016
 20
-13.20511817932129
 11
-133.4014587402344
 21
-13.64620590209961
  0
LINE
  8
5
  6
CONTINUOUS
 62
     3
 10
-134.3333282470703
 20
-12.02728652954102
 11
-135.5422668457031
 21
-12.46730899810791
  0
LINE
  8
5
  6
CONTINUOUS
 62
     3
 10
-134.2508087158203
 20
-12.33779335021973
 11
-135.4562225341797
 21
-12.77652454376221
  0
LINE
  8
5
  6
CONTINUOUS
 62
     3
 10
-133.7040100097656
 20
-13.75632190704346
 11
-134.9129486083984
 21
-14.19634437561035
  0
LINE
  8
5
  6
CONTINUOUS
 62
     3
 10
-133.8403930664063
 20
-13.46542358398438
 11
-135.0457916259766
 21
-13.90415573120117
  0
LINE
  8
5
  6
CONTINUOUS
 62
     3
 10
-135.3470458984375
 20
-14.01380157470703
 11
-136.5517272949219
 21
-14.45227241516113
  0
LINE
  8
5
  6
CONTINUOUS
 62
     3
 10
-135.2149505615234
 20
-14.30626010894775
 11
-136.4221954345703
 21
-14.74566078186035
  0
LINE
  8
5
  6
CONTINUOUS
 62
     3
 10
-135.8442687988281
 20
-12.57722568511963
 11
-137.051513671875
 21
-13.01662635803223
  0
LINE
  8
5
  6
CONTINUOUS
 62
     3
 10
-135.7574615478516
 20
-12.88617134094238
 11
-136.962158203125
 21
-13.32464122772217
  0
LINE
  8
5
  6
CONTINUOUS
 62
     3
 10
-137.3531646728516
 20
-13.12642097473145
 11
-138.559326171875
 21
-13.56542778015137
  0
LINE
  8
5
  6
CONTINUOUS
 62
     3
 10
-137.2632598876953
 20
-13.43423461914063
 11
-138.4674987792969
 21
-13.87253856658936
  0
LINE
  8
5
  6
CONTINUOUS
 62
     3
 10
-136.8528442382813
 20
-14.56186676025391
 11
-138.0570678710938
 21
-15.00017070770264
  0
LINE
  8
5
  6
CONTINUOUS
 62
     3
 10
-136.7238464355469
 20
-14.85545539855957
 11
-137.9300079345703
 21
-15.29446220397949
  0
LINE
  8
5
  6
CONTINUOUS
 62
     3
 10
-138.8607635498047
 20
-13.67514324188232
 11
-140.0661926269531
 21
-14.11388397216797
  0
LINE
  8
5
  6
CONTINUOUS
 62
     3
 10
-138.7685089111328
 20
-13.98209953308106
 11
-139.9724273681641
 21
-14.42029094696045
  0
LINE
  8
5
  6
CONTINUOUS
 62
     3
 10
-138.3580780029297
 20
-15.10973072052002
 11
-139.5619964599609
 21
-15.54792213439941
  0
LINE
  8
5
  6
CONTINUOUS
 62
     3
 10
-138.2314453125
 20
-15.40417671203613
 11
-139.4368743896484
 21
-15.84291934967041
  0
LINE
  8
5
  6
CONTINUOUS
 62
     3
 10
-139.7381744384766
 20
-15.9525785446167
 11
-140.9430847167969
 21
-16.39113235473633
  0
LINE
  8
5
  6
CONTINUOUS
 62
     3
 10
-139.8629608154297
 20
-15.6574592590332
 11
-141.066650390625
 21
-16.09557151794434
  0
LINE
  8
5
  6
CONTINUOUS
 62
     3
 10
-140.2733764648438
 20
-14.52982807159424
 11
-141.4770812988281
 21
-14.96794033050537
  0
LINE
  8
5
  6
CONTINUOUS
 62
     3
 10
-140.3674926757813
 20
-14.22354412078857
 11
-141.5724029541016
 21
-14.6620979309082
  0
LINE
  8
5
  6
CONTINUOUS
 62
     3
 10
-141.8735809326172
 20
-14.77171802520752
 11
-143.078125
 21
-15.21013641357422
  0
LINE
  8
5
  6
CONTINUOUS
 62
     3
 10
-141.7779846191406
 20
-15.07746124267578
 11
-142.9815216064453
 21
-15.51551532745361
  0
LINE
  8
5
  6
CONTINUOUS
 62
     3
 10
-141.3675689697266
 20
-16.20509147644043
 11
-142.5711059570313
 21
-16.64314651489258
  0
LINE
  8
5
  6
CONTINUOUS
 62
     3
 10
-141.2442626953125
 20
-16.50075340270996
 11
-142.4488067626953
 21
-16.93917083740234
  0
LINE
  8
5
  6
CONTINUOUS
 62
     3
 10
-142.7499084472656
 20
-17.04875946044922
 11
-142.8470458984375
 21
-17.08411407470703
  0
LINE
  8
5
  6
CONTINUOUS
 62
     3
 10
-142.8719787597656
 20
-16.75265312194824
 11
-142.9564819335938
 21
-16.78341293334961
  0
LINE
  8
5
  6
CONTINUOUS
 62
     3
 10
-143.2823944091797
 20
-15.62502193450928
 11
-143.3669128417969
 21
-15.65578174591065
  0
LINE
  8
5
  6
CONTINUOUS
 62
     3
 10
-143.3792266845703
 20
-15.31972599029541
 11
-143.4763641357422
 21
-15.35508060455322
  0
LINE
  8
5
  6
CONTINUOUS
 62
     3
 10
-119.1149520874023
 20
-26.38434410095215
 11
-119.5533752441406
 21
-25.1798038482666
  0
LINE
  8
5
  6
CONTINUOUS
 62
     3
 10
-119.4109802246094
 20
-26.50664329528809
 11
-119.8490295410156
 21
-25.30309867858887
  0
LINE
  8
5
  6
CONTINUOUS
 62
     3
 10
-120.5386123657227
 20
-26.91706657409668
 11
-120.9766616821289
 21
-25.71352386474609
  0
LINE
  8
5
  6
CONTINUOUS
 62
     3
 10
-120.8439865112305
 20
-27.01366233825684
 11
-121.2824096679688
 21
-25.80912017822266
  0
LINE
  8
5
  6
CONTINUOUS
 62
     3
 10
-143.7966461181641
 20
-0.7086629867553711
 11
-142.0715942382813
 21
-1.513062000274658
  0
LINE
  8
5
  6
CONTINUOUS
 62
     3
 10
-143.931884765625
 20
-0.9986810088157654
 11
-142.2190093994141
 21
-1.79740297794342
  0
LINE
  8
5
  6
CONTINUOUS
 62
     3
 10
-144.5742645263672
 20
-2.376269102096558
 11
-142.8492126464844
 21
-3.180668115615845
  0
LINE
  8
5
  6
CONTINUOUS
 62
     3
 10
-144.4390258789063
 20
-2.086251020431519
 11
-142.7261505126953
 21
-2.884972095489502
  0
LINE
  8
5
  6
CONTINUOUS
 62
     3
 10
-141.7812042236328
 20
-1.648478031158447
 11
-140.6194610595703
 21
-2.190208911895752
  0
LINE
  8
5
  6
CONTINUOUS
 62
     3
 10
-141.9288330078125
 20
-1.932716012001038
 11
-140.7680511474609
 21
-2.4739990234375
  0
LINE
  8
5
  6
CONTINUOUS
 62
     3
 10
-142.4359741210938
 20
-3.020286083221436
 11
-141.2751922607422
 21
-3.561568975448608
  0
LINE
  8
5
  6
CONTINUOUS
 62
     3
 10
-142.5588226318359
 20
-3.316083908081055
 11
-141.3970794677734
 21
-3.857815980911255
  0
LINE
  8
5
  6
CONTINUOUS
 62
     3
 10
-140.4778289794922
 20
-2.609328031539917
 11
-139.31689453125
 21
-3.150682926177979
  0
LINE
  8
5
  6
CONTINUOUS
 62
     3
 10
-140.3289794921875
 20
-2.325660943984985
 11
-139.1668701171875
 21
-2.867562055587769
  0
LINE
  8
5
  6
CONTINUOUS
 62
     3
 10
-140.9849700927734
 20
-3.696897029876709
 11
-139.8240356445313
 21
-4.23825216293335
  0
LINE
  8
5
  6
CONTINUOUS
 62
     3
 10
-141.1065979003906
 20
-3.993268013000488
 11
-139.9444885253906
 21
-4.535169124603272
  0
LINE
  8
5
  6
CONTINUOUS
 62
     3
 10
-138.8762817382813
 20
-3.003063917160034
 11
-137.7136688232422
 21
-3.545196056365967
  0
LINE
  8
5
  6
CONTINUOUS
 62
     3
 10
-139.0266418457031
 20
-3.286032915115356
 11
-137.8654937744141
 21
-3.827485084533691
  0
LINE
  8
5
  6
CONTINUOUS
 62
     3
 10
-139.5337829589844
 20
-4.373601913452148
 11
-138.3726348876953
 21
-4.915054798126221
  0
LINE
  8
5
  6
CONTINUOUS
 62
     3
 10
-139.6539001464844
 20
-4.670670032501221
 11
-138.4912872314453
 21
-5.212802886962891
  0
LINE
  8
5
  6
CONTINUOUS
 62
     3
 10
-137.5751647949219
 20
-3.962863922119141
 11
-136.4137268066406
 21
-4.504456043243408
  0
LINE
  8
5
  6
CONTINUOUS
 62
     3
 10
-137.4229431152344
 20
-3.680766105651856
 11
-136.2596435546875
 21
-4.223226070404053
  0
LINE
  8
5
  6
CONTINUOUS
 62
     3
 10
-138.2005615234375
 20
-5.348371982574463
 11
-137.0372467041016
 21
-5.89083194732666
  0
LINE
  8
5
  6
CONTINUOUS
 62
     3
 10
-138.0823059082031
 20
-5.050433158874512
 11
-136.9208679199219
 21
-5.592024803161621
  0
LINE
  8
5
  6
CONTINUOUS
 62
     3
 10
-135.9686889648438
 20
-4.358893871307373
 11
-134.8043365478516
 21
-4.901841163635254
  0
LINE
  8
5
  6
CONTINUOUS
 62
     3
 10
-136.1233062744141
 20
-4.639875888824463
 11
-134.96142578125
 21
-5.181673049926758
  0
LINE
  8
5
  6
CONTINUOUS
 62
     3
 10
-136.6304473876953
 20
-5.727445125579834
 11
-135.4685668945313
 21
-6.269242763519287
  0
LINE
  8
5
  6
CONTINUOUS
 62
     3
 10
-136.7463073730469
 20
-6.026501178741455
 11
-135.5819549560547
 21
-6.569447040557861
  0
LINE
  8
5
  6
CONTINUOUS
 62
     3
 10
-134.5130767822266
 20
-5.037660121917725
 11
-133.3470764160156
 21
-5.581374168395996
  0
LINE
  8
5
  6
CONTINUOUS
 62
     3
 10
-134.6708831787109
 20
-5.317156791687012
 11
-133.50830078125
 21
-5.859279155731201
  0
LINE
  8
5
  6
CONTINUOUS
 62
     3
 10
-135.1780242919922
 20
-6.404726982116699
 11
-134.0154418945313
 21
-6.946847915649414
  0
LINE
  8
5
  6
CONTINUOUS
 62
     3
 10
-135.2906951904297
 20
-6.705265998840332
 11
-134.1246948242188
 21
-7.248980045318604
  0
LINE
  8
5
  6
CONTINUOUS
 62
     3
 10
-133.0552825927734
 20
-5.7174391746521
 11
-131.8864593505859
 21
-6.262471199035645
  0
LINE
  8
5
  6
CONTINUOUS
 62
     3
 10
-133.217529296875
 20
-5.994865894317627
 11
-132.0537567138672
 21
-6.53754186630249
  0
LINE
  8
5
  6
CONTINUOUS
 62
     3
 10
-133.7246704101563
 20
-7.082436084747315
 11
-132.5608978271484
 21
-7.625111103057861
  0
LINE
  8
5
  6
CONTINUOUS
 62
     3
 10
-133.8329010009766
 20
-7.385045051574707
 11
-132.6640777587891
 21
-7.930077075958252
  0
LINE
  8
5
  6
CONTINUOUS
 62
     3
 10
-131.7625885009766
 20
-6.67331600189209
 11
-130.5965118408203
 21
-7.217061996459961
  0
LINE
  8
5
  6
CONTINUOUS
 62
     3
 10
-131.5937194824219
 20
-6.398979187011719
 11
-130.4194030761719
 21
-6.946572780609131
  0
LINE
  8
5
  6
CONTINUOUS
 62
     3
 10
-132.371337890625
 20
-8.066585540771484
 11
-131.197021484375
 21
-8.614178657531738
  0
LINE
  8
5
  6
CONTINUOUS
 62
     3
 10
-132.2697296142578
 20
-7.760884761810303
 11
-131.1036529541016
 21
-8.304632186889648
  0
LINE
  8
5
  6
CONTINUOUS
 62
     3
 10
-130.1246490478516
 20
-7.084014892578125
 11
-128.9372253417969
 21
-7.637724876403809
  0
LINE
  8
5
  6
CONTINUOUS
 62
     3
 10
-130.3045196533203
 20
-7.353225231170654
 11
-129.1330413818359
 21
-7.899490833282471
  0
LINE
  8
5
  6
CONTINUOUS
 62
     3
 10
-130.8116607666016
 20
-8.440793991088867
 11
-129.6401824951172
 21
-8.987059593200684
  0
LINE
  8
5
  6
CONTINUOUS
 62
     3
 10
-130.9022674560547
 20
-8.751622200012207
 11
-129.7148284912109
 21
-9.305332183837891
  0
LINE
  8
5
  6
CONTINUOUS
 62
     3
 10
-128.6369781494141
 20
-7.777729034423828
 11
-128.2081451416016
 21
-7.977696895599365
  0
LINE
  8
5
  6
CONTINUOUS
 62
     3
 10
-128.8388061523438
 20
-8.036694526672363
 11
-128.3433837890625
 21
-8.267715454101563
  0
LINE
  8
5
  6
CONTINUOUS
 62
     3
 10
-129.345947265625
 20
-9.124264717102051
 11
-128.8505249023438
 21
-9.355284690856934
  0
LINE
  8
5
  6
CONTINUOUS
 62
     3
 10
-129.4145965576172
 20
-9.44533634185791
 11
-128.9857635498047
 21
-9.645302772521973
  0
LINE
  8
5
  6
CONTINUOUS
 62
     3
 10
-123.1813659667969
 20
-12.35193729400635
 11
-121.9939346313477
 21
-12.90564727783203
  0
LINE
  8
5
  6
CONTINUOUS
 62
     3
 10
-122.9855422973633
 20
-12.09017181396484
 11
-121.8140716552734
 21
-12.63643836975098
  0
LINE
  8
5
  6
CONTINUOUS
 62
     3
 10
-122.478401184082
 20
-11.00260257720947
 11
-121.3069305419922
 21
-11.54886817932129
  0
LINE
  8
5
  6
CONTINUOUS
 62
     3
 10
-122.4037475585938
 20
-10.68433094024658
 11
-121.2163162231445
 21
-11.23804092407227
  0
LINE
  8
5
  6
CONTINUOUS
 62
     3
 10
-120.9215698242188
 20
-11.3754825592041
 11
-119.7472534179688
 21
-11.92307662963867
  0
LINE
  8
5
  6
CONTINUOUS
 62
     3
 10
-121.0149307250977
 20
-11.68503093719482
 11
-119.8488616943359
 21
-12.2287769317627
  0
LINE
  8
5
  6
CONTINUOUS
 62
     3
 10
-121.5220718383789
 20
-12.7726001739502
 11
-120.3560028076172
 21
-13.31634712219238
  0
LINE
  8
5
  6
CONTINUOUS
 62
     3
 10
-121.6991882324219
 20
-13.04308986663818
 11
-120.5248718261719
 21
-13.59068298339844
  0
LINE
  8
5
  6
CONTINUOUS
 62
     3
 10
-120.2321243286133
 20
-13.72719192504883
 11
-119.0633010864258
 21
-14.27222442626953
  0
LINE
  8
5
  6
CONTINUOUS
 62
     3
 10
-120.0648345947266
 20
-13.45212078094482
 11
-118.9010620117188
 21
-13.99479579925537
  0
LINE
  8
5
  6
CONTINUOUS
 62
     3
 10
-119.5576934814453
 20
-12.36455059051514
 11
-118.3939208984375
 21
-12.9072265625
  0
LINE
  8
5
  6
CONTINUOUS
 62
     3
 10
-119.4545059204102
 20
-12.05958557128906
 11
-118.2856826782227
 21
-12.60461807250977
  0
LINE
  8
5
  6
CONTINUOUS
 62
     3
 10
-117.9938888549805
 20
-12.7406816482544
 11
-116.8278961181641
 21
-13.28439617156982
  0
LINE
  8
5
  6
CONTINUOUS
 62
     3
 10
-118.1031494140625
 20
-13.04281520843506
 11
-116.9405670166016
 21
-13.58493614196777
  0
LINE
  8
5
  6
CONTINUOUS
 62
     3
 10
-118.6102905273438
 20
-14.13038444519043
 11
-117.4477081298828
 21
-14.67250537872315
  0
LINE
  8
5
  6
CONTINUOUS
 62
     3
 10
-118.7715072631836
 20
-14.40828800201416
 11
-117.6055145263672
 21
-14.95200252532959
  0
LINE
  8
5
  6
CONTINUOUS
 62
     3
 10
-117.3142471313477
 20
-15.0878210067749
 11
-116.1498947143555
 21
-15.63076782226563
  0
LINE
  8
5
  6
CONTINUOUS
 62
     3
 10
-117.1571655273438
 20
-14.8079891204834
 11
-115.9952774047852
 21
-15.34978675842285
  0
LINE
  8
5
  6
CONTINUOUS
 62
     3
 10
-116.5366287231445
 20
-13.42021465301514
 11
-115.3722763061523
 21
-13.96316242218018
  0
LINE
  8
5
  6
CONTINUOUS
 62
     3
 10
-116.6500244140625
 20
-13.72041988372803
 11
-115.4881362915039
 21
-14.26221656799316
  0
LINE
  8
5
  6
CONTINUOUS
 62
     3
 10
-115.0813369750977
 20
-14.0988302230835
 11
-113.9180221557617
 21
-14.64128971099854
  0
LINE
  8
5
  6
CONTINUOUS
 62
     3
 10
-115.1977233886719
 20
-14.39763832092285
 11
-114.0362777709961
 21
-14.93922901153565
  0
LINE
  8
5
  6
CONTINUOUS
 62
     3
 10
-115.7048645019531
 20
-15.48520660400391
 11
-114.5434188842773
 21
-16.02679824829102
  0
LINE
  8
5
  6
CONTINUOUS
 62
     3
 10
-115.8589553833008
 20
-15.76643562316895
 11
-114.6956405639648
 21
-16.30889701843262
  0
LINE
  8
5
  6
CONTINUOUS
 62
     3
 10
-113.6272964477539
 20
-14.77686023712158
 11
-112.4646911621094
 21
-15.31899166107178
  0
LINE
  8
5
  6
CONTINUOUS
 62
     3
 10
-113.7459564208984
 20
-15.07460784912109
 11
-112.5848083496094
 21
-15.61606121063232
  0
LINE
  8
5
  6
CONTINUOUS
 62
     3
 10
-114.2530975341797
 20
-16.16217613220215
 11
-113.0919494628906
 21
-16.7036304473877
  0
LINE
  8
5
  6
CONTINUOUS
 62
     3
 10
-114.404914855957
 20
-16.44446563720703
 11
-113.2423095703125
 21
-16.98659896850586
  0
LINE
  8
5
  6
CONTINUOUS
 62
     3
 10
-112.1741027832031
 20
-15.45449447631836
 11
-111.0119934082031
 21
-15.99639511108398
  0
LINE
  8
5
  6
CONTINUOUS
 62
     3
 10
-112.294548034668
 20
-15.75140953063965
 11
-111.1336135864258
 21
-16.29276466369629
  0
LINE
  8
5
  6
CONTINUOUS
 62
     3
 10
-112.8016891479492
 20
-16.83897972106934
 11
-111.640754699707
 21
-17.38033485412598
  0
LINE
  8
5
  6
CONTINUOUS
 62
     3
 10
-112.9517211914063
 20
-17.12210083007813
 11
-111.7896118164063
 21
-17.66400146484375
  0
LINE
  8
5
  6
CONTINUOUS
 62
     3
 10
-110.7215194702148
 20
-16.1318473815918
 11
-109.5597686767578
 21
-16.6735782623291
  0
LINE
  8
5
  6
CONTINUOUS
 62
     3
 10
-110.8433990478516
 20
-16.4280948638916
 11
-109.6826095581055
 21
-16.9693775177002
  0
LINE
  8
5
  6
CONTINUOUS
 62
     3
 10
-111.3505401611328
 20
-17.51566314697266
 11
-110.1897506713867
 21
-18.05694580078125
  0
LINE
  8
5
  6
CONTINUOUS
 62
     3
 10
-111.4991302490234
 20
-17.79945373535156
 11
-110.3373870849609
 21
-18.34118461608887
  0
LINE
  8
5
  6
CONTINUOUS
 62
     3
 10
-109.2693710327148
 20
-16.80899429321289
 11
-107.5443267822266
 21
-17.61339378356934
  0
LINE
  8
5
  6
CONTINUOUS
 62
     3
 10
-109.3924331665039
 20
-17.10469055175781
 11
-107.6795654296875
 21
-17.90341186523438
  0
LINE
  8
5
  6
CONTINUOUS
 62
     3
 10
-109.8995742797852
 20
-18.19225883483887
 11
-108.1867065429688
 21
-18.99098014831543
  0
LINE
  8
5
  6
CONTINUOUS
 62
     3
 10
-110.046989440918
 20
-18.47660064697266
 11
-108.3219451904297
 21
-19.2810001373291
  0
LINE
  8
5
  6
CONTINUOUS
 62
     3
 10
-134.5410614013672
 20
-26.00713920593262
 11
-135.345458984375
 21
-27.732177734375
  0
LINE
  8
5
  6
CONTINUOUS
 62
     3
 10
-134.2567291259766
 20
-26.1545524597168
 11
-135.0554504394531
 21
-27.86741638183594
  0
LINE
  8
5
  6
CONTINUOUS
 62
     3
 10
-133.1691589355469
 20
-26.66169357299805
 11
-133.9678802490234
 21
-28.37455749511719
  0
LINE
  8
5
  6
CONTINUOUS
 62
     3
 10
-132.8734588623047
 20
-26.78475570678711
 11
-133.6778564453125
 21
-28.50979614257813
  0
LINE
  8
5
  6
CONTINUOUS
 62
     3
 10
-132.1963043212891
 20
-25.33260917663574
 11
-132.738037109375
 21
-26.49435615539551
  0
LINE
  8
5
  6
CONTINUOUS
 62
     3
 10
-132.4925537109375
 20
-25.21072959899902
 11
-133.0338439941406
 21
-26.37151336669922
  0
LINE
  8
5
  6
CONTINUOUS
 62
     3
 10
-133.5801239013672
 20
-24.70358657836914
 11
-134.1214141845703
 21
-25.86437034606934
  0
LINE
  8
5
  6
CONTINUOUS
 62
     3
 10
-133.8639221191406
 20
-24.55499267578125
 11
-134.4056549072266
 21
-25.71673965454102
  0
LINE
  8
5
  6
CONTINUOUS
 62
     3
 10
-133.1865692138672
 20
-23.10240364074707
 11
-133.7284698486328
 21
-24.2645149230957
  0
LINE
  8
5
  6
CONTINUOUS
 62
     3
 10
-132.9034423828125
 20
-23.25243377685547
 11
-133.4447937011719
 21
-24.41337394714356
  0
LINE
  8
5
  6
CONTINUOUS
 62
     3
 10
-131.5189514160156
 20
-23.88002014160156
 11
-132.0608520507813
 21
-25.0421314239502
  0
LINE
  8
5
  6
CONTINUOUS
 62
     3
 10
-131.8158721923828
 20
-23.75957679748535
 11
-132.3572235107422
 21
-24.92051506042481
  0
LINE
  8
5
  6
CONTINUOUS
 62
     3
 10
-130.8413238525391
 20
-22.42683029174805
 11
-131.3834533691406
 21
-23.58943748474121
  0
LINE
  8
5
  6
CONTINUOUS
 62
     3
 10
-131.1390686035156
 20
-22.30816841125488
 11
-131.6805267333984
 21
-23.46931838989258
  0
LINE
  8
5
  6
CONTINUOUS
 62
     3
 10
-132.2266387939453
 20
-21.801025390625
 11
-132.7680969238281
 21
-22.9621753692627
  0
LINE
  8
5
  6
CONTINUOUS
 62
     3
 10
-132.5089263916016
 20
-21.64921379089356
 11
-133.0510559082031
 21
-22.81181907653809
  0
LINE
  8
5
  6
CONTINUOUS
 62
     3
 10
-130.1632995605469
 20
-20.97279167175293
 11
-130.7057495117188
 21
-22.13610076904297
  0
LINE
  8
5
  6
CONTINUOUS
 62
     3
 10
-130.4620971679688
 20
-20.85640144348145
 11
-131.0036926269531
 21
-22.01784706115723
  0
LINE
  8
5
  6
CONTINUOUS
 62
     3
 10
-131.5496673583984
 20
-20.34925842285156
 11
-132.0912628173828
 21
-21.51070594787598
  0
LINE
  8
5
  6
CONTINUOUS
 62
     3
 10
-131.8309020996094
 20
-20.19517326354981
 11
-132.3733520507813
 21
-21.35848236083984
  0
LINE
  8
5
  6
CONTINUOUS
 62
     3
 10
-131.1522827148438
 20
-18.73987770080566
 11
-131.6952362060547
 21
-19.90423202514648
  0
LINE
  8
5
  6
CONTINUOUS
 62
     3
 10
-130.8724517822266
 20
-18.8969612121582
 11
-131.4142456054688
 21
-20.0588493347168
  0
LINE
  8
5
  6
CONTINUOUS
 62
     3
 10
-129.7848815917969
 20
-19.40410232543945
 11
-130.3266754150391
 21
-20.56599044799805
  0
LINE
  8
5
  6
CONTINUOUS
 62
     3
 10
-129.4846801757813
 20
-19.51749610900879
 11
-130.0276184082031
 21
-20.68184852600098
  0
LINE
  8
5
  6
CONTINUOUS
 62
     3
 10
-128.8051452636719
 20
-18.06023216247559
 11
-129.3488616943359
 21
-19.22623252868652
  0
LINE
  8
5
  6
CONTINUOUS
 62
     3
 10
-129.1072845458984
 20
-17.95097351074219
 11
-129.6493988037109
 21
-19.11355590820313
  0
LINE
  8
5
  6
CONTINUOUS
 62
     3
 10
-130.1948394775391
 20
-17.44383239746094
 11
-130.7369689941406
 21
-18.60641479492188
  0
LINE
  8
5
  6
CONTINUOUS
 62
     3
 10
-130.4727478027344
 20
-17.28261566162109
 11
-131.0164642333984
 21
-18.4486141204834
  0
LINE
  8
5
  6
CONTINUOUS
 62
     3
 10
-129.7916564941406
 20
-15.82199859619141
 11
-130.3366851806641
 21
-16.99082374572754
  0
LINE
  8
5
  6
CONTINUOUS
 62
     3
 10
-129.5165863037109
 20
-15.98929119110107
 11
-130.0592651367188
 21
-17.15306282043457
  0
LINE
  8
5
  6
CONTINUOUS
 62
     3
 10
-128.4290161132813
 20
-16.49643325805664
 11
-128.9716949462891
 21
-17.66020584106445
  0
LINE
  8
5
  6
CONTINUOUS
 62
     3
 10
-128.1240539550781
 20
-16.59961700439453
 11
-128.6690826416016
 21
-17.76844024658203
  0
LINE
  8
5
  6
CONTINUOUS
 62
     3
 10
-127.4399490356445
 20
-15.13255405426025
 11
-127.9875411987305
 21
-16.3068733215332
  0
LINE
  8
5
  6
CONTINUOUS
 62
     3
 10
-127.7494964599609
 20
-15.03919696807861
 11
-128.2932434082031
 21
-16.20526504516602
  0
LINE
  8
5
  6
CONTINUOUS
 62
     3
 10
-128.8370666503906
 20
-14.53205490112305
 11
-129.3808135986328
 21
-15.69812297821045
  0
LINE
  8
5
  6
CONTINUOUS
 62
     3
 10
-129.1075592041016
 20
-14.35493659973145
 11
-129.6551513671875
 21
-15.52925491333008
  0
LINE
  8
5
  6
CONTINUOUS
 62
     3
 10
-126.7487945556641
 20
-13.65037441253662
 11
-127.3025054931641
 21
-14.83780860900879
  0
LINE
  8
5
  6
CONTINUOUS
 62
     3
 10
-127.0670623779297
 20
-13.57572460174561
 11
-127.6133346557617
 21
-14.74719619750977
  0
LINE
  8
5
  6
CONTINUOUS
 62
     3
 10
-128.1546325683594
 20
-13.06858253479004
 11
-128.7008972167969
 21
-14.2400541305542
  0
LINE
  8
5
  6
CONTINUOUS
 62
     3
 10
-128.4163970947266
 20
-12.8727560043335
 11
-128.9701080322266
 21
-14.06019115447998
  0
LINE
  8
5
  6
CONTINUOUS
 62
     3
 10
-118.9700088500977
 20
-26.78257751464844
 11
-119.0053634643555
 21
-26.6854419708252
  0
LINE
  8
5
  6
CONTINUOUS
 62
     3
 10
-119.2707138061523
 20
-26.89202499389648
 11
-119.3014755249023
 21
-26.8075122833252
  0
LINE
  8
5
  6
CONTINUOUS
 62
     3
 10
-120.3983459472656
 20
-27.30244827270508
 11
-120.4291000366211
 21
-27.21793556213379
  0
LINE
  8
5
  6
CONTINUOUS
 62
     3
 10
-120.6990432739258
 20
-27.41189575195313
 11
-120.7343978881836
 21
-27.31475830078125
  0
LINE
  8
5
  6
CONTINUOUS
 62
     3
 10
-121.086181640625
 20
-25.41261863708496
 11
-121.524299621582
 21
-24.20891571044922
  0
LINE
  8
5
  6
CONTINUOUS
 62
     3
 10
-121.3920288085938
 20
-25.50794219970703
 11
-121.8305816650391
 21
-24.30302429199219
  0
LINE
  8
5
  6
CONTINUOUS
 62
     3
 10
-119.6629943847656
 20
-24.87862586975098
 11
-120.1015472412109
 21
-23.6737060546875
  0
LINE
  8
5
  6
CONTINUOUS
 62
     3
 10
-119.9585571289063
 20
-25.00219535827637
 11
-120.3966674804688
 21
-23.79849243164063
  0
LINE
  8
5
  6
CONTINUOUS
 62
     3
 10
-120.2112045288086
 20
-23.37241935729981
 11
-120.6499481201172
 21
-22.1669864654541
  0
LINE
  8
5
  6
CONTINUOUS
 62
     3
 10
-120.5062026977539
 20
-23.49754142761231
 11
-120.9443969726563
 21
-22.29361915588379
  0
LINE
  8
5
  6
CONTINUOUS
 62
     3
 10
-121.6338348388672
 20
-23.9079647064209
 11
-122.072021484375
 21
-22.70404434204102
  0
LINE
  8
5
  6
CONTINUOUS
 62
     3
 10
-121.9402389526367
 20
-24.00173759460449
 11
-122.3789825439453
 21
-22.79630470275879
  0
LINE
  8
5
  6
CONTINUOUS
 62
     3
 10
-122.1815872192383
 20
-22.40302848815918
 11
-122.6198883056641
 21
-21.19879913330078
  0
LINE
  8
5
  6
CONTINUOUS
 62
     3
 10
-122.4886932373047
 20
-22.49486541748047
 11
-122.9277038574219
 21
-21.28870391845703
  0
LINE
  8
5
  6
CONTINUOUS
 62
     3
 10
-120.7596664428711
 20
-21.86554718017578
 11
-121.1986694335938
 21
-20.65938568115234
  0
LINE
  8
5
  6
CONTINUOUS
 62
     3
 10
-121.053955078125
 20
-21.99260520935059
 11
-121.4922561645508
 21
-20.78837585449219
  0
LINE
  8
5
  6
CONTINUOUS
 62
     3
 10
-121.308464050293
 20
-20.35772705078125
 11
-121.7478637695313
 21
-19.15048408508301
  0
LINE
  8
5
  6
CONTINUOUS
 62
     3
 10
-121.6018524169922
 20
-20.48726844787598
 11
-122.0403213500977
 21
-19.28257942199707
  0
LINE
  8
5
  6
CONTINUOUS
 62
     3
 10
-122.7294845581055
 20
-20.89769172668457
 11
-123.1679534912109
 21
-19.6930046081543
  0
LINE
  8
5
  6
CONTINUOUS
 62
     3
 10
-123.0374984741211
 20
-20.98704528808594
 11
-123.4768981933594
 21
-19.77980041503906
  0
LINE
  8
5
  6
CONTINUOUS
 62
     3
 10
-121.857780456543
 20
-18.84849166870117
 11
-122.2978057861328
 21
-17.63954162597656
  0
LINE
  8
5
  6
CONTINUOUS
 62
     3
 10
-122.1499710083008
 20
-18.98133087158203
 11
-122.5886993408203
 21
-17.77592277526856
  0
LINE
  8
5
  6
CONTINUOUS
 62
     3
 10
-123.2776031494141
 20
-19.39175415039063
 11
-123.7163314819336
 21
-18.18634605407715
  0
LINE
  8
5
  6
CONTINUOUS
 62
     3
 10
-123.5868148803711
 20
-19.47780799865723
 11
-124.0268402099609
 21
-18.26885795593262
  0
LINE
  8
5
  6
CONTINUOUS
 62
     3
 10
-123.8260650634766
 20
-17.88486862182617
 11
-124.2652435302734
 21
-16.67822647094727
  0
LINE
  8
5
  6
CONTINUOUS
 62
     3
 10
-124.1369552612305
 20
-17.96631813049316
 11
-124.5780410766602
 21
-16.75443840026856
  0
LINE
  8
5
  6
CONTINUOUS
 62
     3
 10
-122.4079208374023
 20
-17.33700180053711
 11
-122.849006652832
 21
-16.1251220703125
  0
LINE
  8
5
  6
CONTINUOUS
 62
     3
 10
-122.6984329223633
 20
-17.47444343566895
 11
-123.1376113891602
 21
-16.26780319213867
  0
LINE
  8
5
  6
CONTINUOUS
 62
     3
 10
-122.9594802856445
 20
-15.82159423828125
 11
-123.4026412963867
 21
-14.60401916503906
  0
LINE
  8
5
  6
CONTINUOUS
 62
     3
 10
-123.2474899291992
 20
-15.96590900421143
 11
-123.6875381469727
 21
-14.7568883895874
  0
LINE
  8
5
  6
CONTINUOUS
 62
     3
 10
-124.3751220703125
 20
-16.37633323669434
 11
-124.8151702880859
 21
-15.167311668396
  0
LINE
  8
5
  6
CONTINUOUS
 62
     3
 10
-124.6885147094727
 20
-16.45091056823731
 11
-125.1316757202148
 21
-15.23333644866943
  0
LINE
  8
5
  6
CONTINUOUS
 62
     3
 10
-124.9253692626953
 20
-14.86455535888672
 11
-125.3674545288086
 21
-13.64993095397949
  0
LINE
  8
5
  6
CONTINUOUS
 62
     3
 10
-125.2429046630859
 20
-14.92773246765137
 11
-125.6910171508789
 21
-13.69655704498291
  0
LINE
  8
5
  6
CONTINUOUS
 62
     3
 10
-123.5138702392578
 20
-14.298415184021
 11
-123.9619827270508
 21
-13.06723976135254
  0
LINE
  8
5
  6
CONTINUOUS
 62
     3
 10
-123.797737121582
 20
-14.45413112640381
 11
-124.2398223876953
 21
-13.23950672149658
  0
LINE
  8
5
  6
CONTINUOUS
 62
     3
 10
-124.0752868652344
 20
-12.7559404373169
 11
-124.58740234375
 21
-11.34891414642334
  0
LINE
  8
5
  6
CONTINUOUS
 62
     3
 10
-124.3508605957031
 20
-12.93443202972412
 11
-124.8429412841797
 21
-11.58243846893311
  0
LINE
  8
5
  6
CONTINUOUS
 62
     3
 10
-125.4784927368164
 20
-13.34485626220703
 11
-125.970573425293
 21
-11.99286270141602
  0
LINE
  8
5
  6
CONTINUOUS
 62
     3
 10
-125.8043212890625
 20
-13.38525676727295
 11
-126.3164367675781
 21
-11.97823238372803
  0
LINE
  8
5
  6
CONTINUOUS
 62
     3
 10
-125.5097961425781
 20
-6.639529228210449
 11
-125.7097625732422
 21
-7.068360805511475
  0
LINE
  8
5
  6
CONTINUOUS
 62
     3
 10
-125.1887283325195
 20
-6.708174228668213
 11
-125.4197463989258
 21
-7.203598976135254
  0
LINE
  8
5
  6
CONTINUOUS
 62
     3
 10
-124.1011581420898
 20
-7.215315818786621
 11
-124.3321762084961
 21
-7.710740089416504
  0
LINE
  8
5
  6
CONTINUOUS
 62
     3
 10
-123.8421936035156
 20
-7.4171462059021
 11
-124.0421600341797
 21
-7.845977783203125
  0
LINE
  8
5
  6
CONTINUOUS
 62
     3
 10
-123.1484756469727
 20
-5.929471969604492
 11
-123.7021865844727
 21
-7.11690616607666
  0
LINE
  8
5
  6
CONTINUOUS
 62
     3
 10
-123.4176864624023
 20
-5.749608993530273
 11
-123.9639511108398
 21
-6.921080112457275
  0
LINE
  8
5
  6
CONTINUOUS
 62
     3
 10
-124.505256652832
 20
-5.242466926574707
 11
-125.0515213012695
 21
-6.413938045501709
  0
LINE
  8
5
  6
CONTINUOUS
 62
     3
 10
-124.8160858154297
 20
-5.151854038238525
 11
-125.3697967529297
 21
-6.33928918838501
  0
LINE
  8
5
  6
CONTINUOUS
 62
     3
 10
-124.1310501098633
 20
-3.682790040969849
 11
-124.6786422729492
 21
-4.857108116149902
  0
LINE
  8
5
  6
CONTINUOUS
 62
     3
 10
-123.8253479003906
 20
-3.784398078918457
 11
-124.3690948486328
 21
-4.950466156005859
  0
LINE
  8
5
  6
CONTINUOUS
 62
     3
 10
-122.7377777099609
 20
-4.291540145874023
 11
-123.2815246582031
 21
-5.457606792449951
  0
LINE
  8
5
  6
CONTINUOUS
 62
     3
 10
-122.4634399414063
 20
-4.46040678024292
 11
-123.0110397338867
 21
-5.634726047515869
  0
LINE
  8
5
  6
CONTINUOUS
 62
     3
 10
-121.7818984985352
 20
-2.998838901519775
 11
-122.3269348144531
 21
-4.167664051055908
  0
LINE
  8
5
  6
CONTINUOUS
 62
     3
 10
-122.059326171875
 20
-2.836600065231323
 11
-122.6020050048828
 21
-4.000370979309082
  0
LINE
  8
5
  6
CONTINUOUS
 62
     3
 10
-123.1468963623047
 20
-2.329457998275757
 11
-123.6895751953125
 21
-3.493228912353516
  0
LINE
  8
5
  6
CONTINUOUS
 62
     3
 10
-123.4495086669922
 20
-2.221220970153809
 11
-123.9945373535156
 21
-3.390045881271362
  0
LINE
  8
5
  6
CONTINUOUS
 62
     3
 10
-121.1021194458008
 20
-1.541048049926758
 11
-121.6458358764648
 21
-2.707046985626221
  0
LINE
  8
5
  6
CONTINUOUS
 62
     3
 10
-121.3816223144531
 20
-1.383247971534729
 11
-121.9237442016602
 21
-2.545830965042114
  0
LINE
  8
5
  6
CONTINUOUS
 62
     3
 10
-122.4691925048828
 20
-0.8761060237884522
 11
-123.0113143920898
 21
-2.038688898086548
  0
LINE
  8
5
  6
CONTINUOUS
 62
     3
 10
-122.7697296142578
 20
-0.7634299993515015
 11
-123.3134460449219
 21
-1.92943000793457
  0
LINE
  8
5
  6
CONTINUOUS
 62
     3
 10
-120.4233551025391
 20
-0.08543100208044052
 11
-120.9663009643555
 21
-1.249783992767334
  0
LINE
  8
5
  6
CONTINUOUS
 62
     3
 10
-120.7043380737305
 20
0.06918700039386749
 11
-121.2461395263672
 21
-1.092702031135559
  0
LINE
  8
5
  6
CONTINUOUS
 62
     3
 10
-121.7919082641602
 20
0.5763279795646668
 11
-122.3337020874023
 21
-0.5855600237846375
  0
LINE
  8
5
  6
CONTINUOUS
 62
     3
 10
-122.0909652709961
 20
0.6921870112419128
 11
-122.6339111328125
 21
-0.4721660017967224
  0
LINE
  8
5
  6
CONTINUOUS
 62
     3
 10
-120.0273284912109
 20
1.521042943000794
 11
-120.5689163208008
 21
0.3595969974994659
  0
LINE
  8
5
  6
CONTINUOUS
 62
     3
 10
-119.745231628418
 20
1.368819952011108
 11
-120.2876892089844
 21
0.2055110037326813
  0
LINE
  8
5
  6
CONTINUOUS
 62
     3
 10
-130.919921875
 20
0.6697239875793457
 11
-131.3589324951172
 21
1.875885009765625
  0
LINE
  8
5
  6
CONTINUOUS
 62
     3
 10
-128.6416931152344
 20
-0.2098609954118729
 11
-129.0810852050781
 21
0.9973819851875305
  0
LINE
  8
5
  6
CONTINUOUS
 62
     3
 10
-128.9506378173828
 20
-0.2966580092906952
 11
-129.3890991210938
 21
0.9080290198326111
  0
LINE
  8
5
  6
CONTINUOUS
 62
     3
 10
-130.0782623291016
 20
-0.707082986831665
 11
-130.5167388916016
 21
0.4976049959659576
  0
LINE
  8
5
  6
CONTINUOUS
 62
     3
 10
-130.3707275390625
 20
-0.8391780257225037
 11
-130.8101196289063
 21
0.3680649995803833
  0
LINE
  8
5
  6
CONTINUOUS
 62
     3
 10
-129.8207855224609
 20
-2.350121021270752
 11
-130.2608032226563
 21
-1.141170978546143
  0
LINE
  8
5
  6
CONTINUOUS
 62
     3
 10
-129.5298919677734
 20
-2.213740110397339
 11
-129.9686126708984
 21
-1.008332014083862
  0
LINE
  8
5
  6
CONTINUOUS
 62
     3
 10
-128.0917510986328
 20
-1.72080397605896
 11
-128.5317687988281
 21
-0.5118539929389954
  0
LINE
  8
5
  6
CONTINUOUS
 62
     3
 10
-128.4022521972656
 20
-1.803315043449402
 11
-128.8409881591797
 21
-0.5979070067405701
  0
LINE
  8
5
  6
CONTINUOUS
 62
     3
 10
-127.5405426025391
 20
-3.235224008560181
 11
-127.9816360473633
 21
-2.023344039916992
  0
LINE
  8
5
  6
CONTINUOUS
 62
     3
 10
-127.8533477783203
 20
-3.311434984207153
 11
-128.2925262451172
 21
-2.104794979095459
  0
LINE
  8
5
  6
CONTINUOUS
 62
     3
 10
-128.9809722900391
 20
-3.721858978271484
 11
-129.4201507568359
 21
-2.51521897315979
  0
LINE
  8
5
  6
CONTINUOUS
 62
     3
 10
-129.2695770263672
 20
-3.864541053771973
 11
-129.7106628417969
 21
-2.652661085128784
  0
LINE
  8
5
  6
CONTINUOUS
 62
     3
 10
-128.7159423828125
 20
-5.38564395904541
 11
-129.1591033935547
 21
-4.168067932128906
  0
LINE
  8
5
  6
CONTINUOUS
 62
     3
 10
-128.4310455322266
 20
-5.232773780822754
 11
-128.87109375
 21
-4.023753166198731
  0
LINE
  8
5
  6
CONTINUOUS
 62
     3
 10
-126.9869079589844
 20
-4.756327152252197
 11
-127.4300689697266
 21
-3.538750886917114
  0
LINE
  8
5
  6
CONTINUOUS
 62
     3
 10
-127.3034133911133
 20
-4.822350025177002
 11
-127.7434616088867
 21
-3.61332893371582
  0
LINE
  8
5
  6
CONTINUOUS
 62
     3
 10
-126.4275665283203
 20
-6.293105125427246
 11
-126.8756790161133
 21
-5.061930179595947
  0
LINE
  8
5
  6
CONTINUOUS
 62
     3
 10
-126.7511367797852
 20
-6.339731216430664
 11
-127.1932220458984
 21
-5.125107765197754
  0
LINE
  8
5
  6
CONTINUOUS
 62
     3
 10
-127.8787689208984
 20
-6.750154972076416
 11
-128.3208465576172
 21
-5.535531997680664
  0
LINE
  8
5
  6
CONTINUOUS
 62
     3
 10
-128.1566009521484
 20
-6.922422885894775
 11
-128.6047210693359
 21
-5.69124698638916
  0
LINE
  8
5
  6
CONTINUOUS
 62
     3
 10
-127.4844055175781
 20
-5.202227115631104
 11
-127.5940399169922
 21
-4.901014804840088
  0
LINE
  8
5
  6
CONTINUOUS
 62
     3
 10
-128.0482177734375
 20
-5.407439231872559
 11
-128.1578521728516
 21
-5.106226921081543
  0
LINE
  8
5
  6
CONTINUOUS
 62
     3
 10
-128.0323791503906
 20
-3.696664094924927
 11
-128.1419372558594
 21
-3.395665884017944
  0
LINE
  8
5
  6
CONTINUOUS
 62
     3
 10
-128.5962066650391
 20
-3.901875972747803
 11
-128.7057495117188
 21
-3.600878000259399
  0
LINE
  8
5
  6
CONTINUOUS
 62
     3
 10
-128.580078125
 20
-2.191904067993164
 11
-128.6895904541016
 21
-1.891008973121643
  0
LINE
  8
5
  6
CONTINUOUS
 62
     3
 10
-129.1438903808594
 20
-2.39711594581604
 11
-129.2534027099609
 21
-2.096220970153809
  0
LINE
  8
5
  6
CONTINUOUS
 62
     3
 10
-129.1276092529297
 20
-0.6875529885292053
 11
-129.2371063232422
 21
-0.3867149949073792
  0
LINE
  8
5
  6
CONTINUOUS
 62
     3
 10
-129.6914215087891
 20
-0.892765998840332
 11
-129.8009185791016
 21
-0.5919269919395447
  0
LINE
  8
5
  6
CONTINUOUS
 62
     3
 10
-130.2388763427734
 20
0.6113489866256714
 11
-130.3483581542969
 21
0.9121519923210144
  0
LINE
  8
5
  6
CONTINUOUS
 62
     3
 10
-127.4995346069336
 20
-6.914944171905518
 11
-127.609375
 21
-6.613166809082031
  0
LINE
  8
5
  6
CONTINUOUS
 62
     3
 10
-126.9357223510742
 20
-6.709732055664063
 11
-127.0455551147461
 21
-6.407954216003418
  0
LINE
  8
5
  6
CONTINUOUS
 62
     3
 10
-144.6072845458984
 20
-1.35099196434021
 11
-144.2289428710938
 21
-1.086068034172058
  0
LINE
  8
5
  6
CONTINUOUS
 62
     3
 10
-144.6102752685547
 20
-1.351878046989441
 11
-144.5700225830078
 21
-1.812000036239624
  0
LINE
  8
5
  6
CONTINUOUS
 62
     3
 10
-143.7700805664063
 20
-1.741389989852905
 11
-144.1484222412109
 21
-2.006314039230347
  0
LINE
  8
5
  6
CONTINUOUS
 62
     3
 10
-144.5700836181641
 20
-1.811262965202332
 11
-144.1514892578125
 21
-2.006462097167969
  0
LINE
  8
5
  6
CONTINUOUS
 62
     3
 10
-143.8103332519531
 20
-1.281267046928406
 11
-143.7700805664063
 21
-1.741389989852905
  0
LINE
  8
5
  6
CONTINUOUS
 62
     3
 10
-144.2289428710938
 20
-1.086068034172058
 11
-143.8103332519531
 21
-1.281267046928406
  0
LINE
  8
5
  6
CONTINUOUS
 62
     3
 10
-134.7031402587891
 20
-28.54282569885254
 11
-134.9680633544922
 21
-28.16447448730469
  0
LINE
  8
5
  6
CONTINUOUS
 62
     3
 10
-134.7022399902344
 20
-28.54581832885742
 11
-134.2421264648438
 21
-28.50556373596191
  0
LINE
  8
5
  6
CONTINUOUS
 62
     3
 10
-134.3127288818359
 20
-27.70561408996582
 11
-134.0478057861328
 21
-28.08396339416504
  0
LINE
  8
5
  6
CONTINUOUS
 62
     3
 10
-134.2428588867188
 20
-28.50562858581543
 11
-134.0476684570313
 21
-28.08702278137207
  0
LINE
  8
5
  6
CONTINUOUS
 62
     3
 10
-134.7728576660156
 20
-27.74587059020996
 11
-134.3127288818359
 21
-27.70561408996582
  0
LINE
  8
5
  6
CONTINUOUS
 62
     3
 10
-134.9680633544922
 20
-28.16447448730469
 11
-134.7728576660156
 21
-27.74587059020996
  0
LINE
  8
5
  6
CONTINUOUS
 62
     3
 10
-107.5112991333008
 20
-18.638671875
 11
-107.8896484375
 21
-18.90359306335449
  0
LINE
  8
5
  6
CONTINUOUS
 62
     3
 10
-107.5083084106445
 20
-18.63778495788574
 11
-107.5485610961914
 21
-18.17766189575195
  0
LINE
  8
5
  6
CONTINUOUS
 62
     3
 10
-108.3485107421875
 20
-18.24827384948731
 11
-107.9701614379883
 21
-17.98334884643555
  0
LINE
  8
5
  6
CONTINUOUS
 62
     3
 10
-107.5485000610352
 20
-18.17839813232422
 11
-107.9671020507813
 21
-17.98320007324219
  0
LINE
  8
5
  6
CONTINUOUS
 62
     3
 10
-108.3082580566406
 20
-18.70839500427246
 11
-108.3485107421875
 21
-18.24827384948731
  0
LINE
  8
5
  6
CONTINUOUS
 62
     3
 10
-107.8896484375
 20
-18.90359306335449
 11
-108.3082580566406
 21
-18.70839500427246
  0
LINE
  8
5
  6
CONTINUOUS
 62
     3
 10
-130.9037170410156
 20
5.609166145324707
 11
-130.7673797607422
 21
5.95139217376709
  0
LINE
  8
5
  6
CONTINUOUS
 62
     3
 10
-130.9037170410156
 20
5.609166145324707
 11
-130.9574737548828
 21
5.978650093078613
  0
LINE
  8
5
  6
CONTINUOUS
 62
     3
 10
-131.3841857910156
 20
7.325096130371094
 11
-131.4195404052734
 21
7.422233104705811
  0
LINE
  8
5
  6
CONTINUOUS
 62
     3
 10
-131.6894836425781
 20
7.228273868560791
 11
-131.7202453613281
 21
7.312787055969238
  0
LINE
  8
5
  6
CONTINUOUS
 62
     3
 10
-132.8171234130859
 20
6.817850112915039
 11
-132.8478698730469
 21
6.902361869812012
  0
LINE
  8
5
  6
CONTINUOUS
 62
     3
 10
-133.1132202148438
 20
6.695778846740723
 11
-133.1485748291016
 21
6.79291582107544
  0
LINE
  8
5
  6
CONTINUOUS
 62
     3
 10
-130.836181640625
 20
5.8194580078125
 11
-131.2745971679688
 21
7.02400016784668
  0
LINE
  8
5
  6
CONTINUOUS
 62
     3
 10
-131.1419219970703
 20
5.723861217498779
 11
-131.5799713134766
 21
6.927403926849365
  0
LINE
  8
5
  6
CONTINUOUS
 62
     3
 10
-132.2695465087891
 20
5.313436985015869
 11
-132.7076110839844
 21
6.516980171203613
  0
LINE
  8
5
  6
CONTINUOUS
 62
     3
 10
-132.5652160644531
 20
5.190141201019287
 11
-133.0036315917969
 21
6.394681930541992
  0
LINE
  8
5
  6
CONTINUOUS
 62
     3
 10
-131.721923828125
 20
3.808829069137573
 11
-132.1600341796875
 21
5.012532234191895
  0
LINE
  8
5
  6
CONTINUOUS
 62
     3
 10
-132.0170440673828
 20
3.684045076370239
 11
-132.4555969238281
 21
4.888963222503662
  0
LINE
  8
5
  6
CONTINUOUS
 62
     3
 10
-130.2880096435547
 20
4.313362121582031
 11
-130.7265625
 21
5.518280029296875
  0
LINE
  8
5
  6
CONTINUOUS
 62
     3
 10
-130.5942840576172
 20
4.219253063201904
 11
-131.0324096679688
 21
5.422956943511963
  0
LINE
  8
5
  6
CONTINUOUS
 62
     3
 10
-129.7396087646484
 20
2.806642055511475
 11
-130.1783447265625
 21
4.012073993682861
  0
LINE
  8
5
  6
CONTINUOUS
 62
     3
 10
-130.0465545654297
 20
2.71438193321228
 11
-130.4847564697266
 21
3.9183030128479
  0
LINE
  8
5
  6
CONTINUOUS
 62
     3
 10
-131.1741943359375
 20
2.303956985473633
 11
-131.6123809814453
 21
3.507879018783569
  0
LINE
  8
5
  6
CONTINUOUS
 62
     3
 10
-131.4686431884766
 20
2.177325010299683
 11
-131.9073791503906
 21
3.382756948471069
  0
LINE
  8
5
  6
CONTINUOUS
 62
     3
 10
-129.1908874511719
 20
1.299041032791138
 11
-129.6298828125
 21
2.505202054977417
  0
LINE
  8
5
  6
CONTINUOUS
 62
     3
 10
-129.4987030029297
 20
1.209136962890625
 11
-129.9369964599609
 21
2.413367033004761
  0
LINE
  8
5
  6
CONTINUOUS
 62
     3
 10
-130.6263275146484
 20
0.7987130284309387
 11
-131.0646362304688
 21
2.00294303894043
  0
LINE
  8
5
  6
CONTINUOUS
 62
     3
 10
-129.6750640869141
 20
0.8165609836578369
 11
-129.7845458984375
 21
1.117364048957825
  0
LINE
  8
5
  6
CONTINUOUS
 62
     3
 10
-130.2224578857422
 20
2.320525884628296
 11
-130.3319396972656
 21
2.621304988861084
  0
LINE
  8
5
  6
CONTINUOUS
 62
     3
 10
-130.7862854003906
 20
2.11531400680542
 11
-130.895751953125
 21
2.416093111038208
  0
LINE
  8
5
  6
CONTINUOUS
 62
     3
 10
-130.7698211669922
 20
3.824389934539795
 11
-130.8792877197266
 21
4.1251540184021
  0
LINE
  8
5
  6
CONTINUOUS
 62
     3
 10
-131.3336334228516
 20
3.619178056716919
 11
-131.443115234375
 21
3.919941902160645
  0
LINE
  8
5
  6
CONTINUOUS
 62
     3
 10
-131.8809814453125
 20
5.122972965240479
 11
-131.9904479980469
 21
5.423725128173828
  0
LINE
  8
5
  6
CONTINUOUS
 62
     3
 10
-131.3171691894531
 20
5.328185081481934
 11
-131.4266204833984
 21
5.628936767578125
  0
LINE
  8
5
  6
CONTINUOUS
 62
     3
 10
-131.8644866943359
 20
6.83192777633667
 11
-131.9739379882813
 21
7.132670879364014
  0
LINE
  8
5
  6
CONTINUOUS
 62
     3
 10
-132.4282989501953
 20
6.626716136932373
 11
-132.5377502441406
 21
6.927458763122559
  0
LINE
  8
5
  6
CONTINUOUS
 62
     3
 10
-120.4380645751953
 20
3.479655027389526
 11
-120.9795150756836
 21
2.318506002426148
  0
LINE
  8
5
  6
CONTINUOUS
 62
     3
 10
-120.7351303100586
 20
3.599775075912476
 11
-121.2772674560547
 21
2.437167882919312
  0
LINE
  8
5
  6
CONTINUOUS
 62
     3
 10
-119.761360168457
 20
4.930851936340332
 11
-120.3027114868164
 21
3.769912958145142
  0
LINE
  8
5
  6
CONTINUOUS
 62
     3
 10
-120.057731628418
 20
5.052468776702881
 11
-120.5996322631836
 21
3.890357971191406
  0
LINE
  8
5
  6
CONTINUOUS
 62
     3
 10
-118.6737899780273
 20
4.423709869384766
 11
-119.2151412963867
 21
3.262772083282471
  0
LINE
  8
5
  6
CONTINUOUS
 62
     3
 10
-118.3901214599609
 20
4.274850845336914
 11
-118.9320220947266
 21
3.112740993499756
  0
LINE
  8
5
  6
CONTINUOUS
 62
     3
 10
-117.7129364013672
 20
5.727076053619385
 11
-118.2546691894531
 21
4.565329074859619
  0
LINE
  8
5
  6
CONTINUOUS
 62
     3
 10
-117.9971771240234
 20
5.874709129333496
 11
-118.538459777832
 21
4.713923931121826
  0
LINE
  8
5
  6
CONTINUOUS
 62
     3
 10
-119.0847473144531
 20
6.381851196289063
 11
-119.6260299682617
 21
5.221065998077393
  0
LINE
  8
5
  6
CONTINUOUS
 62
     3
 10
-119.3805465698242
 20
6.504693984985352
 11
-119.9222793579102
 21
5.342947006225586
  0
LINE
  8
5
  6
CONTINUOUS
 62
     3
 10
-117.3457336425781
 20
7.75620698928833
 11
-117.8058547973633
 21
7.715951919555664
  0
LINE
  8
5
  6
CONTINUOUS
 62
     3
 10
-117.8058547973633
 20
7.715951919555664
 11
-118.0707778930664
 21
8.094302177429199
  0
LINE
  8
5
  6
CONTINUOUS
 62
     3
 10
-117.4163436889648
 20
8.556157112121582
 11
-117.87646484375
 21
8.515900611877441
  0
LINE
  8
5
  6
CONTINUOUS
 62
     3
 10
-117.8757247924805
 20
8.515966415405273
 11
-118.0709228515625
 21
8.097359657287598
  0
LINE
  8
5
  6
CONTINUOUS
 62
     3
 10
-117.4154586791992
 20
8.553162574768066
 11
-117.1505279541016
 21
8.174813270568848
  0
LINE
  8
5
  6
CONTINUOUS
 62
     3
 10
-117.1505279541016
 20
8.174813270568848
 11
-117.3457336425781
 21
7.75620698928833
  0
LINE
  8
5
  6
CONTINUOUS
 62
     3
 10
-117.4026260375977
 20
7.149734973907471
 11
-117.8618698120117
 21
6.164888858795166
  0
LINE
  8
5
  6
CONTINUOUS
 62
     3
 10
-116.9389419555664
 20
7.386919021606445
 11
-117.577522277832
 21
6.017476081848145
  0
LINE
  8
5
  6
CONTINUOUS
 62
     3
 10
-118.4913101196289
 20
7.654479026794434
 11
-118.9494323730469
 21
6.672030925750732
  0
LINE
  8
5
  6
CONTINUOUS
 62
     3
 10
-118.6100463867188
 20
8.157031059265137
 11
-119.2451324462891
 21
6.795094013214111
  0
LINE
  8
5
  6
CONTINUOUS
 62
     3
 10
-53.11936569213867
 20
-11.19484901428223
 11
-52.79936599731445
 21
-11.19484901428223
  0
LINE
  8
5
  6
CONTINUOUS
 62
     3
 10
-54.13936614990234
 20
-27.26359367370606
 11
-53.43936538696289
 21
-27.26359367370606
  0
LINE
  8
5
  6
CONTINUOUS
 62
     3
 10
-53.13936614990234
 20
-29.03359413146973
 11
-53.13936614990234
 21
-28.11359405517578
  0
LINE
  8
5
  6
CONTINUOUS
 62
     3
 10
-52.87936782836914
 20
-29.11359405517578
 11
-52.87936782836914
 21
-28.11359405517578
  0
LINE
  8
5
  6
CONTINUOUS
 62
     3
 10
-52.87936782836914
 20
-29.11359405517578
 11
-52.71936798095703
 21
-29.11359405517578
  0
LINE
  8
5
  6
CONTINUOUS
 62
     3
 10
-53.13936614990234
 20
-29.03359413146973
 11
-52.87936782836914
 21
-29.03359413146973
  0
LINE
  8
5
  6
CONTINUOUS
 62
     3
 10
-54.13936614990234
 20
-28.96359443664551
 11
-53.13936614990234
 21
-28.96359443664551
  0
LINE
  8
5
  6
CENTER
 62
     4
 10
-55.49599456787109
 20
-28.11484909057617
 11
-50.26882171630859
 21
-28.11484909057617
  0
LINE
  8
5
  6
CONTINUOUS
 62
     3
 10
-54.13936614990234
 20
-27.26359367370606
 11
-54.13936614990234
 21
-28.96359443664551
  0
LINE
  8
5
  6
CONTINUOUS
 62
     3
 10
-52.87936782836914
 20
-27.11359405517578
 11
-52.87936782836914
 21
-28.11359405517578
  0
LINE
  8
5
  6
CONTINUOUS
 62
     3
 10
-53.13936614990234
 20
-27.19359397888184
 11
-52.87936782836914
 21
-27.19359397888184
  0
LINE
  8
5
  6
CONTINUOUS
 62
     3
 10
-53.13936614990234
 20
-27.19359397888184
 11
-53.13936614990234
 21
-28.11359405517578
  0
LINE
  8
5
  6
CONTINUOUS
 62
     3
 10
-52.87936782836914
 20
-27.1136646270752
 11
-52.71936798095703
 21
-27.1136646270752
  0
LINE
  8
5
  6
CONTINUOUS
 62
     3
 10
-53.43936538696289
 20
-27.95484924316406
 11
-53.43936538696289
 21
-19.30610466003418
  0
LINE
  8
5
  6
CENTER
 62
     4
 10
-55.49599456787109
 20
-18.45484924316406
 11
-50.26882171630859
 21
-18.45484924316406
  0
LINE
  8
5
  6
CONTINUOUS
 62
     3
 10
-53.13936614990234
 20
-17.53610420227051
 11
-53.13936614990234
 21
-18.45610427856445
  0
LINE
  8
5
  6
CONTINUOUS
 62
     3
 10
-52.87936782836914
 20
-17.45610427856445
 11
-52.87936782836914
 21
-18.45610427856445
  0
LINE
  8
5
  6
CONTINUOUS
 62
     3
 10
-54.13936614990234
 20
-17.60610389709473
 11
-54.13936614990234
 21
-19.30610466003418
  0
LINE
  8
5
  6
CONTINUOUS
 62
     3
 10
-52.87936782836914
 20
-17.45610427856445
 11
-52.71936798095703
 21
-17.45610427856445
  0
LINE
  8
5
  6
CONTINUOUS
 62
     3
 10
-53.13936614990234
 20
-17.53610420227051
 11
-52.87936782836914
 21
-17.53610420227051
  0
LINE
  8
5
  6
CONTINUOUS
 62
     3
 10
-54.13936614990234
 20
-17.60610389709473
 11
-53.13936614990234
 21
-17.60610389709473
  0
LINE
  8
5
  6
CONTINUOUS
 62
     3
 10
-53.13936614990234
 20
-19.3761043548584
 11
-52.87936782836914
 21
-19.3761043548584
  0
LINE
  8
5
  6
CONTINUOUS
 62
     3
 10
-53.13936614990234
 20
-19.3761043548584
 11
-53.13936614990234
 21
-18.45610427856445
  0
LINE
  8
5
  6
CONTINUOUS
 62
     3
 10
-54.13936614990234
 20
-19.30610466003418
 11
-53.13936614990234
 21
-19.30610466003418
  0
LINE
  8
5
  6
CONTINUOUS
 62
     3
 10
-52.87936782836914
 20
-19.45610427856445
 11
-52.87936782836914
 21
-18.45610427856445
  0
LINE
  8
5
  6
CONTINUOUS
 62
     3
 10
-52.87936782836914
 20
-19.45603370666504
 11
-52.71936798095703
 21
-19.45603370666504
  0
LINE
  8
5
  6
CONTINUOUS
 62
     3
 10
-52.79936599731445
 20
-28.95484924316406
 11
-52.79936599731445
 21
-11.19484901428223
  0
LINE
  8
5
  6
CONTINUOUS
 62
     3
 10
-52.87936782836914
 20
9.123895645141602
 11
-52.71936798095703
 21
9.123895645141602
  0
LINE
  8
5
  6
CONTINUOUS
 62
     3
 10
-53.13936614990234
 20
9.043895721435547
 11
-52.87936782836914
 21
9.043895721435547
  0
LINE
  8
5
  6
CENTER
 62
     4
 10
-55.49599456787109
 20
8.125150680541992
 11
-50.26882171630859
 21
8.125150680541992
  0
LINE
  8
5
  6
CONTINUOUS
 62
     3
 10
-52.87936782836914
 20
7.123966217041016
 11
-52.71936798095703
 21
7.123966217041016
  0
LINE
  8
5
  6
CONTINUOUS
 62
     3
 10
-53.13936614990234
 20
7.203896045684815
 11
-52.87936782836914
 21
7.203896045684815
  0
LINE
  8
5
  6
CONTINUOUS
 62
     3
 10
-53.13936614990234
 20
7.203896045684815
 11
-53.13936614990234
 21
8.123895645141602
  0
LINE
  8
5
  6
CONTINUOUS
 62
     3
 10
-52.87936782836914
 20
7.12389612197876
 11
-52.87936782836914
 21
8.123895645141602
  0
LINE
  8
5
  6
CONTINUOUS
 62
     3
 10
-54.13936614990234
 20
7.273896217346191
 11
-53.13936614990234
 21
7.273896217346191
  0
LINE
  8
5
  6
CONTINUOUS
 62
     3
 10
-53.13936614990234
 20
9.043895721435547
 11
-53.13936614990234
 21
8.123895645141602
  0
LINE
  8
5
  6
CONTINUOUS
 62
     3
 10
-52.87936782836914
 20
9.123895645141602
 11
-52.87936782836914
 21
8.123895645141602
  0
LINE
  8
5
  6
CONTINUOUS
 62
     3
 10
-54.13936614990234
 20
8.973896026611328
 11
-54.13936614990234
 21
7.273896217346191
  0
LINE
  8
5
  6
CONTINUOUS
 62
     3
 10
-54.13936614990234
 20
8.973896026611328
 11
-53.13936614990234
 21
8.973896026611328
  0
LINE
  8
5
  6
CONTINUOUS
 62
     3
 10
-52.7189826965332
 20
6.944381237030029
 11
-52.47975158691406
 21
7.35874080657959
  0
LINE
  8
5
  6
CONTINUOUS
 62
     3
 10
-53.03898239135742
 20
7.030125141143799
 11
-52.79975128173828
 21
7.444484233856201
  0
LINE
  8
5
  6
CONTINUOUS
 62
     3
 10
-54.13936614990234
 20
-2.383594036102295
 11
-53.43936538696289
 21
-2.383594036102295
  0
LINE
  8
5
  6
CONTINUOUS
 62
     3
 10
-54.13936614990234
 20
-0.6835939884185791
 11
-53.43936538696289
 21
-0.6835939884185791
  0
LINE
  8
5
  6
CONTINUOUS
 62
     3
 10
-54.13936614990234
 20
-0.6835939884185791
 11
-54.13936614990234
 21
-2.383594036102295
  0
LINE
  8
5
  6
CENTER
 62
     4
 10
-55.49599456787109
 20
-1.534849047660828
 11
-50.26882171630859
 21
-1.534849047660828
  0
LINE
  8
5
  6
CONTINUOUS
 62
     3
 10
-53.43936538696289
 20
7.273896217346191
 11
-53.43936538696289
 21
-2.383594036102295
  0
LINE
  8
5
  6
CONTINUOUS
 62
     3
 10
-53.11936569213867
 20
-8.794849395751953
 11
-52.79936599731445
 21
-8.794849395751953
  0
LINE
  8
5
  6
CONTINUOUS
 62
     3
 10
-52.79936599731445
 20
6.644381046295166
 11
-52.79936599731445
 21
-8.794849395751953
  0
LINE
  8
5
  6
CONTINUOUS
 62
     3
 10
-53.11936569213867
 20
6.730124950408936
 11
-53.11936569213867
 21
-7.99484920501709
  0
LINE
  8
5
  6
CONTINUOUS
 62
     3
 10
-52.71936798095703
 20
9.123895645141602
 11
-52.71936798095703
 21
-29.29484939575195
  0
LINE
  8
5
  6
CONTINUOUS
 62
     3
 10
-53.11936569213867
 20
-28.95484924316406
 11
-53.11936569213867
 21
-7.99484920501709
  0
LINE
  8
5
  6
CONTINUOUS
 62
     3
 10
-53.43936538696289
 20
-17.60610389709473
 11
-53.43936538696289
 21
-2.383594036102295
  0
LINE
  8
5
  6
CONTINUOUS
 62
     3
 10
-52.39936828613281
 20
7.405150890350342
 11
-52.39936828613281
 21
-29.29484939575195
  0
CIRCLE
  8
5
  6
CONTINUOUS
 62
     3
 10
-126.0592956542969
 20
-9.994831085205078
 40
9.600000381469727
  0
ARC
  8
5
  6
CENTER
 62
     4
 10
-126.0592956542969
 20
-9.994831085205078
 40
18.20000076293945
 50
195.8697667449607
 51
204.5381022863352
  0
ARC
  8
5
  6
CENTER
 62
     4
 10
-126.0592956542969
 20
-9.994831085205078
 40
18.20000076293945
 50
285.5840150681752
 51
294.6612427886201
  0
ARC
  8
5
  6
CENTER
 62
     4
 10
-126.0592956542969
 20
-9.994831085205078
 40
18.20000076293945
 50
15.4377930184129
 51
24.7223927646478
  0
ARC
  8
5
  6
CENTER
 62
     4
 10
-126.0592956542969
 20
-9.994831085205078
 40
20
 50
149.1333104990778
 51
160.3242740374207
  0
ARC
  8
5
  6
CENTER
 62
     4
 10
-126.0592956542969
 20
-9.994831085205078
 40
20
 50
239.8618990153278
 51
251.056840084077
  0
ARC
  8
5
  6
CENTER
 62
     4
 10
-126.0592956542969
 20
-9.994831085205078
 40
20
 50
328.579932853286
 51
340.6357317665306
  0
ARC
  8
5
  6
CONTINUOUS
 62
     3
 10
-108.9568862915039
 20
-3.770065069198608
 40
0.9200000166893005
 50
290.0000394019484
 51
110.000034323543
  0
ARC
  8
5
  6
CONTINUOUS
 62
     3
 10
-108.9568862915039
 20
-3.770065069198608
 40
0.6000000238418579
 50
289.9996247092659
 51
110.0003015391997
  0
ARC
  8
5
  6
CONTINUOUS
 62
     3
 10
-143.1616973876953
 20
-16.2195987701416
 40
0.6000000238418579
 50
110.0002859652681
 51
290.000348261135
  0
ARC
  8
5
  6
CONTINUOUS
 62
     3
 10
-143.1616973876953
 20
-16.2195987701416
 40
0.9200000166893005
 50
110.0004604970395
 51
289.9995878335429
  0
ARC
  8
5
  6
CONTINUOUS
 62
     3
 10
-119.8345260620117
 20
-27.09723663330078
 40
0.9200000166893005
 50
200.0000343235437
 51
20.00003432354298
  0
ARC
  8
5
  6
CONTINUOUS
 62
     3
 10
-119.8345260620117
 20
-27.09723663330078
 40
0.6000000238418579
 50
199.9998190690494
 51
20.00006824822098
  0
ARC
  8
5
  6
CONTINUOUS
 62
     3
 10
-144.1854553222656
 20
-1.542466044425964
 40
0.9200000166893005
 50
64.99997914235445
 51
244.9999744359997
  0
ARC
  8
5
  6
CONTINUOUS
 62
     3
 10
-144.1854553222656
 20
-1.542466044425964
 40
0.6000000238418579
 50
65.00003729130044
 51
245.0000372913011
  0
ARC
  8
5
  6
CONTINUOUS
 62
     3
 10
-107.9331359863281
 20
-18.44719505310059
 40
0.6000000238418579
 50
245.0000517240892
 51
64.9999747490386
  0
ARC
  8
5
  6
CONTINUOUS
 62
     3
 10
-107.9331359863281
 20
-18.44719505310059
 40
0.9200000166893005
 50
244.9999775735701
 51
64.99992737235296
  0
ARC
  8
5
  6
CONTINUOUS
 62
     3
 10
-134.5116577148438
 20
-28.12098693847656
 40
0.6000000238418579
 50
155.0003596198528
 51
334.9997438212282
  0
ARC
  8
5
  6
CONTINUOUS
 62
     3
 10
-134.5116577148438
 20
-28.12098693847656
 40
0.9200000166893005
 50
154.9999273723529
 51
334.9999273723537
  0
ARC
  8
5
  6
CONTINUOUS
 62
     3
 10
-126.0592956542969
 20
-9.994831085205078
 40
18.1200008392334
 50
110.9486232303484
 51
109.0513348629193
  0
ARC
  8
5
  6
CONTINUOUS
 62
     3
 10
-126.0592956542969
 20
-9.994831085205078
 40
16.52000045776367
 50
111.0405487628154
 51
108.9594348086905
  0
ARC
  8
5
  6
CONTINUOUS
 62
     3
 10
-126.0592956542969
 20
-9.994831085205078
 40
14.92000007629395
 50
111.1521479000849
 51
108.847829520451
  0
ARC
  8
5
  6
CONTINUOUS
 62
     3
 10
-126.0592956542969
 20
-9.994831085205078
 40
13.31999969482422
 50
111.2905377962768
 51
108.7094417811034
  0
ARC
  8
5
  6
CONTINUOUS
 62
     3
 10
-126.0592956542969
 20
-9.994831085205078
 40
11.72000026702881
 50
111.4667395354865
 51
108.5332027484747
  0
ARC
  8
5
  6
CONTINUOUS
 62
     3
 10
-126.0592956542969
 20
-9.994831085205078
 40
10.11999988555908
 50
111.6987005204466
 51
108.3012368559342
  0
ARC
  8
5
  6
CONTINUOUS
 62
     3
 10
-126.0592956542969
 20
-9.994831085205078
 40
8.520000457763672
 50
112.0178402771799
 51
107.9821126177696
  0
ARC
  8
5
  6
CONTINUOUS
 62
     3
 10
-126.0592956542969
 20
-9.994831085205078
 40
6.920000076293945
 50
112.4846373421494
 51
107.5152618615734
  0
ARC
  8
5
  6
CONTINUOUS
 62
     3
 10
-126.0592956542969
 20
-9.994831085205078
 40
5.320000171661377
 50
113.2326498358999
 51
106.7673227867984
  0
ARC
  8
5
  6
CONTINUOUS
 62
     3
 10
-126.0592956542969
 20
-9.994831085205078
 40
3.72000002861023
 50
114.6256603520654
 51
105.3742957187898
  0
ARC
  8
5
  6
CONTINUOUS
 62
     3
 10
-126.0592956542969
 20
-9.994831085205078
 40
17.79999923706055
 50
110.9657100456372
 51
109.0343103057676
  0
ARC
  8
5
  6
CONTINUOUS
 62
     3
 10
-126.0592956542969
 20
-9.994831085205078
 40
16.20000076293945
 50
111.061099465878
 51
108.9389234070763
  0
ARC
  8
5
  6
CONTINUOUS
 62
     3
 10
-126.0592956542969
 20
-9.994831085205078
 40
14.60000038146973
 50
111.1774132524313
 51
108.8225823557803
  0
ARC
  8
5
  6
CONTINUOUS
 62
     3
 10
-126.0592956542969
 20
-9.994831085205078
 40
13
 50
111.3223447350884
 51
108.677639767806
  0
ARC
  8
5
  6
CONTINUOUS
 62
     3
 10
-126.0592956542969
 20
-9.994831085205078
 40
11.39999961853027
 50
111.5079276058068
 51
108.4920272952923
  0
ARC
  8
5
  6
CONTINUOUS
 62
     3
 10
-126.0592956542969
 20
-9.994831085205078
 40
9.800000190734863
 50
111.7541803212068
 51
108.2457448022102
  0
ARC
  8
5
  6
CONTINUOUS
 62
     3
 10
-126.0592956542969
 20
-9.994831085205078
 40
8.199999809265137
 50
112.0966505629525
 51
107.9033625322155
  0
ARC
  8
5
  6
CONTINUOUS
 62
     3
 10
-126.0592956542969
 20
-9.994831085205078
 40
6.599999904632568
 50
112.6052782781517
 51
107.3946784090379
  0
ARC
  8
5
  6
CONTINUOUS
 62
     3
 10
-126.0592956542969
 20
-9.994831085205078
 40
5
 50
113.4397551260454
 51
106.5601635344562
  0
ARC
  8
5
  6
CONTINUOUS
 62
     3
 10
-126.0592956542969
 20
-9.994831085205078
 40
3.400000095367432
 50
115.0620669065163
 51
104.9379328915339
  0
CIRCLE
  8
5
  6
CONTINUOUS
 62
     3
 10
-126.0592956542969
 20
-9.994831085205078
 40
2
  0
CIRCLE
  8
5
  6
CONTINUOUS
 62
     3
 10
-144.1820220947266
 20
-1.546010971069336
 40
0.8500000238418579
  0
CIRCLE
  8
5
  6
CONTINUOUS
 62
     3
 10
-144.1820220947266
 20
-1.546010971069336
 40
1
  0
CIRCLE
  8
5
  6
CONTINUOUS
 62
     3
 10
-134.5081176757813
 20
-28.11755752563477
 40
0.8500000238418579
  0
CIRCLE
  8
5
  6
CONTINUOUS
 62
     3
 10
-134.5081176757813
 20
-28.11755752563477
 40
1
  0
CIRCLE
  8
5
  6
CONTINUOUS
 62
     3
 10
-107.9365692138672
 20
-18.44365119934082
 40
0.8500000238418579
  0
CIRCLE
  8
5
  6
CONTINUOUS
 62
     3
 10
-107.9365692138672
 20
-18.44365119934082
 40
1
  0
ARC
  8
5
  6
CENTER
 62
     4
 10
-126.0592956542969
 20
-9.994831085205078
 40
18.20000076293945
 50
105.5123654610475
 51
114.2780300166631
  0
ARC
  8
5
  6
CONTINUOUS
 62
     3
 10
-132.2840576171875
 20
7.107573986053467
 40
0.6000000238418579
 50
20.00011103694635
 51
200.000111036947
  0
ARC
  8
5
  6
CONTINUOUS
 62
     3
 10
-132.2840576171875
 20
7.107573986053467
 40
0.9200000166893005
 50
20.00000641799214
 51
200.0000064179929
  0
ARC
  8
5
  6
CENTER
 62
     4
 10
-126.0592956542969
 20
-9.994831085205078
 40
20
 50
58.59978412386968
 51
71.15014979185222
  0
CIRCLE
  8
5
  6
CONTINUOUS
 62
     3
 10
-117.6104736328125
 20
8.127896308898926
 40
0.8500000238418579
  0
CIRCLE
  8
5
  6
CONTINUOUS
 62
     3
 10
-117.6104736328125
 20
8.127896308898926
 40
1
  0
ARC
  8
5
  6
CONTINUOUS
 62
     3
 10
-52.95936584472656
 20
-28.95484924316406
 40
0.1599999964237213
 50
180.0000000000004
 51
360
  0
ARC
  8
5
  6
CONTINUOUS
 62
     3
 10
-53.27936553955078
 20
-27.95484924316406
 40
0.1599999964237213
 50
180.0000000000004
 51
360
  0
ARC
  8
5
  6
CONTINUOUS
 62
     3
 10
-52.55936813354492
 20
8.885150909423828
 40
0.1599999964237213
 50
0
 51
180.0000000000004
  0
ARC
  8
5
  6
CONTINUOUS
 62
     3
 10
-52.51936721801758
 20
6.730124950408936
 40
0.6000000238418579
 50
149.9999809351507
 51
180.0000000000004
  0
ARC
  8
5
  6
CONTINUOUS
 62
     3
 10
-52.19936752319336
 20
6.644381046295166
 40
0.6000000238418579
 50
149.9999809351507
 51
180.0000000000004
  0
ARC
  8
5
  6
CONTINUOUS
 62
     3
 10
-53.31936645507813
 20
7.744483947753906
 40
0.6000000238418579
 50
330.0000203692728
 51
360
  0
LINE
  8
6
  6
CENTER
 62
     4
 10
173.0543823242188
 20
-24.44483184814453
 11
166.9922180175781
 21
-20.94483184814453
  0
LINE
  8
6
  6
CENTER
 62
     4
 10
133.5762481689453
 20
-35.02296447753906
 11
137.0762481689453
 21
-28.96078872680664
  0
LINE
  8
6
  6
CENTER
 62
     4
 10
122.9981231689453
 20
4.455169200897217
 11
129.060302734375
 21
0.9551690220832825
  0
LINE
  8
6
  6
CENTER
 62
     4
 10
162.4762573242188
 20
15.03330326080322
 11
158.9762573242188
 21
8.971124649047852
  0
LINE
  8
6
  6
CENTER
 62
     4
 10
156.1903381347656
 20
-1.830746054649353
 11
160.8848266601563
 21
2.863739013671875
  0
LINE
  8
6
  6
CENTER
 62
     4
 10
156.1579895019531
 20
-18.12655830383301
 11
160.4006195068359
 21
-22.36919975280762
  0
LINE
  8
6
  6
CENTER
 62
     4
 10
139.89453125
 20
-18.12655830383301
 11
135.6518859863281
 21
-22.36919975280762
  0
LINE
  8
6
  6
CENTER
 62
     4
 10
139.89453125
 20
-1.863103032112122
 11
135.6518859863281
 21
2.379537105560303
  0
LINE
  8
6
  6
CONTINUOUS
 62
     3
 10
58.40070724487305
 20
13.00516891479492
 11
58.40070724487305
 21
-2.994831085205078
  0
LINE
  8
6
  6
CONTINUOUS
 62
     3
 10
57.40070724487305
 20
2.624058961868286
 11
57.40070724487305
 21
1.105169057846069
  0
LINE
  8
6
  6
CONTINUOUS
 62
     3
 10
58.00070571899414
 20
0.5051689743995667
 11
58.40070724487305
 21
0.5051689743995667
  0
LINE
  8
6
  6
CONTINUOUS
 62
     3
 10
57.40070724487305
 20
13.00516891479492
 11
57.40070724487305
 21
2.624058961868286
  0
LINE
  8
6
  6
CONTINUOUS
 62
     3
 10
57.40070724487305
 20
13.00516891479492
 11
58.40070724487305
 21
13.00516891479492
  0
LINE
  8
6
  6
CONTINUOUS
 62
     3
 10
56.00070571899414
 20
-0.494830995798111
 11
58.40070724487305
 21
-0.494830995798111
  0
LINE
  8
6
  6
CONTINUOUS
 62
     3
 10
57.40070724487305
 20
15.00516891479492
 11
57.40070724487305
 21
13.00516891479492
  0
LINE
  8
6
  6
CONTINUOUS
 62
     3
 10
55.60070419311523
 20
-1.094830989837647
 11
56.00070571899414
 21
-1.094830989837647
  0
LINE
  8
6
  6
CONTINUOUS
 62
     3
 10
56.00070571899414
 20
-0.494830995798111
 11
56.00070571899414
 21
-2.994831085205078
  0
LINE
  8
6
  6
CONTINUOUS
 62
     3
 10
55.9935302734375
 20
-2.994831085205078
 11
59.40070724487305
 21
-2.994831085205078
  0
ARC
  8
6
  6
CENTER
 62
     4
 10
148.0262603759766
 20
-9.994831085205078
 40
25.39999961853027
 50
322.0986382620881
 51
337.9013410504319
  0
CIRCLE
  8
6
  6
CONTINUOUS
 62
     3
 10
170.0233001708984
 20
-22.69483184814453
 40
2
  0
ARC
  8
6
  6
CENTER
 62
     4
 10
148.0262603759766
 20
-9.994831085205078
 40
25.39999961853027
 50
232.0986480822877
 51
247.9013475248508
  0
CIRCLE
  8
6
  6
CONTINUOUS
 62
     3
 10
135.3262481689453
 20
-31.99187660217285
 40
2
  0
ARC
  8
6
  6
CENTER
 62
     4
 10
148.0262603759766
 20
-9.994831085205078
 40
25.39999961853027
 50
142.0986594063347
 51
157.9013516946223
  0
CIRCLE
  8
6
  6
CONTINUOUS
 62
     3
 10
126.0292053222656
 20
2.705168962478638
 40
2
  0
ARC
  8
6
  6
CENTER
 62
     4
 10
148.0262603759766
 20
-9.994831085205078
 40
25.39999961853027
 50
52.09867656346922
 51
67.90134914345424
  0
CIRCLE
  8
6
  6
CONTINUOUS
 62
     3
 10
160.7262573242188
 20
12.0022144317627
 40
2
  0
ARC
  8
6
  6
CENTER
 62
     4
 10
148.0262603759766
 20
-9.994831085205078
 40
14.5
 50
33.12445787589656
 51
56.92701404937869
  0
ARC
  8
6
  6
CENTER
 62
     4
 10
148.0262603759766
 20
-9.994831085205078
 40
14.5
 50
303.1244466564438
 51
326.8755429130952
  0
ARC
  8
6
  6
CENTER
 62
     4
 10
148.0262603759766
 20
-9.994831085205078
 40
14.5
 50
213.1244570869063
 51
236.8755028481564
  0
ARC
  8
6
  6
CENTER
 62
     4
 10
148.0262603759766
 20
-9.994831085205078
 40
14.5
 50
123.1244986962955
 51
146.8755421241035
  0
CIRCLE
  8
6
  6
CONTINUOUS
 62
     3
 10
158.279296875
 20
-20.24788093566895
 40
1.5
  0
CIRCLE
  8
6
  6
CONTINUOUS
 62
     3
 10
137.7732086181641
 20
-20.24788093566895
 40
1.5
  0
CIRCLE
  8
6
  6
CONTINUOUS
 62
     3
 10
137.7732086181641
 20
0.2582170069217682
 40
1.5
  0
CIRCLE
  8
6
  6
CONTINUOUS
 62
     3
 10
158.279296875
 20
0.2582170069217682
 40
1.5
  0
ARC
  8
6
  6
CONTINUOUS
 62
     3
 10
58.00070571899414
 20
1.105169057846069
 40
0.6000000238418579
 50
180.0000000000004
 51
270.0000000000005
  0
LINE
  8
9
  6
CONTINUOUS
 62
     3
 10
-14.24803256988525
 20
26.20511436462402
 11
-12.54803276062012
 21
26.20511436462402
  0
LINE
  8
9
  6
CONTINUOUS
 62
     3
 10
-12.54803276062012
 20
25.20511436462402
 11
-12.54803276062012
 21
26.20511436462402
  0
LINE
  8
9
  6
CENTER
 62
     4
 10
-13.39803314208984
 20
24.30835342407227
 11
-13.39803314208984
 21
26.96058654785156
  0
LINE
  8
9
  6
CONTINUOUS
 62
     3
 10
-14.24803256988525
 20
25.20511436462402
 11
-14.24803256988525
 21
26.20511436462402
  0
LINE
  8
9
  6
CONTINUOUS
 62
     3
 10
-12.39803314208984
 20
25.20511436462402
 11
-12.39803314208984
 21
16.0051155090332
  0
LINE
  8
9
  6
CONTINUOUS
 62
     3
 10
-12.99803256988525
 20
30.40511512756348
 11
-12.99803256988525
 21
26.20511436462402
  0
LINE
  8
9
  6
CONTINUOUS
 62
     3
 10
-31.54803276062012
 20
26.20511436462402
 11
-33.24803161621094
 21
26.20511436462402
  0
LINE
  8
9
  6
CONTINUOUS
 62
     3
 10
-33.24803161621094
 20
25.20511436462402
 11
-33.24803161621094
 21
26.20511436462402
  0
LINE
  8
9
  6
CONTINUOUS
 62
     3
 10
-31.54803276062012
 20
25.20511436462402
 11
-31.54803276062012
 21
26.20511436462402
  0
LINE
  8
9
  6
DASHED
 62
     3
 10
-40.61310958862305
 20
24.60511589050293
 11
-28.21310806274414
 21
24.60511589050293
  0
LINE
  8
9
  6
CONTINUOUS
 62
     3
 10
-52.39803314208984
 20
24.40511512756348
 11
-12.39803314208984
 21
24.40511512756348
  0
LINE
  8
9
  6
CONTINUOUS
 62
     3
 10
-52.39803314208984
 20
24.60511589050293
 11
-12.39803314208984
 21
24.60511589050293
  0
LINE
  8
9
  6
CONTINUOUS
 62
     3
 10
-50.54803466796875
 20
26.20511436462402
 11
-52.24803161621094
 21
26.20511436462402
  0
LINE
  8
9
  6
CONTINUOUS
 62
     3
 10
-52.24803161621094
 20
25.20511436462402
 11
-52.24803161621094
 21
26.20511436462402
  0
LINE
  8
9
  6
CONTINUOUS
 62
     3
 10
-50.54803466796875
 20
25.20511436462402
 11
-50.54803466796875
 21
26.20511436462402
  0
LINE
  8
9
  6
CENTER
 62
     4
 10
-51.39803314208984
 20
24.30835342407227
 11
-51.39803314208984
 21
26.96058654785156
  0
LINE
  8
9
  6
CONTINUOUS
 62
     3
 10
-51.79803466796875
 20
30.40511512756348
 11
-51.79803466796875
 21
26.20511436462402
  0
LINE
  8
9
  6
CONTINUOUS
 62
     3
 10
-52.39803314208984
 20
25.20511436462402
 11
-12.39803314208984
 21
25.20511436462402
  0
LINE
  8
9
  6
CONTINUOUS
 62
     3
 10
-52.39803314208984
 20
25.20511436462402
 11
-52.39803314208984
 21
11.40511512756348
  0
LINE
  8
9
  6
CONTINUOUS
 62
     3
 10
-51.79803466796875
 20
30.40511512756348
 11
-12.99803256988525
 21
30.40511512756348
  0
LINE
  8
9
  6
CONTINUOUS
 62
     3
 10
-33.39803314208984
 20
16.0051155090332
 11
-12.39803314208984
 21
16.0051155090332
  0
LINE
  8
9
  6
CONTINUOUS
 62
     3
 10
-52.39802932739258
 20
11.40511512756348
 11
-38.39803314208984
 21
11.40511512756348
  0
LINE
  8
9
  6
CONTINUOUS
 62
     3
 10
-33.39803314208984
 20
14.40511512756348
 11
-38.39803314208984
 21
11.40511512756348
  0
LINE
  8
9
  6
CONTINUOUS
 62
     3
 10
-33.39803314208984
 20
14.40511512756348
 11
-33.39803314208984
 21
16.0051155090332
  0
LINE
  8
9
  6
CONTINUOUS
 62
     3
 10
-108.0580368041992
 20
25.20511436462402
 11
-108.0580368041992
 21
11.35446643829346
  0
LINE
  8
9
  6
CONTINUOUS
 62
     3
 10
-108.6580352783203
 20
30.40511512756348
 11
-108.6580352783203
 21
26.20511436462402
  0
LINE
  8
9
  6
CONTINUOUS
 62
     3
 10
-118.0580368041992
 20
16.0051155090332
 11
-115.0580368041992
 21
11.40511512756348
  0
LINE
  8
9
  6
CONTINUOUS
 62
     3
 10
-115.0580368041992
 20
11.40511512756348
 11
-108.0580368041992
 21
11.40511512756348
  0
LINE
  8
9
  6
CONTINUOUS
 62
     3
 10
-143.4580383300781
 20
30.40511512756348
 11
-108.6580352783203
 21
30.40511512756348
  0
LINE
  8
9
  6
CONTINUOUS
 62
     3
 10
-144.0580291748047
 20
25.20511436462402
 11
-108.0580368041992
 21
25.20511436462402
  0
LINE
  8
9
  6
CONTINUOUS
 62
     3
 10
-144.0580291748047
 20
24.60511589050293
 11
-108.0580368041992
 21
24.60511589050293
  0
LINE
  8
9
  6
CONTINUOUS
 62
     3
 10
-144.0580291748047
 20
24.40511512756348
 11
-108.0580368041992
 21
24.40511512756348
  0
LINE
  8
9
  6
CONTINUOUS
 62
     3
 10
-144.0580291748047
 20
25.20511436462402
 11
-144.0580291748047
 21
11.40511512756348
  0
LINE
  8
9
  6
CONTINUOUS
 62
     3
 10
-143.4580383300781
 20
30.40511512756348
 11
-143.4580383300781
 21
26.20511436462402
  0
LINE
  8
9
  6
CONTINUOUS
 62
     3
 10
-144.0580291748047
 20
11.40511512756348
 11
-137.0580291748047
 21
11.40511512756348
  0
LINE
  8
9
  6
CONTINUOUS
 62
     3
 10
-134.0580291748047
 20
16.0051155090332
 11
-137.0580291748047
 21
11.40511512756348
  0
LINE
  8
9
  6
CONTINUOUS
 62
     3
 10
-132.9580383300781
 20
15.40511512756348
 11
-119.1580352783203
 21
15.40511512756348
  0
LINE
  8
9
  6
CONTINUOUS
 62
     3
 10
-132.9580383300781
 20
15.60511493682861
 11
-119.1580352783203
 21
15.60511493682861
  0
LINE
  8
9
  6
CONTINUOUS
 62
     3
 10
-134.0580291748047
 20
16.0051155090332
 11
-118.0580368041992
 21
16.0051155090332
  0
LINE
  8
9
  6
CONTINUOUS
 62
     3
 10
-144.0580291748047
 20
11.40251541137695
 11
-144.0580291748047
 21
11.35186576843262
  0
LINE
  8
9
  6
CONTINUOUS
 62
     3
 10
-132.9580383300781
 20
16.0051155090332
 11
-132.9580383300781
 21
9.107769012451172
  0
LINE
  8
9
  6
CONTINUOUS
 62
     3
 10
-119.1580352783203
 20
16.0051155090332
 11
-119.1580352783203
 21
9.107769012451172
  0
LINE
  8
9
  6
CONTINUOUS
 62
     3
 10
130.6305389404297
 20
30.40511512756348
 11
130.6305389404297
 21
26.20511436462402
  0
LINE
  8
9
  6
CONTINUOUS
 62
     3
 10
165.4305419921875
 20
30.40511512756348
 11
130.6305389404297
 21
30.40511512756348
  0
LINE
  8
9
  6
CONTINUOUS
 62
     3
 10
165.4305419921875
 20
30.40511512756348
 11
165.4305419921875
 21
26.20511436462402
  0
LINE
  8
9
  6
CONTINUOUS
 62
     3
 10
140.0305480957031
 20
16.0051155090332
 11
139.3784027099609
 21
15.00516891479492
  0
LINE
  8
9
  6
CONTINUOUS
 62
     3
 10
141.1305389404297
 20
16.0051155090332
 11
141.1305389404297
 21
15.00516891479492
  0
LINE
  8
9
  6
CONTINUOUS
 62
     3
 10
154.9305419921875
 20
16.0051155090332
 11
154.9305419921875
 21
15.00516891479492
  0
LINE
  8
9
  6
CONTINUOUS
 62
     3
 10
156.0305480957031
 20
16.0051155090332
 11
156.6826782226563
 21
15.00516891479492
  0
LINE
  8
9
  6
CONTINUOUS
 62
     3
 10
166.0305480957031
 20
25.20511436462402
 11
166.0305480957031
 21
14.001953125
  0
LINE
  8
9
  6
CONTINUOUS
 62
     3
 10
130.0305480957031
 20
25.20511436462402
 11
130.0305480957031
 21
14.00838279724121
  0
LINE
  8
9
  6
CONTINUOUS
 62
     3
 10
145.5407104492188
 20
16.0051155090332
 11
140.0305480957031
 21
16.0051155090332
  0
LINE
  8
9
  6
CONTINUOUS
 62
     3
 10
156.0305480957031
 20
16.0051155090332
 11
150.5407104492188
 21
16.0051155090332
  0
LINE
  8
9
  6
CONTINUOUS
 62
     3
 10
154.9305419921875
 20
15.40511512756348
 11
154.0407104492188
 21
15.40511512756348
  0
LINE
  8
9
  6
CONTINUOUS
 62
     3
 10
154.9305419921875
 20
15.60511493682861
 11
154.0407104492188
 21
15.60511493682861
  0
LINE
  8
9
  6
CONTINUOUS
 62
     3
 10
142.0407104492188
 20
15.40511512756348
 11
141.1305389404297
 21
15.40511512756348
  0
LINE
  8
9
  6
CONTINUOUS
 62
     3
 10
142.0407104492188
 20
15.60511493682861
 11
141.1305389404297
 21
15.60511493682861
  0
LINE
  8
9
  6
CONTINUOUS
 62
     3
 10
147.0407104492188
 20
24.40511512756348
 11
130.0305480957031
 21
24.40511512756348
  0
LINE
  8
9
  6
CONTINUOUS
 62
     3
 10
147.0407104492188
 20
24.60511589050293
 11
130.0305480957031
 21
24.60511589050293
  0
LINE
  8
9
  6
CONTINUOUS
 62
     3
 10
166.0305480957031
 20
24.40511512756348
 11
149.0407104492188
 21
24.40511512756348
  0
LINE
  8
9
  6
CONTINUOUS
 62
     3
 10
166.0305480957031
 20
24.60511589050293
 11
149.0407104492188
 21
24.60511589050293
  0
LINE
  8
9
  6
CONTINUOUS
 62
     3
 10
166.0305480957031
 20
25.20511436462402
 11
149.0210418701172
 21
25.20511436462402
  0
LINE
  8
9
  6
CONTINUOUS
 62
     3
 10
147.0603790283203
 20
25.20511436462402
 11
130.0305480957031
 21
25.20511436462402
  0
ENDSEC
  0
EOF
