  0
SECTION
  2
HEADER
  9
$ACADVER
  1
AC1009
  9
$INSBASE
 10
0.0
 20
0.0
 30
0.0
  9
$EXTMIN
 10
77.841751
 20
161.38837
 30
0.0
  9
$EXTMAX
 10
719.77173
 20
422.01947
 30
0.0
  9
$LIMMIN
 10
0.0
 20
0.0
  9
$LIMMAX
 10
12.0
 20
9.0
  9
$ORTHOMODE
 70
     0
  9
$REGENMODE
 70
     1
  9
$FILLMODE
 70
     1
  9
$QTEXTMODE
 70
     0
  9
$MIRRTEXT
 70
     1
  9
$DRAGMODE
 70
     2
  9
$LTSCALE
 40
1.0
  9
$OSMODE
 70
     1
  9
$ATTMODE
 70
     1
  9
$TEXTSIZE
 40
0.2
  9
$TRACEWID
 40
0.05
  9
$TEXTSTYLE
  7
STANDARD
  9
$CLAYER
  8
0
  9
$CELTYPE
  6
CONTINUOUS
  9
$CECOLOR
 62
   256
  9
$DIMSCALE
 40
1.0
  9
$DIMASZ
 40
0.18
  9
$DIMEXO
 40
0.0625
  9
$DIMDLI
 40
0.38
  9
$DIMRND
 40
0.0
  9
$DIMDLE
 40
0.0
  9
$DIMEXE
 40
0.18
  9
$DIMTP
 40
0.0
  9
$DIMTM
 40
0.0
  9
$DIMTXT
 40
6.0
  9
$DIMCEN
 40
0.09
  9
$DIMTSZ
 40
0.0
  9
$DIMTOL
 70
     0
  9
$DIMLIM
 70
     0
  9
$DIMTIH
 70
     1
  9
$DIMTOH
 70
     1
  9
$DIMSE1
 70
     0
  9
$DIMSE2
 70
     0
  9
$DIMTAD
 70
     0
  9
$DIMZIN
 70
     0
  9
$DIMBLK
  1

  9
$DIMASO
 70
     1
  9
$DIMSHO
 70
     1
  9
$DIMPOST
  1

  9
$DIMAPOST
  1

  9
$DIMALT
 70
     0
  9
$DIMALTD
 70
     2
  9
$DIMALTF
 40
25.4
  9
$DIMLFAC
 40
1.0
  9
$DIMTOFL
 70
     0
  9
$DIMTVP
 40
0.0
  9
$DIMTIX
 70
     0
  9
$DIMSOXD
 70
     0
  9
$DIMSAH
 70
     0
  9
$DIMBLK1
  1

  9
$DIMBLK2
  1

  9
$DIMSTYLE
  2
STANDARD
  9
$DIMCLRD
 70
     0
  9
$DIMCLRE
 70
     0
  9
$DIMCLRT
 70
     0
  9
$DIMTFAC
 40
1.0
  9
$DIMGAP
 40
6.0
  9
$LUNITS
 70
     2
  9
$LUPREC
 70
     4
  9
$SKETCHINC
 40
0.1
  9
$FILLETRAD
 40
0.0
  9
$AUNITS
 70
     0
  9
$AUPREC
 70
     0
  9
$MENU
  1
.
  9
$ELEVATION
 40
0.0
  9
$PELEVATION
 40
0.0
  9
$THICKNESS
 40
0.0
  9
$LIMCHECK
 70
     0
  9
$BLIPMODE
 70
     0
  9
$CHAMFERA
 40
0.0
  9
$CHAMFERB
 40
0.0
  9
$SKPOLY
 70
     0
  9
$TDCREATE
 40
2450795.569217
  9
$TDUPDATE
 40
2450795.569217
  9
$TDINDWG
 40
0.0
  9
$TDUSRTIMER
 40
0.0
  9
$USRTIMER
 70
     1
  9
$ANGBASE
 50
0.0
  9
$ANGDIR
 70
     0
  9
$PDMODE
 70
     0
  9
$PDSIZE
 40
0.0
  9
$PLINEWID
 40
0.0
  9
$COORDS
 70
     1
  9
$SPLFRAME
 70
     0
  9
$SPLINETYPE
 70
     6
  9
$SPLINESEGS
 70
     8
  9
$ATTDIA
 70
     0
  9
$ATTREQ
 70
     1
  9
$HANDLING
 70
     1
  9
$HANDSEED
  5
212
  9
$SURFTAB1
 70
     6
  9
$SURFTAB2
 70
     6
  9
$SURFTYPE
 70
     6
  9
$SURFU
 70
     6
  9
$SURFV
 70
     6
  9
$UCSNAME
  2

  9
$UCSORG
 10
0.0
 20
0.0
 30
0.0
  9
$UCSXDIR
 10
1.0
 20
0.0
 30
0.0
  9
$UCSYDIR
 10
0.0
 20
1.0
 30
0.0
  9
$PUCSNAME
  2

  9
$PUCSORG
 10
0.0
 20
0.0
 30
0.0
  9
$PUCSXDIR
 10
1.0
 20
0.0
 30
0.0
  9
$PUCSYDIR
 10
0.0
 20
1.0
 30
0.0
  9
$USERI1
 70
     0
  9
$USERI2
 70
     0
  9
$USERI3
 70
     0
  9
$USERI4
 70
     0
  9
$USERI5
 70
     0
  9
$USERR1
 40
0.0
  9
$USERR2
 40
0.0
  9
$USERR3
 40
0.0
  9
$USERR4
 40
0.0
  9
$USERR5
 40
0.0
  9
$WORLDVIEW
 70
     1
  9
$SHADEDGE
 70
     3
  9
$SHADEDIF
 70
    70
  9
$TILEMODE
 70
     1
  9
$MAXACTVP
 70
    48
  9
$PLIMCHECK
 70
     0
  9
$PEXTMIN
 10
1.000000E+020
 20
1.000000E+020
 30
1.000000E+020
  9
$PEXTMAX
 10
-1.000000E+020
 20
-1.000000E+020
 30
-1.000000E+020
  9
$PLIMMIN
 10
0.0
 20
0.0
  9
$PLIMMAX
 10
12.0
 20
9.0
  9
$UNITMODE
 70
     0
  9
$VISRETAIN
 70
     1
  9
$PLINEGEN
 70
     0
  9
$PSLTSCALE
 70
     1
  0
ENDSEC
  0
SECTION
  2
TABLES
  0
TABLE
  2
VPORT
 70
     2
  0
VPORT
  2
*ACTIVE
 70
     0
 10
0.0
 20
0.0
 11
1.0
 21
1.0
 12
359.885864
 22
223.944645
 13
0.0
 23
0.0
 14
1.0
 24
1.0
 15
0.0
 25
0.0
 16
0.0
 26
0.0
 36
1.0
 17
0.0
 27
0.0
 37
0.0
 40
488.791785
 41
1.602828
 42
50.0
 43
0.0
 44
0.0
 50
0.0
 51
0.0
 71
     0
 72
   100
 73
     1
 74
     1
 75
     0
 76
     0
 77
     0
 78
     0
  0
ENDTAB
  0
TABLE
  2
LTYPE
 70
     5
  0
LTYPE
  2
CONTINUOUS
 70
     0
  3
Solid line
 72
    65
 73
     0
 40
0.0
  0
LTYPE
  2
DASHED
 70
     0
  3
__ __ __ __ __ __ __ __ __ __ __ __ __ __ __
 72
    65
 73
     2
 40
3.5
 49
2.0
 49
-1.5
  0
LTYPE
  2
CENTER
 70
     0
  3
____ _ ____ _ ____ _ ____ _ ____ _ ____ _ ____
 72
    65
 73
     4
 40
17.5
 49
13.0
 49
-1.5
 49
1.5
 49
-1.5
  0
LTYPE
  2
PHANTOM
 70
     0
  3
_____ _ _ _____ _ _ _____ _ _ _____ _ _ ____  
 72
    65
 73
     6
 40
15.5
 49
8.0
 49
-1.5
 49
1.5
 49
-1.5
 49
1.5
 49
-1.5
  0
LTYPE
  2
DOT
 70
     0
  3
. . . . . . . . . . . . . . . . . . . . . . . .
 72
    65
 73
     2
 40
0.25
 49
0.0
 49
-0.25
  0
ENDTAB
  0
TABLE
  2
LAYER
 70
     2
  0
LAYER
  2
0
 70
     0
 62
     7
  6
CONTINUOUS
  0
LAYER
  2
DEFPOINTS
 70
     0
 62
     7
  6
CONTINUOUS
  0
ENDTAB
  0
TABLE
  2
STYLE
 70
     1
  0
STYLE
  2
STANDARD
 70
     0
 40
0.0
 41
1.0
 50
0.0
 71
     0
 42
0.2
  3
txt
  4

  0
ENDTAB
  0
TABLE
  2
VIEW
 70
     0
  0
ENDTAB
  0
TABLE
  2
UCS
 70
     0
  0
ENDTAB
  0
TABLE
  2
APPID
 70
     1
  0
APPID
  2
ACAD
 70
     0
  0
ENDTAB
  0
TABLE
  2
DIMSTYLE
 70
     1
  0
DIMSTYLE
  2
STANDARD
 70
     0
  3

  4

  5

  6

  7

 40
1.0
 41
0.18
 42
0.0625
 43
0.38
 44
0.18
 45
0.0
 46
0.0
 47
0.0
 48
0.0
140
0.18
141
0.09
142
0.0
143
25.4
144
1.0
145
0.0
146
1.0
147
0.09
 71
     0
 72
     0
 73
     1
 74
     1
 75
     0
 76
     0
 77
     0
 78
     0
170
     0
171
     2
172
     0
173
     0
174
     0
175
     0
176
     0
177
     0
178
     0
  0
ENDTAB
  0
ENDSEC
  0
SECTION
  2
BLOCKS
  0
BLOCK
  8
0
  2
$MODEL_SPACE
 70
     0
 10
0.0
 20
0.0
 30
0.0
  3
$MODEL_SPACE
  1

  0
ENDBLK
  5
20C
  8
0
  0
BLOCK
 67
     1
  8
0
  2
$PAPER_SPACE
 70
     0
 10
0.0
 20
0.0
 30
0.0
  3
$PAPER_SPACE
  1

  0
ENDBLK
  5
20A
 67
     1
  8
0
  0
BLOCK
  8
0
  2
*D2
 70
     1
 10
0.0
 20
0.0
 30
0.0
  3
*D2
  1

  0
LINE
  5
17E
  8
0
  6
BYBLOCK
 62
     0
 10
577.564919
 20
338.299222
 30
0.0
 11
577.564919
 21
397.335353
 31
0.0
  0
LINE
  5
17F
  8
0
  6
BYBLOCK
 62
     0
 10
707.564569
 20
338.298164
 30
0.0
 11
707.564569
 21
397.335353
 31
0.0
  0
LINE
  5
180
  8
0
  6
BYBLOCK
 62
     0
 10
577.744919
 20
397.155353
 30
0.0
 11
641.874744
 21
397.155353
 31
0.0
  0
LINE
  5
181
  8
0
  6
BYBLOCK
 62
     0
 10
707.384569
 20
397.155353
 30
0.0
 11
643.254744
 21
397.155353
 31
0.0
  0
SOLID
  5
182
  8
0
  6
BYBLOCK
 62
     0
 10
577.744919
 20
397.185353
 30
0.0
 11
577.744919
 21
397.125353
 31
0.0
 12
577.564919
 22
397.155353
 32
0.0
 13
577.564919
 23
397.155353
 33
0.0
  0
SOLID
  5
183
  8
0
  6
BYBLOCK
 62
     0
 10
707.384569
 20
397.185353
 30
0.0
 11
707.384569
 21
397.125353
 31
0.0
 12
707.564569
 22
397.155353
 32
0.0
 13
707.564569
 23
397.155353
 33
0.0
  0
TEXT
  5
18C
  8
0
 62
     0
 10
642.205
 20
396.837
 30
0.0
 40
0.18
  1
129.9997
  0
POINT
  5
186
  8
DEFPOINTS
  6
BYBLOCK
 62
     0
 10
577.564919
 20
338.236722
 30
0.0
  0
POINT
  5
187
  8
DEFPOINTS
  6
BYBLOCK
 62
     0
 10
707.564569
 20
338.235664
 30
0.0
  0
POINT
  5
188
  8
DEFPOINTS
  6
BYBLOCK
 62
     0
 10
707.564569
 20
397.155353
 30
0.0
  0
ENDBLK
  5
189
  8
0
  0
BLOCK
  8
0
  2
*D3
 70
     1
 10
0.0
 20
0.0
 30
0.0
  3
*D3
  1

  0
LINE
  5
1B9
  8
0
  6
BYBLOCK
 62
     0
 10
465.65857
 20
342.42999
 30
0.0
 11
542.406502
 21
342.42999
 31
0.0
  0
LINE
  5
1BA
  8
0
  6
BYBLOCK
 62
     0
 10
465.65857
 20
232.42999
 30
0.0
 11
542.406502
 21
232.42999
 31
0.0
  0
LINE
  5
1BB
  8
0
  6
BYBLOCK
 62
     0
 10
542.226502
 20
342.24999
 30
0.0
 11
542.226502
 21
296.42999
 31
0.0
  0
LINE
  5
1BC
  8
0
  6
BYBLOCK
 62
     0
 10
542.226502
 20
232.60999
 30
0.0
 11
542.226502
 21
278.42999
 31
0.0
  0
SOLID
  5
1BD
  8
0
  6
BYBLOCK
 62
     0
 10
542.196502
 20
342.24999
 30
0.0
 11
542.256502
 21
342.24999
 31
0.0
 12
542.226502
 22
342.42999
 32
0.0
 13
542.226502
 23
342.42999
 33
0.0
  0
SOLID
  5
1BE
  8
0
  6
BYBLOCK
 62
     0
 10
542.196502
 20
232.60999
 30
0.0
 11
542.256502
 21
232.60999
 31
0.0
 12
542.226502
 22
232.42999
 32
0.0
 13
542.226502
 23
232.42999
 33
0.0
  0
TEXT
  5
1BF
  8
0
  6
BYBLOCK
 62
     0
 10
525.726502
 20
284.42999
 30
0.0
 40
6.0
  1
110.0000
  0
POINT
  5
1C0
  8
DEFPOINTS
  6
BYBLOCK
 62
     0
 10
465.59607
 20
342.42999
 30
0.0
  0
POINT
  5
1C1
  8
DEFPOINTS
  6
BYBLOCK
 62
     0
 10
465.59607
 20
232.42999
 30
0.0
  0
POINT
  5
1C2
  8
DEFPOINTS
  6
BYBLOCK
 62
     0
 10
542.226502
 20
232.42999
 30
0.0
  0
ENDBLK
  5
1C3
  8
0
  0
BLOCK
  8
0
  2
*D4
 70
     1
 10
0.0
 20
0.0
 30
0.0
  3
*D4
  1

  0
LINE
  5
1C7
  8
0
  6
BYBLOCK
 62
     0
 10
517.65857
 20
299.42999
 30
0.0
 11
543.195856
 21
299.42999
 31
0.0
  0
LINE
  5
1C8
  8
0
  6
BYBLOCK
 62
     0
 10
517.65857
 20
275.42999
 30
0.0
 11
543.195856
 21
275.42999
 31
0.0
  0
LINE
  5
1C9
  8
0
  6
BYBLOCK
 62
     0
 10
543.015856
 20
299.60999
 30
0.0
 11
543.015856
 21
299.78999
 31
0.0
  0
LINE
  5
1CA
  8
0
  6
BYBLOCK
 62
     0
 10
543.015856
 20
275.24999
 30
0.0
 11
543.015856
 21
275.06999
 31
0.0
  0
SOLID
  5
1CB
  8
0
  6
BYBLOCK
 62
     0
 10
542.985856
 20
299.60999
 30
0.0
 11
543.045856
 21
299.60999
 31
0.0
 12
543.015856
 22
299.42999
 32
0.0
 13
543.015856
 23
299.42999
 33
0.0
  0
SOLID
  5
1CC
  8
0
  6
BYBLOCK
 62
     0
 10
542.985856
 20
275.24999
 30
0.0
 11
543.045856
 21
275.24999
 31
0.0
 12
543.015856
 22
275.42999
 32
0.0
 13
543.015856
 23
275.42999
 33
0.0
  0
TEXT
  5
1CD
  8
0
  6
BYBLOCK
 62
     0
 10
527.015856
 20
284.42999
 30
0.0
 40
6.0
  1
24.0000
  0
POINT
  5
1CE
  8
DEFPOINTS
  6
BYBLOCK
 62
     0
 10
517.59607
 20
299.42999
 30
0.0
  0
POINT
  5
1CF
  8
DEFPOINTS
  6
BYBLOCK
 62
     0
 10
517.59607
 20
275.42999
 30
0.0
  0
POINT
  5
1D0
  8
DEFPOINTS
  6
BYBLOCK
 62
     0
 10
543.015856
 20
275.42999
 30
0.0
  0
ENDBLK
  5
1D1
  8
0
  0
BLOCK
  8
0
  2
*D5
 70
     1
 10
0.0
 20
0.0
 30
0.0
  3
*D5
  1

  0
LINE
  5
1D5
  8
0
  6
BYBLOCK
 62
     0
 10
517.65857
 20
299.42999
 30
0.0
 11
547.142623
 21
299.42999
 31
0.0
  0
LINE
  5
1D6
  8
0
  6
BYBLOCK
 62
     0
 10
517.65857
 20
275.42999
 30
0.0
 11
547.142623
 21
275.42999
 31
0.0
  0
LINE
  5
1D7
  8
0
  6
BYBLOCK
 62
     0
 10
546.962623
 20
299.60999
 30
0.0
 11
546.962623
 21
299.78999
 31
0.0
  0
LINE
  5
1D8
  8
0
  6
BYBLOCK
 62
     0
 10
546.962623
 20
275.24999
 30
0.0
 11
546.962623
 21
275.06999
 31
0.0
  0
SOLID
  5
1D9
  8
0
  6
BYBLOCK
 62
     0
 10
546.932623
 20
299.60999
 30
0.0
 11
546.992623
 21
299.60999
 31
0.0
 12
546.962623
 22
299.42999
 32
0.0
 13
546.962623
 23
299.42999
 33
0.0
  0
SOLID
  5
1DA
  8
0
  6
BYBLOCK
 62
     0
 10
546.932623
 20
275.24999
 30
0.0
 11
546.992623
 21
275.24999
 31
0.0
 12
546.962623
 22
275.42999
 32
0.0
 13
546.962623
 23
275.42999
 33
0.0
  0
TEXT
  5
1DB
  8
0
  6
BYBLOCK
 62
     0
 10
530.962623
 20
284.42999
 30
0.0
 40
6.0
  1
24.0000
  0
POINT
  5
1DC
  8
DEFPOINTS
  6
BYBLOCK
 62
     0
 10
517.59607
 20
299.42999
 30
0.0
  0
POINT
  5
1DD
  8
DEFPOINTS
  6
BYBLOCK
 62
     0
 10
517.59607
 20
275.42999
 30
0.0
  0
POINT
  5
1DE
  8
DEFPOINTS
  6
BYBLOCK
 62
     0
 10
546.962623
 20
275.42999
 30
0.0
  0
ENDBLK
  5
1DF
  8
0
  0
ENDSEC
  0
SECTION
  2
ENTITIES
  0
LINE
  5
23
  8
0
  6
CENTER
 62
     6
 10
77.841751
 20
287.43011
 30
0.0
 11
231.76511
 21
287.43011
 31
0.0
  0
LINE
  5
24
  8
0
  6
CENTER
 62
     6
 10
156.55141
 20
161.38837
 30
0.0
 11
156.55141
 21
362.80298
 31
0.0
  0
LINE
  5
25
  8
0
  6
CONTINUOUS
 62
     5
 10
105.74541
 20
222.43015
 30
0.0
 11
141.75139
 21
222.43015
 31
0.0
  0
LINE
  5
26
  8
0
  6
CONTINUOUS
 62
     5
 10
171.35139
 20
222.43015
 30
0.0
 11
207.35741
 21
222.43015
 31
0.0
  0
LINE
  5
27
  8
0
  6
CONTINUOUS
 62
     5
 10
221.55139
 20
236.62415
 30
0.0
 11
221.55139
 21
338.23615
 31
0.0
  0
LINE
  5
28
  8
0
  6
CONTINUOUS
 62
     5
 10
91.551407
 20
236.62415
 30
0.0
 11
91.551407
 21
338.23615
 31
0.0
  0
LINE
  5
29
  8
0
  6
CONTINUOUS
 62
     5
 10
105.74548
 20
352.43015
 30
0.0
 11
207.35733
 21
352.43015
 31
0.0
  0
LINE
  5
2A
  8
0
  6
CONTINUOUS
 62
     5
 10
136.05141
 20
229.03009
 30
0.0
 11
177.05141
 21
229.03009
 31
0.0
  0
LINE
  5
2B
  8
0
  6
CONTINUOUS
 62
     5
 10
136.05141
 20
229.03009
 30
0.0
 11
136.05141
 21
253.08279
 31
0.0
  0
LINE
  5
2C
  8
0
  6
CONTINUOUS
 62
     5
 10
137.55141
 20
229.03009
 30
0.0
 11
137.55141
 21
253.94528
 31
0.0
  0
LINE
  5
2D
  8
0
  6
CONTINUOUS
 62
     5
 10
114.05141
 20
259.92657
 30
0.0
 11
114.05141
 21
314.93372
 31
0.0
  0
LINE
  5
2E
  8
0
  6
CONTINUOUS
 62
     5
 10
129.03838
 20
329.92068
 30
0.0
 11
184.06441
 21
329.92068
 31
0.0
  0
LINE
  5
2F
  8
0
  6
CONTINUOUS
 62
     5
 10
199.05139
 20
259.92657
 30
0.0
 11
199.05139
 21
314.93372
 31
0.0
  0
LINE
  5
30
  8
0
  6
CONTINUOUS
 62
     5
 10
172.95134
 20
176.4297
 30
0.0
 11
173.95137
 21
177.42973
 31
0.0
  0
LINE
  5
31
  8
0
  6
CONTINUOUS
 62
     5
 10
140.1514
 20
176.42969
 30
0.0
 11
172.9514
 21
176.42969
 31
0.0
  0
LINE
  5
32
  8
0
  6
CONTINUOUS
 62
     5
 10
140.15137
 20
176.42967
 30
0.0
 11
139.15137
 21
177.42967
 31
0.0
  0
LINE
  5
33
  8
0
  6
CONTINUOUS
 62
     5
 10
139.15138
 20
177.42969
 30
0.0
 11
139.15138
 21
195.42969
 31
0.0
  0
LINE
  5
34
  8
0
  6
CONTINUOUS
 62
     5
 10
140.15138
 20
176.42969
 30
0.0
 11
140.15138
 21
192.42969
 31
0.0
  0
LINE
  5
35
  8
0
  6
CONTINUOUS
 62
     5
 10
139.15138
 20
177.42969
 30
0.0
 11
173.9514
 21
177.42969
 31
0.0
  0
LINE
  5
36
  8
0
  6
CONTINUOUS
 62
     5
 10
172.9514
 20
176.42969
 30
0.0
 11
172.9514
 21
192.42969
 31
0.0
  0
LINE
  5
37
  8
0
  6
CONTINUOUS
 62
     5
 10
173.9514
 20
177.42969
 30
0.0
 11
173.9514
 21
195.42969
 31
0.0
  0
LINE
  5
38
  8
0
  6
CONTINUOUS
 62
     5
 10
139.15138
 20
192.42969
 30
0.0
 11
173.9514
 21
192.42969
 31
0.0
  0
LINE
  5
39
  8
0
  6
CONTINUOUS
 62
     5
 10
136.05141
 20
195.42969
 30
0.0
 11
177.05141
 21
195.42969
 31
0.0
  0
LINE
  5
3A
  8
0
  6
CONTINUOUS
 62
     5
 10
177.05141
 20
195.42969
 30
0.0
 11
177.05141
 21
199.22968
 31
0.0
  0
LINE
  5
3B
  8
0
  6
CONTINUOUS
 62
     5
 10
136.05141
 20
195.42969
 30
0.0
 11
136.05141
 21
199.22968
 31
0.0
  0
LINE
  5
3C
  8
0
  6
CONTINUOUS
 62
     5
 10
136.05141
 20
198.22969
 30
0.0
 11
177.05141
 21
198.22969
 31
0.0
  0
LINE
  5
3D
  8
0
  6
CONTINUOUS
 62
     5
 10
136.05141
 20
199.22969
 30
0.0
 11
177.05141
 21
199.22969
 31
0.0
  0
LINE
  5
3E
  8
0
  6
CONTINUOUS
 62
     5
 10
177.05141
 20
199.22968
 30
0.0
 11
177.05141
 21
222.42068
 31
0.0
  0
LINE
  5
3F
  8
0
  6
CONTINUOUS
 62
     5
 10
136.05141
 20
199.22968
 30
0.0
 11
136.05141
 21
222.42068
 31
0.0
  0
LINE
  5
40
  8
0
  6
CONTINUOUS
 62
     5
 10
141.75137
 20
206.93007
 30
0.0
 11
142.75137
 21
205.93007
 31
0.0
  0
LINE
  5
41
  8
0
  6
CONTINUOUS
 62
     5
 10
141.75139
 20
206.93008
 30
0.0
 11
141.75139
 21
225.23007
 31
0.0
  0
LINE
  5
42
  8
0
  6
CONTINUOUS
 62
     5
 10
142.75139
 20
205.93008
 30
0.0
 11
142.75139
 21
222.2301
 31
0.0
  0
LINE
  5
43
  8
0
  6
CONTINUOUS
 62
     5
 10
142.75139
 20
205.93008
 30
0.0
 11
170.35139
 21
205.93008
 31
0.0
  0
LINE
  5
44
  8
0
  6
CONTINUOUS
 62
     5
 10
141.7514
 20
206.93008
 30
0.0
 11
171.35139
 21
206.93008
 31
0.0
  0
LINE
  5
45
  8
0
  6
CONTINUOUS
 62
     5
 10
170.35139
 20
205.93008
 30
0.0
 11
170.35139
 21
222.2301
 31
0.0
  0
LINE
  5
46
  8
0
  6
CONTINUOUS
 62
     5
 10
170.35139
 20
205.93007
 30
0.0
 11
171.35141
 21
206.93008
 31
0.0
  0
LINE
  5
47
  8
0
  6
CONTINUOUS
 62
     5
 10
171.35139
 20
206.93008
 30
0.0
 11
171.35139
 21
225.23007
 31
0.0
  0
LINE
  5
48
  8
0
  6
CONTINUOUS
 62
     5
 10
141.75139
 20
222.2301
 30
0.0
 11
171.35139
 21
222.2301
 31
0.0
  0
LINE
  5
49
  8
0
  6
CONTINUOUS
 62
     5
 10
137.55141
 20
225.23007
 30
0.0
 11
175.55141
 21
225.23007
 31
0.0
  0
LINE
  5
4A
  8
0
  6
CONTINUOUS
 62
     5
 10
137.55141
 20
228.03009
 30
0.0
 11
175.55141
 21
228.03009
 31
0.0
  0
LINE
  5
4B
  8
0
  6
CONTINUOUS
 62
     5
 10
175.60139
 20
225.23007
 30
0.0
 11
175.60139
 21
229.03009
 31
0.0
  0
LINE
  5
4C
  8
0
  6
CONTINUOUS
 62
     5
 10
137.50139
 20
225.23007
 30
0.0
 11
137.50139
 21
229.03009
 31
0.0
  0
LINE
  5
4D
  8
0
  6
CONTINUOUS
 62
     5
 10
175.55141
 20
229.03009
 30
0.0
 11
175.55141
 21
253.94495
 31
0.0
  0
LINE
  5
4E
  8
0
  6
CONTINUOUS
 62
     5
 10
177.05141
 20
229.03009
 30
0.0
 11
177.05141
 21
253.08261
 31
0.0
  0
LINE
  5
4F
  8
0
  6
CONTINUOUS
 62
     5
 10
129.05727
 20
244.92068
 30
0.0
 11
136.05141
 21
244.92068
 31
0.0
  0
LINE
  5
50
  8
0
  6
CONTINUOUS
 62
     5
 10
343.69604
 20
195.42987
 30
0.0
 11
343.69604
 21
177.42987
 31
0.0
  0
LINE
  5
51
  8
0
  6
CONTINUOUS
 62
     5
 10
343.69595
 20
177.42978
 30
0.0
 11
344.69595
 21
176.42979
 31
0.0
  0
LINE
  5
52
  8
0
  6
CONTINUOUS
 62
     5
 10
344.69604
 20
176.42989
 30
0.0
 11
377.49603
 21
176.42989
 31
0.0
  0
LINE
  5
53
  8
0
  6
CONTINUOUS
 62
     5
 10
377.49588
 20
176.43001
 30
0.0
 11
378.49591
 21
177.43004
 31
0.0
  0
LINE
  5
54
  8
0
  6
CONTINUOUS
 62
     5
 10
378.49603
 20
177.42987
 30
0.0
 11
378.49603
 21
195.42987
 31
0.0
  0
LINE
  5
55
  8
0
  6
CONTINUOUS
 62
     5
 10
378.49603
 20
195.42987
 30
0.0
 11
378.49603
 21
192.42987
 31
0.0
  0
LINE
  5
56
  8
0
  6
CONTINUOUS
 62
     5
 10
378.49603
 20
192.42989
 30
0.0
 11
343.69604
 21
192.42989
 31
0.0
  0
LINE
  5
57
  8
0
  6
CONTINUOUS
 62
     5
 10
344.69604
 20
192.42987
 30
0.0
 11
344.69604
 21
176.42987
 31
0.0
  0
LINE
  5
58
  8
0
  6
CONTINUOUS
 62
     5
 10
343.69604
 20
177.42989
 30
0.0
 11
378.49603
 21
177.42989
 31
0.0
  0
LINE
  5
59
  8
0
  6
CONTINUOUS
 62
     5
 10
377.49603
 20
176.42987
 30
0.0
 11
377.49603
 21
192.42987
 31
0.0
  0
LINE
  5
5A
  8
0
  6
CONTINUOUS
 62
     5
 10
381.59607
 20
199.22986
 30
0.0
 11
381.59607
 21
195.42987
 31
0.0
  0
LINE
  5
5B
  8
0
  6
CONTINUOUS
 62
     5
 10
381.59607
 20
195.42989
 30
0.0
 11
340.59607
 21
195.42989
 31
0.0
  0
LINE
  5
5C
  8
0
  6
CONTINUOUS
 62
     5
 10
340.59607
 20
195.42987
 30
0.0
 11
340.59607
 21
199.22986
 31
0.0
  0
LINE
  5
5D
  8
0
  6
CONTINUOUS
 62
     5
 10
340.59607
 20
198.22987
 30
0.0
 11
381.59607
 21
198.22987
 31
0.0
  0
LINE
  5
5E
  8
0
  6
CONTINUOUS
 62
     5
 10
383.59589
 20
199.2308
 30
0.0
 11
338.59607
 21
199.2308
 31
0.0
  0
LINE
  5
5F
  8
0
  6
CONTINUOUS
 62
     5
 10
338.59607
 20
222.40784
 30
0.0
 11
338.59607
 21
199.22986
 31
0.0
  0
LINE
  5
60
  8
0
  6
CONTINUOUS
 62
     5
 10
393.59601
 20
221.43001
 30
0.0
 11
393.59601
 21
222.43001
 31
0.0
  0
LINE
  5
61
  8
0
  6
CENTER
 62
     6
 10
361.09607
 20
169.48978
 30
0.0
 11
361.09607
 21
206.36432
 31
0.0
  0
LINE
  5
62
  8
0
  6
CONTINUOUS
 62
     5
 10
577.56177
 20
338.23682
 30
0.0
 11
577.56177
 21
236.62433
 31
0.0
  0
LINE
  5
63
  8
0
  6
CENTER
 62
     6
 10
585.65991
 20
230.52525
 30
0.0
 11
596.77795
 21
241.64328
 31
0.0
  0
LINE
  5
64
  8
0
  6
CENTER
 62
     6
 10
585.80365
 20
344.19138
 30
0.0
 11
597.61719
 21
332.37781
 31
0.0
  0
LINE
  5
65
  8
0
  6
CENTER
 62
     6
 10
688.05597
 20
241.93903
 30
0.0
 11
699.6377
 21
230.35735
 31
0.0
  0
LINE
  5
66
  8
0
  6
CENTER
 62
     6
 10
687.56439
 20
332.42972
 30
0.0
 11
699.49396
 21
344.35931
 31
0.0
  0
LINE
  5
67
  8
0
  6
CONTINUOUS
 62
     5
 10
591.75757
 20
222.43616
 30
0.0
 11
693.37
 21
222.43616
 31
0.0
  0
LINE
  5
68
  8
0
  6
CONTINUOUS
 62
     5
 10
707.5614
 20
236.62317
 30
0.0
 11
707.5614
 21
338.23569
 31
0.0
  0
LINE
  5
69
  8
0
  6
CONTINUOUS
 62
     5
 10
693.37122
 20
352.43576
 30
0.0
 11
591.75867
 21
352.43576
 31
0.0
  0
LINE
  5
6A
  8
0
  6
CENTER
 62
     6
 10
567.61377
 20
287.42999
 30
0.0
 11
719.77173
 21
287.42999
 31
0.0
  0
LINE
  5
6B
  8
0
  6
CENTER
 62
     6
 10
642.56433
 20
165.76889
 30
0.0
 11
642.56433
 21
368.06445
 31
0.0
  0
LINE
  5
6C
  8
0
  6
CONTINUOUS
 62
     5
 10
622.06433
 20
221.42999
 30
0.0
 11
663.06433
 21
221.42999
 31
0.0
  0
LINE
  5
6D
  8
0
  6
CONTINUOUS
 62
     5
 10
622.06433
 20
199.23
 30
0.0
 11
663.06433
 21
199.23
 31
0.0
  0
LINE
  5
6E
  8
0
  6
CONTINUOUS
 62
     5
 10
622.06433
 20
198.23
 30
0.0
 11
663.06433
 21
198.23
 31
0.0
  0
LINE
  5
6F
  8
0
  6
CONTINUOUS
 62
     5
 10
622.06433
 20
195.43001
 30
0.0
 11
663.06433
 21
195.43001
 31
0.0
  0
LINE
  5
70
  8
0
  6
CONTINUOUS
 62
     5
 10
663.06433
 20
195.42999
 30
0.0
 11
663.06433
 21
222.42999
 31
0.0
  0
LINE
  5
71
  8
0
  6
CONTINUOUS
 62
     5
 10
622.06433
 20
222.42999
 30
0.0
 11
622.06433
 21
195.42999
 31
0.0
  0
LINE
  5
72
  8
0
  6
CONTINUOUS
 62
     5
 10
625.16431
 20
195.42999
 30
0.0
 11
625.16431
 21
177.42999
 31
0.0
  0
LINE
  5
73
  8
0
  6
CONTINUOUS
 62
     5
 10
625.16412
 20
177.42979
 30
0.0
 11
626.16412
 21
176.42981
 31
0.0
  0
LINE
  5
74
  8
0
  6
CONTINUOUS
 62
     5
 10
626.16431
 20
176.43001
 30
0.0
 11
658.96436
 21
176.43001
 31
0.0
  0
LINE
  5
75
  8
0
  6
CONTINUOUS
 62
     5
 10
658.96411
 20
176.43022
 30
0.0
 11
659.96417
 21
177.43024
 31
0.0
  0
LINE
  5
76
  8
0
  6
CONTINUOUS
 62
     5
 10
659.96436
 20
177.42999
 30
0.0
 11
659.96436
 21
195.42999
 31
0.0
  0
LINE
  5
77
  8
0
  6
CONTINUOUS
 62
     5
 10
659.96436
 20
192.43001
 30
0.0
 11
625.16431
 21
192.43001
 31
0.0
  0
LINE
  5
78
  8
0
  6
CONTINUOUS
 62
     5
 10
626.16431
 20
192.42999
 30
0.0
 11
626.16431
 21
176.42999
 31
0.0
  0
LINE
  5
79
  8
0
  6
CONTINUOUS
 62
     5
 10
625.16431
 20
177.43001
 30
0.0
 11
659.96436
 21
177.43001
 31
0.0
  0
LINE
  5
7A
  8
0
  6
CONTINUOUS
 62
     5
 10
658.96436
 20
176.42999
 30
0.0
 11
658.96436
 21
192.42999
 31
0.0
  0
LINE
  5
7B
  8
0
  6
CENTER
 62
     6
 10
607.51813
 20
226.72701
 30
0.0
 11
610.56531
 21
232.0049
 31
0.0
  0
LINE
  5
7C
  8
0
  6
CENTER
 62
     6
 10
703.26709
 20
252.38324
 30
0.0
 11
697.98914
 21
255.43044
 31
0.0
  0
LINE
  5
7D
  8
0
  6
CENTER
 62
     6
 10
674.56415
 20
342.85471
 30
0.0
 11
677.61139
 21
348.13257
 31
0.0
  0
LINE
  5
7E
  8
0
  6
CONTINUOUS
 62
     5
 10
612.71899
 20
303.19135
 30
0.0
 11
611.78729
 21
306.6687
 31
0.0
  0
LINE
  5
7F
  8
0
  6
CONTINUOUS
 62
     5
 10
610.51465
 20
304.46414
 30
0.0
 11
613.99194
 21
305.39587
 31
0.0
  0
LINE
  5
80
  8
0
  6
CONTINUOUS
 62
     5
 10
671.13635
 20
305.3959
 30
0.0
 11
674.61383
 21
304.46414
 31
0.0
  0
LINE
  5
81
  8
0
  6
CONTINUOUS
 62
     5
 10
672.40979
 20
303.19122
 30
0.0
 11
673.34155
 21
306.66858
 31
0.0
  0
LINE
  5
82
  8
0
  6
CONTINUOUS
 62
     5
 10
641.29144
 20
251.15741
 30
0.0
 11
643.83698
 21
253.703
 31
0.0
  0
LINE
  5
83
  8
0
  6
CONTINUOUS
 62
     5
 10
641.29181
 20
253.70305
 30
0.0
 11
643.8374
 21
251.15739
 31
0.0
  0
LINE
  5
84
  8
0
  6
CENTER
 62
     6
 10
607.85718
 20
307.46796
 30
0.0
 11
616.40326
 21
302.53394
 31
0.0
  0
LINE
  5
85
  8
0
  6
CENTER
 62
     6
 10
668.50269
 20
302.40567
 30
0.0
 11
677.52393
 21
307.61404
 31
0.0
  0
LINE
  5
86
  8
0
  6
CONTINUOUS
 62
     5
 10
114.05133
 20
259.92648
 30
0.0
 11
129.05719
 21
244.92058
 31
0.0
  0
LINE
  5
87
  8
0
  6
CONTINUOUS
 62
     5
 10
184.04552
 20
244.92072
 30
0.0
 11
199.05141
 21
259.92664
 31
0.0
  0
LINE
  5
88
  8
0
  6
CENTER
 62
     6
 10
173.56825
 20
241.92068
 30
0.0
 11
168.66393
 21
241.92068
 31
0.0
  0
LINE
  5
89
  8
0
  6
CENTER
 62
     6
 10
171.25139
 20
239.6369
 30
0.0
 11
171.25139
 21
244.6369
 31
0.0
  0
LINE
  5
8A
  8
0
  6
CENTER
 62
     6
 10
139.32054
 20
241.92068
 30
0.0
 11
144.0331
 21
241.92068
 31
0.0
  0
LINE
  5
8B
  8
0
  6
CENTER
 62
     6
 10
141.85139
 20
239.82867
 30
0.0
 11
141.85139
 21
244.82867
 31
0.0
  0
LINE
  5
8C
  8
0
  6
CENTER
 62
     6
 10
187.27606
 20
234.21407
 30
0.0
 11
192.24821
 21
225.60205
 31
0.0
  0
LINE
  5
8D
  8
0
  6
CENTER
 62
     6
 10
99.518402
 20
230.39719
 30
0.0
 11
111.88441
 21
242.76318
 31
0.0
  0
LINE
  5
8E
  8
0
  6
CENTER
 62
     6
 10
94.723145
 20
251.73378
 30
0.0
 11
103.33515
 21
256.70596
 31
0.0
  0
LINE
  5
8F
  8
0
  6
CONTINUOUS
 62
     5
 10
95.200989
 20
244.93011
 30
0.0
 11
102.05141
 21
244.93011
 31
0.0
  0
LINE
  5
90
  8
0
  6
CONTINUOUS
 62
     5
 10
114.05141
 20
232.93011
 30
0.0
 11
114.05141
 21
224.43015
 31
0.0
  0
LINE
  5
91
  8
0
  6
CONTINUOUS
 62
     5
 10
97.854713
 20
251.41869
 30
0.0
 11
99.200577
 21
256.4415
 31
0.0
  0
LINE
  5
92
  8
0
  6
CONTINUOUS
 62
     5
 10
96.016304
 20
254.60318
 30
0.0
 11
101.03913
 21
253.25731
 31
0.0
  0
LINE
  5
93
  8
0
  6
CONTINUOUS
 62
     5
 10
122.37847
 20
342.94247
 30
0.0
 11
123.72433
 21
347.9653
 31
0.0
  0
LINE
  5
94
  8
0
  6
CONTINUOUS
 62
     5
 10
120.54001
 20
346.12689
 30
0.0
 11
125.56281
 21
344.78104
 31
0.0
  0
LINE
  5
95
  8
0
  6
CENTER
 62
     6
 10
125.82703
 20
340.6463
 30
0.0
 11
120.85486
 21
349.25836
 31
0.0
  0
LINE
  5
96
  8
0
  6
CENTER
 62
     6
 10
100.13018
 20
343.85132
 30
0.0
 11
110.66504
 21
333.31647
 31
0.0
  0
LINE
  5
97
  8
0
  6
CONTINUOUS
 62
     5
 10
121.13905
 20
255.86948
 30
0.0
 11
121.48769
 21
259.85425
 31
0.0
  0
LINE
  5
98
  8
0
  6
CENTER
 62
     6
 10
124.44305
 20
260.48013
 30
0.0
 11
118.79112
 21
255.73761
 31
0.0
  0
LINE
  5
99
  8
0
  6
CONTINUOUS
 62
     5
 10
129.03838
 20
329.92059
 30
0.0
 11
114.05141
 21
314.93365
 31
0.0
  0
LINE
  5
9A
  8
0
  6
CONTINUOUS
 62
     5
 10
184.06438
 20
329.92056
 30
0.0
 11
199.05138
 21
314.93359
 31
0.0
  0
LINE
  5
9B
  8
0
  6
CENTER
 62
     6
 10
209.76764
 20
318.1546
 30
0.0
 11
218.37965
 21
323.12671
 31
0.0
  0
LINE
  5
9C
  8
0
  6
CONTINUOUS
 62
     5
 10
215.24806
 20
323.4415
 30
0.0
 11
213.90218
 21
318.41867
 31
0.0
  0
LINE
  5
9D
  8
0
  6
CONTINUOUS
 62
     5
 10
217.08646
 20
320.25702
 30
0.0
 11
212.06366
 21
321.60287
 31
0.0
  0
LINE
  5
9E
  8
0
  6
CENTER
 62
     6
 10
201.71642
 20
332.59515
 30
0.0
 11
213.46187
 21
344.34064
 31
0.0
  0
LINE
  5
9F
  8
0
  6
CENTER
 62
     6
 10
213.01466
 20
230.96677
 30
0.0
 11
202.7375
 21
241.24391
 31
0.0
  0
LINE
  5
A0
  8
0
  6
CONTINUOUS
 62
     5
 10
187.53996
 20
230.07947
 30
0.0
 11
192.56281
 21
228.73363
 31
0.0
  0
LINE
  5
A1
  8
0
  6
CONTINUOUS
 62
     5
 10
189.37854
 20
226.89499
 30
0.0
 11
190.7244
 21
231.91782
 31
0.0
  0
LINE
  5
A2
  8
0
  6
CONTINUOUS
 62
     5
 10
184.04552
 20
244.92068
 30
0.0
 11
177.05141
 21
244.92068
 31
0.0
  0
LINE
  5
A3
  8
0
  6
CONTINUOUS
 62
     5
 10
211.05139
 20
244.93011
 30
0.0
 11
217.90005
 21
244.93011
 31
0.0
  0
LINE
  5
A4
  8
0
  6
CONTINUOUS
 62
     5
 10
199.05139
 20
232.93011
 30
0.0
 11
199.05139
 21
224.43015
 31
0.0
  0
LINE
  5
A5
  8
0
  6
CONTINUOUS
 62
     5
 10
199.05139
 20
350.43015
 30
0.0
 11
199.05139
 21
341.93011
 31
0.0
  0
LINE
  5
A6
  8
0
  6
CONTINUOUS
 62
     5
 10
211.05139
 20
329.93011
 30
0.0
 11
217.90042
 21
329.93011
 31
0.0
  0
LINE
  5
A7
  8
0
  6
CONTINUOUS
 62
     5
 10
95.200989
 20
329.93011
 30
0.0
 11
102.05141
 21
329.93011
 31
0.0
  0
LINE
  5
A8
  8
0
  6
CONTINUOUS
 62
     5
 10
114.05141
 20
341.93011
 30
0.0
 11
114.05141
 21
350.43015
 31
0.0
  0
LINE
  5
A9
  8
0
  6
CONTINUOUS
 62
     5
 10
123.30576
 20
257.68759
 30
0.0
 11
119.32104
 21
258.03622
 31
0.0
  0
LINE
  5
AA
  8
0
  6
CONTINUOUS
 62
     5
 10
124.20981
 20
254.41006
 30
0.0
 11
121.68579
 21
252.29218
 31
0.0
  0
LINE
  5
AB
  8
0
  6
CONTINUOUS
 62
     5
 10
118.42474
 20
261.30444
 30
0.0
 11
115.29755
 21
258.68042
 31
0.0
  0
LINE
  5
AC
  8
0
  6
CONTINUOUS
 62
     5
 10
191.96379
 20
318.99078
 30
0.0
 11
191.61516
 21
315.00595
 31
0.0
  0
LINE
  5
AD
  8
0
  6
CENTER
 62
     6
 10
188.65976
 20
314.38016
 30
0.0
 11
194.31168
 21
319.12268
 31
0.0
  0
LINE
  5
AE
  8
0
  6
CONTINUOUS
 62
     5
 10
189.79706
 20
317.17282
 30
0.0
 11
193.78181
 21
316.82419
 31
0.0
  0
LINE
  5
AF
  8
0
  6
CONTINUOUS
 62
     5
 10
188.89299
 20
320.45016
 30
0.0
 11
191.41701
 21
322.56805
 31
0.0
  0
LINE
  5
B0
  8
0
  6
CONTINUOUS
 62
     5
 10
194.6781
 20
313.55582
 30
0.0
 11
197.80527
 21
316.17981
 31
0.0
  0
LINE
  5
B1
  8
0
  6
CENTER
 62
     6
 10
581.86206
 20
322.4776
 30
0.0
 11
587.13983
 21
319.43033
 31
0.0
  0
LINE
  5
B2
  8
0
  6
CONTINUOUS
 62
     5
 10
188.11208
 20
252.01776
 30
0.0
 11
184.12724
 21
252.36641
 31
0.0
  0
LINE
  5
B3
  8
0
  6
CENTER
 62
     6
 10
183.50142
 20
255.32179
 30
0.0
 11
188.24396
 21
249.66985
 31
0.0
  0
LINE
  5
B4
  8
0
  6
CONTINUOUS
 62
     5
 10
186.29395
 20
254.18448
 30
0.0
 11
185.94531
 21
250.19972
 31
0.0
  0
LINE
  5
B5
  8
0
  6
CONTINUOUS
 62
     5
 10
189.57147
 20
255.08855
 30
0.0
 11
191.68936
 21
252.56453
 31
0.0
  0
LINE
  5
B6
  8
0
  6
CONTINUOUS
 62
     5
 10
182.67706
 20
249.30347
 30
0.0
 11
185.30109
 21
246.17627
 31
0.0
  0
LINE
  5
B7
  8
0
  6
CONTINUOUS
 62
     5
 10
124.99079
 20
322.8425
 30
0.0
 11
128.9756
 21
322.49387
 31
0.0
  0
LINE
  5
B8
  8
0
  6
CENTER
 62
     6
 10
129.60143
 20
319.53848
 30
0.0
 11
124.85889
 21
325.19043
 31
0.0
  0
LINE
  5
B9
  8
0
  6
CONTINUOUS
 62
     5
 10
126.80888
 20
320.67578
 30
0.0
 11
127.15752
 21
324.66049
 31
0.0
  0
LINE
  5
BA
  8
0
  6
CONTINUOUS
 62
     5
 10
123.53135
 20
319.77176
 30
0.0
 11
121.41345
 21
322.29578
 31
0.0
  0
LINE
  5
BB
  8
0
  6
CONTINUOUS
 62
     5
 10
130.42574
 20
325.55676
 30
0.0
 11
127.8017
 21
328.68396
 31
0.0
  0
LINE
  5
BC
  8
0
  6
CONTINUOUS
 62
     5
 10
393.59601
 20
221.43001
 30
0.0
 11
338.59607
 21
221.43001
 31
0.0
  0
LINE
  5
BD
  8
0
  6
CONTINUOUS
 62
     5
 10
465.59607
 20
302.42999
 30
0.0
 11
467.59607
 21
302.42999
 31
0.0
  0
LINE
  5
BE
  8
0
  6
CONTINUOUS
 62
     5
 10
467.59607
 20
302.42999
 30
0.0
 11
467.59607
 21
272.42999
 31
0.0
  0
LINE
  5
BF
  8
0
  6
CONTINUOUS
 62
     5
 10
467.59607
 20
272.42999
 30
0.0
 11
465.59607
 21
272.42999
 31
0.0
  0
LINE
  5
C0
  8
0
  6
CONTINUOUS
 62
     5
 10
467.59607
 20
299.42999
 30
0.0
 11
517.59607
 21
299.42999
 31
0.0
  0
LINE
  5
C1
  8
0
  6
CONTINUOUS
 62
     5
 10
517.59607
 20
299.42999
 30
0.0
 11
517.59607
 21
275.42999
 31
0.0
  0
LINE
  5
C2
  8
0
  6
CONTINUOUS
 62
     5
 10
517.59607
 20
275.42999
 30
0.0
 11
467.59607
 21
275.42999
 31
0.0
  0
LINE
  5
C3
  8
0
  6
CENTER
 62
     6
 10
525.61804
 20
287.42999
 30
0.0
 11
247.35281
 21
287.42999
 31
0.0
  0
LINE
  5
C4
  8
0
  6
CONTINUOUS
 62
     5
 10
336.79602
 20
352.42999
 30
0.0
 11
336.79602
 21
222.43001
 31
0.0
  0
LINE
  5
C5
  8
0
  6
CONTINUOUS
 62
     5
 10
332.29602
 20
222.43001
 30
0.0
 11
332.29602
 21
352.42999
 31
0.0
  0
LINE
  5
C6
  8
0
  6
CONTINUOUS
 62
     5
 10
446.59607
 20
352.42999
 30
0.0
 11
446.59607
 21
222.43001
 31
0.0
  0
LINE
  5
C7
  8
0
  6
CONTINUOUS
 62
     5
 10
450.59607
 20
222.43001
 30
0.0
 11
450.59607
 21
352.42999
 31
0.0
  0
LINE
  5
C8
  8
0
  6
CONTINUOUS
 62
     5
 10
462.59607
 20
352.42999
 30
0.0
 11
462.59607
 21
222.43001
 31
0.0
  0
LINE
  5
C9
  8
0
  6
CONTINUOUS
 62
     5
 10
462.59607
 20
236.62402
 30
0.0
 11
450.59607
 21
236.62402
 31
0.0
  0
LINE
  5
CA
  8
0
  6
CONTINUOUS
 62
     5
 10
446.59607
 20
259.42999
 30
0.0
 11
336.79602
 21
259.42999
 31
0.0
  0
LINE
  5
CB
  8
0
  6
CONTINUOUS
 62
     5
 10
446.59607
 20
262.42999
 30
0.0
 11
336.79602
 21
262.42999
 31
0.0
  0
LINE
  5
CC
  8
0
  6
CONTINUOUS
 62
     5
 10
446.59607
 20
265.42999
 30
0.0
 11
336.79602
 21
265.42999
 31
0.0
  0
LINE
  5
CD
  8
0
  6
CONTINUOUS
 62
     5
 10
446.59607
 20
268.42999
 30
0.0
 11
336.79602
 21
268.42999
 31
0.0
  0
LINE
  5
CE
  8
0
  6
CONTINUOUS
 62
     5
 10
446.59607
 20
306.42999
 30
0.0
 11
336.79602
 21
306.42999
 31
0.0
  0
LINE
  5
CF
  8
0
  6
CONTINUOUS
 62
     5
 10
446.59607
 20
309.42999
 30
0.0
 11
336.79602
 21
309.42999
 31
0.0
  0
LINE
  5
D0
  8
0
  6
CONTINUOUS
 62
     5
 10
446.59607
 20
312.42999
 30
0.0
 11
336.79602
 21
312.42999
 31
0.0
  0
LINE
  5
D1
  8
0
  6
CONTINUOUS
 62
     5
 10
446.59607
 20
315.42999
 30
0.0
 11
336.79602
 21
315.42999
 31
0.0
  0
LINE
  5
D2
  8
0
  6
CONTINUOUS
 62
     5
 10
462.59607
 20
342.42999
 30
0.0
 11
465.59607
 21
342.42999
 31
0.0
  0
LINE
  5
D3
  8
0
  6
CONTINUOUS
 62
     5
 10
465.59607
 20
342.42999
 30
0.0
 11
465.59607
 21
232.42999
 31
0.0
  0
LINE
  5
D4
  8
0
  6
CONTINUOUS
 62
     5
 10
465.59607
 20
232.42999
 30
0.0
 11
462.59607
 21
232.42999
 31
0.0
  0
LINE
  5
D5
  8
0
  6
CONTINUOUS
 62
     5
 10
462.59607
 20
338.23602
 30
0.0
 11
450.59607
 21
338.23602
 31
0.0
  0
LINE
  5
D6
  8
0
  6
CONTINUOUS
 62
     5
 10
264.29602
 20
225.23001
 30
0.0
 11
264.29602
 21
206.93002
 31
0.0
  0
LINE
  5
D7
  8
0
  6
CONTINUOUS
 62
     5
 10
264.29593
 20
206.92996
 30
0.0
 11
265.29593
 21
205.92998
 31
0.0
  0
LINE
  5
D8
  8
0
  6
CONTINUOUS
 62
     5
 10
265.29602
 20
205.93002
 30
0.0
 11
292.89606
 21
205.93002
 31
0.0
  0
LINE
  5
D9
  8
0
  6
CONTINUOUS
 62
     5
 10
292.89603
 20
205.93001
 30
0.0
 11
293.89606
 21
206.93002
 31
0.0
  0
LINE
  5
DA
  8
0
  6
CONTINUOUS
 62
     5
 10
293.89606
 20
206.93002
 30
0.0
 11
293.89606
 21
225.23001
 31
0.0
  0
LINE
  5
DB
  8
0
  6
CENTER
 62
     6
 10
279.09607
 20
232.4892
 30
0.0
 11
279.09607
 21
199.18726
 31
0.0
  0
LINE
  5
DC
  8
0
  6
CONTINUOUS
 62
     5
 10
293.89606
 20
206.93002
 30
0.0
 11
264.29602
 21
206.93002
 31
0.0
  0
LINE
  5
DD
  8
0
  6
CONTINUOUS
 62
     5
 10
265.29602
 20
205.93002
 30
0.0
 11
265.29602
 21
222.23001
 31
0.0
  0
LINE
  5
DE
  8
0
  6
CONTINUOUS
 62
     5
 10
264.29602
 20
222.23001
 30
0.0
 11
293.89606
 21
222.23001
 31
0.0
  0
LINE
  5
DF
  8
0
  6
CONTINUOUS
 62
     5
 10
292.89606
 20
222.23001
 30
0.0
 11
292.89606
 21
205.93002
 31
0.0
  0
LINE
  5
E0
  8
0
  6
CONTINUOUS
 62
     5
 10
298.14606
 20
229.03001
 30
0.0
 11
298.14606
 21
225.23001
 31
0.0
  0
LINE
  5
E1
  8
0
  6
CONTINUOUS
 62
     5
 10
298.14606
 20
225.23001
 30
0.0
 11
260.04602
 21
225.23001
 31
0.0
  0
LINE
  5
E2
  8
0
  6
CONTINUOUS
 62
     5
 10
260.04602
 20
225.23001
 30
0.0
 11
260.04602
 21
229.03001
 31
0.0
  0
LINE
  5
E3
  8
0
  6
CONTINUOUS
 62
     5
 10
462.59607
 20
222.43001
 30
0.0
 11
305.29602
 21
222.43001
 31
0.0
  0
LINE
  5
E4
  8
0
  6
CONTINUOUS
 62
     5
 10
303.09607
 20
223.41396
 30
0.0
 11
304.29602
 21
223.41396
 31
0.0
  0
LINE
  5
E5
  8
0
  6
CONTINUOUS
 62
     5
 10
304.29602
 20
351.42999
 30
0.0
 11
304.29602
 21
223.43001
 31
0.0
  0
LINE
  5
E6
  8
0
  6
CONTINUOUS
 62
     5
 10
305.29602
 20
352.42999
 30
0.0
 11
462.59607
 21
352.42999
 31
0.0
  0
LINE
  5
E7
  8
0
  6
CONTINUOUS
 62
     5
 10
303.09607
 20
351.46198
 30
0.0
 11
304.29657
 21
351.46198
 31
0.0
  0
LINE
  5
E8
  8
0
  6
CONTINUOUS
 62
     5
 10
303.09607
 20
349.96198
 30
0.0
 11
301.39606
 21
349.96198
 31
0.0
  0
LINE
  5
E9
  8
0
  6
CENTER
 62
     6
 10
306.48682
 20
345.46136
 30
0.0
 11
300.61475
 21
345.46136
 31
0.0
  0
LINE
  5
EA
  8
0
  6
CONTINUOUS
 62
     5
 10
299.79602
 20
348.36197
 30
0.0
 11
299.79602
 21
342.56195
 31
0.0
  0
LINE
  5
EB
  8
0
  6
CONTINUOUS
 62
     5
 10
301.39606
 20
340.96194
 30
0.0
 11
303.09607
 21
340.96198
 31
0.0
  0
LINE
  5
EC
  8
0
  6
CONTINUOUS
 62
     5
 10
303.09607
 20
339.46198
 30
0.0
 11
303.09607
 21
351.46198
 31
0.0
  0
LINE
  5
ED
  8
0
  6
CONTINUOUS
 62
     5
 10
304.29602
 20
339.46198
 30
0.0
 11
303.09607
 21
339.46198
 31
0.0
  0
LINE
  5
EE
  8
0
  6
CONTINUOUS
 62
     5
 10
301.39606
 20
316.39294
 30
0.0
 11
303.09607
 21
316.39294
 31
0.0
  0
LINE
  5
EF
  8
0
  6
CONTINUOUS
 62
     5
 10
303.09607
 20
314.89294
 30
0.0
 11
303.09607
 21
326.89294
 31
0.0
  0
LINE
  5
F0
  8
0
  6
CONTINUOUS
 62
     5
 10
303.09607
 20
326.89294
 30
0.0
 11
304.29602
 21
326.89294
 31
0.0
  0
LINE
  5
F1
  8
0
  6
CONTINUOUS
 62
     5
 10
303.09607
 20
314.89294
 30
0.0
 11
304.29602
 21
314.89294
 31
0.0
  0
LINE
  5
F2
  8
0
  6
CONTINUOUS
 62
     5
 10
304.29602
 20
314.93369
 30
0.0
 11
286.09607
 21
314.93369
 31
0.0
  0
LINE
  5
F3
  8
0
  6
CONTINUOUS
 62
     5
 10
299.79602
 20
317.99295
 30
0.0
 11
299.79602
 21
323.79297
 31
0.0
  0
LINE
  5
F4
  8
0
  6
CENTER
 62
     6
 10
300.37573
 20
320.89255
 30
0.0
 11
306.48682
 21
320.89255
 31
0.0
  0
LINE
  5
F5
  8
0
  6
CONTINUOUS
 62
     5
 10
301.39606
 20
325.39297
 30
0.0
 11
303.09601
 21
325.39294
 31
0.0
  0
LINE
  5
F6
  8
0
  6
CONTINUOUS
 62
     5
 10
290.09607
 20
316.4104
 30
0.0
 11
290.09607
 21
318.54248
 31
0.0
  0
LINE
  5
F7
  8
0
  6
CONTINUOUS
 62
     5
 10
291.09607
 20
319.54248
 30
0.0
 11
292.09607
 21
319.54248
 31
0.0
  0
LINE
  5
F8
  8
0
  6
CENTER
 62
     6
 10
287.76685
 20
317.04248
 30
0.0
 11
294.58813
 21
317.04248
 31
0.0
  0
LINE
  5
F9
  8
0
  6
CONTINUOUS
 62
     5
 10
292.09607
 20
316.4104
 30
0.0
 11
286.09607
 21
316.4104
 31
0.0
  0
LINE
  5
FA
  8
0
  6
CONTINUOUS
 62
     5
 10
292.09607
 20
322.77435
 30
0.0
 11
286.09607
 21
322.77435
 31
0.0
  0
LINE
  5
FB
  8
0
  6
CONTINUOUS
 62
     5
 10
286.09598
 20
327.46478
 30
0.0
 11
261.74011
 21
326.61426
 31
0.0
  0
LINE
  5
FC
  8
0
  6
CONTINUOUS
 62
     5
 10
286.09607
 20
329.92999
 30
0.0
 11
450.59607
 21
329.92999
 31
0.0
  0
LINE
  5
FD
  8
0
  6
CONTINUOUS
 62
     5
 10
286.09607
 20
329.92999
 30
0.0
 11
286.09607
 21
244.92999
 31
0.0
  0
LINE
  5
FE
  8
0
  6
CONTINUOUS
 62
     5
 10
286.09607
 20
246.40683
 30
0.0
 11
292.09607
 21
246.40683
 31
0.0
  0
LINE
  5
FF
  8
0
  6
CONTINUOUS
 62
     5
 10
286.09607
 20
259.92654
 30
0.0
 11
304.29602
 21
259.92654
 31
0.0
  0
LINE
  5
100
  8
0
  6
CENTER
 62
     6
 10
294.58813
 20
252.25494
 30
0.0
 11
287.76685
 21
252.25494
 31
0.0
  0
LINE
  5
101
  8
0
  6
CONTINUOUS
 62
     5
 10
286.09607
 20
252.77078
 30
0.0
 11
292.09607
 21
252.77078
 31
0.0
  0
LINE
  5
102
  8
0
  6
CONTINUOUS
 62
     5
 10
290.09607
 20
250.75494
 30
0.0
 11
290.09607
 21
252.77078
 31
0.0
  0
LINE
  5
103
  8
0
  6
CONTINUOUS
 62
     5
 10
291.09607
 20
249.75494
 30
0.0
 11
292.09607
 21
249.75494
 31
0.0
  0
LINE
  5
104
  8
0
  6
CONTINUOUS
 62
     5
 10
304.29602
 20
235.41394
 30
0.0
 11
303.09607
 21
235.41394
 31
0.0
  0
LINE
  5
105
  8
0
  6
CONTINUOUS
 62
     5
 10
303.09607
 20
235.41394
 30
0.0
 11
303.09607
 21
223.41396
 31
0.0
  0
LINE
  5
106
  8
0
  6
CENTER
 62
     6
 10
299.01575
 20
229.41396
 30
0.0
 11
305.35846
 21
229.41396
 31
0.0
  0
LINE
  5
107
  8
0
  6
CONTINUOUS
 62
     5
 10
301.39606
 20
233.91396
 30
0.0
 11
303.09601
 21
233.91393
 31
0.0
  0
LINE
  5
108
  8
0
  6
CONTINUOUS
 62
     5
 10
299.79602
 20
232.31396
 30
0.0
 11
299.79602
 21
226.51396
 31
0.0
  0
LINE
  5
109
  8
0
  6
CONTINUOUS
 62
     5
 10
301.39606
 20
224.91396
 30
0.0
 11
303.09607
 21
224.91396
 31
0.0
  0
LINE
  5
10A
  8
0
  6
CONTINUOUS
 62
     5
 10
298.14606
 20
228.03001
 30
0.0
 11
260.04602
 21
228.03001
 31
0.0
  0
LINE
  5
10B
  8
0
  6
CONTINUOUS
 62
     5
 10
259.59604
 20
229.03001
 30
0.0
 11
298.59607
 21
229.03001
 31
0.0
  0
LINE
  5
10C
  8
0
  6
CONTINUOUS
 62
     5
 10
298.59607
 20
229.03001
 30
0.0
 11
298.59607
 21
244.92999
 31
0.0
  0
LINE
  5
10D
  8
0
  6
CONTINUOUS
 62
     5
 10
259.59604
 20
229.03001
 30
0.0
 11
259.59604
 21
317.42999
 31
0.0
  0
LINE
  5
10E
  8
0
  6
CONTINUOUS
 62
     5
 10
261.09607
 20
326.34903
 30
0.0
 11
261.09607
 21
229.03001
 31
0.0
  0
LINE
  5
10F
  8
0
  6
CONTINUOUS
 62
     5
 10
259.59604
 20
253.94501
 30
0.0
 11
261.09601
 21
253.08258
 31
0.0
  0
LINE
  5
110
  8
0
  6
CONTINUOUS
 62
     5
 10
286.09607
 20
253.08261
 30
0.0
 11
261.09607
 21
253.08261
 31
0.0
  0
LINE
  5
111
  8
0
  6
CONTINUOUS
 62
     5
 10
286.09607
 20
244.92999
 30
0.0
 11
450.59607
 21
244.92999
 31
0.0
  0
LINE
  5
112
  8
0
  6
CONTINUOUS
 62
     5
 10
292.09607
 20
329.92999
 30
0.0
 11
292.09607
 21
244.92999
 31
0.0
  0
LINE
  5
113
  8
0
  6
CONTINUOUS
 62
     5
 10
299.09607
 20
329.92999
 30
0.0
 11
299.09607
 21
244.92999
 31
0.0
  0
CIRCLE
  5
114
  8
0
  6
CONTINUOUS
 62
     5
 10
642.56433
 20
287.42999
 30
0.0
 40
55.0
  0
CIRCLE
  5
115
  8
0
  6
CONTINUOUS
 62
     5
 10
642.56433
 20
287.42999
 30
0.0
 40
44.0
  0
ARC
  5
116
  8
0
  6
CENTER
 62
     6
 10
642.56433
 20
287.42999
 30
0.0
 40
72.5
 50
217.9236
 51
231.96879
  0
ARC
  5
117
  8
0
  6
CENTER
 62
     6
 10
642.56433
 20
287.42999
 30
0.0
 40
72.5
 50
308.05982
 51
321.96997
  0
ARC
  5
118
  8
0
  6
CENTER
 62
     6
 10
642.56433
 20
287.42999
 30
0.0
 40
72.5
 50
38.077478
 51
52.031654
  0
ARC
  5
119
  8
0
  6
CENTER
 62
     6
 10
642.56433
 20
287.42999
 30
0.0
 40
72.5
 50
127.94029
 51
142.02883
  0
ARC
  5
11A
  8
0
  6
CONTINUOUS
 62
     5
 10
642.56433
 20
287.42999
 30
0.0
 40
82.499985
 50
218.01196
 51
231.98697
  0
ARC
  5
11B
  8
0
  6
CONTINUOUS
 62
     5
 10
642.56433
 20
287.42999
 30
0.0
 40
82.499985
 50
308.01199
 51
321.98704
  0
ARC
  5
11C
  8
0
  6
CONTINUOUS
 62
     5
 10
642.56433
 20
287.42999
 30
0.0
 40
82.499985
 50
38.011997
 51
51.987046
  0
ARC
  5
11D
  8
0
  6
CONTINUOUS
 62
     5
 10
642.56433
 20
287.42999
 30
0.0
 40
82.499985
 50
128.01201
 51
141.98707
  0
CIRCLE
  5
11E
  8
0
  6
CONTINUOUS
 62
     5
 10
642.56433
 20
287.42999
 30
0.0
 40
22.5
  0
CIRCLE
  5
11F
  8
0
  6
CONTINUOUS
 62
     5
 10
642.56433
 20
287.42999
 30
0.0
 40
15.0
  0
CIRCLE
  5
120
  8
0
  6
CONTINUOUS
 62
     5
 10
642.56433
 20
287.42999
 30
0.0
 40
12.0
  0
ARC
  5
121
  8
0
  6
CENTER
 62
     6
 10
642.56433
 20
287.42999
 30
0.0
 40
67.0
 50
327.71599
 51
332.40398
  0
CIRCLE
  5
122
  8
0
  6
CONTINUOUS
 62
     5
 10
609.06433
 20
229.40631
 30
0.0
 40
2.5
  0
CIRCLE
  5
123
  8
0
  6
CONTINUOUS
 62
     5
 10
609.06433
 20
229.40631
 30
0.0
 40
1.5
  0
CIRCLE
  5
124
  8
0
  6
CONTINUOUS
 62
     5
 10
700.5863
 20
253.92999
 30
0.0
 40
2.5
  0
CIRCLE
  5
125
  8
0
  6
CONTINUOUS
 62
     5
 10
700.5863
 20
253.92999
 30
0.0
 40
1.5
  0
CIRCLE
  5
126
  8
0
  6
CONTINUOUS
 62
     5
 10
584.54236
 20
320.92999
 30
0.0
 40
2.5
  0
CIRCLE
  5
127
  8
0
  6
CONTINUOUS
 62
     5
 10
584.54236
 20
320.92999
 30
0.0
 40
1.5
  0
CIRCLE
  5
128
  8
0
  6
CONTINUOUS
 62
     5
 10
676.06433
 20
345.452
 30
0.0
 40
2.5
  0
CIRCLE
  5
129
  8
0
  6
CONTINUOUS
 62
     5
 10
676.06433
 20
345.452
 30
0.0
 40
1.5
  0
ARC
  5
12A
  8
0
  6
CENTER
 62
     6
 10
642.56433
 20
287.42999
 30
0.0
 40
67.0
 50
237.71601
 51
242.40398
  0
ARC
  5
12B
  8
0
  6
CENTER
 62
     6
 10
642.56433
 20
287.42999
 30
0.0
 40
67.0
 50
147.71598
 51
152.40402
  0
ARC
  5
12C
  8
0
  6
CENTER
 62
     6
 10
642.56433
 20
287.42999
 30
0.0
 40
67.0
 50
57.716021
 51
62.404003
  0
ARC
  5
12D
  8
0
  6
CENTER
 62
     6
 10
642.56433
 20
287.42999
 30
0.0
 40
35.000034
 50
261.22792
 51
278.70201
  0
CIRCLE
  5
12E
  8
0
  6
CONTINUOUS
 62
     5
 10
642.56433
 20
252.42996
 30
0.0
 40
2.5
  0
ARC
  5
12F
  8
0
  6
CENTER
 62
     6
 10
642.56433
 20
287.42999
 30
0.0
 40
35.000034
 50
141.00307
 51
158.88207
  0
ARC
  5
130
  8
0
  6
CENTER
 62
     6
 10
642.56433
 20
287.42999
 30
0.0
 40
35.000034
 50
21.79151
 51
38.7194
  0
CIRCLE
  5
131
  8
0
  6
CONTINUOUS
 62
     5
 10
612.25354
 20
304.93002
 30
0.0
 40
2.5
  0
CIRCLE
  5
132
  8
0
  6
CONTINUOUS
 62
     5
 10
672.87524
 20
304.92999
 30
0.0
 40
2.5
  0
CIRCLE
  5
133
  8
0
  6
CONTINUOUS
 62
     5
 10
591.29907
 20
236.16473
 30
0.0
 40
4.5
  0
CIRCLE
  5
134
  8
0
  6
CONTINUOUS
 62
     5
 10
591.29919
 20
338.69525
 30
0.0
 40
4.5
  0
CIRCLE
  5
135
  8
0
  6
CONTINUOUS
 62
     5
 10
693.82959
 20
338.69522
 30
0.0
 40
4.5
  0
CIRCLE
  5
136
  8
0
  6
CONTINUOUS
 62
     5
 10
693.82959
 20
236.16476
 30
0.0
 40
4.5
  0
ARC
  5
137
  8
0
  6
CONTINUOUS
 62
     5
 10
156.55141
 20
287.43011
 30
0.0
 40
82.499977
 50
218.01224
 51
231.98769
  0
ARC
  5
138
  8
0
  6
CONTINUOUS
 62
     5
 10
156.55141
 20
287.43011
 30
0.0
 40
82.499977
 50
128.01224
 51
141.98776
  0
ARC
  5
139
  8
0
  6
CONTINUOUS
 62
     5
 10
156.55141
 20
287.43011
 30
0.0
 40
82.499977
 50
38.012284
 51
51.987777
  0
ARC
  5
13A
  8
0
  6
CONTINUOUS
 62
     5
 10
156.55141
 20
287.43011
 30
0.0
 40
82.499977
 50
308.01229
 51
321.98772
  0
CIRCLE
  5
13B
  8
0
  6
CONTINUOUS
 62
     5
 10
141.85139
 20
241.92068
 30
0.0
 40
2.0
  0
CIRCLE
  5
13C
  8
0
  6
CONTINUOUS
 62
     5
 10
171.25139
 20
241.92068
 30
0.0
 40
2.0
  0
ARC
  5
13D
  8
0
  6
CONTINUOUS
 62
     5
 10
156.55141
 20
287.43011
 30
0.0
 40
38.5
 50
299.57129
 51
240.42867
  0
ARC
  5
13E
  8
0
  6
CONTINUOUS
 62
     5
 10
156.55141
 20
287.43011
 30
0.0
 40
40.0
 50
300.83048
 51
239.16948
  0
ARC
  5
13F
  8
0
  6
CONTINUOUS
 62
     5
 10
102.05141
 20
232.93011
 30
0.0
 40
12.0
 50
0.0
 51
89.999982
  0
ARC
  5
140
  8
0
  6
CONTINUOUS
 62
     5
 10
211.05139
 20
232.93011
 30
0.0
 40
12.0
 50
89.999982
 51
179.99996
  0
ARC
  5
141
  8
0
  6
CONTINUOUS
 62
     5
 10
211.05139
 20
341.93011
 30
0.0
 40
12.0
 50
179.99998
 51
270.00003
  0
ARC
  5
142
  8
0
  6
CONTINUOUS
 62
     5
 10
102.05141
 20
341.93011
 30
0.0
 40
12.0
 50
270.00002
 51
0.0
  0
ARC
  5
143
  8
0
  6
CENTER
 62
     6
 10
156.55141
 20
287.43011
 30
0.0
 40
72.5
 50
309.18399
 51
320.44141
  0
ARC
  5
144
  8
0
  6
CENTER
 62
     6
 10
156.55141
 20
287.43011
 30
0.0
 40
72.5
 50
38.808011
 51
51.292409
  0
ARC
  5
145
  8
0
  6
CENTER
 62
     6
 10
156.55141
 20
287.43011
 30
0.0
 40
72.5
 50
129.12303
 51
141.07644
  0
ARC
  5
146
  8
0
  6
CENTER
 62
     6
 10
156.55141
 20
287.43011
 30
0.0
 40
72.5
 50
218.56098
 51
231.88942
  0
ARC
  5
147
  8
0
  6
CONTINUOUS
 62
     5
 10
217.90005
 20
246.93011
 30
0.0
 40
2.0
 50
270.00002
 51
357.66769
  0
ARC
  5
148
  8
0
  6
CONTINUOUS
 62
     5
 10
116.05141
 20
224.43015
 30
0.0
 40
2.0
 50
179.99998
 51
270.00003
  0
ARC
  5
149
  8
0
  6
CONTINUOUS
 62
     5
 10
197.05139
 20
224.43015
 30
0.0
 40
2.0
 50
270.00002
 51
0.0
  0
ARC
  5
14A
  8
0
  6
CONTINUOUS
 62
     5
 10
-278.44653
 20
287.43015
 30
0.0
 40
499.99789
 50
355.33498
 51
4.66402
  0
ARC
  5
14B
  8
0
  6
CONTINUOUS
 62
     5
 10
591.55255
 20
287.43024
 30
0.0
 40
500.00101
 50
175.33529
 51
184.66472
  0
ARC
  5
14C
  8
0
  6
CONTINUOUS
 62
     5
 10
95.200989
 20
246.93011
 30
0.0
 40
2.0
 50
184.66497
 51
270.00002
  0
ARC
  5
14D
  8
0
  6
CONTINUOUS
 62
     5
 10
95.200989
 20
327.93011
 30
0.0
 40
2.0
 50
89.999982
 51
175.33503
  0
ARC
  5
14E
  8
0
  6
CONTINUOUS
 62
     5
 10
217.90042
 20
327.93011
 30
0.0
 40
2.0
 50
2.332314
 51
89.999982
  0
ARC
  5
14F
  8
0
  6
CONTINUOUS
 62
     5
 10
197.05139
 20
350.43015
 30
0.0
 40
2.0
 50
0.0
 51
89.999982
  0
ARC
  5
150
  8
0
  6
CONTINUOUS
 62
     5
 10
116.05141
 20
350.43015
 30
0.0
 40
2.0
 50
89.999982
 51
179.99996
  0
ARC
  5
151
  8
0
  6
CENTER
 62
     6
 10
156.55141
 20
287.43011
 30
0.0
 40
66.999985
 50
294.99922
 51
305.162
  0
ARC
  5
152
  8
0
  6
CENTER
 62
     6
 10
156.55141
 20
287.43011
 30
0.0
 40
66.999985
 50
24.999239
 51
35.162015
  0
ARC
  5
153
  8
0
  6
CENTER
 62
     6
 10
156.55141
 20
287.43011
 30
0.0
 40
66.999985
 50
114.99925
 51
125.16201
  0
ARC
  5
154
  8
0
  6
CENTER
 62
     6
 10
156.55141
 20
287.43011
 30
0.0
 40
66.999985
 50
204.99923
 51
215.162
  0
ARC
  5
155
  8
0
  6
CENTER
 62
     6
 10
156.55141
 20
287.43011
 30
0.0
 40
46.0
 50
215.39151
 51
223.96947
  0
ARC
  5
156
  8
0
  6
CONTINUOUS
 62
     5
 10
121.31728
 20
257.85724
 30
0.0
 40
4.5
 50
310.00009
 51
129.99999
  0
ARC
  5
157
  8
0
  6
CENTER
 62
     6
 10
156.55141
 20
287.43011
 30
0.0
 40
46.0
 50
35.391581
 51
43.969548
  0
ARC
  5
158
  8
0
  6
CONTINUOUS
 62
     5
 10
191.78554
 20
317.00299
 30
0.0
 40
4.5
 50
130.00015
 51
310.00005
  0
ARC
  5
159
  8
0
  6
CENTER
 62
     6
 10
156.55141
 20
287.43011
 30
0.0
 40
46.0
 50
305.39159
 51
313.96955
  0
ARC
  5
15A
  8
0
  6
CONTINUOUS
 62
     5
 10
186.1243
 20
252.19598
 30
0.0
 40
4.5
 50
40.000156
 51
220.00005
  0
ARC
  5
15B
  8
0
  6
CENTER
 62
     6
 10
156.55141
 20
287.43011
 30
0.0
 40
46.0
 50
125.3915
 51
133.96946
  0
ARC
  5
15C
  8
0
  6
CONTINUOUS
 62
     5
 10
126.97852
 20
322.66425
 30
0.0
 40
4.5
 50
220.0001
 51
39.999995
  0
CIRCLE
  5
15D
  8
0
  6
CONTINUOUS
 62
     5
 10
190.05151
 20
229.40649
 30
0.0
 40
4.5
  0
CIRCLE
  5
15E
  8
0
  6
CONTINUOUS
 62
     5
 10
190.05151
 20
229.40649
 30
0.0
 40
6.0
  0
CIRCLE
  5
15F
  8
0
  6
CONTINUOUS
 62
     5
 10
207.81662
 20
236.16486
 30
0.0
 40
4.750061
  0
CIRCLE
  5
160
  8
0
  6
CONTINUOUS
 62
     5
 10
105.28613
 20
236.16492
 30
0.0
 40
4.750061
  0
CIRCLE
  5
161
  8
0
  6
CONTINUOUS
 62
     5
 10
207.81664
 20
338.69537
 30
0.0
 40
4.750061
  0
CIRCLE
  5
162
  8
0
  6
CONTINUOUS
 62
     5
 10
105.28618
 20
338.69537
 30
0.0
 40
4.750061
  0
CIRCLE
  5
163
  8
0
  6
CONTINUOUS
 62
     5
 10
214.5751
 20
320.93002
 30
0.0
 40
4.5
  0
CIRCLE
  5
164
  8
0
  6
CONTINUOUS
 62
     5
 10
214.5751
 20
320.93002
 30
0.0
 40
6.0
  0
CIRCLE
  5
165
  8
0
  6
CONTINUOUS
 62
     5
 10
123.05136
 20
345.45377
 30
0.0
 40
6.0
  0
CIRCLE
  5
166
  8
0
  6
CONTINUOUS
 62
     5
 10
123.05136
 20
345.45377
 30
0.0
 40
4.5
  0
CIRCLE
  5
167
  8
0
  6
CONTINUOUS
 62
     5
 10
98.527679
 20
253.93021
 30
0.0
 40
4.5
  0
CIRCLE
  5
168
  8
0
  6
CONTINUOUS
 62
     5
 10
98.527679
 20
253.93021
 30
0.0
 40
6.0
  0
CIRCLE
  5
169
  8
0
  6
CONTINUOUS
 62
     5
 10
186.11963
 20
252.19211
 30
0.0
 40
3.5
  0
CIRCLE
  5
16A
  8
0
  6
CONTINUOUS
 62
     5
 10
191.78555
 20
317.00299
 30
0.0
 40
3.5
  0
CIRCLE
  5
16B
  8
0
  6
CONTINUOUS
 62
     5
 10
121.32191
 20
257.86121
 30
0.0
 40
3.5
  0
CIRCLE
  5
16C
  8
0
  6
CONTINUOUS
 62
     5
 10
126.9832
 20
322.66818
 30
0.0
 40
3.5
  0
ARC
  5
16D
  8
0
  6
CONTINUOUS
 62
     5
 10
305.29602
 20
223.43001
 30
0.0
 40
1.0
 50
179.99998
 51
270.00003
  0
ARC
  5
16E
  8
0
  6
CONTINUOUS
 62
     5
 10
305.29602
 20
351.42999
 30
0.0
 40
1.0
 50
89.999982
 51
179.99996
  0
ARC
  5
16F
  8
0
  6
CONTINUOUS
 62
     5
 10
301.39606
 20
342.56195
 30
0.0
 40
1.6
 50
179.99998
 51
270.00109
  0
ARC
  5
170
  8
0
  6
CONTINUOUS
 62
     5
 10
301.39606
 20
348.36197
 30
0.0
 40
1.6
 50
89.999982
 51
179.99996
  0
ARC
  5
171
  8
0
  6
CONTINUOUS
 62
     5
 10
301.39606
 20
317.99295
 30
0.0
 40
1.6
 50
179.99998
 51
270.00003
  0
ARC
  5
172
  8
0
  6
CONTINUOUS
 62
     5
 10
301.39606
 20
323.79297
 30
0.0
 40
1.6
 50
89.99891
 51
179.99996
  0
ARC
  5
173
  8
0
  6
CONTINUOUS
 62
     5
 10
291.09607
 20
318.54248
 30
0.0
 40
1.0
 50
89.999982
 51
179.99996
  0
ARC
  5
174
  8
0
  6
CONTINUOUS
 62
     5
 10
291.09607
 20
250.75494
 30
0.0
 40
1.0
 50
179.99998
 51
270.00003
  0
ARC
  5
175
  8
0
  6
CONTINUOUS
 62
     5
 10
301.39606
 20
226.51396
 30
0.0
 40
1.6
 50
179.99998
 51
270.00003
  0
ARC
  5
176
  8
0
  6
CONTINUOUS
 62
     5
 10
301.39606
 20
232.31396
 30
0.0
 40
1.6
 50
89.99891
 51
179.99996
  0
ARC
  5
177
  8
0
  6
CONTINUOUS
 62
     5
 10
289.64423
 20
317.42307
 30
0.0
 40
30.048155
 50
163.61989
 51
179.9868
  0
ARC
  5
178
  8
0
  6
CONTINUOUS
 62
     5
 10
261.77509
 20
325.6149
 30
0.0
 40
1.0
 50
92.000742
 51
163.61965
  0
ARC
  5
179
  8
0
  6
CONTINUOUS
 62
     5
 10
335.0282
 20
234.46118
 30
0.0
 40
60.0
 50
324.04334
 51
347.45617
  0
TEXT
  5
17A
  8
0
  6
CONTINUOUS
 62
     7
 10
91.249614
 20
409.31947
 30
0.0
 40
12.7
  1
HC-SF81B
  0
ENDSEC
  0
EOF
