  0
SECTION
  2
HEADER
  9
$ACADVER
  1
AC1009
  9
$INSBASE
 10
0.0
 20
0.0
 30
0.0
  9
$EXTMIN
 10
-369.750009
 20
-159.871972
 30
0.0
  9
$EXTMAX
 10
357.749991
 20
201.453688
 30
0.0
  9
$LIMMIN
 10
0.0
 20
0.0
  9
$LIMMAX
 10
12.0
 20
9.0
  9
$ORTHOMODE
 70
     1
  9
$REGENMODE
 70
     1
  9
$FILLMODE
 70
     1
  9
$QTEXTMODE
 70
     0
  9
$MIRRTEXT
 70
     1
  9
$DRAGMODE
 70
     2
  9
$LTSCALE
 40
1.0
  9
$OSMODE
 70
    37
  9
$ATTMODE
 70
     1
  9
$TEXTSIZE
 40
2.8
  9
$TRACEWID
 40
0.05
  9
$TEXTSTYLE
  7
STANDARD
  9
$CLAYER
  8
0
  9
$CELTYPE
  6
CONTINUOUS
  9
$CECOLOR
 62
   256
  9
$DIMSCALE
 40
1.0
  9
$DIMASZ
 40
1.931852
  9
$DIMEXO
 40
1.0
  9
$DIMDLI
 40
0.38
  9
$DIMRND
 40
0.0
  9
$DIMDLE
 40
0.0
  9
$DIMEXE
 40
2.0
  9
$DIMTP
 40
0.0
  9
$DIMTM
 40
0.0
  9
$DIMTXT
 40
4.0
  9
$DIMCEN
 40
0.09
  9
$DIMTSZ
 40
0.0
  9
$DIMTOL
 70
     0
  9
$DIMLIM
 70
     0
  9
$DIMTIH
 70
     1
  9
$DIMTOH
 70
     1
  9
$DIMSE1
 70
     0
  9
$DIMSE2
 70
     0
  9
$DIMTAD
 70
     1
  9
$DIMZIN
 70
     0
  9
$DIMBLK
  1

  9
$DIMASO
 70
     1
  9
$DIMSHO
 70
     1
  9
$DIMPOST
  1

  9
$DIMAPOST
  1

  9
$DIMALT
 70
     0
  9
$DIMALTD
 70
     2
  9
$DIMALTF
 40
25.4
  9
$DIMLFAC
 40
1.0
  9
$DIMTOFL
 70
     0
  9
$DIMTVP
 40
0.0
  9
$DIMTIX
 70
     0
  9
$DIMSOXD
 70
     0
  9
$DIMSAH
 70
     0
  9
$DIMBLK1
  1

  9
$DIMBLK2
  1

  9
$DIMSTYLE
  2
STANDARD
  9
$DIMCLRD
 70
     0
  9
$DIMCLRE
 70
     0
  9
$DIMCLRT
 70
     0
  9
$DIMTFAC
 40
0.625
  9
$DIMGAP
 40
2.0
  9
$LUNITS
 70
     2
  9
$LUPREC
 70
     3
  9
$SKETCHINC
 40
0.1
  9
$FILLETRAD
 40
0.0
  9
$AUNITS
 70
     0
  9
$AUPREC
 70
     0
  9
$MENU
  1
.
  9
$ELEVATION
 40
0.0
  9
$PELEVATION
 40
0.0
  9
$THICKNESS
 40
0.0
  9
$LIMCHECK
 70
     0
  9
$BLIPMODE
 70
     0
  9
$CHAMFERA
 40
0.0
  9
$CHAMFERB
 40
0.0
  9
$SKPOLY
 70
     0
  9
$TDCREATE
 40
2450836.718547
  9
$TDUPDATE
 40
2450836.718547
  9
$TDINDWG
 40
0.0
  9
$TDUSRTIMER
 40
0.0
  9
$USRTIMER
 70
     1
  9
$ANGBASE
 50
0.0
  9
$ANGDIR
 70
     0
  9
$PDMODE
 70
     0
  9
$PDSIZE
 40
0.0
  9
$PLINEWID
 40
0.0
  9
$COORDS
 70
     1
  9
$SPLFRAME
 70
     0
  9
$SPLINETYPE
 70
     6
  9
$SPLINESEGS
 70
     8
  9
$ATTDIA
 70
     0
  9
$ATTREQ
 70
     1
  9
$HANDLING
 70
     1
  9
$HANDSEED
  5
8C6
  9
$SURFTAB1
 70
     6
  9
$SURFTAB2
 70
     6
  9
$SURFTYPE
 70
     6
  9
$SURFU
 70
     6
  9
$SURFV
 70
     6
  9
$UCSNAME
  2

  9
$UCSORG
 10
0.0
 20
0.0
 30
0.0
  9
$UCSXDIR
 10
1.0
 20
0.0
 30
0.0
  9
$UCSYDIR
 10
0.0
 20
1.0
 30
0.0
  9
$PUCSNAME
  2

  9
$PUCSORG
 10
0.0
 20
0.0
 30
0.0
  9
$PUCSXDIR
 10
1.0
 20
0.0
 30
0.0
  9
$PUCSYDIR
 10
0.0
 20
1.0
 30
0.0
  9
$USERI1
 70
     0
  9
$USERI2
 70
     0
  9
$USERI3
 70
     0
  9
$USERI4
 70
     0
  9
$USERI5
 70
     0
  9
$USERR1
 40
0.0
  9
$USERR2
 40
0.0
  9
$USERR3
 40
0.0
  9
$USERR4
 40
0.0
  9
$USERR5
 40
0.0
  9
$WORLDVIEW
 70
     1
  9
$SHADEDGE
 70
     3
  9
$SHADEDIF
 70
    70
  9
$TILEMODE
 70
     1
  9
$MAXACTVP
 70
    48
  9
$PLIMCHECK
 70
     0
  9
$PEXTMIN
 10
1.000000E+020
 20
1.000000E+020
 30
1.000000E+020
  9
$PEXTMAX
 10
-1.000000E+020
 20
-1.000000E+020
 30
-1.000000E+020
  9
$PLIMMIN
 10
0.0
 20
0.0
  9
$PLIMMAX
 10
12.0
 20
9.0
  9
$UNITMODE
 70
     0
  9
$VISRETAIN
 70
     1
  9
$PLINEGEN
 70
     0
  9
$PSLTSCALE
 70
     1
  0
ENDSEC
  0
SECTION
  2
TABLES
  0
TABLE
  2
VPORT
 70
     2
  0
VPORT
  2
*ACTIVE
 70
     0
 10
0.0
 20
0.0
 11
1.0
 21
1.0
 12
-9.838824
 22
12.109351
 13
0.0
 23
0.0
 14
1.0
 24
1.0
 15
0.0
 25
0.0
 16
0.0
 26
0.0
 36
1.0
 17
0.0
 27
0.0
 37
0.0
 40
484.674633
 41
1.743346
 42
50.0
 43
0.0
 44
0.0
 50
0.0
 51
0.0
 71
     0
 72
   100
 73
     1
 74
     1
 75
     0
 76
     0
 77
     0
 78
     0
  0
ENDTAB
  0
TABLE
  2
LTYPE
 70
     5
  0
LTYPE
  2
CONTINUOUS
 70
     0
  3
Solid line
 72
    65
 73
     0
 40
0.0
  0
LTYPE
  2
DASHED
 70
     0
  3
-- -- -- -- -- -- -- -- -- -- -- -- -- -- --
 72
    65
 73
     2
 40
0.75
 49
0.5
 49
-0.25
  0
LTYPE
  2
DASHDOT
 70
     0
  3
__ . __ . __ . __ . __ . __ . __ . __ . __ . __
 72
    65
 73
     4
 40
1.0
 49
0.5
 49
-0.25
 49
0.0
 49
-0.25
  0
LTYPE
  2
DIVIDE
 70
     0
  3
__ . . __ . . __ . . __ . . __ . . __ . . __
 72
    65
 73
     6
 40
1.25
 49
0.5
 49
-0.25
 49
0.0
 49
-0.25
 49
0.0
 49
-0.25
  0
LTYPE
  2
CENTER
 70
     0
  3
____ _ ____ _ ____ _ ____ _ ____ _ ____ _ ____
 72
    65
 73
     4
 40
17.5
 49
13.0
 49
-1.5
 49
1.5
 49
-1.5
  0
ENDTAB
  0
TABLE
  2
LAYER
 70
    10
  0
LAYER
  2
0
 70
     0
 62
     3
  6
CONTINUOUS
  0
LAYER
  2
1
 70
     0
 62
     3
  6
CONTINUOUS
  0
LAYER
  2
DEFPOINTS
 70
     0
 62
     7
  6
CONTINUOUS
  0
ENDTAB
  0
TABLE
  2
STYLE
 70
     5
  0
STYLE
  2
STANDARD
 70
     0
 40
0.0
 41
1.0
 50
0.0
 71
     0
 42
0.2
  3
txt
  4

  0
STYLE
  2
STANDARD1
 70
     0
 40
0.0
 41
1.0
 50
0.0
 71
     0
 42
2.8
  3
MONOTXT
  4
BIGFONT
  0
STYLE
  2
STANDARD2
 70
     4
 40
0.0
 41
1.0
 50
0.0
 71
     0
 42
2.8
  3
MONOTXT
  4
BIGFONT
  0
STYLE
  2
STANDARD3
 70
     0
 40
0.0
 41
1.0
 50
0.0
 71
     0
 42
2.8
  3
MONOTXT
  4

  0
STYLE
  2
STANDARD4
 70
     4
 40
0.0
 41
1.0
 50
0.0
 71
     0
 42
2.8
  3
MONOTXT
  4

  0
ENDTAB
  0
TABLE
  2
VIEW
 70
     0
  0
ENDTAB
  0
TABLE
  2
UCS
 70
     0
  0
ENDTAB
  0
TABLE
  2
APPID
 70
     1
  0
APPID
  2
ACAD
 70
     0
  0
ENDTAB
  0
TABLE
  2
DIMSTYLE
 70
     1
  0
DIMSTYLE
  2
STANDARD
 70
     0
  3

  4

  5

  6

  7

 40
1.0
 41
0.18
 42
0.0625
 43
0.38
 44
0.18
 45
0.0
 46
0.0
 47
0.0
 48
0.0
140
0.18
141
0.09
142
0.0
143
25.4
144
1.0
145
0.0
146
1.0
147
0.09
 71
     0
 72
     0
 73
     1
 74
     1
 75
     0
 76
     0
 77
     0
 78
     0
170
     0
171
     2
172
     0
173
     0
174
     0
175
     0
176
     0
177
     0
178
     0
  0
ENDTAB
  0
ENDSEC
  0
SECTION
  2
BLOCKS
  0
BLOCK
  8
0
  2
$MODEL_SPACE
 70
     0
 10
0.0
 20
0.0
 30
0.0
  3
$MODEL_SPACE
  1

  0
ENDBLK
  5
8BE
  8
0
  0
BLOCK
 67
     1
  8
0
  2
$PAPER_SPACE
 70
     0
 10
0.0
 20
0.0
 30
0.0
  3
$PAPER_SPACE
  1

  0
ENDBLK
  5
8BC
 67
     1
  8
0
  0
BLOCK
  8
0
  2
SYM1
 70
     0
 10
0.0
 20
0.0
 30
0.0
  3
SYM1
  1

  0
LINE
  5
32
  8
0
  6
CONTINUOUS
 62
     2
 10
2.5
 20
5.837841
 30
0.0
 11
1.916665
 21
3.0
 31
0.0
  0
LINE
  5
33
  8
0
  6
CONTINUOUS
 62
     2
 10
2.499998
 20
5.83784
 30
0.0
 11
3.08333
 21
3.0
 31
0.0
  0
LINE
  5
34
  8
0
  6
CONTINUOUS
 62
     2
 10
3.7
 20
0.0
 30
0.0
 11
5.0
 21
0.0
 31
0.0
  0
LINE
  5
35
  8
0
  6
CONTINUOUS
 62
     2
 10
3.150001
 20
9.0
 30
0.0
 11
5.0
 21
0.0
 31
0.0
  0
LINE
  5
36
  8
0
  6
CONTINUOUS
 62
     2
 10
1.85
 20
8.999999
 30
0.0
 11
0.0
 21
0.0
 31
0.0
  0
LINE
  5
37
  8
0
  6
CONTINUOUS
 62
     2
 10
1.916667
 20
3.0
 30
0.0
 11
3.083333
 21
3.0
 31
0.0
  0
LINE
  5
38
  8
0
  6
CONTINUOUS
 62
     2
 10
3.350555
 20
1.7
 30
0.0
 11
1.649443
 21
1.7
 31
0.0
  0
LINE
  5
39
  8
0
  6
CONTINUOUS
 62
     2
 10
3.150001
 20
9.0
 30
0.0
 11
1.85
 21
9.0
 31
0.0
  0
LINE
  5
3A
  8
0
  6
CONTINUOUS
 62
     2
 10
1.3
 20
0.0
 30
0.0
 11
0.0
 21
0.0
 31
0.0
  0
LINE
  5
3B
  8
0
  6
CONTINUOUS
 62
     2
 10
1.299993
 20
0.0
 30
0.0
 11
1.649442
 21
1.7
 31
0.0
  0
LINE
  5
3C
  8
0
  6
CONTINUOUS
 62
     2
 10
3.700005
 20
0.0
 30
0.0
 11
3.350555
 21
1.7
 31
0.0
  0
ENDBLK
  5
3D
  8
0
  0
BLOCK
  8
0
  2
*D1
 70
     1
 10
0.0
 20
0.0
 30
0.0
  3
*D1
  1

  0
TEXT
  5
40
  8
0
  6
CONTINUOUS
 62
     4
 10
49.689329
 20
9.07785
 30
0.0
 40
3.2
  1
ѓУ‚Q‚W‚€‚U
 50
90.000005
 41
0.583333
  7
STANDARD1
  0
LINE
  5
41
  8
0
  6
CONTINUOUS
 62
     4
 10
43.250008
 20
7.0
 30
0.0
 11
52.689327
 21
7.0
 31
0.0
  0
LINE
  5
42
  8
0
  6
CONTINUOUS
 62
     4
 10
43.250008
 20
-7.0
 30
0.0
 11
52.689327
 21
-7.0
 31
0.0
  0
LINE
  5
43
  8
0
  6
CONTINUOUS
 62
     4
 10
50.689327
 20
21.87785
 30
0.0
 11
50.689327
 21
-12.0
 31
0.0
  0
LINE
  5
44
  8
0
  6
CONTINUOUS
 62
     4
 10
50.689327
 20
7.0
 30
0.0
 11
51.206965
 21
8.931852
 31
0.0
  0
LINE
  5
45
  8
0
  6
CONTINUOUS
 62
     4
 10
50.689327
 20
7.0
 30
0.0
 11
50.171689
 21
8.931852
 31
0.0
  0
LINE
  5
46
  8
0
  6
CONTINUOUS
 62
     4
 10
50.689327
 20
-7.0
 30
0.0
 11
50.171689
 21
-8.931852
 31
0.0
  0
LINE
  5
47
  8
0
  6
CONTINUOUS
 62
     4
 10
50.689327
 20
-7.0
 30
0.0
 11
51.206965
 21
-8.931852
 31
0.0
  0
POINT
  5
49
  8
DEFPOINTS
  6
BYBLOCK
 10
42.250008
 20
-7.0
 30
0.0
  0
POINT
  5
4A
  8
DEFPOINTS
  6
BYBLOCK
 10
42.250008
 20
7.0
 30
0.0
  0
POINT
  5
4B
  8
DEFPOINTS
  6
BYBLOCK
 10
50.689327
 20
7.0
 30
0.0
  0
ENDBLK
  5
4C
  8
0
  0
BLOCK
  8
0
  2
*D2
 70
     1
 10
0.0
 20
0.0
 30
0.0
  3
*D2
  1

  0
TEXT
  5
4F
  8
0
  6
CONTINUOUS
 62
     4
 10
25.745396
 20
62.638281
 30
0.0
 40
3.2
  1
55
 50
0.000003
 41
0.7
  7
STANDARD1
  0
LINE
  5
50
  8
0
  6
CONTINUOUS
 62
     4
 10
14.750009
 20
45.0
 30
0.0
 11
14.750009
 21
63.638279
 31
0.0
  0
LINE
  5
51
  8
0
  6
CONTINUOUS
 62
     4
 10
42.250008
 20
8.0
 30
0.0
 11
42.250008
 21
63.638279
 31
0.0
  0
LINE
  5
52
  8
0
  6
CONTINUOUS
 62
     4
 10
14.750009
 20
61.638279
 30
0.0
 11
42.250008
 21
61.638279
 31
0.0
  0
LINE
  5
53
  8
0
  6
CONTINUOUS
 62
     4
 10
14.750009
 20
61.638279
 30
0.0
 11
16.68186
 21
62.155917
 31
0.0
  0
LINE
  5
54
  8
0
  6
CONTINUOUS
 62
     4
 10
14.750009
 20
61.638279
 30
0.0
 11
16.68186
 21
61.120641
 31
0.0
  0
LINE
  5
55
  8
0
  6
CONTINUOUS
 62
     4
 10
42.250008
 20
61.638279
 30
0.0
 11
40.318156
 21
61.120641
 31
0.0
  0
LINE
  5
56
  8
0
  6
CONTINUOUS
 62
     4
 10
42.250008
 20
61.638279
 30
0.0
 11
40.318156
 21
62.155917
 31
0.0
  0
POINT
  5
57
  8
DEFPOINTS
  6
BYBLOCK
 10
42.250008
 20
7.0
 30
0.0
  0
POINT
  5
58
  8
DEFPOINTS
  6
BYBLOCK
 10
14.750009
 20
44.0
 30
0.0
  0
POINT
  5
59
  8
DEFPOINTS
  6
BYBLOCK
 10
14.750009
 20
61.638279
 30
0.0
  0
ENDBLK
  5
5A
  8
0
  0
BLOCK
  8
0
  2
SYM4
 70
     0
 10
0.0
 20
0.0
 30
0.0
  3
SYM4
  1

  0
ARC
  5
5D
  8
0
  6
CONTINUOUS
 62
     2
 10
2.5
 20
6.5
 30
0.0
 40
1.2
 50
359.999983
 51
180.000001
  0
ARC
  5
5E
  8
0
  6
CONTINUOUS
 62
     2
 10
2.5
 20
6.5
 30
0.0
 40
2.5
 50
359.999983
 51
180.000001
  0
LINE
  5
5F
  8
0
  6
CONTINUOUS
 62
     2
 10
0.0
 20
6.5
 30
0.0
 11
1.3
 21
6.5
 31
0.0
  0
LINE
  5
60
  8
0
  6
CONTINUOUS
 62
     2
 10
4.478567
 20
4.97184
 30
0.0
 11
1.6426
 21
1.299999
 31
0.0
  0
LINE
  5
61
  8
0
  6
CONTINUOUS
 62
     2
 10
0.0
 20
1.3
 30
0.0
 11
3.449712
 21
5.766483
 31
0.0
  0
LINE
  5
62
  8
0
  6
CONTINUOUS
 62
     2
 10
5.0
 20
1.299999
 30
0.0
 11
1.6426
 21
1.299999
 31
0.0
  0
LINE
  5
63
  8
0
  6
CONTINUOUS
 62
     2
 10
5.0
 20
0.0
 30
0.0
 11
5.0
 21
1.3
 31
0.0
  0
LINE
  5
64
  8
0
  6
CONTINUOUS
 62
     2
 10
0.0
 20
1.3
 30
0.0
 11
0.0
 21
0.0
 31
0.0
  0
LINE
  5
65
  8
0
  6
CONTINUOUS
 62
     2
 10
0.0
 20
0.0
 30
0.0
 11
5.0
 21
0.0
 31
0.0
  0
ARC
  5
66
  8
0
  6
CONTINUOUS
 62
     2
 10
2.5
 20
6.5
 30
0.0
 40
2.5
 50
322.319086
 51
359.999983
  0
ARC
  5
67
  8
0
  6
CONTINUOUS
 62
     2
 10
2.5
 20
6.5
 30
0.0
 40
1.2
 50
322.31914
 51
359.999983
  0
ENDBLK
  5
68
  8
0
  0
BLOCK
  8
0
  2
SYM5
 70
     0
 10
0.0
 20
0.0
 30
0.0
  3
SYM5
  1

  0
ARC
  5
6B
  8
0
  6
CONTINUOUS
 62
     2
 10
2.5
 20
6.7
 30
0.0
 40
2.3
 50
300.30484
 51
239.695254
  0
ARC
  5
6C
  8
0
  6
CONTINUOUS
 62
     2
 10
2.5
 20
2.5
 30
0.0
 40
2.5
 50
117.6605
 51
62.339447
  0
CIRCLE
  5
6D
  8
0
  6
CONTINUOUS
 62
     2
 10
2.5
 20
2.5
 30
0.0
 40
1.2
  0
CIRCLE
  5
6E
  8
0
  6
CONTINUOUS
 62
     2
 10
2.5
 20
6.7
 30
0.0
 40
1.0
  0
ENDBLK
  5
6F
  8
0
  0
BLOCK
  8
0
  2
SYM6
 70
     0
 10
0.0
 20
0.0
 30
0.0
  3
SYM6
  1

  0
ARC
  5
72
  8
0
  6
CONTINUOUS
 62
     2
 10
2.5
 20
6.5
 30
0.0
 40
2.5
 50
61.314554
 51
298.685484
  0
LINE
  5
73
  8
0
  6
CONTINUOUS
 62
     2
 10
1.3
 20
2.5
 30
0.0
 11
0.0
 21
2.5
 31
0.0
  0
LINE
  5
74
  8
0
  6
CONTINUOUS
 62
     2
 10
3.7
 20
4.306828
 30
0.0
 11
3.7
 21
2.5
 31
0.0
  0
LINE
  5
75
  8
0
  6
CONTINUOUS
 62
     2
 10
5.0
 20
6.5
 30
0.0
 11
5.0
 21
2.5
 31
0.0
  0
ARC
  5
76
  8
0
  6
CONTINUOUS
 62
     2
 10
2.5
 20
2.5
 30
0.0
 40
2.5
 50
180.000019
 51
359.999928
  0
ARC
  5
77
  8
0
  6
CONTINUOUS
 62
     2
 10
2.5
 20
2.5
 30
0.0
 40
1.2
 50
180.000019
 51
0.000037
  0
ARC
  5
78
  8
0
  6
CONTINUOUS
 62
     2
 10
2.5
 20
6.5
 30
0.0
 40
2.5
 50
0.0
 51
61.314554
  0
CIRCLE
  5
79
  8
0
  6
CONTINUOUS
 62
     2
 10
2.5
 20
6.5
 30
0.0
 40
1.2
  0
ENDBLK
  5
7A
  8
0
  0
BLOCK
  8
0
  2
SYM7
 70
     0
 10
0.0
 20
0.0
 30
0.0
  3
SYM7
  1

  0
ARC
  5
7D
  8
0
  6
CONTINUOUS
 62
     2
 10
2.5
 20
2.5
 30
0.0
 40
2.5
 50
180.000019
 51
110.051433
  0
ARC
  5
7E
  8
0
  6
CONTINUOUS
 62
     2
 10
2.5
 20
2.5
 30
0.0
 40
1.2
 50
183.559312
 51
90.0
  0
LINE
  5
7F
  8
0
  6
CONTINUOUS
 62
     2
 10
0.168649
 20
3.699999
 30
0.0
 11
2.5
 21
3.699999
 31
0.0
  0
LINE
  5
80
  8
0
  6
CONTINUOUS
 62
     2
 10
2.043599
 20
7.699999
 30
0.0
 11
1.64284
 21
4.848463
 31
0.0
  0
LINE
  5
81
  8
0
  6
CONTINUOUS
 62
     2
 10
0.168649
 20
3.699999
 30
0.0
 11
0.913518
 21
8.999999
 31
0.0
  0
LINE
  5
82
  8
0
  6
CONTINUOUS
 62
     2
 10
5.0
 20
7.7
 30
0.0
 11
5.0
 21
9.0
 31
0.0
  0
LINE
  5
83
  8
0
  6
CONTINUOUS
 62
     2
 10
2.043599
 20
7.699998
 30
0.0
 11
5.0
 21
7.699998
 31
0.0
  0
LINE
  5
84
  8
0
  6
CONTINUOUS
 62
     2
 10
0.913518
 20
8.999999
 30
0.0
 11
5.0
 21
8.999999
 31
0.0
  0
LINE
  5
85
  8
0
  6
CONTINUOUS
 62
     2
 10
0.0
 20
2.5
 30
0.0
 11
1.3
 21
2.5
 31
0.0
  0
ENDBLK
  5
86
  8
0
  0
BLOCK
  8
0
  2
SYM8
 70
     0
 10
0.0
 20
0.0
 30
0.0
  3
SYM8
  1

  0
ARC
  5
89
  8
0
  6
CONTINUOUS
 62
     2
 10
2.5
 20
6.5
 30
0.0
 40
2.5
 50
0.0
 51
180.000019
  0
ARC
  5
8A
  8
0
  6
CONTINUOUS
 62
     2
 10
2.5
 20
2.5
 30
0.0
 40
2.5
 50
53.130061
 51
118.685465
  0
ARC
  5
8B
  8
0
  6
CONTINUOUS
 62
     2
 10
2.5
 20
2.5
 30
0.0
 40
2.5
 50
180.000019
 51
53.130003
  0
LINE
  5
8C
  8
0
  6
CONTINUOUS
 62
     2
 10
3.7
 20
6.5
 30
0.0
 11
5.0
 21
6.5
 31
0.0
  0
LINE
  5
8D
  8
0
  6
CONTINUOUS
 62
     2
 10
0.0
 20
2.5
 30
0.0
 11
0.0
 21
6.5
 31
0.0
  0
ARC
  5
8E
  8
0
  6
CONTINUOUS
 62
     2
 10
2.5
 20
6.5
 30
0.0
 40
1.2
 50
0.0
 51
180.000019
  0
CIRCLE
  5
8F
  8
0
  6
CONTINUOUS
 62
     2
 10
2.5
 20
2.5
 30
0.0
 40
1.2
  0
LINE
  5
90
  8
0
  6
CONTINUOUS
 62
     2
 10
1.3
 20
6.5
 30
0.0
 11
1.3
 21
4.693172
 31
0.0
  0
ENDBLK
  5
91
  8
0
  0
BLOCK
  8
0
  2
SYM9
 70
     0
 10
0.0
 20
0.0
 30
0.0
  3
SYM9
  1

  0
LINE
  5
94
  8
0
  6
CONTINUOUS
 62
     2
 10
1.300001
 20
1.300002
 30
0.0
 11
5.0
 21
7.700008
 31
0.0
  0
LINE
  5
95
  8
0
  6
CONTINUOUS
 62
     2
 10
0.0
 20
1.3
 30
0.0
 11
3.7
 21
7.699999
 31
0.0
  0
LINE
  5
96
  8
0
  6
CONTINUOUS
 62
     2
 10
5.0
 20
9.0
 30
0.0
 11
5.0
 21
7.7
 31
0.0
  0
LINE
  5
97
  8
0
  6
CONTINUOUS
 62
     2
 10
0.0
 20
9.0
 30
0.0
 11
0.0
 21
7.7
 31
0.0
  0
LINE
  5
98
  8
0
  6
CONTINUOUS
 62
     2
 10
1.3
 20
1.3
 30
0.0
 11
5.0
 21
1.3
 31
0.0
  0
LINE
  5
99
  8
0
  6
CONTINUOUS
 62
     2
 10
5.0
 20
9.0
 30
0.0
 11
0.0
 21
9.0
 31
0.0
  0
LINE
  5
9A
  8
0
  6
CONTINUOUS
 62
     2
 10
5.0
 20
0.0
 30
0.0
 11
0.0
 21
0.0
 31
0.0
  0
LINE
  5
9B
  8
0
  6
CONTINUOUS
 62
     2
 10
0.0
 20
0.0
 30
0.0
 11
0.0
 21
1.3
 31
0.0
  0
LINE
  5
9C
  8
0
  6
CONTINUOUS
 62
     2
 10
5.0
 20
0.0
 30
0.0
 11
5.0
 21
1.3
 31
0.0
  0
LINE
  5
9D
  8
0
  6
CONTINUOUS
 62
     2
 10
3.7
 20
7.7
 30
0.0
 11
0.0
 21
7.7
 31
0.0
  0
ENDBLK
  5
9E
  8
0
  0
BLOCK
  8
0
  2
*D9
 70
     1
 10
0.0
 20
0.0
 30
0.0
  3
*D9
  1

  0
TEXT
  5
A1
  8
0
  6
CONTINUOUS
 62
     4
 10
-24.211756
 20
62.537894
 30
0.0
 40
3.2
  1
153.5
 50
0.000003
 41
0.7
  7
STANDARD1
  0
LINE
  5
A2
  8
0
  6
CONTINUOUS
 62
     4
 10
14.750009
 20
45.0
 30
0.0
 11
14.750009
 21
63.537895
 31
0.0
  0
LINE
  5
A3
  8
0
  6
CONTINUOUS
 62
     4
 10
-61.999992
 20
-28.0
 30
0.0
 11
-61.999992
 21
63.537895
 31
0.0
  0
LINE
  5
A4
  8
0
  6
CONTINUOUS
 62
     4
 10
14.750009
 20
61.537895
 30
0.0
 11
-61.999992
 21
61.537895
 31
0.0
  0
LINE
  5
A5
  8
0
  6
CONTINUOUS
 62
     4
 10
14.750009
 20
61.537895
 30
0.0
 11
12.818157
 21
61.020257
 31
0.0
  0
LINE
  5
A6
  8
0
  6
CONTINUOUS
 62
     4
 10
14.750009
 20
61.537895
 30
0.0
 11
12.818157
 21
62.055533
 31
0.0
  0
LINE
  5
A7
  8
0
  6
CONTINUOUS
 62
     4
 10
-61.999992
 20
61.537895
 30
0.0
 11
-60.068141
 21
62.055533
 31
0.0
  0
LINE
  5
A8
  8
0
  6
CONTINUOUS
 62
     4
 10
-61.999992
 20
61.537895
 30
0.0
 11
-60.068141
 21
61.020257
 31
0.0
  0
POINT
  5
A9
  8
DEFPOINTS
  6
BYBLOCK
 10
-61.999992
 20
-29.0
 30
0.0
  0
POINT
  5
AA
  8
DEFPOINTS
  6
BYBLOCK
 10
14.750009
 20
44.0
 30
0.0
  0
POINT
  5
AB
  8
DEFPOINTS
  6
BYBLOCK
 10
14.750009
 20
61.537895
 30
0.0
  0
ENDBLK
  5
AC
  8
0
  0
BLOCK
  8
0
  2
*D10
 70
     1
 10
0.0
 20
0.0
 30
0.0
  3
*D10
  1

  0
TEXT
  5
AF
  8
0
  6
CONTINUOUS
 62
     4
 10
3.310424
 20
-66.108636
 30
0.0
 40
3.2
  1
47.5
 50
0.000003
 41
0.7
  7
STANDARD1
  0
LINE
  5
B0
  8
0
  6
CONTINUOUS
 62
     4
 10
14.750009
 20
-45.0
 30
0.0
 11
14.750009
 21
-69.108635
 31
0.0
  0
LINE
  5
B1
  8
0
  6
CONTINUOUS
 62
     4
 10
-9.0
 20
-71.790741
 30
0.0
 11
-9.0
 21
-65.108635
 31
0.0
  0
LINE
  5
B2
  8
0
  6
CONTINUOUS
 62
     4
 10
14.750009
 20
-67.108635
 30
0.0
 11
-9.0
 21
-67.108635
 31
0.0
  0
LINE
  5
B3
  8
0
  6
CONTINUOUS
 62
     4
 10
14.750009
 20
-67.108635
 30
0.0
 11
12.818157
 21
-67.626273
 31
0.0
  0
LINE
  5
B4
  8
0
  6
CONTINUOUS
 62
     4
 10
14.750009
 20
-67.108635
 30
0.0
 11
12.818157
 21
-66.590997
 31
0.0
  0
LINE
  5
B5
  8
0
  6
CONTINUOUS
 62
     4
 10
-9.0
 20
-67.108635
 30
0.0
 11
-7.068148
 21
-66.590997
 31
0.0
  0
LINE
  5
B6
  8
0
  6
CONTINUOUS
 62
     4
 10
-9.0
 20
-67.108635
 30
0.0
 11
-7.068148
 21
-67.626273
 31
0.0
  0
POINT
  5
B7
  8
DEFPOINTS
  6
BYBLOCK
 10
-9.0
 20
-72.790741
 30
0.0
  0
POINT
  5
B8
  8
DEFPOINTS
  6
BYBLOCK
 10
14.750009
 20
-44.0
 30
0.0
  0
POINT
  5
B9
  8
DEFPOINTS
  6
BYBLOCK
 10
14.750009
 20
-67.108635
 30
0.0
  0
ENDBLK
  5
BA
  8
0
  0
BLOCK
  8
0
  2
SYM12
 70
     0
 10
0.0
 20
0.0
 30
0.0
  3
SYM12
  1

  0
POINT
  5
BD
  8
0
  6
CONTINUOUS
 62
     3
 10
0.0
 20
0.0
 30
0.0
  0
LINE
  5
BE
  8
0
  6
CONTINUOUS
 62
     3
 10
0.0
 20
-6.0
 30
0.0
 11
0.0
 21
6.0
 31
0.0
  0
LINE
  5
BF
  8
0
  6
CONTINUOUS
 62
     3
 10
-1.0
 20
-6.0
 30
0.0
 11
-1.0
 21
6.0
 31
0.0
  0
LINE
  5
C0
  8
0
  6
CONTINUOUS
 62
     3
 10
-6.0
 20
-4.249999
 30
0.0
 11
-6.0
 21
4.249999
 31
0.0
  0
LINE
  5
C1
  8
0
  6
CONTINUOUS
 62
     3
 10
-1.0
 20
4.249999
 30
0.0
 11
-6.0
 21
4.249999
 31
0.0
  0
LINE
  5
C2
  8
0
  6
CONTINUOUS
 62
     3
 10
-1.0
 20
-4.249999
 30
0.0
 11
-6.0
 21
-4.249999
 31
0.0
  0
LINE
  5
C3
  8
0
  6
CONTINUOUS
 62
     3
 10
0.0
 20
6.0
 30
0.0
 11
-1.0
 21
6.0
 31
0.0
  0
LINE
  5
C4
  8
0
  6
CONTINUOUS
 62
     3
 10
0.0
 20
-6.0
 30
0.0
 11
-1.0
 21
-6.0
 31
0.0
  0
ENDBLK
  5
C5
  8
0
  0
BLOCK
  8
0
  2
*D12
 70
     1
 10
0.0
 20
0.0
 30
0.0
  3
*D12
  1

  0
TEXT
  5
C8
  8
0
  6
CONTINUOUS
 62
     4
 10
-53.994537
 20
56.357409
 30
0.0
 40
3.2
  1
39.5
 50
0.000003
 41
0.7
  7
STANDARD1
  0
LINE
  5
C9
  8
0
  6
CONTINUOUS
 62
     4
 10
-42.249992
 20
22.25
 30
0.0
 11
-42.249992
 21
57.35741
 31
0.0
  0
LINE
  5
CA
  8
0
  6
CONTINUOUS
 62
     4
 10
-61.999992
 20
16.0
 30
0.0
 11
-61.999992
 21
57.35741
 31
0.0
  0
LINE
  5
CB
  8
0
  6
CONTINUOUS
 62
     4
 10
-42.249992
 20
55.35741
 30
0.0
 11
-61.999992
 21
55.35741
 31
0.0
  0
LINE
  5
CC
  8
0
  6
CONTINUOUS
 62
     4
 10
-42.249992
 20
55.35741
 30
0.0
 11
-44.181844
 21
54.839772
 31
0.0
  0
LINE
  5
CD
  8
0
  6
CONTINUOUS
 62
     4
 10
-42.249992
 20
55.35741
 30
0.0
 11
-44.181844
 21
55.875049
 31
0.0
  0
LINE
  5
CE
  8
0
  6
CONTINUOUS
 62
     4
 10
-61.999992
 20
55.35741
 30
0.0
 11
-60.068141
 21
55.875049
 31
0.0
  0
LINE
  5
CF
  8
0
  6
CONTINUOUS
 62
     4
 10
-61.999992
 20
55.35741
 30
0.0
 11
-60.068141
 21
54.839772
 31
0.0
  0
POINT
  5
D0
  8
DEFPOINTS
  6
BYBLOCK
 10
-61.999992
 20
15.0
 30
0.0
  0
POINT
  5
D1
  8
DEFPOINTS
  6
BYBLOCK
 10
-42.249992
 20
21.25
 30
0.0
  0
POINT
  5
D2
  8
DEFPOINTS
  6
BYBLOCK
 10
-42.249992
 20
55.35741
 30
0.0
  0
ENDBLK
  5
D3
  8
0
  0
BLOCK
  8
0
  2
SYM14
 70
     0
 10
0.0
 20
0.0
 30
0.0
  3
SYM14
  1

  0
CIRCLE
  5
D6
  8
0
  6
CONTINUOUS
 62
     2
 10
0.0
 20
0.0
 30
0.0
 40
6.0
  0
CIRCLE
  5
D7
  8
0
  6
CONTINUOUS
 62
     3
 10
0.0
 20
0.0
 30
0.0
 40
4.249999
  0
POINT
  5
D8
  8
0
  6
CONTINUOUS
 62
     3
 10
0.0
 20
0.0
 30
0.0
  0
LINE
  5
D9
  8
0
  6
CONTINUOUS
 62
     3
 10
-1.999998
 20
-1.154696
 30
0.0
 11
-1.999999
 21
1.1547
 31
0.0
  0
LINE
  5
DA
  8
0
  6
CONTINUOUS
 62
     3
 10
1.999998
 20
1.154695
 30
0.0
 11
1.999999
 21
-1.154699
 31
0.0
  0
LINE
  5
DB
  8
0
  6
CONTINUOUS
 62
     3
 10
1.999998
 20
1.154696
 30
0.0
 11
0.000002
 21
2.309399
 31
0.0
  0
LINE
  5
DC
  8
0
  6
CONTINUOUS
 62
     3
 10
-0.000002
 20
-2.309397
 30
0.0
 11
-1.999997
 21
-1.154696
 31
0.0
  0
LINE
  5
DD
  8
0
  6
CONTINUOUS
 62
     3
 10
-1.999999
 20
1.1547
 30
0.0
 11
0.000002
 21
2.309399
 31
0.0
  0
LINE
  5
DE
  8
0
  6
CONTINUOUS
 62
     3
 10
1.999999
 20
-1.154699
 30
0.0
 11
-0.000002
 21
-2.309398
 31
0.0
  0
ENDBLK
  5
DF
  8
0
  0
BLOCK
  8
0
  2
*D14
 70
     1
 10
0.0
 20
0.0
 30
0.0
  3
*D14
  1

  0
TEXT
  5
E2
  8
0
  6
CONTINUOUS
 62
     4
 10
189.397531
 20
-38.810001
 30
0.0
 40
3.2
  1
144
 50
90.000005
 41
0.7
  7
STANDARD1
  0
LINE
  5
E3
  8
0
  6
CONTINUOUS
 62
     4
 10
188.5
 20
0.0
 30
0.0
 11
192.397537
 21
0.0
 31
0.0
  0
LINE
  5
E4
  8
0
  6
CONTINUOUS
 62
     4
 10
146.699997
 20
-70.900002
 30
0.0
 11
192.397537
 21
-70.900002
 31
0.0
  0
LINE
  5
E5
  8
0
  6
CONTINUOUS
 62
     4
 10
190.397537
 20
0.0
 30
0.0
 11
190.397537
 21
-70.900002
 31
0.0
  0
LINE
  5
E6
  8
0
  6
CONTINUOUS
 62
     4
 10
190.397537
 20
0.0
 30
0.0
 11
190.915175
 21
-1.931852
 31
0.0
  0
LINE
  5
E7
  8
0
  6
CONTINUOUS
 62
     4
 10
190.397537
 20
0.0
 30
0.0
 11
189.879899
 21
-1.931852
 31
0.0
  0
LINE
  5
E8
  8
0
  6
CONTINUOUS
 62
     4
 10
190.397537
 20
-70.900002
 30
0.0
 11
189.879899
 21
-68.96815
 31
0.0
  0
LINE
  5
E9
  8
0
  6
CONTINUOUS
 62
     4
 10
190.397537
 20
-70.900002
 30
0.0
 11
190.915175
 21
-68.96815
 31
0.0
  0
POINT
  5
EA
  8
DEFPOINTS
  6
BYBLOCK
 10
145.699997
 20
-70.900002
 30
0.0
  0
POINT
  5
EB
  8
DEFPOINTS
  6
BYBLOCK
 10
187.5
 20
0.0
 30
0.0
  0
POINT
  5
EC
  8
DEFPOINTS
  6
BYBLOCK
 10
190.397537
 20
0.0
 30
0.0
  0
ENDBLK
  5
ED
  8
0
  0
BLOCK
  8
0
  2
*D15
 70
     1
 10
0.0
 20
0.0
 30
0.0
  3
*D15
  1

  0
TEXT
  5
F0
  8
0
  6
CONTINUOUS
 62
     4
 10
8.800407
 20
56.221632
 30
0.0
 40
3.2
  1
13
 50
0.000003
 41
0.7
  7
STANDARD1
  0
LINE
  5
F1
  8
0
  6
CONTINUOUS
 62
     4
 10
14.750008
 20
45.0
 30
0.0
 11
14.750008
 21
57.221634
 31
0.0
  0
LINE
  5
F2
  8
0
  6
CONTINUOUS
 62
     4
 10
8.250009
 20
45.0
 30
0.0
 11
8.250009
 21
57.221634
 31
0.0
  0
LINE
  5
F3
  8
0
  6
CONTINUOUS
 62
     4
 10
14.750008
 20
55.221634
 30
0.0
 11
8.250009
 21
55.221634
 31
0.0
  0
LINE
  5
F4
  8
0
  6
CONTINUOUS
 62
     4
 10
14.750008
 20
55.221634
 30
0.0
 11
12.818156
 21
54.703996
 31
0.0
  0
LINE
  5
F5
  8
0
  6
CONTINUOUS
 62
     4
 10
14.750008
 20
55.221634
 30
0.0
 11
12.818156
 21
55.739272
 31
0.0
  0
LINE
  5
F6
  8
0
  6
CONTINUOUS
 62
     4
 10
8.250009
 20
55.221634
 30
0.0
 11
10.18186
 21
55.739272
 31
0.0
  0
LINE
  5
F7
  8
0
  6
CONTINUOUS
 62
     4
 10
8.250009
 20
55.221634
 30
0.0
 11
10.18186
 21
54.703996
 31
0.0
  0
POINT
  5
F8
  8
DEFPOINTS
  6
BYBLOCK
 10
8.250009
 20
44.0
 30
0.0
  0
POINT
  5
F9
  8
DEFPOINTS
  6
BYBLOCK
 10
14.750008
 20
44.0
 30
0.0
  0
POINT
  5
FA
  8
DEFPOINTS
  6
BYBLOCK
 10
14.750008
 20
55.221634
 30
0.0
  0
ENDBLK
  5
FB
  8
0
  0
BLOCK
  8
0
  2
*D16
 70
     1
 10
0.0
 20
0.0
 30
0.0
  3
*D16
  1

  0
TEXT
  5
FE
  8
0
  6
CONTINUOUS
 62
     4
 10
148.815693
 20
-36.098572
 30
0.0
 40
3.2
  1
45%%d%%d
 50
22.499998
 41
0.65625
  7
STANDARD1
  0
LINE
  5
FF
  8
0
  6
CONTINUOUS
 62
     4
 10
168.386276
 20
-30.88627
 30
0.0
 11
163.543137
 21
-26.04314
 31
0.0
  0
ARC
  5
100
  8
0
  6
CONTINUOUS
 62
     4
 10
137.5
 20
0.0
 30
0.0
 40
38.830563
 50
270.0
 51
314.999998
  0
LINE
  5
101
  8
0
  6
CONTINUOUS
 62
     4
 10
137.5
 20
-38.830563
 30
0.0
 11
139.431852
 21
-38.312924
 31
0.0
  0
LINE
  5
102
  8
0
  6
CONTINUOUS
 62
     4
 10
137.5
 20
-38.830563
 30
0.0
 11
139.431852
 21
-39.348201
 31
0.0
  0
LINE
  5
103
  8
0
  6
CONTINUOUS
 62
     4
 10
164.957352
 20
-27.457354
 30
0.0
 11
163.957352
 21
-29.189404
 31
0.0
  0
LINE
  5
104
  8
0
  6
CONTINUOUS
 62
     4
 10
164.957352
 20
-27.457354
 30
0.0
 11
163.225301
 21
-28.457354
 31
0.0
  0
POINT
  5
105
  8
DEFPOINTS
  6
BYBLOCK
 10
0.0
 20
0.0
 30
0.0
  0
POINT
  5
106
  8
DEFPOINTS
  6
BYBLOCK
 10
137.5
 20
0.0
 30
0.0
  0
POINT
  5
107
  8
DEFPOINTS
  6
BYBLOCK
 10
137.5
 20
-38.830563
 30
0.0
  0
POINT
  5
108
  8
DEFPOINTS
  6
BYBLOCK
 10
169.093384
 20
-31.593376
 30
0.0
  0
POINT
  5
109
  8
DEFPOINTS
  6
BYBLOCK
 10
304.719625
 20
-71.749525
 30
0.0
  0
ENDBLK
  5
10A
  8
0
  0
BLOCK
  8
0
  2
*D17
 70
     1
 10
0.0
 20
0.0
 30
0.0
  3
*D17
  1

  0
TEXT
  5
10D
  8
0
  6
CONTINUOUS
 62
     4
 10
113.902381
 20
55.009942
 30
0.0
 40
3.2
  1
40%%d%%d
 50
19.999999
 41
0.65625
  7
STANDARD1
  0
LINE
  5
10E
  8
0
  6
CONTINUOUS
 62
     4
 10
137.5
 20
55.213619
 30
0.0
 11
137.5
 21
60.763298
 31
0.0
  0
LINE
  5
10F
  8
0
  6
CONTINUOUS
 62
     4
 10
100.588483
 20
43.989433
 30
0.0
 11
98.442108
 21
46.547386
 31
0.0
  0
ARC
  5
110
  8
0
  6
CONTINUOUS
 62
     4
 10
137.5
 20
0.0
 30
0.0
 40
58.763298
 50
90.0
 51
129.999998
  0
LINE
  5
111
  8
0
  6
CONTINUOUS
 62
     4
 10
137.5
 20
58.763298
 30
0.0
 11
135.568148
 21
58.24566
 31
0.0
  0
LINE
  5
112
  8
0
  6
CONTINUOUS
 62
     4
 10
137.5
 20
58.763298
 30
0.0
 11
135.568148
 21
59.280936
 31
0.0
  0
LINE
  5
113
  8
0
  6
CONTINUOUS
 62
     4
 10
99.727684
 20
45.015297
 30
0.0
 11
100.874837
 21
46.653601
 31
0.0
  0
LINE
  5
114
  8
0
  6
CONTINUOUS
 62
     4
 10
99.727684
 20
45.015297
 30
0.0
 11
101.5403
 21
45.860533
 31
0.0
  0
POINT
  5
115
  8
DEFPOINTS
  6
BYBLOCK
 10
0.0
 20
0.0
 30
0.0
  0
POINT
  5
116
  8
DEFPOINTS
  6
BYBLOCK
 10
137.5
 20
0.0
 30
0.0
  0
POINT
  5
117
  8
DEFPOINTS
  6
BYBLOCK
 10
137.5
 20
54.213619
 30
0.0
  0
POINT
  5
118
  8
DEFPOINTS
  6
BYBLOCK
 10
101.23127
 20
43.223389
 30
0.0
  0
POINT
  5
119
  8
DEFPOINTS
  6
BYBLOCK
 10
234.803539
 20
110.438876
 30
0.0
  0
ENDBLK
  5
11A
  8
0
  0
BLOCK
  8
0
  2
*D18
 70
     1
 10
0.0
 20
0.0
 30
0.0
  3
*D18
  1

  0
TEXT
  5
11D
  8
0
  6
CONTINUOUS
 62
     4
 10
135.259995
 20
-76.750002
 30
0.0
 40
3.2
  1
44
 50
0.000003
 41
0.7
  7
STANDARD1
  0
LINE
  5
11E
  8
0
  6
CONTINUOUS
 62
     4
 10
126.5
 20
-60.0
 30
0.0
 11
126.5
 21
-79.75
 31
0.0
  0
LINE
  5
11F
  8
0
  6
CONTINUOUS
 62
     4
 10
148.5
 20
-60.0
 30
0.0
 11
148.5
 21
-79.75
 31
0.0
  0
LINE
  5
120
  8
0
  6
CONTINUOUS
 62
     4
 10
126.5
 20
-77.75
 30
0.0
 11
148.5
 21
-77.75
 31
0.0
  0
LINE
  5
121
  8
0
  6
CONTINUOUS
 62
     4
 10
126.5
 20
-77.75
 30
0.0
 11
128.431852
 21
-77.232362
 31
0.0
  0
LINE
  5
122
  8
0
  6
CONTINUOUS
 62
     4
 10
126.5
 20
-77.75
 30
0.0
 11
128.431852
 21
-78.267638
 31
0.0
  0
LINE
  5
123
  8
0
  6
CONTINUOUS
 62
     4
 10
148.5
 20
-77.75
 30
0.0
 11
146.568148
 21
-78.267638
 31
0.0
  0
LINE
  5
124
  8
0
  6
CONTINUOUS
 62
     4
 10
148.5
 20
-77.75
 30
0.0
 11
146.568148
 21
-77.232362
 31
0.0
  0
POINT
  5
125
  8
DEFPOINTS
  6
BYBLOCK
 10
148.5
 20
-59.0
 30
0.0
  0
POINT
  5
126
  8
DEFPOINTS
  6
BYBLOCK
 10
126.5
 20
-59.0
 30
0.0
  0
POINT
  5
127
  8
DEFPOINTS
  6
BYBLOCK
 10
126.5
 20
-77.75
 30
0.0
  0
ENDBLK
  5
128
  8
0
  0
BLOCK
  8
1
  2
*D19
 70
     1
 10
0.0
 20
0.0
 30
0.0
  3
*D19
  1

  0
TEXT
  5
12B
  8
1
  6
CONTINUOUS
 62
     4
 10
113.303555
 20
34.345225
 30
0.0
 40
2.8
  1
ѓУ
 50
306.528856
 41
0.583333
  7
STANDARD1
  0
TEXT
  5
12C
  8
1
  6
CONTINUOUS
 62
     4
 10
114.470204
 20
32.770254
 30
0.0
 40
2.8
  1
215
 50
306.528856
 41
0.7
  7
STANDARD1
  0
LINE
  5
12D
  8
1
  6
CONTINUOUS
 62
     4
 10
169.493469
 20
-43.1912
 30
0.0
 11
105.506516
 21
43.1912
 31
0.0
  0
LINE
  5
12E
  8
1
  6
CONTINUOUS
 62
     4
 10
169.493469
 20
-43.1912
 30
0.0
 11
167.927626
 21
-41.946959
 31
0.0
  0
LINE
  5
12F
  8
1
  6
CONTINUOUS
 62
     4
 10
169.493469
 20
-43.1912
 30
0.0
 11
168.75953
 21
-41.330734
 31
0.0
  0
LINE
  5
130
  8
1
  6
CONTINUOUS
 62
     4
 10
105.506516
 20
43.1912
 30
0.0
 11
107.072359
 21
41.946959
 31
0.0
  0
LINE
  5
131
  8
1
  6
CONTINUOUS
 62
     4
 10
105.506516
 20
43.1912
 30
0.0
 11
106.240455
 21
41.330734
 31
0.0
  0
POINT
  5
132
  8
DEFPOINTS
  6
BYBLOCK
 10
169.493469
 20
-43.1912
 30
0.0
  0
POINT
  5
133
  8
DEFPOINTS
  6
BYBLOCK
 10
105.506516
 20
43.1912
 30
0.0
  0
ENDBLK
  5
134
  8
1
  0
BLOCK
  8
1
  2
*D20
 70
     1
 10
0.0
 20
0.0
 30
0.0
  3
*D20
  1

  0
TEXT
  5
137
  8
1
  6
CONTINUOUS
 62
     4
 10
-61.604992
 20
-51.459127
 30
0.0
 40
3.2
  1
19.5
 50
0.000003
 41
0.7
  7
STANDARD1
  0
LINE
  5
138
  8
1
  6
CONTINUOUS
 62
     4
 10
-61.999992
 20
-30.0
 30
0.0
 11
-61.999992
 21
-54.459126
 31
0.0
  0
LINE
  5
139
  8
1
  6
CONTINUOUS
 62
     4
 10
-52.249996
 20
-28.270405
 30
0.0
 11
-52.249996
 21
-54.459126
 31
0.0
  0
LINE
  5
13A
  8
1
  6
CONTINUOUS
 62
     4
 10
-61.999992
 20
-52.459126
 30
0.0
 11
-52.249996
 21
-52.459126
 31
0.0
  0
LINE
  5
13B
  8
1
  6
CONTINUOUS
 62
     4
 10
-61.999992
 20
-52.459126
 30
0.0
 11
-60.068141
 21
-51.941487
 31
0.0
  0
LINE
  5
13C
  8
1
  6
CONTINUOUS
 62
     4
 10
-61.999992
 20
-52.459126
 30
0.0
 11
-60.068141
 21
-52.976764
 31
0.0
  0
LINE
  5
13D
  8
1
  6
CONTINUOUS
 62
     4
 10
-52.249996
 20
-52.459126
 30
0.0
 11
-54.181848
 21
-52.976764
 31
0.0
  0
LINE
  5
13E
  8
1
  6
CONTINUOUS
 62
     4
 10
-52.249996
 20
-52.459126
 30
0.0
 11
-54.181848
 21
-51.941487
 31
0.0
  0
POINT
  5
13F
  8
DEFPOINTS
  6
BYBLOCK
 10
-52.249996
 20
-27.270405
 30
0.0
  0
POINT
  5
140
  8
DEFPOINTS
  6
BYBLOCK
 10
-61.999992
 20
-29.0
 30
0.0
  0
POINT
  5
141
  8
DEFPOINTS
  6
BYBLOCK
 10
-61.999992
 20
-52.459126
 30
0.0
  0
ENDBLK
  5
142
  8
1
  0
BLOCK
  8
1
  2
*D21
 70
     1
 10
0.0
 20
0.0
 30
0.0
  3
*D21
  1

  0
TEXT
  5
145
  8
1
  6
CONTINUOUS
 62
     4
 10
61.399164
 20
-11.17
 30
0.0
 40
3.2
  1
ѓУ
 50
90.000005
 41
0.583333
  7
STANDARD1
  0
TEXT
  5
146
  8
1
  6
CONTINUOUS
 62
     4
 10
61.399164
 20
-8.93
 30
0.0
 40
3.2
  1
114.3
 50
90.000005
 41
0.7
  7
STANDARD1
  0
TEXT
  5
147
  8
1
  6
CONTINUOUS
 62
     4
 10
59.549164
 20
2.77
 30
0.0
 40
2.0
  1
Ѓ@0
 50
90.000005
 41
0.636364
  7
STANDARD1
  0
TEXT
  5
148
  8
1
  6
CONTINUOUS
 62
     4
 10
62.049164
 20
2.77
 30
0.0
 40
2.0
  1
-0.025
 50
90.000005
 41
0.7
  7
STANDARD1
  0
LINE
  5
149
  8
1
  6
CONTINUOUS
 62
     4
 10
17.250008
 20
28.575001
 30
0.0
 11
65.049164
 21
28.575001
 31
0.0
  0
LINE
  5
14A
  8
1
  6
CONTINUOUS
 62
     4
 10
17.250008
 20
-28.575001
 30
0.0
 11
65.049164
 21
-28.575001
 31
0.0
  0
LINE
  5
14B
  8
1
  6
CONTINUOUS
 62
     4
 10
63.049164
 20
28.575001
 30
0.0
 11
63.049164
 21
-28.575001
 31
0.0
  0
LINE
  5
14C
  8
1
  6
CONTINUOUS
 62
     4
 10
63.049164
 20
28.575001
 30
0.0
 11
63.566802
 21
26.643149
 31
0.0
  0
LINE
  5
14D
  8
1
  6
CONTINUOUS
 62
     4
 10
63.049164
 20
28.575001
 30
0.0
 11
62.531526
 21
26.643149
 31
0.0
  0
LINE
  5
14E
  8
1
  6
CONTINUOUS
 62
     4
 10
63.049164
 20
-28.575001
 30
0.0
 11
62.531526
 21
-26.643149
 31
0.0
  0
LINE
  5
14F
  8
1
  6
CONTINUOUS
 62
     4
 10
63.049164
 20
-28.575001
 30
0.0
 11
63.566802
 21
-26.643149
 31
0.0
  0
POINT
  5
150
  8
DEFPOINTS
  6
BYBLOCK
 10
16.250008
 20
-28.575001
 30
0.0
  0
POINT
  5
151
  8
DEFPOINTS
  6
BYBLOCK
 10
16.250008
 20
28.575001
 30
0.0
  0
POINT
  5
152
  8
DEFPOINTS
  6
BYBLOCK
 10
63.049164
 20
28.575001
 30
0.0
  0
ENDBLK
  5
153
  8
1
  0
BLOCK
  8
1
  2
*X22
 70
     1
 10
0.0
 20
0.0
 30
0.0
  3
*X22
  1

  0
LINE
  5
156
  8
1
  6
CONTINUOUS
 62
     4
 10
34.398879
 20
-106.698022
 30
0.0
 11
35.998813
 21
-106.698022
 31
0.0
  0
LINE
  5
157
  8
1
  6
CONTINUOUS
 62
     4
 10
34.342212
 20
-106.598022
 30
0.0
 11
35.938813
 21
-106.598022
 31
0.0
  0
LINE
  5
158
  8
1
  6
CONTINUOUS
 62
     4
 10
34.285546
 20
-106.498022
 30
0.0
 11
35.878813
 21
-106.498022
 31
0.0
  0
LINE
  5
159
  8
1
  6
CONTINUOUS
 62
     4
 10
34.228879
 20
-106.398022
 30
0.0
 11
35.818813
 21
-106.398022
 31
0.0
  0
LINE
  5
15A
  8
1
  6
CONTINUOUS
 62
     4
 10
34.172212
 20
-106.298022
 30
0.0
 11
35.758813
 21
-106.298022
 31
0.0
  0
LINE
  5
15B
  8
1
  6
CONTINUOUS
 62
     4
 10
34.115546
 20
-106.198022
 30
0.0
 11
35.698813
 21
-106.198022
 31
0.0
  0
LINE
  5
15C
  8
1
  6
CONTINUOUS
 62
     4
 10
34.058879
 20
-106.098022
 30
0.0
 11
35.638813
 21
-106.098022
 31
0.0
  0
LINE
  5
15D
  8
1
  6
CONTINUOUS
 62
     4
 10
34.002212
 20
-105.998022
 30
0.0
 11
35.578813
 21
-105.998022
 31
0.0
  0
LINE
  5
15E
  8
1
  6
CONTINUOUS
 62
     4
 10
33.945546
 20
-105.898022
 30
0.0
 11
35.518813
 21
-105.898022
 31
0.0
  0
LINE
  5
15F
  8
1
  6
CONTINUOUS
 62
     4
 10
33.888879
 20
-105.798022
 30
0.0
 11
35.458813
 21
-105.798022
 31
0.0
  0
LINE
  5
160
  8
1
  6
CONTINUOUS
 62
     4
 10
33.832212
 20
-105.698022
 30
0.0
 11
35.398813
 21
-105.698022
 31
0.0
  0
LINE
  5
161
  8
1
  6
CONTINUOUS
 62
     4
 10
33.775546
 20
-105.598022
 30
0.0
 11
35.338813
 21
-105.598022
 31
0.0
  0
LINE
  5
162
  8
1
  6
CONTINUOUS
 62
     4
 10
33.718879
 20
-105.498022
 30
0.0
 11
35.278813
 21
-105.498022
 31
0.0
  0
LINE
  5
163
  8
1
  6
CONTINUOUS
 62
     4
 10
33.662212
 20
-105.398022
 30
0.0
 11
35.218813
 21
-105.398022
 31
0.0
  0
LINE
  5
164
  8
1
  6
CONTINUOUS
 62
     4
 10
33.605546
 20
-105.298022
 30
0.0
 11
35.158813
 21
-105.298022
 31
0.0
  0
ENDBLK
  5
165
  8
1
  0
BLOCK
  8
1
  2
*X23
 70
     1
 10
0.0
 20
0.0
 30
0.0
  3
*X23
  1

  0
LINE
  5
168
  8
1
  6
CONTINUOUS
 62
     4
 10
33.541412
 20
-102.297647
 30
0.0
 11
33.652078
 21
-102.297647
 31
0.0
  0
LINE
  5
169
  8
1
  6
CONTINUOUS
 62
     4
 10
33.481412
 20
-102.397647
 30
0.0
 11
33.705412
 21
-102.397647
 31
0.0
  0
LINE
  5
16A
  8
1
  6
CONTINUOUS
 62
     4
 10
33.421412
 20
-102.497647
 30
0.0
 11
33.758745
 21
-102.497647
 31
0.0
  0
LINE
  5
16B
  8
1
  6
CONTINUOUS
 62
     4
 10
33.361412
 20
-102.597647
 30
0.0
 11
33.812078
 21
-102.597647
 31
0.0
  0
LINE
  5
16C
  8
1
  6
CONTINUOUS
 62
     4
 10
33.301412
 20
-102.697647
 30
0.0
 11
33.865412
 21
-102.697647
 31
0.0
  0
LINE
  5
16D
  8
1
  6
CONTINUOUS
 62
     4
 10
33.241412
 20
-102.797647
 30
0.0
 11
33.918745
 21
-102.797647
 31
0.0
  0
LINE
  5
16E
  8
1
  6
CONTINUOUS
 62
     4
 10
33.181412
 20
-102.897647
 30
0.0
 11
33.972078
 21
-102.897647
 31
0.0
  0
LINE
  5
16F
  8
1
  6
CONTINUOUS
 62
     4
 10
33.121412
 20
-102.997647
 30
0.0
 11
34.025412
 21
-102.997647
 31
0.0
  0
LINE
  5
170
  8
1
  6
CONTINUOUS
 62
     4
 10
33.061412
 20
-103.097647
 30
0.0
 11
34.078745
 21
-103.097647
 31
0.0
  0
LINE
  5
171
  8
1
  6
CONTINUOUS
 62
     4
 10
33.001412
 20
-103.197647
 30
0.0
 11
34.132078
 21
-103.197647
 31
0.0
  0
LINE
  5
172
  8
1
  6
CONTINUOUS
 62
     4
 10
32.941412
 20
-103.297647
 30
0.0
 11
34.185412
 21
-103.297647
 31
0.0
  0
LINE
  5
173
  8
1
  6
CONTINUOUS
 62
     4
 10
32.881412
 20
-103.397647
 30
0.0
 11
34.238745
 21
-103.397647
 31
0.0
  0
LINE
  5
174
  8
1
  6
CONTINUOUS
 62
     4
 10
32.821412
 20
-103.497647
 30
0.0
 11
34.292078
 21
-103.497647
 31
0.0
  0
LINE
  5
175
  8
1
  6
CONTINUOUS
 62
     4
 10
32.761412
 20
-103.597647
 30
0.0
 11
34.345412
 21
-103.597647
 31
0.0
  0
LINE
  5
176
  8
1
  6
CONTINUOUS
 62
     4
 10
32.701412
 20
-103.697647
 30
0.0
 11
34.398745
 21
-103.697647
 31
0.0
  0
LINE
  5
177
  8
1
  6
CONTINUOUS
 62
     4
 10
32.755333
 20
-103.797647
 30
0.0
 11
34.344667
 21
-103.797647
 31
0.0
  0
LINE
  5
178
  8
1
  6
CONTINUOUS
 62
     4
 10
32.812
 20
-103.897647
 30
0.0
 11
34.288
 21
-103.897647
 31
0.0
  0
LINE
  5
179
  8
1
  6
CONTINUOUS
 62
     4
 10
32.868667
 20
-103.997647
 30
0.0
 11
34.231333
 21
-103.997647
 31
0.0
  0
LINE
  5
17A
  8
1
  6
CONTINUOUS
 62
     4
 10
32.925333
 20
-104.097647
 30
0.0
 11
34.174667
 21
-104.097647
 31
0.0
  0
LINE
  5
17B
  8
1
  6
CONTINUOUS
 62
     4
 10
32.982
 20
-104.197647
 30
0.0
 11
34.118
 21
-104.197647
 31
0.0
  0
LINE
  5
17C
  8
1
  6
CONTINUOUS
 62
     4
 10
33.038667
 20
-104.297647
 30
0.0
 11
34.061333
 21
-104.297647
 31
0.0
  0
LINE
  5
17D
  8
1
  6
CONTINUOUS
 62
     4
 10
33.095333
 20
-104.397647
 30
0.0
 11
34.004667
 21
-104.397647
 31
0.0
  0
LINE
  5
17E
  8
1
  6
CONTINUOUS
 62
     4
 10
33.152
 20
-104.497647
 30
0.0
 11
33.948
 21
-104.497647
 31
0.0
  0
LINE
  5
17F
  8
1
  6
CONTINUOUS
 62
     4
 10
33.208667
 20
-104.597647
 30
0.0
 11
33.891333
 21
-104.597647
 31
0.0
  0
LINE
  5
180
  8
1
  6
CONTINUOUS
 62
     4
 10
33.265333
 20
-104.697647
 30
0.0
 11
33.834667
 21
-104.697647
 31
0.0
  0
LINE
  5
181
  8
1
  6
CONTINUOUS
 62
     4
 10
33.322
 20
-104.797647
 30
0.0
 11
33.778
 21
-104.797647
 31
0.0
  0
LINE
  5
182
  8
1
  6
CONTINUOUS
 62
     4
 10
33.378667
 20
-104.897647
 30
0.0
 11
33.721333
 21
-104.897647
 31
0.0
  0
LINE
  5
183
  8
1
  6
CONTINUOUS
 62
     4
 10
33.435333
 20
-104.997647
 30
0.0
 11
33.664667
 21
-104.997647
 31
0.0
  0
LINE
  5
184
  8
1
  6
CONTINUOUS
 62
     4
 10
33.492
 20
-105.097647
 30
0.0
 11
33.608
 21
-105.097647
 31
0.0
  0
LINE
  5
185
  8
1
  6
CONTINUOUS
 62
     4
 10
33.548667
 20
-105.197647
 30
0.0
 11
33.551333
 21
-105.197647
 31
0.0
  0
ENDBLK
  5
186
  8
1
  0
BLOCK
  8
1
  2
*X24
 70
     1
 10
0.0
 20
0.0
 30
0.0
  3
*X24
  1

  0
LINE
  5
189
  8
1
  6
CONTINUOUS
 62
     4
 10
31.001217
 20
-106.697972
 30
0.0
 11
32.701149
 21
-106.697972
 31
0.0
  0
LINE
  5
18A
  8
1
  6
CONTINUOUS
 62
     4
 10
31.061217
 20
-106.597972
 30
0.0
 11
32.757816
 21
-106.597972
 31
0.0
  0
LINE
  5
18B
  8
1
  6
CONTINUOUS
 62
     4
 10
31.121217
 20
-106.497972
 30
0.0
 11
32.814483
 21
-106.497972
 31
0.0
  0
LINE
  5
18C
  8
1
  6
CONTINUOUS
 62
     4
 10
31.181217
 20
-106.397972
 30
0.0
 11
32.871149
 21
-106.397972
 31
0.0
  0
LINE
  5
18D
  8
1
  6
CONTINUOUS
 62
     4
 10
31.241217
 20
-106.297972
 30
0.0
 11
32.927816
 21
-106.297972
 31
0.0
  0
LINE
  5
18E
  8
1
  6
CONTINUOUS
 62
     4
 10
31.301217
 20
-106.197972
 30
0.0
 11
32.984483
 21
-106.197972
 31
0.0
  0
LINE
  5
18F
  8
1
  6
CONTINUOUS
 62
     4
 10
31.361217
 20
-106.097972
 30
0.0
 11
33.041149
 21
-106.097972
 31
0.0
  0
LINE
  5
190
  8
1
  6
CONTINUOUS
 62
     4
 10
31.421217
 20
-105.997972
 30
0.0
 11
33.097816
 21
-105.997972
 31
0.0
  0
LINE
  5
191
  8
1
  6
CONTINUOUS
 62
     4
 10
31.481217
 20
-105.897972
 30
0.0
 11
33.154483
 21
-105.897972
 31
0.0
  0
LINE
  5
192
  8
1
  6
CONTINUOUS
 62
     4
 10
31.541217
 20
-105.797972
 30
0.0
 11
33.211149
 21
-105.797972
 31
0.0
  0
LINE
  5
193
  8
1
  6
CONTINUOUS
 62
     4
 10
31.601217
 20
-105.697972
 30
0.0
 11
33.267816
 21
-105.697972
 31
0.0
  0
LINE
  5
194
  8
1
  6
CONTINUOUS
 62
     4
 10
31.661217
 20
-105.597972
 30
0.0
 11
33.324483
 21
-105.597972
 31
0.0
  0
LINE
  5
195
  8
1
  6
CONTINUOUS
 62
     4
 10
31.721217
 20
-105.497972
 30
0.0
 11
33.381149
 21
-105.497972
 31
0.0
  0
LINE
  5
196
  8
1
  6
CONTINUOUS
 62
     4
 10
31.781217
 20
-105.397972
 30
0.0
 11
33.437816
 21
-105.397972
 31
0.0
  0
LINE
  5
197
  8
1
  6
CONTINUOUS
 62
     4
 10
31.841217
 20
-105.297972
 30
0.0
 11
33.494483
 21
-105.297972
 31
0.0
  0
ENDBLK
  5
198
  8
1
  0
BLOCK
  8
1
  2
*D25
 70
     1
 10
0.0
 20
0.0
 30
0.0
  3
*D25
  1

  0
TEXT
  5
19B
  8
1
  6
CONTINUOUS
 62
     4
 10
161.531178
 20
-17.734655
 30
0.0
 40
3.2
  1
ѓУ
 50
322.079766
 41
0.583333
  7
STANDARD1
  0
TEXT
  5
19C
  8
1
  6
CONTINUOUS
 62
     4
 10
163.298238
 20
-19.111278
 30
0.0
 40
3.2
  1
230
 50
322.079766
 41
0.7
  7
STANDARD1
  0
LINE
  5
19D
  8
1
  6
CONTINUOUS
 62
     4
 10
92.140144
 20
35.337425
 30
0.0
 11
182.859863
 21
-35.337425
 31
0.0
  0
LINE
  5
19E
  8
1
  6
CONTINUOUS
 62
     4
 10
92.140144
 20
35.337425
 30
0.0
 11
93.98224
 21
34.558527
 31
0.0
  0
LINE
  5
19F
  8
1
  6
CONTINUOUS
 62
     4
 10
92.140144
 20
35.337425
 30
0.0
 11
93.345997
 21
33.741831
 31
0.0
  0
LINE
  5
1A0
  8
1
  6
CONTINUOUS
 62
     4
 10
182.859863
 20
-35.337425
 30
0.0
 11
181.017767
 21
-34.558527
 31
0.0
  0
LINE
  5
1A1
  8
1
  6
CONTINUOUS
 62
     4
 10
182.859863
 20
-35.337425
 30
0.0
 11
181.654011
 21
-33.741831
 31
0.0
  0
POINT
  5
1A2
  8
DEFPOINTS
  6
BYBLOCK
 10
92.140144
 20
35.337425
 30
0.0
  0
POINT
  5
1A3
  8
DEFPOINTS
  6
BYBLOCK
 10
182.859863
 20
-35.337425
 30
0.0
  0
ENDBLK
  5
1A4
  8
1
  0
BLOCK
  8
1
  2
*D26
 70
     1
 10
0.0
 20
0.0
 30
0.0
  3
*D26
  1

  0
TEXT
  5
1A7
  8
1
  6
CONTINUOUS
 62
     4
 10
160.993489
 20
17.484011
 30
0.0
 40
3.2
  1
ѓУ
 50
34.400804
 41
0.583333
  7
STANDARD1
  0
TEXT
  5
1A8
  8
1
  6
CONTINUOUS
 62
     4
 10
162.841725
 20
18.749562
 30
0.0
 40
3.2
  1
200
 50
34.400804
 41
0.7
  7
STANDARD1
  0
LINE
  5
1A9
  8
1
  6
CONTINUOUS
 62
     4
 10
96.24472
 20
-28.248928
 30
0.0
 11
178.75528
 21
28.248928
 31
0.0
  0
LINE
  5
1AA
  8
1
  6
CONTINUOUS
 62
     4
 10
96.24472
 20
-28.248928
 30
0.0
 11
97.546248
 21
-26.730367
 31
0.0
  0
LINE
  5
1AB
  8
1
  6
CONTINUOUS
 62
     4
 10
96.24472
 20
-28.248928
 30
0.0
 11
98.131156
 21
-27.584579
 31
0.0
  0
LINE
  5
1AC
  8
1
  6
CONTINUOUS
 62
     4
 10
178.75528
 20
28.248928
 30
0.0
 11
177.453752
 21
26.730367
 31
0.0
  0
LINE
  5
1AD
  8
1
  6
CONTINUOUS
 62
     4
 10
178.75528
 20
28.248928
 30
0.0
 11
176.868844
 21
27.584579
 31
0.0
  0
POINT
  5
1AE
  8
DEFPOINTS
  6
BYBLOCK
 10
96.24472
 20
-28.248928
 30
0.0
  0
POINT
  5
1AF
  8
DEFPOINTS
  6
BYBLOCK
 10
178.75528
 20
28.248928
 30
0.0
  0
ENDBLK
  5
1B0
  8
1
  0
BLOCK
  8
1
  2
*D27
 70
     1
 10
0.0
 20
0.0
 30
0.0
  3
*D27
  1

  0
TEXT
  5
1B3
  8
1
  6
CONTINUOUS
 62
     4
 10
21.631004
 20
56.221632
 30
0.0
 40
3.2
  1
3
 50
0.000003
 41
0.7
  7
STANDARD1
  0
LINE
  5
1B4
  8
1
  6
CONTINUOUS
 62
     4
 10
14.750006
 20
45.0
 30
0.0
 11
14.750006
 21
57.221634
 31
0.0
  0
LINE
  5
1B5
  8
1
  6
CONTINUOUS
 62
     4
 10
16.250006
 20
29.575001
 30
0.0
 11
16.250006
 21
57.221634
 31
0.0
  0
LINE
  5
1B6
  8
1
  6
CONTINUOUS
 62
     4
 10
9.750006
 20
55.221634
 30
0.0
 11
25.471004
 21
55.221634
 31
0.0
  0
LINE
  5
1B7
  8
1
  6
CONTINUOUS
 62
     4
 10
14.750006
 20
55.221634
 30
0.0
 11
12.818154
 21
55.739272
 31
0.0
  0
LINE
  5
1B8
  8
1
  6
CONTINUOUS
 62
     4
 10
14.750006
 20
55.221634
 30
0.0
 11
12.818154
 21
54.703996
 31
0.0
  0
LINE
  5
1B9
  8
1
  6
CONTINUOUS
 62
     4
 10
16.250006
 20
55.221634
 30
0.0
 11
18.181857
 21
54.703996
 31
0.0
  0
LINE
  5
1BA
  8
1
  6
CONTINUOUS
 62
     4
 10
16.250006
 20
55.221634
 30
0.0
 11
18.181857
 21
55.739272
 31
0.0
  0
POINT
  5
1BB
  8
DEFPOINTS
  6
BYBLOCK
 10
16.250006
 20
28.575001
 30
0.0
  0
POINT
  5
1BC
  8
DEFPOINTS
  6
BYBLOCK
 10
14.750006
 20
44.0
 30
0.0
  0
POINT
  5
1BD
  8
DEFPOINTS
  6
BYBLOCK
 10
14.750006
 20
55.221634
 30
0.0
  0
ENDBLK
  5
1BE
  8
1
  0
BLOCK
  8
1
  2
*D28
 70
     1
 10
0.0
 20
0.0
 30
0.0
  3
*D28
  1

  0
TEXT
  5
1C1
  8
1
  6
CONTINUOUS
 62
     4
 10
132.931976
 20
65.319441
 30
0.0
 40
3.2
  1
Ѓ ‚P‚V‚U
 50
0.000003
 41
0.583333
  7
STANDARD1
  0
LINE
  5
1C2
  8
1
  6
CONTINUOUS
 62
     4
 10
93.5
 20
38.016888
 30
0.0
 11
93.5
 21
66.319443
 31
0.0
  0
LINE
  5
1C3
  8
1
  6
CONTINUOUS
 62
     4
 10
181.5
 20
38.016888
 30
0.0
 11
181.5
 21
66.319443
 31
0.0
  0
LINE
  5
1C4
  8
1
  6
CONTINUOUS
 62
     4
 10
93.5
 20
64.319443
 30
0.0
 11
181.5
 21
64.319443
 31
0.0
  0
LINE
  5
1C5
  8
1
  6
CONTINUOUS
 62
     4
 10
93.5
 20
64.319443
 30
0.0
 11
95.431852
 21
64.837081
 31
0.0
  0
LINE
  5
1C6
  8
1
  6
CONTINUOUS
 62
     4
 10
93.5
 20
64.319443
 30
0.0
 11
95.431852
 21
63.801805
 31
0.0
  0
LINE
  5
1C7
  8
1
  6
CONTINUOUS
 62
     4
 10
181.5
 20
64.319443
 30
0.0
 11
179.568148
 21
63.801805
 31
0.0
  0
LINE
  5
1C8
  8
1
  6
CONTINUOUS
 62
     4
 10
181.5
 20
64.319443
 30
0.0
 11
179.568148
 21
64.837081
 31
0.0
  0
POINT
  5
1C9
  8
DEFPOINTS
  6
BYBLOCK
 10
181.5
 20
37.016888
 30
0.0
  0
POINT
  5
1CA
  8
DEFPOINTS
  6
BYBLOCK
 10
93.5
 20
37.016888
 30
0.0
  0
POINT
  5
1CB
  8
DEFPOINTS
  6
BYBLOCK
 10
93.5
 20
64.319443
 30
0.0
  0
ENDBLK
  5
1CC
  8
1
  0
BLOCK
  8
0
  2
*D29
 70
     1
 10
0.0
 20
0.0
 30
0.0
  3
*D29
  1

  0
LINE
  5
7B4
  8
0
  6
BYBLOCK
 62
     0
 10
320.229652
 20
-62.42603
 30
0.0
 11
307.362105
 21
-49.558486
 31
0.0
  0
LINE
  5
7B5
  8
0
  6
BYBLOCK
 62
     0
 10
257.749991
 20
-76.60751
 30
0.0
 11
257.749991
 21
-70.108499
 31
0.0
  0
ARC
  5
7B6
  8
0
  6
BYBLOCK
 62
     0
 10
257.749991
 20
0.053616
 30
0.0
 40
72.162115
 50
316.533918
 51
268.466089
  0
SOLID
  5
7B7
  8
0
  6
BYBLOCK
 62
     0
 10
310.354634
 20
-49.813114
 30
0.0
 11
309.893238
 21
-49.363908
 31
0.0
 12
308.776319
 22
-50.972699
 32
0.0
 13
308.776319
 23
-50.972699
 33
0.0
  0
SOLID
  5
7B8
  8
0
  6
BYBLOCK
 62
     0
 10
255.822623
 20
-71.760694
 30
0.0
 11
255.814003
 21
-72.404587
 31
0.0
 12
257.749991
 22
-72.108499
 32
0.0
 13
257.749991
 23
-72.108499
 33
0.0
  0
TEXT
  5
7B9
  8
0
  6
BYBLOCK
 62
     0
 10
271.365248
 20
-68.615481
 30
0.0
 40
4.0
  1
315.0000%%d%%d
  0
POINT
  5
7BA
  8
DEFPOINTS
  6
BYBLOCK
 62
     0
 10
257.749991
 20
0.053616
 30
0.0
  0
POINT
  5
7BB
  8
DEFPOINTS
  6
BYBLOCK
 62
     0
 10
320.936759
 20
-63.133137
 30
0.0
  0
POINT
  5
7BC
  8
DEFPOINTS
  6
BYBLOCK
 62
     0
 10
257.749991
 20
-77.60751
 30
0.0
  0
POINT
  5
7BD
  8
DEFPOINTS
  6
BYBLOCK
 62
     0
 10
188.04674
 20
18.730543
 30
0.0
  0
ENDBLK
  5
7BE
  8
0
  0
BLOCK
  8
0
  2
*D30
 70
     1
 10
0.0
 20
0.0
 30
0.0
  3
*D30
  1

  0
LINE
  5
67A
  8
0
  6
BYBLOCK
 62
     0
 10
100.588482
 20
43.989433
 30
0.0
 11
96.770856
 21
48.539103
 31
0.0
  0
LINE
  5
67B
  8
0
  6
BYBLOCK
 62
     0
 10
137.5
 20
55.213619
 30
0.0
 11
137.5
 21
63.363299
 31
0.0
  0
ARC
  5
67C
  8
0
  6
BYBLOCK
 62
     0
 10
137.5
 20
0.0
 30
0.0
 40
61.363299
 50
131.803872
 51
88.196128
  0
SOLID
  5
67D
  8
0
  6
BYBLOCK
 62
     0
 10
96.385459
 20
45.985461
 30
0.0
 11
96.807096
 21
45.498743
 31
0.0
 12
98.056431
 22
47.007014
 32
0.0
 13
98.056431
 23
47.007014
 33
0.0
  0
SOLID
  5
67E
  8
0
  6
BYBLOCK
 62
     0
 10
139.426544
 20
61.010954
 30
0.0
 11
139.436681
 21
61.654825
 31
0.0
 12
137.5
 22
61.363299
 32
0.0
 13
137.5
 23
61.363299
 33
0.0
  0
TEXT
  5
67F
  8
0
  6
BYBLOCK
 62
     0
 10
102.17918
 20
55.662638
 30
0.0
 40
4.0
  1
320.0000%%d%%d
  0
POINT
  5
680
  8
DEFPOINTS
  6
BYBLOCK
 62
     0
 10
137.5
 20
0.0
 30
0.0
  0
POINT
  5
681
  8
DEFPOINTS
  6
BYBLOCK
 62
     0
 10
101.23127
 20
43.223389
 30
0.0
  0
POINT
  5
682
  8
DEFPOINTS
  6
BYBLOCK
 62
     0
 10
137.5
 20
54.213619
 30
0.0
  0
POINT
  5
683
  8
DEFPOINTS
  6
BYBLOCK
 62
     0
 10
196.285397
 20
-17.599192
 30
0.0
  0
ENDBLK
  5
684
  8
0
  0
BLOCK
  8
0
  2
*D31
 70
     1
 10
0.0
 20
0.0
 30
0.0
  3
*D31
  1

  0
LINE
  5
736
  8
0
  6
BYBLOCK
 62
     0
 10
16.250007
 20
-57.096386
 30
0.0
 11
110.848319
 21
-57.096386
 31
0.0
  0
LINE
  5
737
  8
0
  6
BYBLOCK
 62
     0
 10
16.250007
 20
57.203617
 30
0.0
 11
110.848319
 21
57.203617
 31
0.0
  0
LINE
  5
738
  8
0
  6
BYBLOCK
 62
     0
 10
108.848319
 20
-55.164534
 30
0.0
 11
108.848319
 21
-3.946384
 31
0.0
  0
LINE
  5
739
  8
0
  6
BYBLOCK
 62
     0
 10
108.848319
 20
55.271765
 30
0.0
 11
108.848319
 21
4.053616
 31
0.0
  0
SOLID
  5
73A
  8
0
  6
BYBLOCK
 62
     0
 10
108.526344
 20
-55.164534
 30
0.0
 11
109.170294
 21
-55.164534
 31
0.0
 12
108.848319
 22
-57.096386
 32
0.0
 13
108.848319
 23
-57.096386
 33
0.0
  0
SOLID
  5
73B
  8
0
  6
BYBLOCK
 62
     0
 10
108.526344
 20
55.271765
 30
0.0
 11
109.170294
 21
55.271765
 31
0.0
 12
108.848319
 22
57.203617
 32
0.0
 13
108.848319
 23
57.203617
 33
0.0
  0
TEXT
  5
73C
  8
0
  6
BYBLOCK
 62
     0
 10
97.181652
 20
-1.946384
 30
0.0
 40
4.0
  1
114.3000
  0
POINT
  5
73D
  8
DEFPOINTS
  6
BYBLOCK
 62
     0
 10
15.250007
 20
-57.096386
 30
0.0
  0
POINT
  5
73E
  8
DEFPOINTS
  6
BYBLOCK
 62
     0
 10
15.250007
 20
57.203617
 30
0.0
  0
POINT
  5
73F
  8
DEFPOINTS
  6
BYBLOCK
 62
     0
 10
108.848319
 20
57.203617
 30
0.0
  0
ENDBLK
  5
740
  8
0
  0
BLOCK
  8
0
  2
*D32
 70
     1
 10
0.0
 20
0.0
 30
0.0
  3
*D32
  1

  0
LINE
  5
742
  8
0
  6
BYBLOCK
 62
     0
 10
68.250007
 20
-13.946384
 30
0.0
 11
86.128646
 21
-13.946384
 31
0.0
  0
LINE
  5
743
  8
0
  6
BYBLOCK
 62
     0
 10
68.250007
 20
14.053616
 30
0.0
 11
86.128646
 21
14.053616
 31
0.0
  0
LINE
  5
744
  8
0
  6
BYBLOCK
 62
     0
 10
84.128646
 20
-12.014533
 30
0.0
 11
84.128646
 21
-3.946384
 31
0.0
  0
LINE
  5
745
  8
0
  6
BYBLOCK
 62
     0
 10
84.128646
 20
12.121764
 30
0.0
 11
84.128646
 21
4.053616
 31
0.0
  0
SOLID
  5
746
  8
0
  6
BYBLOCK
 62
     0
 10
83.806671
 20
-12.014533
 30
0.0
 11
84.450621
 21
-12.014533
 31
0.0
 12
84.128646
 22
-13.946384
 32
0.0
 13
84.128646
 23
-13.946384
 33
0.0
  0
SOLID
  5
747
  8
0
  6
BYBLOCK
 62
     0
 10
83.806671
 20
12.121764
 30
0.0
 11
84.450621
 21
12.121764
 31
0.0
 12
84.128646
 22
14.053616
 32
0.0
 13
84.128646
 23
14.053616
 33
0.0
  0
TEXT
  5
748
  8
0
  6
BYBLOCK
 62
     0
 10
73.461979
 20
-1.946384
 30
0.0
 40
4.0
  1
28.0000
  0
POINT
  5
749
  8
DEFPOINTS
  6
BYBLOCK
 62
     0
 10
67.250007
 20
-13.946384
 30
0.0
  0
POINT
  5
74A
  8
DEFPOINTS
  6
BYBLOCK
 62
     0
 10
67.250007
 20
14.053616
 30
0.0
  0
POINT
  5
74B
  8
DEFPOINTS
  6
BYBLOCK
 62
     0
 10
84.128646
 20
14.053616
 30
0.0
  0
ENDBLK
  5
74C
  8
0
  0
BLOCK
  8
0
  2
*D33
 70
     1
 10
0.0
 20
0.0
 30
0.0
  3
*D33
  1

  0
LINE
  5
74E
  8
0
  6
BYBLOCK
 62
     0
 10
-141.249993
 20
-56.946384
 30
0.0
 11
-141.249993
 21
130.329407
 31
0.0
  0
LINE
  5
74F
  8
0
  6
BYBLOCK
 62
     0
 10
12.250009
 20
89.053616
 30
0.0
 11
12.250009
 21
130.329407
 31
0.0
  0
LINE
  5
750
  8
0
  6
BYBLOCK
 62
     0
 10
-139.318142
 20
128.329407
 30
0.0
 11
10.318157
 21
128.329407
 31
0.0
  0
SOLID
  5
751
  8
0
  6
BYBLOCK
 62
     0
 10
-139.318142
 20
128.651382
 30
0.0
 11
-139.318142
 21
128.007431
 31
0.0
 12
-141.249993
 22
128.329407
 32
0.0
 13
-141.249993
 23
128.329407
 33
0.0
  0
SOLID
  5
752
  8
0
  6
BYBLOCK
 62
     0
 10
10.318157
 20
128.651382
 30
0.0
 11
10.318157
 21
128.007431
 31
0.0
 12
12.250009
 22
128.329407
 32
0.0
 13
12.250009
 23
128.329407
 33
0.0
  0
TEXT
  5
753
  8
0
  6
BYBLOCK
 62
     0
 10
-66.806853
 20
130.329407
 30
0.0
 40
4.0
  1
153.5000
  0
POINT
  5
754
  8
DEFPOINTS
  6
BYBLOCK
 62
     0
 10
-141.249993
 20
-57.946384
 30
0.0
  0
POINT
  5
755
  8
DEFPOINTS
  6
BYBLOCK
 62
     0
 10
12.250009
 20
88.053616
 30
0.0
  0
POINT
  5
756
  8
DEFPOINTS
  6
BYBLOCK
 62
     0
 10
12.250009
 20
128.329407
 30
0.0
  0
ENDBLK
  5
757
  8
0
  0
BLOCK
  8
0
  2
*D34
 70
     1
 10
0.0
 20
0.0
 30
0.0
  3
*D34
  1

  0
LINE
  5
759
  8
0
  6
BYBLOCK
 62
     0
 10
-121.750001
 20
-55.487194
 30
0.0
 11
-121.750001
 21
-101.664635
 31
0.0
  0
LINE
  5
75A
  8
0
  6
BYBLOCK
 62
     0
 10
-141.249993
 20
-58.946384
 30
0.0
 11
-141.249993
 21
-101.664635
 31
0.0
  0
LINE
  5
75B
  8
0
  6
BYBLOCK
 62
     0
 10
-123.681853
 20
-99.664635
 30
0.0
 11
-139.318142
 21
-99.664635
 31
0.0
  0
SOLID
  5
75C
  8
0
  6
BYBLOCK
 62
     0
 10
-123.681853
 20
-99.34266
 30
0.0
 11
-123.681853
 21
-99.986611
 31
0.0
 12
-121.750001
 22
-99.664635
 32
0.0
 13
-121.750001
 23
-99.664635
 33
0.0
  0
SOLID
  5
75D
  8
0
  6
BYBLOCK
 62
     0
 10
-139.318142
 20
-99.34266
 30
0.0
 11
-139.318142
 21
-99.986611
 31
0.0
 12
-141.249993
 22
-99.664635
 32
0.0
 13
-141.249993
 23
-99.664635
 33
0.0
  0
TEXT
  5
75E
  8
0
  6
BYBLOCK
 62
     0
 10
-141.83333
 20
-97.664635
 30
0.0
 40
4.0
  1
19.5000
  0
POINT
  5
75F
  8
DEFPOINTS
  6
BYBLOCK
 62
     0
 10
-121.750001
 20
-54.487194
 30
0.0
  0
POINT
  5
760
  8
DEFPOINTS
  6
BYBLOCK
 62
     0
 10
-141.249993
 20
-57.946384
 30
0.0
  0
POINT
  5
761
  8
DEFPOINTS
  6
BYBLOCK
 62
     0
 10
-141.249993
 20
-99.664635
 30
0.0
  0
ENDBLK
  5
762
  8
0
  0
BLOCK
  8
0
  2
*D35
 70
     1
 10
0.0
 20
0.0
 30
0.0
  3
*D35
  1

  0
LINE
  5
764
  8
0
  6
BYBLOCK
 62
     0
 10
-35.250009
 20
-144.527866
 30
0.0
 11
-35.250009
 21
-126.963654
 31
0.0
  0
LINE
  5
765
  8
0
  6
BYBLOCK
 62
     0
 10
12.250009
 20
-88.946384
 30
0.0
 11
12.250009
 21
-130.963654
 31
0.0
  0
LINE
  5
766
  8
0
  6
BYBLOCK
 62
     0
 10
-33.318157
 20
-128.963654
 30
0.0
 11
10.318157
 21
-128.963654
 31
0.0
  0
SOLID
  5
767
  8
0
  6
BYBLOCK
 62
     0
 10
-33.318157
 20
-128.641679
 30
0.0
 11
-33.318157
 21
-129.285629
 31
0.0
 12
-35.250009
 22
-128.963654
 32
0.0
 13
-35.250009
 23
-128.963654
 33
0.0
  0
SOLID
  5
768
  8
0
  6
BYBLOCK
 62
     0
 10
10.318157
 20
-128.641679
 30
0.0
 11
10.318157
 21
-129.285629
 31
0.0
 12
12.250009
 22
-128.963654
 32
0.0
 13
12.250009
 23
-128.963654
 33
0.0
  0
TEXT
  5
769
  8
0
  6
BYBLOCK
 62
     0
 10
-22.5
 20
-126.963654
 30
0.0
 40
4.0
  1
47.5000
  0
POINT
  5
76A
  8
DEFPOINTS
  6
BYBLOCK
 62
     0
 10
-35.250009
 20
-145.527866
 30
0.0
  0
POINT
  5
76B
  8
DEFPOINTS
  6
BYBLOCK
 62
     0
 10
12.250009
 20
-87.946384
 30
0.0
  0
POINT
  5
76C
  8
DEFPOINTS
  6
BYBLOCK
 62
     0
 10
12.250009
 20
-128.963654
 30
0.0
  0
ENDBLK
  5
76D
  8
0
  0
BLOCK
  8
0
  2
*D36
 70
     1
 10
0.0
 20
0.0
 30
0.0
  3
*D36
  1

  0
LINE
  5
76F
  8
0
  6
BYBLOCK
 62
     0
 10
-141.249993
 20
31.053616
 30
0.0
 11
-141.249993
 21
117.968437
 31
0.0
  0
LINE
  5
770
  8
0
  6
BYBLOCK
 62
     0
 10
-101.749993
 20
43.553616
 30
0.0
 11
-101.749993
 21
117.968437
 31
0.0
  0
LINE
  5
771
  8
0
  6
BYBLOCK
 62
     0
 10
-139.318142
 20
115.968437
 30
0.0
 11
-103.681845
 21
115.968437
 31
0.0
  0
SOLID
  5
772
  8
0
  6
BYBLOCK
 62
     0
 10
-139.318142
 20
116.290412
 30
0.0
 11
-139.318142
 21
115.646462
 31
0.0
 12
-141.249993
 22
115.968437
 32
0.0
 13
-141.249993
 23
115.968437
 33
0.0
  0
SOLID
  5
773
  8
0
  6
BYBLOCK
 62
     0
 10
-103.681845
 20
116.290412
 30
0.0
 11
-103.681845
 21
115.646462
 31
0.0
 12
-101.749993
 22
115.968437
 32
0.0
 13
-101.749993
 23
115.968437
 33
0.0
  0
TEXT
  5
774
  8
0
  6
BYBLOCK
 62
     0
 10
-132.499993
 20
117.968437
 30
0.0
 40
4.0
  1
39.5000
  0
POINT
  5
775
  8
DEFPOINTS
  6
BYBLOCK
 62
     0
 10
-141.249993
 20
30.053616
 30
0.0
  0
POINT
  5
776
  8
DEFPOINTS
  6
BYBLOCK
 62
     0
 10
-101.749993
 20
42.553616
 30
0.0
  0
POINT
  5
777
  8
DEFPOINTS
  6
BYBLOCK
 62
     0
 10
-101.749993
 20
115.968437
 30
0.0
  0
ENDBLK
  5
778
  8
0
  0
BLOCK
  8
0
  2
*D37
 70
     1
 10
0.0
 20
0.0
 30
0.0
  3
*D37
  1

  0
LINE
  5
77A
  8
0
  6
BYBLOCK
 62
     0
 10
15.250003
 20
58.203617
 30
0.0
 11
15.250003
 21
117.696884
 31
0.0
  0
LINE
  5
77B
  8
0
  6
BYBLOCK
 62
     0
 10
12.250003
 20
89.053616
 30
0.0
 11
12.250003
 21
117.696884
 31
0.0
  0
LINE
  5
77C
  8
0
  6
BYBLOCK
 62
     0
 10
10.318151
 20
115.696884
 30
0.0
 11
8.3863
 21
115.696884
 31
0.0
  0
LINE
  5
77D
  8
0
  6
BYBLOCK
 62
     0
 10
17.181855
 20
115.696884
 30
0.0
 11
54.310743
 21
115.696884
 31
0.0
  0
SOLID
  5
77E
  8
0
  6
BYBLOCK
 62
     0
 10
10.318151
 20
116.018859
 30
0.0
 11
10.318151
 21
115.374908
 31
0.0
 12
12.250003
 22
115.696884
 32
0.0
 13
12.250003
 23
115.696884
 33
0.0
  0
SOLID
  5
77F
  8
0
  6
BYBLOCK
 62
     0
 10
17.181855
 20
116.018859
 30
0.0
 11
17.181855
 21
115.374908
 31
0.0
 12
15.250003
 22
115.696884
 32
0.0
 13
15.250003
 23
115.696884
 33
0.0
  0
TEXT
  5
780
  8
0
  6
BYBLOCK
 62
     0
 10
34.97741
 20
117.696884
 30
0.0
 40
4.0
  1
3.0000
  0
POINT
  5
781
  8
DEFPOINTS
  6
BYBLOCK
 62
     0
 10
15.250003
 20
57.203617
 30
0.0
  0
POINT
  5
782
  8
DEFPOINTS
  6
BYBLOCK
 62
     0
 10
12.250003
 20
88.053616
 30
0.0
  0
POINT
  5
783
  8
DEFPOINTS
  6
BYBLOCK
 62
     0
 10
12.250003
 20
115.696884
 30
0.0
  0
ENDBLK
  5
784
  8
0
  0
BLOCK
  8
0
  2
*D38
 70
     1
 10
0.0
 20
0.0
 30
0.0
  3
*D38
  1

  0
LINE
  5
786
  8
0
  6
BYBLOCK
 62
     0
 10
-0.749991
 20
89.053616
 30
0.0
 11
-0.749991
 21
117.696883
 31
0.0
  0
LINE
  5
787
  8
0
  6
BYBLOCK
 62
     0
 10
12.250007
 20
89.053616
 30
0.0
 11
12.250007
 21
117.696883
 31
0.0
  0
LINE
  5
788
  8
0
  6
BYBLOCK
 62
     0
 10
1.18186
 20
115.696883
 30
0.0
 11
10.318155
 21
115.696883
 31
0.0
  0
SOLID
  5
789
  8
0
  6
BYBLOCK
 62
     0
 10
1.18186
 20
116.018859
 30
0.0
 11
1.18186
 21
115.374908
 31
0.0
 12
-0.749991
 22
115.696883
 32
0.0
 13
-0.749991
 23
115.696883
 33
0.0
  0
SOLID
  5
78A
  8
0
  6
BYBLOCK
 62
     0
 10
10.318155
 20
116.018859
 30
0.0
 11
10.318155
 21
115.374908
 31
0.0
 12
12.250007
 22
115.696883
 32
0.0
 13
12.250007
 23
115.696883
 33
0.0
  0
TEXT
  5
78B
  8
0
  6
BYBLOCK
 62
     0
 10
-4.249992
 20
117.696883
 30
0.0
 40
4.0
  1
13.0000
  0
POINT
  5
78C
  8
DEFPOINTS
  6
BYBLOCK
 62
     0
 10
-0.749991
 20
88.053616
 30
0.0
  0
POINT
  5
78D
  8
DEFPOINTS
  6
BYBLOCK
 62
     0
 10
12.250007
 20
88.053616
 30
0.0
  0
POINT
  5
78E
  8
DEFPOINTS
  6
BYBLOCK
 62
     0
 10
12.250007
 20
115.696883
 30
0.0
  0
ENDBLK
  5
78F
  8
0
  0
BLOCK
  8
0
  2
*D39
 70
     1
 10
0.0
 20
0.0
 30
0.0
  3
*D39
  1

  0
LINE
  5
791
  8
0
  6
BYBLOCK
 62
     0
 10
67.250007
 20
15.053616
 30
0.0
 11
67.250007
 21
130.530174
 31
0.0
  0
LINE
  5
792
  8
0
  6
BYBLOCK
 62
     0
 10
12.250009
 20
89.053616
 30
0.0
 11
12.250009
 21
130.530174
 31
0.0
  0
LINE
  5
793
  8
0
  6
BYBLOCK
 62
     0
 10
65.318155
 20
128.530174
 30
0.0
 11
14.18186
 21
128.530174
 31
0.0
  0
SOLID
  5
794
  8
0
  6
BYBLOCK
 62
     0
 10
65.318155
 20
128.852149
 30
0.0
 11
65.318155
 21
128.208199
 31
0.0
 12
67.250007
 22
128.530174
 32
0.0
 13
67.250007
 23
128.530174
 33
0.0
  0
SOLID
  5
795
  8
0
  6
BYBLOCK
 62
     0
 10
14.18186
 20
128.852149
 30
0.0
 11
14.18186
 21
128.208199
 31
0.0
 12
12.250009
 22
128.530174
 32
0.0
 13
12.250009
 23
128.530174
 33
0.0
  0
TEXT
  5
796
  8
0
  6
BYBLOCK
 62
     0
 10
28.054116
 20
130.530174
 30
0.0
 40
4.0
  1
55.0000
  0
POINT
  5
797
  8
DEFPOINTS
  6
BYBLOCK
 62
     0
 10
67.250007
 20
14.053616
 30
0.0
  0
POINT
  5
798
  8
DEFPOINTS
  6
BYBLOCK
 62
     0
 10
12.250009
 20
88.053616
 30
0.0
  0
POINT
  5
799
  8
DEFPOINTS
  6
BYBLOCK
 62
     0
 10
12.250009
 20
128.530174
 30
0.0
  0
ENDBLK
  5
79A
  8
0
  0
BLOCK
  8
0
  2
*D40
 70
     1
 10
0.0
 20
0.0
 30
0.0
  3
*D40
  1

  0
LINE
  5
79C
  8
0
  6
BYBLOCK
 62
     0
 10
301.536541
 20
42.724183
 30
0.0
 11
320.066911
 21
42.724183
 31
0.0
  0
LINE
  5
79D
  8
0
  6
BYBLOCK
 62
     0
 10
320.066911
 20
42.724183
 30
0.0
 11
338.666569
 21
55.460017
 31
0.0
  0
TEXT
  5
79E
  8
0
  6
BYBLOCK
 62
     0
 10
271.536541
 20
40.724183
 30
0.0
 40
4.0
  1
%%c200.0000
  0
SOLID
  5
79F
  8
0
  6
BYBLOCK
 62
     0
 10
338.48466
 20
55.725681
 30
0.0
 11
338.848478
 21
55.194353
 31
0.0
 12
340.260551
 22
56.551472
 32
0.0
 13
340.260551
 23
56.551472
 33
0.0
  0
POINT
  5
7A0
  8
DEFPOINTS
  6
BYBLOCK
 62
     0
 10
340.260551
 20
56.551472
 30
0.0
  0
POINT
  5
7A1
  8
DEFPOINTS
  6
BYBLOCK
 62
     0
 10
175.239432
 20
-56.444241
 30
0.0
  0
ENDBLK
  5
7A2
  8
0
  0
BLOCK
  8
0
  2
*D41
 70
     1
 10
0.0
 20
0.0
 30
0.0
  3
*D41
  1

  0
LINE
  5
7A4
  8
0
  6
BYBLOCK
 62
     0
 10
325.304094
 20
-38.397812
 30
0.0
 11
307.107058
 21
-38.397812
 31
0.0
  0
LINE
  5
7A5
  8
0
  6
BYBLOCK
 62
     0
 10
307.107058
 20
-38.397812
 30
0.0
 11
346.945744
 21
-69.433989
 31
0.0
  0
TEXT
  5
7A6
  8
0
  6
BYBLOCK
 62
     0
 10
327.304094
 20
-40.397812
 30
0.0
 40
4.0
  1
%%c230.0000
  0
SOLID
  5
7A7
  8
0
  6
BYBLOCK
 62
     0
 10
347.143618
 20
-69.179993
 30
0.0
 11
346.74787
 21
-69.687984
 31
0.0
 12
348.469718
 22
-70.621235
 32
0.0
 13
348.469718
 23
-70.621235
 33
0.0
  0
POINT
  5
7A8
  8
DEFPOINTS
  6
BYBLOCK
 62
     0
 10
348.469718
 20
-70.621235
 30
0.0
  0
POINT
  5
7A9
  8
DEFPOINTS
  6
BYBLOCK
 62
     0
 10
167.03028
 20
70.728466
 30
0.0
  0
ENDBLK
  5
7AA
  8
0
  0
BLOCK
  8
0
  2
*D42
 70
     1
 10
0.0
 20
0.0
 30
0.0
  3
*D42
  1

  0
LINE
  5
7AC
  8
0
  6
BYBLOCK
 62
     0
 10
230.163908
 20
64.110817
 30
0.0
 11
210.300204
 21
64.110817
 31
0.0
  0
LINE
  5
7AD
  8
0
  6
BYBLOCK
 62
     0
 10
210.300204
 20
64.110817
 30
0.0
 11
194.912914
 21
84.883663
 31
0.0
  0
TEXT
  5
7AE
  8
0
  6
BYBLOCK
 62
     0
 10
232.163908
 20
62.110817
 30
0.0
 40
4.0
  1
%%c215.0000
  0
SOLID
  5
7AF
  8
0
  6
BYBLOCK
 62
     0
 10
195.171639
 20
85.075311
 30
0.0
 11
194.654188
 21
84.692014
 31
0.0
 12
193.763022
 22
86.436016
 32
0.0
 13
193.763022
 23
86.436016
 33
0.0
  0
POINT
  5
7B0
  8
DEFPOINTS
  6
BYBLOCK
 62
     0
 10
193.763022
 20
86.436016
 30
0.0
  0
POINT
  5
7B1
  8
DEFPOINTS
  6
BYBLOCK
 62
     0
 10
321.73693
 20
-86.328785
 30
0.0
  0
ENDBLK
  5
7B2
  8
0
  0
BLOCK
  8
0
  2
*D43
 70
     1
 10
0.0
 20
0.0
 30
0.0
  3
*D43
  1

  0
LINE
  5
7C0
  8
0
  6
BYBLOCK
 62
     0
 10
279.749991
 20
-118.946384
 30
0.0
 11
279.749991
 21
-152.246384
 31
0.0
  0
LINE
  5
7C1
  8
0
  6
BYBLOCK
 62
     0
 10
235.749991
 20
-118.946384
 30
0.0
 11
235.749991
 21
-152.246384
 31
0.0
  0
LINE
  5
7C2
  8
0
  6
BYBLOCK
 62
     0
 10
277.81814
 20
-150.246384
 30
0.0
 11
237.681843
 21
-150.246384
 31
0.0
  0
SOLID
  5
7C3
  8
0
  6
BYBLOCK
 62
     0
 10
277.81814
 20
-149.924409
 30
0.0
 11
277.81814
 21
-150.56836
 31
0.0
 12
279.749991
 22
-150.246384
 32
0.0
 13
279.749991
 23
-150.246384
 33
0.0
  0
SOLID
  5
7C4
  8
0
  6
BYBLOCK
 62
     0
 10
237.681843
 20
-149.924409
 30
0.0
 11
237.681843
 21
-150.56836
 31
0.0
 12
235.749991
 22
-150.246384
 32
0.0
 13
235.749991
 23
-150.246384
 33
0.0
  0
TEXT
  5
7C5
  8
0
  6
BYBLOCK
 62
     0
 10
247.083325
 20
-148.246384
 30
0.0
 40
4.0
  1
44.0000
  0
POINT
  5
7C6
  8
DEFPOINTS
  6
BYBLOCK
 62
     0
 10
279.749991
 20
-117.946384
 30
0.0
  0
POINT
  5
7C7
  8
DEFPOINTS
  6
BYBLOCK
 62
     0
 10
235.749991
 20
-117.946384
 30
0.0
  0
POINT
  5
7C8
  8
DEFPOINTS
  6
BYBLOCK
 62
     0
 10
235.749991
 20
-150.246384
 30
0.0
  0
ENDBLK
  5
7C9
  8
0
  0
BLOCK
  8
0
  2
*D44
 70
     1
 10
0.0
 20
0.0
 30
0.0
  3
*D44
  1

  0
LINE
  5
7CB
  8
0
  6
BYBLOCK
 62
     0
 10
275.149985
 20
-141.746387
 30
0.0
 11
360.345066
 21
-141.746387
 31
0.0
  0
LINE
  5
7CC
  8
0
  6
BYBLOCK
 62
     0
 10
358.749991
 20
0.053616
 30
0.0
 11
360.345066
 21
0.053616
 31
0.0
  0
LINE
  5
7CD
  8
0
  6
BYBLOCK
 62
     0
 10
358.345066
 20
-139.814536
 30
0.0
 11
358.345066
 21
-74.846386
 31
0.0
  0
LINE
  5
7CE
  8
0
  6
BYBLOCK
 62
     0
 10
358.345066
 20
-1.878236
 30
0.0
 11
358.345066
 21
-66.846386
 31
0.0
  0
SOLID
  5
7CF
  8
0
  6
BYBLOCK
 62
     0
 10
358.023091
 20
-139.814536
 30
0.0
 11
358.667041
 21
-139.814536
 31
0.0
 12
358.345066
 22
-141.746387
 32
0.0
 13
358.345066
 23
-141.746387
 33
0.0
  0
SOLID
  5
7D0
  8
0
  6
BYBLOCK
 62
     0
 10
358.023091
 20
-1.878236
 30
0.0
 11
358.667041
 21
-1.878236
 31
0.0
 12
358.345066
 22
0.053616
 32
0.0
 13
358.345066
 23
0.053616
 33
0.0
  0
TEXT
  5
7D1
  8
0
  6
BYBLOCK
 62
     0
 10
346.678399
 20
-72.846386
 30
0.0
 40
4.0
  1
141.8000
  0
POINT
  5
7D2
  8
DEFPOINTS
  6
BYBLOCK
 62
     0
 10
274.149985
 20
-141.746387
 30
0.0
  0
POINT
  5
7D3
  8
DEFPOINTS
  6
BYBLOCK
 62
     0
 10
357.749991
 20
0.053616
 30
0.0
  0
POINT
  5
7D4
  8
DEFPOINTS
  6
BYBLOCK
 62
     0
 10
358.345066
 20
0.053616
 30
0.0
  0
ENDBLK
  5
7D5
  8
0
  0
BLOCK
  8
0
  2
*D45
 70
     1
 10
0.0
 20
0.0
 30
0.0
  3
*D45
  1

  0
LINE
  5
7D7
  8
0
  6
BYBLOCK
 62
     0
 10
345.749991
 20
75.087391
 30
0.0
 11
345.749991
 21
135.892502
 31
0.0
  0
LINE
  5
7D8
  8
0
  6
BYBLOCK
 62
     0
 10
169.749991
 20
75.087391
 30
0.0
 11
169.749991
 21
135.892502
 31
0.0
  0
LINE
  5
7D9
  8
0
  6
BYBLOCK
 62
     0
 10
343.81814
 20
133.892502
 30
0.0
 11
171.681843
 21
133.892502
 31
0.0
  0
SOLID
  5
7DA
  8
0
  6
BYBLOCK
 62
     0
 10
343.81814
 20
134.214477
 30
0.0
 11
343.81814
 21
133.570526
 31
0.0
 12
345.749991
 22
133.892502
 32
0.0
 13
345.749991
 23
133.892502
 33
0.0
  0
SOLID
  5
7DB
  8
0
  6
BYBLOCK
 62
     0
 10
171.681843
 20
134.214477
 30
0.0
 11
171.681843
 21
133.570526
 31
0.0
 12
169.749991
 22
133.892502
 32
0.0
 13
169.749991
 23
133.892502
 33
0.0
  0
TEXT
  5
7DC
  8
0
  6
BYBLOCK
 62
     0
 10
245.573944
 20
135.892502
 30
0.0
 40
4.0
  1
176.0000
  0
POINT
  5
7DD
  8
DEFPOINTS
  6
BYBLOCK
 62
     0
 10
345.749991
 20
74.087391
 30
0.0
  0
POINT
  5
7DE
  8
DEFPOINTS
  6
BYBLOCK
 62
     0
 10
169.749991
 20
74.087391
 30
0.0
  0
POINT
  5
7DF
  8
DEFPOINTS
  6
BYBLOCK
 62
     0
 10
169.749991
 20
133.892502
 30
0.0
  0
ENDBLK
  5
7E0
  8
0
  0
BLOCK
  8
0
  2
*D46
 70
     1
 10
0.0
 20
0.0
 30
0.0
  3
*D46
  1

  0
LINE
  5
7E5
  8
0
  6
BYBLOCK
 62
     0
 10
346.749991
 20
0.053616
 30
0.0
 11
411.483012
 21
0.053616
 31
0.0
  0
LINE
  5
7E6
  8
0
  6
BYBLOCK
 62
     0
 10
258.749991
 20
-143.946384
 30
0.0
 11
411.483012
 21
-143.946384
 31
0.0
  0
LINE
  5
7E7
  8
0
  6
BYBLOCK
 62
     0
 10
409.483012
 20
-1.878236
 30
0.0
 11
409.483012
 21
-67.946384
 31
0.0
  0
LINE
  5
7E8
  8
0
  6
BYBLOCK
 62
     0
 10
409.483012
 20
-142.014533
 30
0.0
 11
409.483012
 21
-75.946384
 31
0.0
  0
SOLID
  5
7E9
  8
0
  6
BYBLOCK
 62
     0
 10
409.161037
 20
-1.878236
 30
0.0
 11
409.804987
 21
-1.878236
 31
0.0
 12
409.483012
 22
0.053616
 32
0.0
 13
409.483012
 23
0.053616
 33
0.0
  0
SOLID
  5
7EA
  8
0
  6
BYBLOCK
 62
     0
 10
409.161037
 20
-142.014533
 30
0.0
 11
409.804987
 21
-142.014533
 31
0.0
 12
409.483012
 22
-143.946384
 32
0.0
 13
409.483012
 23
-143.946384
 33
0.0
  0
TEXT
  5
7EB
  8
0
  6
BYBLOCK
 62
     0
 10
397.483012
 20
-73.946384
 30
0.0
 40
4.0
  1
144.0000
  0
POINT
  5
7EC
  8
DEFPOINTS
  6
BYBLOCK
 62
     0
 10
345.749991
 20
0.053616
 30
0.0
  0
POINT
  5
7ED
  8
DEFPOINTS
  6
BYBLOCK
 62
     0
 10
257.749991
 20
-143.946384
 30
0.0
  0
POINT
  5
7EE
  8
DEFPOINTS
  6
BYBLOCK
 62
     0
 10
409.483012
 20
-143.946384
 30
0.0
  0
ENDBLK
  5
7EF
  8
0
  0
BLOCK
  8
0
  2
A$C18A6108F
 70
     0
 10
0.0
 20
0.0
 30
0.0
  3
A$C18A6108F
  1

  0
LINE
  5
859
  8
0
  6
CENTER
 62
     6
 10
0.0
 20
0.0
 30
0.0
 11
201.57297
 21
0.0
 31
0.0
  0
ENDBLK
  5
85B
  8
0
  0
ENDSEC
  0
SECTION
  2
ENTITIES
  0
LINE
  5
1E0
  8
0
  6
CONTINUOUS
 62
     3
 10
17.250009
 20
-13.946384
 30
0.0
 11
67.250009
 21
-13.946384
 31
0.0
  0
LINE
  5
1E1
  8
0
  6
CONTINUOUS
 62
     3
 10
17.250009
 20
14.053616
 30
0.0
 11
67.250009
 21
14.053616
 31
0.0
  0
LINE
  5
1E2
  8
0
  6
CONTINUOUS
 62
     3
 10
67.250009
 20
-13.946384
 30
0.0
 11
67.250009
 21
14.053616
 31
0.0
  0
LINE
  5
1F6
  8
0
  6
CENTER
 62
     4
 10
-104.464052
 20
69.977294
 30
0.0
 11
-94.455545
 21
69.977294
 31
0.0
  0
LINE
  5
1F7
  8
0
  6
CONTINUOUS
 62
     3
 10
-101.749991
 20
-30.696385
 30
0.0
 11
-101.749991
 21
42.553616
 31
0.0
  0
LINE
  5
1F8
  8
0
  6
CENTER
 62
     4
 10
-103.560548
 20
-34.946384
 30
0.0
 11
-95.976275
 21
-34.946384
 31
0.0
  0
INSERT
  5
1F9
  8
0
  2
SYM12
 10
-96.749991
 20
-34.946384
 30
0.0
  0
INSERT
  5
1FA
  8
0
  2
SYM12
 10
-96.749991
 20
69.977294
 30
0.0
  0
ARC
  5
1FB
  8
0
  6
CONTINUOUS
 62
     3
 10
-84.749991
 20
56.553616
 30
0.0
 40
1.0
 50
90.0
 51
180.0
  0
LINE
  5
1FC
  8
0
  6
CONTINUOUS
 62
     3
 10
-95.749991
 20
-71.146384
 30
0.0
 11
-85.749991
 21
-71.146384
 31
0.0
  0
LINE
  5
1FD
  8
0
  6
CONTINUOUS
 62
     3
 10
-85.749991
 20
-86.946384
 30
0.0
 11
-85.749991
 21
-71.146384
 31
0.0
  0
LINE
  5
1FE
  8
0
  6
CONTINUOUS
 62
     3
 10
-87.749991
 20
-85.687709
 30
0.0
 11
-95.749991
 21
-85.687709
 31
0.0
  0
LINE
  5
1FF
  8
0
  6
CONTINUOUS
 62
     3
 10
-95.749991
 20
-85.687709
 30
0.0
 11
-95.749991
 21
-72.687709
 31
0.0
  0
LINE
  5
200
  8
0
  6
CONTINUOUS
 62
     3
 10
-95.749991
 20
-72.687709
 30
0.0
 11
-87.749991
 21
-72.687709
 31
0.0
  0
LINE
  5
201
  8
0
  6
CONTINUOUS
 62
     3
 10
-87.749991
 20
-86.887709
 30
0.0
 11
-87.749991
 21
-71.487709
 31
0.0
  0
LINE
  5
202
  8
0
  6
CONTINUOUS
 62
     3
 10
-85.749991
 20
-71.487709
 30
0.0
 11
-87.749991
 21
-71.487709
 31
0.0
  0
LINE
  5
203
  8
0
  6
CENTER
 62
     4
 10
-97.037532
 20
-79.187709
 30
0.0
 11
-84.071445
 21
-79.187709
 31
0.0
  0
LINE
  5
204
  8
0
  6
CONTINUOUS
 62
     3
 10
-87.749991
 20
-83.462433
 30
0.0
 11
-87.749991
 21
-78.462433
 31
0.0
  0
LINE
  5
205
  8
0
  6
CONTINUOUS
 62
     3
 10
-85.749991
 20
-86.887709
 30
0.0
 11
-87.749991
 21
-86.887709
 31
0.0
  0
ARC
  5
206
  8
0
  6
CONTINUOUS
 62
     3
 10
-95.749991
 20
-70.146384
 30
0.0
 40
1.0
 50
180.0
 51
270.0
  0
ARC
  5
207
  8
0
  6
CONTINUOUS
 62
     3
 10
-84.749991
 20
-86.946384
 30
0.0
 40
1.0
 50
180.0
 51
270.0
  0
LINE
  5
208
  8
0
  6
CONTINUOUS
 62
     3
 10
-95.749991
 20
37.553616
 30
0.0
 11
-85.749991
 21
37.553616
 31
0.0
  0
ARC
  5
209
  8
0
  6
CONTINUOUS
 62
     3
 10
-95.749991
 20
36.553616
 30
0.0
 40
1.0
 50
90.0
 51
180.0
  0
LINE
  5
20A
  8
0
  6
CONTINUOUS
 62
     3
 10
-85.749991
 20
37.553616
 30
0.0
 11
-85.749991
 21
56.553616
 31
0.0
  0
LINE
  5
20B
  8
0
  6
CONTINUOUS
 62
     3
 10
-85.749991
 20
53.503616
 30
0.0
 11
-87.749991
 21
53.503616
 31
0.0
  0
LINE
  5
20C
  8
0
  6
CONTINUOUS
 62
     3
 10
-95.749991
 20
39.303616
 30
0.0
 11
-95.749991
 21
52.303616
 31
0.0
  0
LINE
  5
20D
  8
0
  6
CONTINUOUS
 62
     3
 10
-95.749991
 20
52.303616
 30
0.0
 11
-87.749991
 21
52.303616
 31
0.0
  0
LINE
  5
20E
  8
0
  6
CONTINUOUS
 62
     3
 10
-87.749991
 20
39.303616
 30
0.0
 11
-95.749991
 21
39.303616
 31
0.0
  0
LINE
  5
20F
  8
0
  6
CONTINUOUS
 62
     3
 10
-85.749991
 20
38.103616
 30
0.0
 11
-87.749991
 21
38.103616
 31
0.0
  0
LINE
  5
210
  8
0
  6
CONTINUOUS
 62
     3
 10
-87.749991
 20
53.503616
 30
0.0
 11
-87.749991
 21
38.103616
 31
0.0
  0
LINE
  5
211
  8
0
  6
CENTER
 62
     4
 10
-97.517569
 20
45.803616
 30
0.0
 11
-84.40836
 21
45.803616
 31
0.0
  0
LINE
  5
212
  8
0
  6
CONTINUOUS
 62
     3
 10
-76.249991
 20
85.79494
 30
0.0
 11
-68.249991
 21
85.79494
 31
0.0
  0
LINE
  5
213
  8
0
  6
CONTINUOUS
 62
     3
 10
-79.249991
 20
71.294616
 30
0.0
 11
-68.249991
 21
71.294616
 31
0.0
  0
LINE
  5
214
  8
0
  6
CONTINUOUS
 62
     3
 10
-79.249991
 20
71.294616
 30
0.0
 11
-79.249991
 21
88.053616
 31
0.0
  0
LINE
  5
215
  8
0
  6
DASHDOT
 62
     4
 10
-79.252102
 20
79.293616
 30
0.0
 11
-66.848528
 21
79.293616
 31
0.0
  0
LINE
  5
216
  8
0
  6
CONTINUOUS
 62
     3
 10
-76.249991
 20
72.79494
 30
0.0
 11
-76.249991
 21
85.79494
 31
0.0
  0
LINE
  5
217
  8
0
  6
CONTINUOUS
 62
     3
 10
-68.249991
 20
72.79494
 30
0.0
 11
-76.249991
 21
72.79494
 31
0.0
  0
LINE
  5
218
  8
0
  6
CENTER
 62
     4
 10
-78.752102
 20
79.293616
 30
0.0
 11
-66.348528
 21
79.293616
 31
0.0
  0
ARC
  5
21A
  8
0
  6
CENTER
 62
     4
 10
-272.250009
 20
0.053616
 30
0.0
 40
70.0
 50
81.191955
 51
97.960393
  0
ARC
  5
21B
  8
0
  6
CENTER
 62
     4
 10
-272.250009
 20
0.053616
 30
0.0
 40
70.0
 50
201.568966
 51
217.614766
  0
LINE
  5
21C
  8
0
  6
CENTER
 62
     4
 10
-340.940084
 20
-39.604618
 30
0.0
 11
-323.804196
 21
-29.711208
 31
0.0
  0
LINE
  5
21D
  8
0
  6
CENTER
 62
     4
 10
-202.634225
 20
-40.139076
 30
0.0
 11
-220.288172
 21
-29.946565
 31
0.0
  0
INSERT
  5
21E
  8
0
  2
SYM14
 10
-332.871787
 20
-34.946384
 30
0.0
  0
INSERT
  5
21F
  8
0
  2
SYM14
 10
-211.62823
 20
-34.946384
 30
0.0
  0
LINE
  5
220
  8
0
  6
DASHDOT
 62
     4
 10
-356.687485
 20
-48.696384
 30
0.0
 11
-342.672135
 21
-40.604618
 31
0.0
  0
INSERT
  5
221
  8
0
  2
SYM14
 10
-272.250009
 20
70.053616
 30
0.0
  0
ARC
  5
222
  8
0
  6
CENTER
 62
     4
 10
-272.250009
 20
0.053616
 30
0.0
 40
70.0
 50
321.382182
 51
338.008512
  0
ARC
  5
223
  8
0
  6
CONTINUOUS
 62
     3
 10
-328.680258
 20
69.253616
 30
0.0
 40
2.0
 50
90.0
 51
167.083583
  0
CIRCLE
  5
224
  8
0
  6
CONTINUOUS
 62
     3
 10
-318.000009
 20
79.29494
 30
0.0
 40
6.5
  0
CIRCLE
  5
225
  8
0
  6
CONTINUOUS
 62
     3
 10
-318.000009
 20
79.29494
 30
0.0
 40
7.7
  0
LINE
  5
226
  8
0
  6
CONTINUOUS
 62
     3
 10
-321.46411
 20
79.29494
 30
0.0
 11
-319.732059
 21
76.29494
 31
0.0
  0
LINE
  5
227
  8
0
  6
CONTINUOUS
 62
     3
 10
-314.535907
 20
79.29494
 30
0.0
 11
-316.267958
 21
82.29494
 31
0.0
  0
LINE
  5
228
  8
0
  6
CONTINUOUS
 62
     3
 10
-319.732059
 20
82.29494
 30
0.0
 11
-321.46411
 21
79.29494
 31
0.0
  0
LINE
  5
229
  8
0
  6
CONTINUOUS
 62
     3
 10
-316.267958
 20
76.29494
 30
0.0
 11
-314.535907
 21
79.29494
 31
0.0
  0
LINE
  5
22A
  8
0
  6
CONTINUOUS
 62
     3
 10
-316.267958
 20
82.29494
 30
0.0
 11
-319.732059
 21
82.29494
 31
0.0
  0
LINE
  5
22B
  8
0
  6
CONTINUOUS
 62
     3
 10
-319.732059
 20
76.29494
 30
0.0
 11
-316.267958
 21
76.29494
 31
0.0
  0
LINE
  5
22C
  8
0
  6
CENTER
 62
     4
 10
-312.836916
 20
70.352202
 30
0.0
 11
-323.036392
 21
88.018213
 31
0.0
  0
ARC
  5
22D
  8
0
  6
CENTER
 62
     4
 10
-272.250009
 20
0.053616
 30
0.0
 40
91.5
 50
113.673266
 51
126.025206
  0
ARC
  5
22E
  8
0
  6
CONTINUOUS
 62
     3
 10
-318.050009
 20
79.253616
 30
0.0
 40
8.0
 50
270.0
 51
0.0
  0
LINE
  5
22F
  8
0
  6
CONTINUOUS
 62
     3
 10
-310.050009
 20
79.253616
 30
0.0
 11
-310.050009
 21
85.889093
 31
0.0
  0
ARC
  5
230
  8
0
  6
CONTINUOUS
 62
     3
 10
-308.050009
 20
85.889093
 30
0.0
 40
2.0
 50
91.472813
 51
180.0
  0
LINE
  5
231
  8
0
  6
CONTINUOUS
 62
     3
 10
-318.050009
 20
71.253616
 30
0.0
 11
-328.680258
 21
71.253616
 31
0.0
  0
ARC
  5
232
  8
0
  6
CONTINUOUS
 62
     3
 10
-341.450009
 20
-56.376634
 30
0.0
 40
2.0
 50
180.0
 51
257.083583
  0
CIRCLE
  5
233
  8
0
  6
CONTINUOUS
 62
     3
 10
-351.491333
 20
-45.696384
 30
0.0
 40
6.5
  0
CIRCLE
  5
234
  8
0
  6
CONTINUOUS
 62
     3
 10
-351.491333
 20
-45.696384
 30
0.0
 40
7.7
  0
LINE
  5
235
  8
0
  6
CONTINUOUS
 62
     3
 10
-351.491333
 20
-49.160486
 30
0.0
 11
-348.491333
 21
-47.428435
 31
0.0
  0
LINE
  5
236
  8
0
  6
CONTINUOUS
 62
     3
 10
-351.491333
 20
-42.232283
 30
0.0
 11
-354.491333
 21
-43.964334
 31
0.0
  0
LINE
  5
237
  8
0
  6
CONTINUOUS
 62
     3
 10
-354.491333
 20
-47.428435
 30
0.0
 11
-351.491333
 21
-49.160486
 31
0.0
  0
LINE
  5
238
  8
0
  6
CONTINUOUS
 62
     3
 10
-348.491333
 20
-43.964334
 30
0.0
 11
-351.491333
 21
-42.232283
 31
0.0
  0
LINE
  5
239
  8
0
  6
CONTINUOUS
 62
     3
 10
-354.491333
 20
-43.964334
 30
0.0
 11
-354.491333
 21
-47.428435
 31
0.0
  0
LINE
  5
23A
  8
0
  6
CONTINUOUS
 62
     3
 10
-348.491333
 20
-47.428435
 30
0.0
 11
-348.491333
 21
-43.964334
 31
0.0
  0
LINE
  5
23B
  8
0
  6
CENTER
 62
     4
 10
-342.548595
 20
-40.533292
 30
0.0
 11
-360.214606
 21
-50.732768
 31
0.0
  0
ARC
  5
23C
  8
0
  6
CENTER
 62
     4
 10
-272.250009
 20
0.053616
 30
0.0
 40
91.5
 50
203.673266
 51
216.025206
  0
ARC
  5
23D
  8
0
  6
CONTINUOUS
 62
     3
 10
-351.450009
 20
-45.746384
 30
0.0
 40
8.0
 50
0.0
 51
90.0
  0
LINE
  5
23E
  8
0
  6
CONTINUOUS
 62
     3
 10
-351.450009
 20
-37.746384
 30
0.0
 11
-358.085486
 21
-37.746384
 31
0.0
  0
ARC
  5
23F
  8
0
  6
CONTINUOUS
 62
     3
 10
-358.085486
 20
-35.746384
 30
0.0
 40
2.0
 50
181.472813
 51
270.0
  0
LINE
  5
240
  8
0
  6
CONTINUOUS
 62
     3
 10
-343.450009
 20
-45.746384
 30
0.0
 11
-343.450009
 21
-56.376634
 31
0.0
  0
ARC
  5
241
  8
0
  6
CONTINUOUS
 62
     3
 10
-215.819759
 20
-69.146384
 30
0.0
 40
2.0
 50
270.0
 51
347.083583
  0
CIRCLE
  5
242
  8
0
  6
CONTINUOUS
 62
     3
 10
-226.500009
 20
-79.187709
 30
0.0
 40
6.5
  0
CIRCLE
  5
243
  8
0
  6
CONTINUOUS
 62
     3
 10
-226.500009
 20
-79.187709
 30
0.0
 40
7.7
  0
LINE
  5
244
  8
0
  6
CONTINUOUS
 62
     3
 10
-223.035907
 20
-79.187709
 30
0.0
 11
-224.767958
 21
-76.187709
 31
0.0
  0
LINE
  5
245
  8
0
  6
CONTINUOUS
 62
     3
 10
-229.96411
 20
-79.187709
 30
0.0
 11
-228.232059
 21
-82.187709
 31
0.0
  0
LINE
  5
246
  8
0
  6
CONTINUOUS
 62
     3
 10
-224.767958
 20
-82.187709
 30
0.0
 11
-223.035907
 21
-79.187709
 31
0.0
  0
LINE
  5
247
  8
0
  6
CONTINUOUS
 62
     3
 10
-228.232059
 20
-76.187709
 30
0.0
 11
-229.96411
 21
-79.187709
 31
0.0
  0
LINE
  5
248
  8
0
  6
CONTINUOUS
 62
     3
 10
-228.232059
 20
-82.187709
 30
0.0
 11
-224.767958
 21
-82.187709
 31
0.0
  0
LINE
  5
249
  8
0
  6
CONTINUOUS
 62
     3
 10
-224.767958
 20
-76.187709
 30
0.0
 11
-228.232059
 21
-76.187709
 31
0.0
  0
LINE
  5
24A
  8
0
  6
CENTER
 62
     4
 10
-231.663101
 20
-70.244971
 30
0.0
 11
-221.463625
 21
-87.910982
 31
0.0
  0
ARC
  5
24B
  8
0
  6
CENTER
 62
     4
 10
-272.250009
 20
0.053616
 30
0.0
 40
91.5
 50
293.673266
 51
306.025206
  0
ARC
  5
24C
  8
0
  6
CONTINUOUS
 62
     3
 10
-226.450009
 20
-79.146384
 30
0.0
 40
8.0
 50
90.0
 51
180.0
  0
LINE
  5
24D
  8
0
  6
CONTINUOUS
 62
     3
 10
-234.450009
 20
-79.146384
 30
0.0
 11
-234.450009
 21
-85.781862
 31
0.0
  0
ARC
  5
24E
  8
0
  6
CONTINUOUS
 62
     3
 10
-236.450009
 20
-85.781862
 30
0.0
 40
2.0
 50
271.472813
 51
0.0
  0
LINE
  5
24F
  8
0
  6
CONTINUOUS
 62
     3
 10
-226.450009
 20
-71.146384
 30
0.0
 11
-215.819759
 21
-71.146384
 31
0.0
  0
ARC
  5
250
  8
0
  6
CONTINUOUS
 62
     3
 10
-203.050009
 20
56.483865
 30
0.0
 40
2.0
 50
0.0
 51
77.083583
  0
ARC
  5
251
  8
0
  6
CONTINUOUS
 62
     3
 10
-186.414531
 20
35.853616
 30
0.0
 40
2.0
 50
1.472813
 51
90.0
  0
ARC
  5
252
  8
0
  6
CONTINUOUS
 62
     3
 10
-193.050009
 20
45.853616
 30
0.0
 40
8.0
 50
180.0
 51
270.0
  0
LINE
  5
253
  8
0
  6
CONTINUOUS
 62
     3
 10
-193.050009
 20
37.853616
 30
0.0
 11
-186.414531
 21
37.853616
 31
0.0
  0
LINE
  5
254
  8
0
  6
CONTINUOUS
 62
     3
 10
-201.050009
 20
45.853616
 30
0.0
 11
-201.050009
 21
56.483865
 31
0.0
  0
LINE
  5
255
  8
0
  6
CONTINUOUS
 62
     3
 10
-96.749991
 20
-85.946384
 30
0.0
 11
-96.749991
 21
86.053616
 31
0.0
  0
LINE
  5
256
  8
0
  6
CONTINUOUS
 62
     3
 10
-101.750193
 20
-42.446108
 30
0.0
 11
-97.749991
 21
-42.446108
 31
0.0
  0
ARC
  5
257
  8
0
  6
CONTINUOUS
 62
     3
 10
-97.749991
 20
-43.446108
 30
0.0
 40
1.0
 50
0.0
 51
90.0
  0
LINE
  5
258
  8
0
  6
CONTINUOUS
 62
     3
 10
-96.749991
 20
-43.446108
 30
0.0
 11
-96.749991
 21
-85.946384
 31
0.0
  0
ARC
  5
259
  8
0
  6
CONTINUOUS
 62
     3
 10
-94.749991
 20
-85.946384
 30
0.0
 40
2.0
 50
180.0
 51
270.0
  0
LINE
  5
25A
  8
0
  6
CONTINUOUS
 62
     3
 10
-94.749991
 20
-87.946384
 30
0.0
 11
-68.249991
 21
-87.946384
 31
0.0
  0
LINE
  5
25B
  8
0
  6
CONTINUOUS
 62
     3
 10
-107.949991
 20
-81.046384
 30
0.0
 11
-106.949991
 21
-80.046384
 31
0.0
  0
LINE
  5
25C
  8
0
  6
CONTINUOUS
 62
     3
 10
-102.249991
 20
-57.946384
 30
0.0
 11
-102.249991
 21
-61.746384
 31
0.0
  0
LINE
  5
25D
  8
0
  6
CONTINUOUS
 62
     3
 10
-114.749991
 20
41.076616
 30
0.0
 11
-108.749991
 21
41.076616
 31
0.0
  0
LINE
  5
25E
  8
0
  6
CONTINUOUS
 62
     3
 10
-101.749991
 20
-57.946384
 30
0.0
 11
-101.749991
 21
-39.196383
 31
0.0
  0
LINE
  5
25F
  8
0
  6
CONTINUOUS
 62
     3
 10
-58.249991
 20
88.053616
 30
0.0
 11
-58.249991
 21
84.053616
 31
0.0
  0
LINE
  5
260
  8
0
  6
CONTINUOUS
 62
     3
 10
-68.249991
 20
88.053616
 30
0.0
 11
-68.249991
 21
81.053616
 31
0.0
  0
LINE
  5
261
  8
0
  6
CONTINUOUS
 62
     3
 10
-68.249991
 20
88.053616
 30
0.0
 11
-13.749991
 21
88.053616
 31
0.0
  0
LINE
  5
262
  8
0
  6
CONTINUOUS
 62
     3
 10
-101.750193
 20
42.553339
 30
0.0
 11
-97.749991
 21
42.553339
 31
0.0
  0
ARC
  5
263
  8
0
  6
CONTINUOUS
 62
     3
 10
-97.749991
 20
43.553339
 30
0.0
 40
1.0
 50
270.0
 51
0.0
  0
LINE
  5
264
  8
0
  6
CONTINUOUS
 62
     3
 10
-96.749991
 20
43.553339
 30
0.0
 11
-96.749991
 21
47.753616
 31
0.0
  0
LINE
  5
265
  8
0
  6
CONTINUOUS
 62
     3
 10
-96.749991
 20
47.753616
 30
0.0
 11
-96.749991
 21
50.500259
 31
0.0
  0
LINE
  5
266
  8
0
  6
CONTINUOUS
 62
     3
 10
-96.749991
 20
50.553616
 30
0.0
 11
-96.749991
 21
52.753616
 31
0.0
  0
LINE
  5
267
  8
0
  6
CONTINUOUS
 62
     3
 10
-96.749991
 20
52.753616
 30
0.0
 11
-96.749991
 21
86.053616
 31
0.0
  0
ARC
  5
268
  8
0
  6
CONTINUOUS
 62
     3
 10
-94.749991
 20
86.053616
 30
0.0
 40
2.0
 50
90.0
 51
180.0
  0
LINE
  5
269
  8
0
  6
CONTINUOUS
 62
     3
 10
-94.749991
 20
88.053616
 30
0.0
 11
-68.249991
 21
88.053616
 31
0.0
  0
CIRCLE
  5
26A
  8
0
  6
CONTINUOUS
 62
     3
 10
257.749991
 20
0.053616
 30
0.0
 40
57.15
  0
CIRCLE
  5
26B
  8
0
  6
CONTINUOUS
 62
     3
 10
257.749991
 20
0.053616
 30
0.0
 40
44.75
  0
CIRCLE
  5
26C
  8
0
  6
CONTINUOUS
 62
     3
 10
257.749991
 20
0.053616
 30
0.0
 40
13.0
  0
CIRCLE
  5
26D
  8
0
  6
CONTINUOUS
 62
     3
 10
178.508667
 20
45.803616
 30
0.0
 40
3.35
  0
CIRCLE
  5
26E
  8
0
  6
CONTINUOUS
 62
     3
 10
211.999991
 20
-79.187709
 30
0.0
 40
3.35
  0
CIRCLE
  5
26F
  8
0
  6
CONTINUOUS
 62
     3
 10
336.991316
 20
-45.696384
 30
0.0
 40
3.35
  0
CIRCLE
  5
270
  8
0
  6
CONTINUOUS
 62
     3
 10
303.499991
 20
79.29494
 30
0.0
 40
3.35
  0
CIRCLE
  5
271
  8
0
  6
CONTINUOUS
 62
     4
 10
178.508667
 20
45.803616
 30
0.0
 40
4.0
  0
CIRCLE
  5
272
  8
0
  6
CONTINUOUS
 62
     4
 10
211.999991
 20
-79.187709
 30
0.0
 40
4.0
  0
CIRCLE
  5
273
  8
0
  6
CONTINUOUS
 62
     4
 10
336.991316
 20
-45.696384
 30
0.0
 40
4.0
  0
CIRCLE
  5
274
  8
0
  6
CONTINUOUS
 62
     4
 10
303.499991
 20
79.29494
 30
0.0
 40
4.0
  0
CIRCLE
  5
276
  8
0
  6
CONTINUOUS
 62
     3
 10
257.749991
 20
0.053616
 30
0.0
 40
15.0
  0
LINE
  5
277
  8
0
  6
CONTINUOUS
 62
     3
 10
15.250009
 20
-14.946384
 30
0.0
 11
17.250009
 21
-14.946384
 31
0.0
  0
LINE
  5
278
  8
0
  6
CONTINUOUS
 62
     3
 10
15.250009
 20
15.053616
 30
0.0
 11
17.250009
 21
15.053616
 31
0.0
  0
CIRCLE
  5
279
  8
0
  6
CONTINUOUS
 62
     3
 10
257.749991
 20
0.053616
 30
0.0
 40
22.5
  0
ARC
  5
27A
  8
0
  6
CENTER
 62
     4
 10
257.749991
 20
0.053616
 30
0.0
 40
35.0
 50
261.227773
 51
278.701648
  0
CIRCLE
  5
27B
  8
0
  6
CONTINUOUS
 62
     3
 10
257.74512
 20
-34.940434
 30
0.0
 40
4.0625
  0
CIRCLE
  5
27C
  8
0
  6
CONTINUOUS
 62
     3
 10
257.74512
 20
-34.940434
 30
0.0
 40
4.8125
  0
LINE
  5
27D
  8
0
  6
CONTINUOUS
 62
     3
 10
259.618389
 20
-33.859924
 30
0.0
 11
257.743389
 21
-32.777392
 31
0.0
  0
LINE
  5
27E
  8
0
  6
CONTINUOUS
 62
     3
 10
259.618389
 20
-36.024987
 30
0.0
 11
259.618389
 21
-33.859924
 31
0.0
  0
LINE
  5
27F
  8
0
  6
CONTINUOUS
 62
     3
 10
255.868389
 20
-33.859924
 30
0.0
 11
255.868389
 21
-36.024987
 31
0.0
  0
LINE
  5
280
  8
0
  6
CONTINUOUS
 62
     3
 10
255.868389
 20
-36.024987
 30
0.0
 11
257.743389
 21
-37.107519
 31
0.0
  0
LINE
  5
281
  8
0
  6
CONTINUOUS
 62
     3
 10
257.743389
 20
-32.777392
 30
0.0
 11
255.868389
 21
-33.859924
 31
0.0
  0
LINE
  5
282
  8
0
  6
CONTINUOUS
 62
     3
 10
257.743389
 20
-37.107519
 30
0.0
 11
259.618389
 21
-36.024987
 31
0.0
  0
LINE
  5
283
  8
0
  6
CENTER
 62
     4
 10
290.58534
 20
13.181123
 30
0.0
 11
285.376941
 21
22.202336
 31
0.0
  0
LINE
  5
284
  8
0
  6
CENTER
 62
     4
 10
283.688388
 20
15.029156
 30
0.0
 11
292.709601
 21
20.237556
 31
0.0
  0
CIRCLE
  5
285
  8
0
  6
CONTINUOUS
 62
     3
 10
288.056009
 20
17.559566
 30
0.0
 40
4.0625
  0
CIRCLE
  5
286
  8
0
  6
CONTINUOUS
 62
     3
 10
288.056009
 20
17.559566
 30
0.0
 40
4.8125
  0
LINE
  5
287
  8
0
  6
CONTINUOUS
 62
     3
 10
289.929278
 20
18.640076
 30
0.0
 11
288.054278
 21
19.722608
 31
0.0
  0
LINE
  5
288
  8
0
  6
CONTINUOUS
 62
     3
 10
289.929278
 20
16.475013
 30
0.0
 11
289.929278
 21
18.640076
 31
0.0
  0
LINE
  5
289
  8
0
  6
CONTINUOUS
 62
     3
 10
286.179278
 20
18.640076
 30
0.0
 11
286.179278
 21
16.475013
 31
0.0
  0
LINE
  5
28A
  8
0
  6
CONTINUOUS
 62
     3
 10
286.179278
 20
16.475013
 30
0.0
 11
288.054278
 21
15.392481
 31
0.0
  0
LINE
  5
28B
  8
0
  6
CONTINUOUS
 62
     3
 10
288.054278
 20
19.722608
 30
0.0
 11
286.179278
 21
18.640076
 31
0.0
  0
LINE
  5
28C
  8
0
  6
CONTINUOUS
 62
     3
 10
288.054278
 20
15.392481
 30
0.0
 11
289.929278
 21
16.475013
 31
0.0
  0
ARC
  5
28D
  8
0
  6
CENTER
 62
     4
 10
257.749991
 20
0.053616
 30
0.0
 40
35.0
 50
141.003103
 51
158.882106
  0
LINE
  5
28E
  8
0
  6
CENTER
 62
     4
 10
231.589136
 20
15.157593
 30
0.0
 11
223.043022
 21
20.091694
 31
0.0
  0
CIRCLE
  5
28F
  8
0
  6
CONTINUOUS
 62
     3
 10
227.434231
 20
17.559566
 30
0.0
 40
4.0625
  0
CIRCLE
  5
290
  8
0
  6
CONTINUOUS
 62
     3
 10
227.434231
 20
17.559566
 30
0.0
 40
4.8125
  0
LINE
  5
291
  8
0
  6
CONTINUOUS
 62
     3
 10
229.3075
 20
18.640076
 30
0.0
 11
227.4325
 21
19.722608
 31
0.0
  0
LINE
  5
292
  8
0
  6
CONTINUOUS
 62
     3
 10
229.3075
 20
16.475013
 30
0.0
 11
229.3075
 21
18.640076
 31
0.0
  0
LINE
  5
293
  8
0
  6
CONTINUOUS
 62
     3
 10
225.5575
 20
18.640076
 30
0.0
 11
225.5575
 21
16.475013
 31
0.0
  0
LINE
  5
294
  8
0
  6
CONTINUOUS
 62
     3
 10
225.5575
 20
16.475013
 30
0.0
 11
227.4325
 21
15.392481
 31
0.0
  0
LINE
  5
295
  8
0
  6
CONTINUOUS
 62
     3
 10
227.4325
 20
19.722608
 30
0.0
 11
225.5575
 21
18.640076
 31
0.0
  0
LINE
  5
296
  8
0
  6
CONTINUOUS
 62
     3
 10
227.4325
 20
15.392481
 30
0.0
 11
229.3075
 21
16.475013
 31
0.0
  0
LINE
  5
298
  8
0
  6
CONTINUOUS
 62
     3
 10
-0.749991
 20
-87.946384
 30
0.0
 11
-0.749991
 21
88.053616
 31
0.0
  0
LINE
  5
299
  8
0
  6
CONTINUOUS
 62
     3
 10
-96.749991
 20
57.553616
 30
0.0
 11
-2.749991
 21
57.553616
 31
0.0
  0
LINE
  5
2A5
  8
0
  6
DASHDOT
 62
     4
 10
-337.995621
 20
-78.298955
 30
0.0
 11
-344.78747
 21
-86.393164
 31
0.0
  0
LINE
  5
2A6
  8
0
  6
CENTER
 62
     4
 10
-337.995615
 20
-78.298955
 30
0.0
 11
-344.787464
 21
-86.393164
 31
0.0
  0
LINE
  5
2A7
  8
0
  6
DASHDOT
 62
     4
 10
-206.504396
 20
78.406186
 30
0.0
 11
-199.712547
 21
86.500396
 31
0.0
  0
LINE
  5
2A8
  8
0
  6
CENTER
 62
     4
 10
-206.50439
 20
78.406186
 30
0.0
 11
-199.712541
 21
86.500395
 31
0.0
  0
LINE
  5
2A9
  8
0
  6
DASHDOT
 62
     4
 10
323.495604
 20
-78.298955
 30
0.0
 11
330.287453
 21
-86.393164
 31
0.0
  0
LINE
  5
2AA
  8
0
  6
CENTER
 62
     4
 10
323.495598
 20
-78.298955
 30
0.0
 11
330.287447
 21
-86.393164
 31
0.0
  0
LINE
  5
2AB
  8
0
  6
DASHDOT
 62
     4
 10
192.004379
 20
78.406186
 30
0.0
 11
185.21253
 21
86.500396
 31
0.0
  0
LINE
  5
2AC
  8
0
  6
CENTER
 62
     4
 10
192.004373
 20
78.406186
 30
0.0
 11
185.212524
 21
86.500395
 31
0.0
  0
ARC
  5
2AE
  8
0
  6
CONTINUOUS
 62
     3
 10
-14.250009
 20
-117.946384
 30
0.0
 40
1.0
 50
270.0
 51
0.0
  0
LINE
  5
2AF
  8
0
  6
CONTINUOUS
 62
     3
 10
-13.250009
 20
-117.946384
 30
0.0
 11
-13.250009
 21
-87.946384
 31
0.0
  0
LINE
  5
2B0
  8
0
  6
CONTINUOUS
 62
     3
 10
-57.250009
 20
-117.946384
 30
0.0
 11
-57.250009
 21
-87.946384
 31
0.0
  0
ARC
  5
2B1
  8
0
  6
CONTINUOUS
 62
     3
 10
-56.250009
 20
-117.946384
 30
0.0
 40
1.0
 50
180.0
 51
270.0
  0
LINE
  5
2B2
  8
0
  6
CONTINUOUS
 62
     3
 10
-2.749991
 20
-87.946384
 30
0.0
 11
-2.749991
 21
88.053616
 31
0.0
  0
LINE
  5
2B3
  8
0
  6
CONTINUOUS
 62
     3
 10
-287.050009
 20
-64.755733
 30
0.0
 11
-257.450009
 21
-64.755733
 31
0.0
  0
LINE
  5
2B4
  8
0
  6
CONTINUOUS
 62
     3
 10
-297.250009
 20
-86.446283
 30
0.0
 11
-297.250009
 21
-87.946283
 31
0.0
  0
LINE
  5
2B5
  8
0
  6
CONTINUOUS
 62
     3
 10
-247.250009
 20
-86.446283
 30
0.0
 11
-247.250009
 21
-87.946283
 31
0.0
  0
LINE
  5
2B6
  8
0
  6
CONTINUOUS
 62
     3
 10
-254.850009
 20
-125.746283
 30
0.0
 11
-254.850009
 21
-122.746283
 31
0.0
  0
LINE
  5
2B7
  8
0
  6
CONTINUOUS
 62
     3
 10
-289.650009
 20
-125.746283
 30
0.0
 11
-254.850009
 21
-125.746283
 31
0.0
  0
LINE
  5
2B8
  8
0
  6
CONTINUOUS
 62
     3
 10
-288.650009
 20
-141.746283
 30
0.0
 11
-288.650009
 21
-125.746283
 31
0.0
  0
LINE
  5
2B9
  8
0
  6
CONTINUOUS
 62
     3
 10
-255.850009
 20
-141.746283
 30
0.0
 11
-255.850009
 21
-125.746283
 31
0.0
  0
LINE
  5
2BA
  8
0
  6
CONTINUOUS
 62
     3
 10
-289.650009
 20
-140.746283
 30
0.0
 11
-254.850009
 21
-140.746283
 31
0.0
  0
LINE
  5
2BB
  8
0
  6
CONTINUOUS
 62
     3
 10
-255.850009
 20
-141.746283
 30
0.0
 11
-254.850009
 21
-140.746283
 31
0.0
  0
LINE
  5
2BC
  8
0
  6
CONTINUOUS
 62
     3
 10
-289.650009
 20
-140.746283
 30
0.0
 11
-288.650009
 21
-141.746283
 31
0.0
  0
LINE
  5
2BD
  8
0
  6
CONTINUOUS
 62
     3
 10
-254.850009
 20
-140.746283
 30
0.0
 11
-254.850009
 21
-125.746283
 31
0.0
  0
LINE
  5
2BE
  8
0
  6
CONTINUOUS
 62
     3
 10
-289.650009
 20
-140.746283
 30
0.0
 11
-289.650009
 21
-122.746283
 31
0.0
  0
LINE
  5
2BF
  8
0
  6
CONTINUOUS
 62
     3
 10
-288.650009
 20
-141.746283
 30
0.0
 11
-255.850009
 21
-141.746283
 31
0.0
  0
LINE
  5
2C0
  8
0
  6
CENTER
 62
     4
 10
-272.250009
 20
-159.871972
 30
0.0
 11
-272.250009
 21
-98.56719
 31
0.0
  0
LINE
  5
2C1
  8
0
  6
CONTINUOUS
 62
     3
 10
-251.750009
 20
-122.746283
 30
0.0
 11
-251.750009
 21
-118.946283
 31
0.0
  0
LINE
  5
2C2
  8
0
  6
CONTINUOUS
 62
     3
 10
-292.750009
 20
-122.746283
 30
0.0
 11
-292.750009
 21
-118.946283
 31
0.0
  0
LINE
  5
2C3
  8
0
  6
CONTINUOUS
 62
     3
 10
-292.750009
 20
-122.746283
 30
0.0
 11
-251.750009
 21
-122.746283
 31
0.0
  0
LINE
  5
2C4
  8
0
  6
CONTINUOUS
 62
     3
 10
-292.750009
 20
-119.946283
 30
0.0
 11
-251.750009
 21
-119.946283
 31
0.0
  0
LINE
  5
2C5
  8
0
  6
CONTINUOUS
 62
     3
 10
-294.250009
 20
-117.946283
 30
0.0
 11
-294.250009
 21
-87.946283
 31
0.0
  0
ARC
  5
2C6
  8
0
  6
CONTINUOUS
 62
     3
 10
-293.250009
 20
-117.946283
 30
0.0
 40
1.0
 50
180.0
 51
270.0
  0
LINE
  5
2C7
  8
0
  6
CONTINUOUS
 62
     3
 10
-250.250009
 20
-117.946283
 30
0.0
 11
-250.250009
 21
-87.946283
 31
0.0
  0
ARC
  5
2C8
  8
0
  6
CONTINUOUS
 62
     3
 10
-251.250009
 20
-117.946283
 30
0.0
 40
1.0
 50
270.0
 51
0.0
  0
LINE
  5
2C9
  8
0
  6
CONTINUOUS
 62
     3
 10
-293.250009
 20
-118.946283
 30
0.0
 11
-251.250009
 21
-118.946283
 31
0.0
  0
LINE
  5
2CA
  8
0
  6
CONTINUOUS
 62
     3
 10
279.749991
 20
-120.146384
 30
0.0
 11
279.749991
 21
-87.946384
 31
0.0
  0
ARC
  5
2CB
  8
0
  6
CONTINUOUS
 62
     3
 10
278.749991
 20
-120.146384
 30
0.0
 40
1.0
 50
270.0
 51
0.0
  0
ARC
  5
2CC
  8
0
  6
CONTINUOUS
 62
     3
 10
236.749991
 20
-120.146384
 30
0.0
 40
1.0
 50
180.0
 51
270.0
  0
LINE
  5
2CD
  8
0
  6
CONTINUOUS
 62
     3
 10
235.749991
 20
-120.146384
 30
0.0
 11
235.749991
 21
-87.946384
 31
0.0
  0
LINE
  5
2CE
  8
0
  6
CONTINUOUS
 62
     3
 10
-114.749991
 20
42.553616
 30
0.0
 11
-101.749991
 21
42.553616
 31
0.0
  0
LINE
  5
2CF
  8
0
  6
CONTINUOUS
 62
     3
 10
-135.549991
 20
-81.046384
 30
0.0
 11
-107.949991
 21
-81.046384
 31
0.0
  0
LINE
  5
2D0
  8
0
  6
CONTINUOUS
 62
     3
 10
-113.749991
 20
-38.380812
 30
0.0
 11
-113.749991
 21
-34.605609
 31
0.0
  0
LINE
  5
2D1
  8
0
  6
CONTINUOUS
 62
     3
 10
-140.799991
 20
-61.746384
 30
0.0
 11
-140.799991
 21
-57.946384
 31
0.0
  0
LINE
  5
2D2
  8
0
  6
CONTINUOUS
 62
     3
 10
-135.549991
 20
-81.046384
 30
0.0
 11
-135.549991
 21
-64.746384
 31
0.0
  0
LINE
  5
2D3
  8
0
  6
CONTINUOUS
 62
     3
 10
-136.549991
 20
-80.046384
 30
0.0
 11
-106.949991
 21
-80.046384
 31
0.0
  0
LINE
  5
2D4
  8
0
  6
CONTINUOUS
 62
     3
 10
-136.549991
 20
-80.046384
 30
0.0
 11
-135.549991
 21
-81.046384
 31
0.0
  0
LINE
  5
2D5
  8
0
  6
CONTINUOUS
 62
     3
 10
-136.549991
 20
-80.046384
 30
0.0
 11
-136.549991
 21
-61.746384
 31
0.0
  0
LINE
  5
2D6
  8
0
  6
CENTER
 62
     4
 10
-121.749991
 20
-87.789136
 30
0.0
 11
-121.749991
 21
-54.487194
 31
0.0
  0
LINE
  5
2D7
  8
0
  6
CONTINUOUS
 62
     3
 10
-141.249991
 20
-33.431354
 30
0.0
 11
-139.749991
 21
-34.293772
 31
0.0
  0
LINE
  5
2D8
  8
0
  6
CONTINUOUS
 62
     3
 10
-139.749991
 20
-34.293772
 30
0.0
 11
-114.749991
 21
-34.293772
 31
0.0
  0
LINE
  5
2D9
  8
0
  6
CENTER
 62
     4
 10
-115.549489
 20
-35.130812
 30
0.0
 11
-107.738565
 21
-35.130812
 31
0.0
  0
LINE
  5
2DA
  8
0
  6
CONTINUOUS
 62
     3
 10
-109.749991
 20
-38.980812
 30
0.0
 11
-109.749991
 21
-34.605609
 31
0.0
  0
LINE
  5
2DB
  8
0
  6
CONTINUOUS
 62
     3
 10
-109.749991
 20
-38.380812
 30
0.0
 11
-113.749991
 21
-38.380812
 31
0.0
  0
LINE
  5
2DC
  8
0
  6
CONTINUOUS
 62
     3
 10
-109.749991
 20
-38.980812
 30
0.0
 11
-108.749991
 21
-38.980812
 31
0.0
  0
LINE
  5
2DD
  8
0
  6
CONTINUOUS
 62
     3
 10
-107.949991
 20
-81.046384
 30
0.0
 11
-107.949991
 21
-64.746384
 31
0.0
  0
LINE
  5
2DE
  8
0
  6
CONTINUOUS
 62
     3
 10
-106.949991
 20
-80.046384
 30
0.0
 11
-106.949991
 21
-61.746384
 31
0.0
  0
LINE
  5
2DF
  8
0
  6
CONTINUOUS
 62
     3
 10
-108.749991
 20
-42.446384
 30
0.0
 11
-101.749991
 21
-42.446384
 31
0.0
  0
LINE
  5
2E0
  8
0
  6
CONTINUOUS
 62
     3
 10
-141.249991
 20
-57.946384
 30
0.0
 11
-101.749991
 21
-57.946384
 31
0.0
  0
LINE
  5
2E1
  8
0
  6
CONTINUOUS
 62
     3
 10
-136.549991
 20
-64.746384
 30
0.0
 11
-106.949991
 21
-64.746384
 31
0.0
  0
LINE
  5
2E2
  8
0
  6
CONTINUOUS
 62
     3
 10
-140.799991
 20
-58.946384
 30
0.0
 11
-102.249991
 21
-58.946384
 31
0.0
  0
LINE
  5
2E3
  8
0
  6
CONTINUOUS
 62
     3
 10
-140.799991
 20
-61.746384
 30
0.0
 11
-102.249991
 21
-61.746384
 31
0.0
  0
LINE
  5
2E4
  8
0
  6
CONTINUOUS
 62
     3
 10
-114.749991
 20
-42.446384
 30
0.0
 11
-108.749991
 21
-42.446384
 31
0.0
  0
LINE
  5
2E5
  8
0
  6
CONTINUOUS
 62
     3
 10
-114.749991
 20
-27.449854
 30
0.0
 11
-101.749991
 21
-27.449854
 31
0.0
  0
LINE
  5
2E6
  8
0
  6
CONTINUOUS
 62
     3
 10
-114.749991
 20
-34.605609
 30
0.0
 11
-108.749991
 21
-34.605609
 31
0.0
  0
LINE
  5
2E7
  8
0
  6
CONTINUOUS
 62
     3
 10
-114.749991
 20
-40.96957
 30
0.0
 11
-108.749991
 21
-40.96957
 31
0.0
  0
LINE
  5
2E8
  8
0
  6
CENTER
 62
     4
 10
-116.619958
 20
29.666968
 30
0.0
 11
-107.180572
 21
29.666968
 31
0.0
  0
LINE
  5
2E9
  8
0
  6
CONTINUOUS
 62
     3
 10
-113.749991
 20
29.034001
 30
0.0
 11
-113.749991
 21
32.916968
 31
0.0
  0
LINE
  5
2EA
  8
0
  6
CONTINUOUS
 62
     3
 10
-109.749991
 20
29.034001
 30
0.0
 11
-109.749991
 21
33.516968
 31
0.0
  0
LINE
  5
2EB
  8
0
  6
CONTINUOUS
 62
     3
 10
-113.749991
 20
32.916968
 30
0.0
 11
-109.749991
 21
32.916968
 31
0.0
  0
LINE
  5
2EC
  8
0
  6
CONTINUOUS
 62
     3
 10
-108.749991
 20
33.516968
 30
0.0
 11
-109.749991
 21
33.516968
 31
0.0
  0
LINE
  5
2ED
  8
0
  6
CONTINUOUS
 62
     3
 10
-108.749991
 20
-42.446384
 30
0.0
 11
-108.749991
 21
42.553616
 31
0.0
  0
LINE
  5
2EE
  8
0
  6
CONTINUOUS
 62
     3
 10
-141.249991
 20
-57.946384
 30
0.0
 11
-141.249991
 21
30.053616
 31
0.0
  0
LINE
  5
2EF
  8
0
  6
CONTINUOUS
 62
     3
 10
-114.749991
 20
40.053616
 30
0.0
 11
-114.749991
 21
42.553616
 31
0.0
  0
LINE
  5
2F0
  8
0
  6
CONTINUOUS
 62
     3
 10
-114.749991
 20
-42.446384
 30
0.0
 11
-114.749991
 21
42.553616
 31
0.0
  0
ARC
  5
2F1
  8
0
  6
CONTINUOUS
 62
     3
 10
-111.249991
 20
30.053616
 30
0.0
 40
30.0
 50
163.606197
 51
180.0
  0
LINE
  5
2F2
  8
0
  6
CONTINUOUS
 62
     3
 10
-139.105882
 20
39.2379
 30
0.0
 11
-114.749991
 21
40.088426
 31
0.0
  0
ARC
  5
2F3
  8
0
  6
CONTINUOUS
 62
     3
 10
-139.070982
 20
38.238509
 30
0.0
 40
1.0
 50
92.0
 51
163.606197
  0
LINE
  5
2F4
  8
0
  6
CONTINUOUS
 62
     3
 10
-139.749991
 20
-57.946384
 30
0.0
 11
-139.749991
 21
30.053616
 31
0.0
  0
LINE
  5
2F5
  8
0
  6
CONTINUOUS
 62
     3
 10
-139.749991
 20
-57.946384
 30
0.0
 11
-139.749991
 21
38.972638
 31
0.0
  0
LINE
  5
2F6
  8
0
  6
CONTINUOUS
 62
     3
 10
-114.749991
 20
27.557288
 30
0.0
 11
-101.749991
 21
27.557288
 31
0.0
  0
LINE
  5
2F7
  8
0
  6
CONTINUOUS
 62
     3
 10
-114.749991
 20
29.034001
 30
0.0
 11
-108.749991
 21
29.034001
 31
0.0
  0
LINE
  5
2F8
  8
0
  6
CONTINUOUS
 62
     3
 10
-114.749991
 20
35.397962
 30
0.0
 11
-108.749991
 21
35.397962
 31
0.0
  0
ARC
  5
2FA
  8
0
  6
CONTINUOUS
 62
     3
 10
139.749991
 20
-22.946283
 30
0.0
 40
500.0
 50
180.000012
 51
183.799492
  0
ARC
  5
2FB
  8
0
  6
CONTINUOUS
 62
     3
 10
-684.250009
 20
-22.946283
 30
0.0
 40
500.0
 50
356.200508
 51
359.999988
  0
ARC
  5
2FC
  8
0
  6
CONTINUOUS
 62
     3
 10
-684.250009
 20
23.053717
 30
0.0
 40
500.0
 50
359.999988
 51
3.799492
  0
LINE
  5
2FD
  8
0
  6
CONTINUOUS
 62
     3
 10
-291.300009
 20
-61.755733
 30
0.0
 11
-291.300009
 21
-57.955733
 31
0.0
  0
LINE
  5
2FE
  8
0
  6
CONTINUOUS
 62
     3
 10
-253.200009
 20
-61.755733
 30
0.0
 11
-253.200009
 21
-57.955733
 31
0.0
  0
LINE
  5
2FF
  8
0
  6
CONTINUOUS
 62
     3
 10
-291.250009
 20
-61.755733
 30
0.0
 11
-253.250009
 21
-61.755733
 31
0.0
  0
LINE
  5
300
  8
0
  6
CONTINUOUS
 62
     3
 10
-291.250009
 20
-58.955733
 30
0.0
 11
-253.250009
 21
-58.955733
 31
0.0
  0
LINE
  5
301
  8
0
  6
CONTINUOUS
 62
     3
 10
-292.750009
 20
-57.955733
 30
0.0
 11
-251.750009
 21
-57.955733
 31
0.0
  0
LINE
  5
302
  8
0
  6
CONTINUOUS
 62
     3
 10
-287.050009
 20
-80.055733
 30
0.0
 11
-287.050009
 21
-61.755733
 31
0.0
  0
LINE
  5
303
  8
0
  6
CONTINUOUS
 62
     3
 10
-257.450009
 20
-80.055733
 30
0.0
 11
-257.450009
 21
-61.755733
 31
0.0
  0
LINE
  5
304
  8
0
  6
CONTINUOUS
 62
     3
 10
-258.450009
 20
-81.055733
 30
0.0
 11
-258.450009
 21
-64.755733
 31
0.0
  0
LINE
  5
305
  8
0
  6
CONTINUOUS
 62
     3
 10
-286.050009
 20
-81.055733
 30
0.0
 11
-286.050009
 21
-64.755733
 31
0.0
  0
LINE
  5
306
  8
0
  6
CONTINUOUS
 62
     3
 10
-286.050009
 20
-81.055733
 30
0.0
 11
-258.450009
 21
-81.055733
 31
0.0
  0
LINE
  5
307
  8
0
  6
CONTINUOUS
 62
     3
 10
-287.050009
 20
-80.055733
 30
0.0
 11
-286.050009
 21
-81.055733
 31
0.0
  0
LINE
  5
308
  8
0
  6
CONTINUOUS
 62
     3
 10
-258.450009
 20
-81.055733
 30
0.0
 11
-257.450009
 21
-80.055733
 31
0.0
  0
LINE
  5
309
  8
0
  6
CONTINUOUS
 62
     3
 10
-287.050009
 20
-80.055733
 30
0.0
 11
-286.050009
 21
-80.055733
 31
0.0
  0
LINE
  5
30A
  8
0
  6
CONTINUOUS
 62
     3
 10
-286.050009
 20
-80.055733
 30
0.0
 11
-257.450009
 21
-80.055733
 31
0.0
  0
ARC
  5
30B
  8
0
  6
CONTINUOUS
 62
     3
 10
-249.250009
 20
-86.446283
 30
0.0
 40
2.0
 50
0.0
 51
90.0
  0
ARC
  5
30C
  8
0
  6
CONTINUOUS
 62
     3
 10
-295.250009
 20
-86.446283
 30
0.0
 40
2.0
 50
90.0
 51
180.0
  0
LINE
  5
30D
  8
0
  6
CONTINUOUS
 62
     3
 10
-295.250009
 20
-84.446283
 30
0.0
 11
-272.250009
 21
-84.446283
 31
0.0
  0
LINE
  5
30E
  8
0
  6
CONTINUOUS
 62
     3
 10
-272.250009
 20
-84.446283
 30
0.0
 11
-249.250009
 21
-84.446283
 31
0.0
  0
LINE
  5
30F
  8
0
  6
DASHDOT
 62
     4
 10
-272.250009
 20
-62.576031
 30
0.0
 11
-272.250009
 21
-76.933518
 31
0.0
  0
LINE
  5
310
  8
0
  6
CENTER
 62
     4
 10
-286.950009
 20
-47.739728
 30
0.0
 11
-286.950009
 21
-42.547726
 31
0.0
  0
LINE
  5
311
  8
0
  6
CENTER
 62
     4
 10
-289.480854
 20
-45.455733
 30
0.0
 11
-284.768318
 21
-45.455733
 31
0.0
  0
LINE
  5
312
  8
0
  6
CENTER
 62
     4
 10
-257.550009
 20
-47.739728
 30
0.0
 11
-257.550009
 21
-42.739512
 31
0.0
  0
LINE
  5
313
  8
0
  6
CENTER
 62
     4
 10
-260.137482
 20
-45.455733
 30
0.0
 11
-255.23316
 21
-45.455733
 31
0.0
  0
LINE
  5
314
  8
0
  6
DASHDOT
 62
     4
 10
-240.476006
 20
-37.822514
 30
0.0
 11
-244.565547
 21
-32.948789
 31
0.0
  0
LINE
  5
315
  8
0
  6
CENTER
 62
     4
 10
-305.000858
 20
-27.436959
 30
0.0
 11
-309.906708
 21
-31.553455
 31
0.0
  0
LINE
  5
316
  8
0
  6
DASHDOT
 62
     4
 10
-299.769239
 20
32.840409
 30
0.0
 11
-303.942546
 21
37.813962
 31
0.0
  0
ARC
  5
317
  8
0
  6
CENTER
 62
     4
 10
-272.250009
 20
0.151499
 30
0.0
 40
46.0
 50
125.462396
 51
134.054062
  0
ARC
  5
318
  8
0
  6
CENTER
 62
     4
 10
-272.250009
 20
0.151499
 30
0.0
 40
46.0
 50
35.51609
 51
44.041327
  0
LINE
  5
319
  8
0
  6
CENTER
 62
     4
 10
-298.706898
 20
31.583811
 30
0.0
 11
-303.855505
 21
37.719681
 31
0.0
  0
ARC
  5
31A
  8
0
  6
CENTER
 62
     4
 10
-272.34779
 20
0.053717
 30
0.0
 40
46.0
 50
215.462396
 51
224.054062
  0
LINE
  5
31B
  8
0
  6
CENTER
 62
     4
 10
-244.730778
 20
-32.732975
 30
0.0
 11
-240.557471
 21
-37.706529
 31
0.0
  0
LINE
  5
31C
  8
0
  6
CENTER
 62
     4
 10
-240.719915
 20
26.510607
 30
0.0
 11
-234.584045
 21
31.659213
 31
0.0
  0
LINE
  5
31D
  8
0
  6
CENTER
 62
     4
 10
-239.463316
 20
27.572947
 30
0.0
 11
-234.489763
 21
31.746254
 31
0.0
  0
LINE
  5
31E
  8
0
  6
CONTINUOUS
 62
     3
 10
-245.440806
 20
42.563166
 30
0.0
 11
-245.421907
 21
42.544267
 31
0.0
  0
ARC
  5
31F
  8
0
  6
CONTINUOUS
 62
     3
 10
-301.866359
 20
35.349109
 30
0.0
 40
4.5
 50
225.0
 51
45.0
  0
LINE
  5
320
  8
0
  6
CONTINUOUS
 62
     3
 10
-298.684379
 20
38.53109
 30
0.0
 11
-301.230293
 21
41.077004
 31
0.0
  0
LINE
  5
321
  8
0
  6
CONTINUOUS
 62
     3
 10
-305.04834
 20
32.167129
 30
0.0
 11
-307.594254
 21
34.713043
 31
0.0
  0
LINE
  5
322
  8
0
  6
CONTINUOUS
 62
     3
 10
-304.36342
 20
-32.744614
 30
0.0
 11
-306.909334
 21
-35.290528
 31
0.0
  0
LINE
  5
323
  8
0
  6
CONTINUOUS
 62
     3
 10
-310.727381
 20
-26.380653
 30
0.0
 11
-313.273296
 21
-28.926567
 31
0.0
  0
ARC
  5
324
  8
0
  6
CONTINUOUS
 62
     3
 10
-307.545401
 20
-29.562634
 30
0.0
 40
4.5
 50
315.0
 51
135.0
  0
LINE
  5
325
  8
0
  6
CONTINUOUS
 62
     3
 10
-239.451677
 20
-32.059695
 30
0.0
 11
-236.905763
 21
-34.605609
 31
0.0
  0
LINE
  5
326
  8
0
  6
CONTINUOUS
 62
     3
 10
-245.815638
 20
-38.423656
 30
0.0
 11
-243.269724
 21
-40.96957
 31
0.0
  0
ARC
  5
327
  8
0
  6
CONTINUOUS
 62
     3
 10
-242.633658
 20
-35.241675
 30
0.0
 40
4.5
 50
45.0
 51
225.0
  0
LINE
  5
328
  8
0
  6
CONTINUOUS
 62
     3
 10
-240.136597
 20
32.852048
 30
0.0
 11
-237.590683
 21
35.397962
 31
0.0
  0
LINE
  5
329
  8
0
  6
CONTINUOUS
 62
     3
 10
-233.772636
 20
26.488087
 30
0.0
 11
-231.226722
 21
29.034001
 31
0.0
  0
ARC
  5
32A
  8
0
  6
CONTINUOUS
 62
     3
 10
-236.954616
 20
29.670067
 30
0.0
 40
4.5
 50
135.0
 51
315.0
  0
LINE
  5
32B
  8
0
  6
CONTINUOUS
 62
     3
 10
-299.763029
 20
42.544267
 30
0.0
 11
-244.736988
 21
42.544267
 31
0.0
  0
LINE
  5
32C
  8
0
  6
CONTINUOUS
 62
     3
 10
-314.750009
 20
27.557288
 30
0.0
 11
-299.763029
 21
42.544267
 31
0.0
  0
LINE
  5
32D
  8
0
  6
CONTINUOUS
 62
     3
 10
-229.750009
 20
-27.449854
 30
0.0
 11
-229.750009
 21
27.557288
 31
0.0
  0
LINE
  5
32E
  8
0
  6
CONTINUOUS
 62
     3
 10
-244.755887
 20
-42.455733
 30
0.0
 11
-229.750009
 21
-27.449854
 31
0.0
  0
LINE
  5
32F
  8
0
  6
CONTINUOUS
 62
     3
 10
-244.736988
 20
42.544267
 30
0.0
 11
-229.750009
 21
27.557288
 31
0.0
  0
LINE
  5
330
  8
0
  6
CONTINUOUS
 62
     3
 10
-314.750009
 20
-27.449854
 30
0.0
 11
-306.909334
 21
-35.290528
 31
0.0
  0
LINE
  5
331
  8
0
  6
CONTINUOUS
 62
     3
 10
-306.909334
 20
-35.290528
 30
0.0
 11
-299.74413
 21
-42.455733
 31
0.0
  0
LINE
  5
332
  8
0
  6
CONTINUOUS
 62
     3
 10
-314.750009
 20
-27.449854
 30
0.0
 11
-314.750009
 21
27.557288
 31
0.0
  0
LINE
  5
333
  8
0
  6
CONTINUOUS
 62
     3
 10
-251.750009
 20
-57.955733
 30
0.0
 11
-251.750009
 21
-42.455733
 31
0.0
  0
LINE
  5
334
  8
0
  6
CONTINUOUS
 62
     3
 10
-253.250009
 20
-57.955733
 30
0.0
 11
-253.250009
 21
-42.455733
 31
0.0
  0
LINE
  5
335
  8
0
  6
CONTINUOUS
 62
     3
 10
-291.250009
 20
-57.955733
 30
0.0
 11
-291.250009
 21
-42.455733
 31
0.0
  0
LINE
  5
336
  8
0
  6
CONTINUOUS
 62
     3
 10
-292.750009
 20
-57.955733
 30
0.0
 11
-292.750009
 21
-42.455733
 31
0.0
  0
LINE
  5
337
  8
0
  6
CONTINUOUS
 62
     3
 10
-292.750009
 20
-42.455733
 30
0.0
 11
-292.750009
 21
-34.293772
 31
0.0
  0
LINE
  5
338
  8
0
  6
CONTINUOUS
 62
     3
 10
-251.750009
 20
-42.455733
 30
0.0
 11
-251.750009
 21
-34.293772
 31
0.0
  0
ARC
  5
339
  8
0
  6
CONTINUOUS
 62
     3
 10
-272.250009
 20
0.053717
 30
0.0
 40
40.0
 50
300.830497
 51
239.169503
  0
ARC
  5
33A
  8
0
  6
CONTINUOUS
 62
     3
 10
-272.250009
 20
0.053717
 30
0.0
 40
38.5
 50
299.571315
 51
240.428685
  0
LINE
  5
33B
  8
0
  6
CONTINUOUS
 62
     3
 10
-253.250009
 20
-42.455733
 30
0.0
 11
-253.250009
 21
-33.431354
 31
0.0
  0
LINE
  5
33C
  8
0
  6
CONTINUOUS
 62
     3
 10
-291.250009
 20
-42.455733
 30
0.0
 11
-291.250009
 21
-33.431354
 31
0.0
  0
LINE
  5
33D
  8
0
  6
CONTINUOUS
 62
     3
 10
-253.250009
 20
-57.955733
 30
0.0
 11
-253.250009
 21
-42.455733
 31
0.0
  0
LINE
  5
33E
  8
0
  6
CONTINUOUS
 62
     3
 10
-291.250009
 20
-57.955733
 30
0.0
 11
-291.250009
 21
-42.455733
 31
0.0
  0
LINE
  5
33F
  8
0
  6
CONTINUOUS
 62
     3
 10
-251.750009
 20
-42.455733
 30
0.0
 11
-244.755887
 21
-42.455733
 31
0.0
  0
LINE
  5
340
  8
0
  6
CONTINUOUS
 62
     3
 10
-299.74413
 20
-42.455733
 30
0.0
 11
-292.750009
 21
-42.455733
 31
0.0
  0
ARC
  5
341
  8
0
  6
CENTER
 62
     4
 10
-272.250009
 20
0.151499
 30
0.0
 40
46.0
 50
305.697212
 51
314.103517
  0
CIRCLE
  5
342
  8
0
  6
CONTINUOUS
 62
     3
 10
-286.950009
 20
-45.455733
 30
0.0
 40
2.0
  0
CIRCLE
  5
343
  8
0
  6
CONTINUOUS
 62
     3
 10
-257.550009
 20
-45.455733
 30
0.0
 40
2.0
  0
LINE
  5
345
  8
0
  6
CONTINUOUS
 62
     3
 10
-241.06158
 20
-34.682524
 30
0.0
 11
-242.286325
 21
-33.457779
 31
0.0
  0
LINE
  5
346
  8
0
  6
CONTINUOUS
 62
     3
 10
-242.286325
 20
-33.457779
 30
0.0
 11
-243.959358
 21
-33.906067
 31
0.0
  0
LINE
  5
347
  8
0
  6
CONTINUOUS
 62
     3
 10
-243.959358
 20
-33.906067
 30
0.0
 11
-244.407645
 21
-35.579099
 31
0.0
  0
LINE
  5
348
  8
0
  6
CONTINUOUS
 62
     3
 10
-244.407645
 20
-35.579099
 30
0.0
 11
-243.1829
 21
-36.803844
 31
0.0
  0
LINE
  5
349
  8
0
  6
CONTINUOUS
 62
     3
 10
-243.1829
 20
-36.803844
 30
0.0
 11
-241.509868
 21
-36.355556
 31
0.0
  0
CIRCLE
  5
34A
  8
0
  6
CONTINUOUS
 62
     3
 10
-242.734613
 20
-35.130812
 30
0.0
 40
3.25
  0
CIRCLE
  5
34B
  8
0
  6
CONTINUOUS
 62
     3
 10
-242.734613
 20
-35.130812
 30
0.0
 40
3.85
  0
LINE
  5
34C
  8
0
  6
CONTINUOUS
 62
     3
 10
-241.509868
 20
-36.355556
 30
0.0
 11
-241.06158
 21
-34.682524
 31
0.0
  0
LINE
  5
34D
  8
0
  6
CONTINUOUS
 62
     3
 10
-305.867707
 20
-29.119884
 30
0.0
 11
-307.092452
 21
-27.895139
 31
0.0
  0
LINE
  5
34E
  8
0
  6
CONTINUOUS
 62
     3
 10
-307.092452
 20
-27.895139
 30
0.0
 11
-308.765485
 21
-28.343427
 31
0.0
  0
LINE
  5
34F
  8
0
  6
CONTINUOUS
 62
     3
 10
-308.765485
 20
-28.343427
 30
0.0
 11
-309.213772
 21
-30.01646
 31
0.0
  0
LINE
  5
350
  8
0
  6
CONTINUOUS
 62
     3
 10
-309.213772
 20
-30.01646
 30
0.0
 11
-307.989027
 21
-31.241205
 31
0.0
  0
LINE
  5
351
  8
0
  6
CONTINUOUS
 62
     3
 10
-307.989027
 20
-31.241205
 30
0.0
 11
-306.315995
 21
-30.792917
 31
0.0
  0
CIRCLE
  5
352
  8
0
  6
CONTINUOUS
 62
     3
 10
-307.54074
 20
-29.568172
 30
0.0
 40
3.25
  0
CIRCLE
  5
353
  8
0
  6
CONTINUOUS
 62
     3
 10
-307.54074
 20
-29.568172
 30
0.0
 40
3.85
  0
LINE
  5
354
  8
0
  6
CONTINUOUS
 62
     3
 10
-306.315995
 20
-30.792917
 30
0.0
 11
-305.867707
 21
-29.119884
 31
0.0
  0
LINE
  5
355
  8
0
  6
CONTINUOUS
 62
     3
 10
-300.197974
 20
35.793486
 30
0.0
 11
-301.422719
 21
37.018231
 31
0.0
  0
LINE
  5
356
  8
0
  6
CONTINUOUS
 62
     3
 10
-301.422719
 20
37.018231
 30
0.0
 11
-303.095751
 21
36.569943
 31
0.0
  0
LINE
  5
357
  8
0
  6
CONTINUOUS
 62
     3
 10
-303.095751
 20
36.569943
 30
0.0
 11
-303.544039
 21
34.89691
 31
0.0
  0
LINE
  5
358
  8
0
  6
CONTINUOUS
 62
     3
 10
-303.544039
 20
34.89691
 30
0.0
 11
-302.319294
 21
33.672166
 31
0.0
  0
LINE
  5
359
  8
0
  6
CONTINUOUS
 62
     3
 10
-302.319294
 20
33.672166
 30
0.0
 11
-300.646262
 21
34.120453
 31
0.0
  0
CIRCLE
  5
35A
  8
0
  6
CONTINUOUS
 62
     3
 10
-301.871006
 20
35.345198
 30
0.0
 40
3.25
  0
CIRCLE
  5
35B
  8
0
  6
CONTINUOUS
 62
     3
 10
-301.871006
 20
35.345198
 30
0.0
 40
3.85
  0
LINE
  5
35C
  8
0
  6
CONTINUOUS
 62
     3
 10
-300.646262
 20
34.120453
 30
0.0
 11
-300.197974
 21
35.793486
 31
0.0
  0
LINE
  5
35D
  8
0
  6
CONTINUOUS
 62
     3
 10
-235.294727
 20
30.115256
 30
0.0
 11
-236.519472
 21
31.340001
 31
0.0
  0
LINE
  5
35E
  8
0
  6
CONTINUOUS
 62
     3
 10
-236.519472
 20
31.340001
 30
0.0
 11
-238.192505
 21
30.891713
 31
0.0
  0
LINE
  5
35F
  8
0
  6
CONTINUOUS
 62
     3
 10
-238.192505
 20
30.891713
 30
0.0
 11
-238.640792
 21
29.21868
 31
0.0
  0
LINE
  5
360
  8
0
  6
CONTINUOUS
 62
     3
 10
-238.640792
 20
29.21868
 30
0.0
 11
-237.416048
 21
27.993935
 31
0.0
  0
LINE
  5
361
  8
0
  6
CONTINUOUS
 62
     3
 10
-237.416048
 20
27.993935
 30
0.0
 11
-235.743015
 21
28.442223
 31
0.0
  0
CIRCLE
  5
362
  8
0
  6
CONTINUOUS
 62
     3
 10
-236.96776
 20
29.666968
 30
0.0
 40
3.25
  0
CIRCLE
  5
363
  8
0
  6
CONTINUOUS
 62
     3
 10
-236.96776
 20
29.666968
 30
0.0
 40
3.85
  0
LINE
  5
364
  8
0
  6
CONTINUOUS
 62
     3
 10
-235.743015
 20
28.442223
 30
0.0
 11
-235.294727
 21
30.115256
 31
0.0
  0
LINE
  5
38A
  8
0
  6
CENTER
 62
     4
 10
257.749991
 20
-150.465679
 30
0.0
 11
257.749991
 21
108.480857
 31
0.0
  0
LINE
  5
38B
  8
0
  6
CENTER
 62
     4
 10
-154.806696
 20
0.053616
 30
0.0
 11
84.505345
 21
0.053616
 31
0.0
  0
LINE
  5
38C
  8
0
  6
CENTER
 62
     4
 10
328.181561
 20
-40.61007
 30
0.0
 11
346.381271
 21
-51.117677
 31
0.0
  0
ARC
  5
38D
  8
0
  6
CENTER
 62
     4
 10
257.749991
 20
0.053616
 30
0.0
 40
91.5
 50
322.757486
 51
337.442206
  0
LINE
  5
38E
  8
0
  6
CENTER
 62
     4
 10
217.086306
 20
-70.377954
 30
0.0
 11
206.578699
 21
-88.577664
 31
0.0
  0
ARC
  5
38F
  8
0
  6
CENTER
 62
     4
 10
257.749991
 20
0.053616
 30
0.0
 40
91.5
 50
232.757486
 51
247.442206
  0
LINE
  5
390
  8
0
  6
CENTER
 62
     4
 10
187.318422
 20
40.717301
 30
0.0
 11
169.118712
 21
51.224909
 31
0.0
  0
ARC
  5
391
  8
0
  6
CENTER
 62
     4
 10
257.749991
 20
0.053616
 30
0.0
 40
91.5
 50
142.757486
 51
157.442206
  0
LINE
  5
392
  8
0
  6
CENTER
 62
     4
 10
298.413677
 20
70.485185
 30
0.0
 11
308.921284
 21
88.684895
 31
0.0
  0
ARC
  5
393
  8
0
  6
CENTER
 62
     4
 10
257.749991
 20
0.053616
 30
0.0
 40
91.5
 50
52.757486
 51
67.442206
  0
ARC
  5
394
  8
0
  6
CENTER
 62
     4
 10
-272.250009
 20
0.053616
 30
0.0
 40
91.5
 50
23.673266
 51
36.025206
  0
LINE
  5
395
  8
0
  6
CENTER
 62
     4
 10
-201.951422
 20
40.640523
 30
0.0
 11
-184.285411
 21
50.839999
 31
0.0
  0
LINE
  5
396
  8
0
  6
CONTINUOUS
 62
     3
 10
-196.008684
 20
47.535666
 30
0.0
 11
-196.008684
 21
44.071565
 31
0.0
  0
LINE
  5
397
  8
0
  6
CONTINUOUS
 62
     3
 10
-190.008684
 20
44.071565
 30
0.0
 11
-190.008684
 21
47.535666
 31
0.0
  0
LINE
  5
398
  8
0
  6
CONTINUOUS
 62
     3
 10
-196.008684
 20
44.071565
 30
0.0
 11
-193.008684
 21
42.339514
 31
0.0
  0
LINE
  5
399
  8
0
  6
CONTINUOUS
 62
     3
 10
-190.008684
 20
47.535666
 30
0.0
 11
-193.008684
 21
49.267717
 31
0.0
  0
LINE
  5
39A
  8
0
  6
CONTINUOUS
 62
     3
 10
-193.008684
 20
42.339514
 30
0.0
 11
-190.008684
 21
44.071565
 31
0.0
  0
LINE
  5
39B
  8
0
  6
CONTINUOUS
 62
     3
 10
-193.008684
 20
49.267717
 30
0.0
 11
-196.008684
 21
47.535666
 31
0.0
  0
CIRCLE
  5
39C
  8
0
  6
CONTINUOUS
 62
     3
 10
-193.008684
 20
45.803616
 30
0.0
 40
7.7
  0
CIRCLE
  5
39D
  8
0
  6
CONTINUOUS
 62
     3
 10
-193.008684
 20
45.803616
 30
0.0
 40
6.5
  0
LINE
  5
39E
  8
0
  6
CONTINUOUS
 62
     3
 10
-360.250009
 20
0.053616
 30
0.0
 11
-360.250009
 21
74.087392
 31
0.0
  0
ARC
  5
39F
  8
0
  6
CONTINUOUS
 62
     3
 10
-357.155432
 20
56.053717
 30
0.0
 40
2.0
 50
90.0
 51
176.200508
  0
LINE
  5
3A0
  8
0
  6
CONTINUOUS
 62
     3
 10
-357.155432
 20
58.053717
 30
0.0
 11
-345.250009
 21
58.053717
 31
0.0
  0
LINE
  5
3A1
  8
0
  6
CONTINUOUS
 62
     3
 10
-199.250009
 20
-57.946283
 30
0.0
 11
-187.344585
 21
-57.946283
 31
0.0
  0
ARC
  5
3A2
  8
0
  6
CONTINUOUS
 62
     3
 10
-187.344585
 20
-55.946283
 30
0.0
 40
2.0
 50
270.0
 51
356.200508
  0
LINE
  5
3A3
  8
0
  6
CONTINUOUS
 62
     3
 10
-184.250009
 20
-73.98016
 30
0.0
 11
-184.250009
 21
0.053616
 31
0.0
  0
LINE
  5
3A4
  8
0
  6
CONTINUOUS
 62
     3
 10
-272.250009
 20
-87.946283
 30
0.0
 11
-198.216112
 21
-87.946283
 31
0.0
  0
ARC
  5
3A5
  8
0
  6
CONTINUOUS
 62
     3
 10
-272.250009
 20
0.053616
 30
0.0
 40
115.0
 50
310.073742
 51
319.926336
  0
CIRCLE
  5
3A6
  8
0
  6
CONTINUOUS
 62
     3
 10
-201.53928
 20
-70.657012
 30
0.0
 40
6.75
  0
LINE
  5
3A7
  8
0
  6
CONTINUOUS
 62
     3
 10
-214.250009
 20
-85.946283
 30
0.0
 11
-214.250009
 21
-72.946283
 31
0.0
  0
ARC
  5
3A8
  8
0
  6
CONTINUOUS
 62
     3
 10
-199.250009
 20
-72.946283
 30
0.0
 40
15.0
 50
90.0
 51
180.0
  0
ARC
  5
3A9
  8
0
  6
CENTER
 62
     4
 10
-272.250009
 20
0.053616
 30
0.0
 40
100.0
 50
308.555244
 51
321.258031
  0
LINE
  5
3AA
  8
0
  6
CENTER
 62
     4
 10
-193.785664
 20
-78.410628
 30
0.0
 11
-208.676419
 21
-63.519872
 31
0.0
  0
ARC
  5
3AB
  8
0
  6
CONTINUOUS
 62
     3
 10
-216.250009
 20
-85.946283
 30
0.0
 40
2.0
 50
270.0
 51
0.0
  0
LINE
  5
3AC
  8
0
  6
CONTINUOUS
 62
     3
 10
-346.283905
 20
-87.946283
 30
0.0
 11
-272.250009
 21
-87.946283
 31
0.0
  0
LINE
  5
3AD
  8
0
  6
CONTINUOUS
 62
     3
 10
-360.250009
 20
-73.98016
 30
0.0
 11
-360.250009
 21
0.053616
 31
0.0
  0
ARC
  5
3AE
  8
0
  6
CONTINUOUS
 62
     3
 10
-272.250009
 20
0.053616
 30
0.0
 40
115.0
 50
220.073664
 51
229.926258
  0
CIRCLE
  5
3AF
  8
0
  6
CONTINUOUS
 62
     3
 10
-342.960737
 20
-70.657012
 30
0.0
 40
6.75
  0
LINE
  5
3B0
  8
0
  6
CONTINUOUS
 62
     3
 10
-330.250009
 20
-85.946283
 30
0.0
 11
-330.250009
 21
-72.946283
 31
0.0
  0
LINE
  5
3B1
  8
0
  6
CONTINUOUS
 62
     3
 10
-357.155432
 20
-57.946283
 30
0.0
 11
-345.250009
 21
-57.946283
 31
0.0
  0
ARC
  5
3B2
  8
0
  6
CONTINUOUS
 62
     3
 10
-345.250009
 20
-72.946283
 30
0.0
 40
15.0
 50
0.0
 51
90.0
  0
LINE
  5
3B3
  8
0
  6
CENTER
 62
     4
 10
-335.840647
 20
-63.536922
 30
0.0
 11
-350.292389
 21
-77.988664
 31
0.0
  0
ARC
  5
3B4
  8
0
  6
CENTER
 62
     4
 10
-272.250009
 20
0.053616
 30
0.0
 40
100.0
 50
218.717492
 51
232.017258
  0
ARC
  5
3B5
  8
0
  6
CONTINUOUS
 62
     3
 10
-328.250009
 20
-85.946283
 30
0.0
 40
2.0
 50
180.0
 51
270.0
  0
ARC
  5
3B6
  8
0
  6
CONTINUOUS
 62
     3
 10
-357.155432
 20
-55.946283
 30
0.0
 40
2.0
 50
183.799492
 51
270.0
  0
LINE
  5
3B7
  8
0
  6
CENTER
 62
     4
 10
-369.750009
 20
0.053616
 30
0.0
 11
-174.750009
 21
0.053616
 31
0.0
  0
ARC
  5
3B8
  8
0
  6
CONTINUOUS
 62
     3
 10
139.749991
 20
23.053717
 30
0.0
 40
500.0
 50
176.200508
 51
180.000012
  0
LINE
  5
3B9
  8
0
  6
CONTINUOUS
 62
     3
 10
-184.250009
 20
0.053616
 30
0.0
 11
-184.250009
 21
74.087392
 31
0.0
  0
ARC
  5
3BA
  8
0
  6
CONTINUOUS
 62
     3
 10
-272.250009
 20
0.053616
 30
0.0
 40
115.0
 50
40.073664
 51
49.926414
  0
CIRCLE
  5
3BB
  8
0
  6
CONTINUOUS
 62
     3
 10
-201.539381
 20
70.764344
 30
0.0
 40
6.75
  0
LINE
  5
3BC
  8
0
  6
CONTINUOUS
 62
     3
 10
-214.250009
 20
73.053717
 30
0.0
 11
-214.250009
 21
86.053717
 31
0.0
  0
LINE
  5
3BD
  8
0
  6
CONTINUOUS
 62
     3
 10
-199.250009
 20
58.053717
 30
0.0
 11
-187.344585
 21
58.053717
 31
0.0
  0
ARC
  5
3BE
  8
0
  6
CONTINUOUS
 62
     3
 10
-199.250009
 20
73.053717
 30
0.0
 40
15.0
 50
180.0
 51
270.0
  0
ARC
  5
3BF
  8
0
  6
CENTER
 62
     4
 10
-272.250009
 20
0.053616
 30
0.0
 40
100.0
 50
38.639201
 51
51.857287
  0
LINE
  5
3C0
  8
0
  6
CENTER
 62
     4
 10
-193.610058
 20
78.693667
 30
0.0
 11
-208.802588
 21
63.501138
 31
0.0
  0
ARC
  5
3C1
  8
0
  6
CONTINUOUS
 62
     3
 10
-216.250009
 20
86.053717
 30
0.0
 40
2.0
 50
0.0
 51
90.0
  0
ARC
  5
3C2
  8
0
  6
CONTINUOUS
 62
     3
 10
-187.344585
 20
56.053717
 30
0.0
 40
2.0
 50
3.799492
 51
90.0
  0
LINE
  5
3C3
  8
0
  6
CONTINUOUS
 62
     3
 10
-346.283664
 20
88.053717
 30
0.0
 11
-272.250009
 21
88.053717
 31
0.0
  0
LINE
  5
3C4
  8
0
  6
CONTINUOUS
 62
     3
 10
-272.250009
 20
88.053717
 30
0.0
 11
-198.216353
 21
88.053717
 31
0.0
  0
ARC
  5
3C5
  8
0
  6
CONTINUOUS
 62
     3
 10
-272.250009
 20
0.053616
 30
0.0
 40
115.0
 50
130.073586
 51
139.926336
  0
ARC
  5
3C6
  8
0
  6
CENTER
 62
     4
 10
-272.250009
 20
0.053616
 30
0.0
 40
100.0
 50
128.769752
 51
141.283878
  0
CIRCLE
  5
3C7
  8
0
  6
CONTINUOUS
 62
     3
 10
-342.960636
 20
70.764344
 30
0.0
 40
6.75
  0
LINE
  5
3C8
  8
0
  6
CONTINUOUS
 62
     3
 10
-330.250009
 20
73.053717
 30
0.0
 11
-330.250009
 21
86.053717
 31
0.0
  0
ARC
  5
3C9
  8
0
  6
CONTINUOUS
 62
     3
 10
-345.250009
 20
73.053717
 30
0.0
 40
15.0
 50
270.0
 51
0.0
  0
LINE
  5
3CA
  8
0
  6
CENTER
 62
     4
 10
-335.845661
 20
63.649369
 30
0.0
 11
-350.757607
 21
78.561315
 31
0.0
  0
ARC
  5
3CB
  8
0
  6
CONTINUOUS
 62
     3
 10
-328.250009
 20
86.053717
 30
0.0
 40
2.0
 50
90.0
 51
180.0
  0
LINE
  5
3CC
  8
0
  6
CENTER
 62
     4
 10
-272.250009
 20
-106.887492
 30
0.0
 11
-272.250009
 21
92.37695
 31
0.0
  0
LINE
  5
3CD
  8
0
  6
CONTINUOUS
 62
     3
 10
-58.249991
 20
-36.946384
 30
0.0
 11
-2.749991
 21
-36.946384
 31
0.0
  0
LINE
  5
3CE
  8
0
  6
CONTINUOUS
 62
     3
 10
-58.249991
 20
-32.946384
 30
0.0
 11
-2.749991
 21
-32.946384
 31
0.0
  0
LINE
  5
3CF
  8
0
  6
CONTINUOUS
 62
     3
 10
-58.249991
 20
-28.946384
 30
0.0
 11
-2.749991
 21
-28.946384
 31
0.0
  0
LINE
  5
3D0
  8
0
  6
CONTINUOUS
 62
     3
 10
-58.249991
 20
-24.946384
 30
0.0
 11
-2.749991
 21
-24.946384
 31
0.0
  0
LINE
  5
3D1
  8
0
  6
CONTINUOUS
 62
     3
 10
-58.249991
 20
37.053616
 30
0.0
 11
-2.749991
 21
37.053616
 31
0.0
  0
LINE
  5
3D2
  8
0
  6
CONTINUOUS
 62
     3
 10
-58.249991
 20
33.053616
 30
0.0
 11
-2.749991
 21
33.053616
 31
0.0
  0
LINE
  5
3D3
  8
0
  6
CONTINUOUS
 62
     3
 10
-58.249991
 20
29.053616
 30
0.0
 11
-2.749991
 21
29.053616
 31
0.0
  0
LINE
  5
3D4
  8
0
  6
CONTINUOUS
 62
     3
 10
-58.249991
 20
25.053616
 30
0.0
 11
-2.749991
 21
25.053616
 31
0.0
  0
LINE
  5
3D5
  8
0
  6
CONTINUOUS
 62
     3
 10
-101.749991
 20
-57.446384
 30
0.0
 11
-2.749991
 21
-57.446384
 31
0.0
  0
LINE
  5
3D6
  8
0
  6
CENTER
 62
     4
 10
160.249991
 20
0.053616
 30
0.0
 11
357.749991
 21
0.053616
 31
0.0
  0
LINE
  5
3D7
  8
0
  6
CONTINUOUS
 62
     3
 10
17.250009
 20
-14.946384
 30
0.0
 11
17.250009
 21
15.053616
 31
0.0
  0
ARC
  5
3D8
  8
0
  6
CENTER
 62
     4
 10
257.749991
 20
0.053616
 30
0.0
 40
100.0
 50
309.41697
 51
321.155669
  0
LINE
  5
3D9
  8
0
  6
CENTER
 62
     4
 10
335.806662
 20
-78.003054
 30
0.0
 11
320.936745
 21
-63.133138
 31
0.0
  0
ARC
  5
3DA
  8
0
  6
CENTER
 62
     4
 10
257.749991
 20
0.053616
 30
0.0
 40
100.0
 50
216.009771
 51
230.873372
  0
LINE
  5
3DB
  8
0
  6
CENTER
 62
     4
 10
195.312035
 20
-62.384341
 30
0.0
 11
180.052364
 21
-77.644012
 31
0.0
  0
ARC
  5
3DC
  8
0
  6
CENTER
 62
     4
 10
257.749991
 20
0.053616
 30
0.0
 40
100.0
 50
129.677732
 51
140.1781
  0
LINE
  5
3DD
  8
0
  6
CENTER
 62
     4
 10
193.756093
 20
64.047514
 30
0.0
 11
180.406677
 21
77.39693
 31
0.0
  0
LINE
  5
3DE
  8
0
  6
CENTER
 62
     4
 10
334.951204
 20
77.254828
 30
0.0
 11
321.793666
 21
64.09729
 31
0.0
  0
CIRCLE
  5
3DF
  8
0
  6
CONTINUOUS
 62
     3
 10
187.039313
 20
-70.657063
 30
0.0
 40
6.75
  0
CIRCLE
  5
3E0
  8
0
  6
CONTINUOUS
 62
     3
 10
328.46067
 20
-70.657063
 30
0.0
 40
6.75
  0
CIRCLE
  5
3E1
  8
0
  6
CONTINUOUS
 62
     3
 10
187.039313
 20
70.764294
 30
0.0
 40
6.75
  0
CIRCLE
  5
3E2
  8
0
  6
CONTINUOUS
 62
     3
 10
328.46067
 20
70.764294
 30
0.0
 40
6.75
  0
ARC
  5
3E3
  8
0
  6
CENTER
 62
     4
 10
257.749991
 20
0.053616
 30
0.0
 40
100.0
 50
36.776514
 51
50.357613
  0
ARC
  5
3E4
  8
0
  6
CONTINUOUS
 62
     3
 10
257.749991
 20
0.053616
 30
0.0
 40
115.0
 50
130.073664
 51
139.926336
  0
ARC
  5
3E5
  8
0
  6
CONTINUOUS
 62
     3
 10
257.749991
 20
0.053616
 30
0.0
 40
115.0
 50
220.073664
 51
229.926336
  0
ARC
  5
3E6
  8
0
  6
CONTINUOUS
 62
     3
 10
257.749991
 20
0.053616
 30
0.0
 40
115.0
 50
310.073664
 51
319.926336
  0
ARC
  5
3E7
  8
0
  6
CONTINUOUS
 62
     3
 10
257.749991
 20
0.053616
 30
0.0
 40
115.0
 50
40.073664
 51
49.926336
  0
LINE
  5
3E8
  8
0
  6
CONTINUOUS
 62
     3
 10
257.749991
 20
-87.946384
 30
0.0
 11
331.783768
 21
-87.946384
 31
0.0
  0
LINE
  5
3E9
  8
0
  6
CONTINUOUS
 62
     3
 10
257.749991
 20
88.053616
 30
0.0
 11
331.555995
 21
88.053616
 31
0.0
  0
LINE
  5
3EA
  8
0
  6
CONTINUOUS
 62
     3
 10
169.749991
 20
0.053616
 30
0.0
 11
169.749991
 21
74.087392
 31
0.0
  0
LINE
  5
3EB
  8
0
  6
CONTINUOUS
 62
     3
 10
345.749991
 20
0.053616
 30
0.0
 11
345.749991
 21
74.087392
 31
0.0
  0
LINE
  5
3EC
  8
0
  6
CONTINUOUS
 62
     3
 10
5.250009
 20
-73.752388
 30
0.0
 11
12.250009
 21
-73.752388
 31
0.0
  0
LINE
  5
3ED
  8
0
  6
CONTINUOUS
 62
     3
 10
5.250009
 20
73.859619
 30
0.0
 11
12.250009
 21
73.859619
 31
0.0
  0
LINE
  5
3EE
  8
0
  6
CONTINUOUS
 62
     3
 10
15.250009
 20
-57.096384
 30
0.0
 11
15.250009
 21
57.203616
 31
0.0
  0
LINE
  5
3EF
  8
0
  6
CONTINUOUS
 62
     3
 10
12.250009
 20
-57.096384
 30
0.0
 11
15.250009
 21
-57.096384
 31
0.0
  0
LINE
  5
3F0
  8
0
  6
CONTINUOUS
 62
     3
 10
12.250009
 20
57.203616
 30
0.0
 11
15.250009
 21
57.203616
 31
0.0
  0
LINE
  5
3F1
  8
0
  6
CONTINUOUS
 62
     3
 10
-58.249991
 20
-87.946384
 30
0.0
 11
-58.249991
 21
88.053616
 31
0.0
  0
LINE
  5
3F2
  8
0
  6
CONTINUOUS
 62
     3
 10
12.250009
 20
-87.946384
 30
0.0
 11
12.250009
 21
88.053616
 31
0.0
  0
LINE
  5
3F3
  8
0
  6
CONTINUOUS
 62
     3
 10
-68.249991
 20
-87.946384
 30
0.0
 11
-68.249991
 21
88.053616
 31
0.0
  0
LINE
  5
3F4
  8
0
  6
CONTINUOUS
 62
     3
 10
12.250009
 20
23.053616
 30
0.0
 11
12.250009
 21
88.053616
 31
0.0
  0
LINE
  5
3F7
  8
0
  6
CONTINUOUS
 62
     3
 10
-0.749991
 20
-73.752388
 30
0.0
 11
12.250009
 21
-73.752388
 31
0.0
  0
LINE
  5
3F8
  8
0
  6
CONTINUOUS
 62
     3
 10
-0.749991
 20
73.859619
 30
0.0
 11
12.250009
 21
73.859619
 31
0.0
  0
LINE
  5
3FA
  8
0
  6
CONTINUOUS
 62
     3
 10
-55.750009
 20
-119.946384
 30
0.0
 11
-14.750009
 21
-119.946384
 31
0.0
  0
LINE
  5
3FB
  8
0
  6
CONTINUOUS
 62
     3
 10
-55.750009
 20
-122.746384
 30
0.0
 11
-14.750009
 21
-122.746384
 31
0.0
  0
LINE
  5
3FC
  8
0
  6
CONTINUOUS
 62
     3
 10
-55.750009
 20
-122.746384
 30
0.0
 11
-55.750009
 21
-118.946384
 31
0.0
  0
LINE
  5
3FD
  8
0
  6
CONTINUOUS
 62
     3
 10
-14.750009
 20
-122.746384
 30
0.0
 11
-14.750009
 21
-118.946384
 31
0.0
  0
LINE
  5
3FE
  8
0
  6
CONTINUOUS
 62
     3
 10
241.349991
 20
-143.946384
 30
0.0
 11
240.349991
 21
-142.946384
 31
0.0
  0
LINE
  5
3FF
  8
0
  6
CONTINUOUS
 62
     3
 10
274.149991
 20
-143.946384
 30
0.0
 11
275.149991
 21
-142.946384
 31
0.0
  0
LINE
  5
400
  8
0
  6
CONTINUOUS
 62
     3
 10
275.149991
 20
-142.946384
 30
0.0
 11
275.149991
 21
-124.946384
 31
0.0
  0
LINE
  5
401
  8
0
  6
CONTINUOUS
 62
     3
 10
240.349991
 20
-142.946384
 30
0.0
 11
240.349991
 21
-124.946384
 31
0.0
  0
LINE
  5
402
  8
0
  6
CONTINUOUS
 62
     3
 10
241.349991
 20
-143.946384
 30
0.0
 11
241.349991
 21
-127.946384
 31
0.0
  0
LINE
  5
403
  8
0
  6
CONTINUOUS
 62
     3
 10
274.149991
 20
-143.946384
 30
0.0
 11
274.149991
 21
-127.946384
 31
0.0
  0
LINE
  5
404
  8
0
  6
CONTINUOUS
 62
     3
 10
240.349991
 20
-142.946384
 30
0.0
 11
275.149991
 21
-142.946384
 31
0.0
  0
LINE
  5
406
  8
0
  6
CONTINUOUS
 62
     3
 10
240.349991
 20
-127.946384
 30
0.0
 11
275.149991
 21
-127.946384
 31
0.0
  0
LINE
  5
407
  8
0
  6
CONTINUOUS
 62
     3
 10
237.249991
 20
-124.946384
 30
0.0
 11
278.249991
 21
-124.946384
 31
0.0
  0
LINE
  5
408
  8
0
  6
CONTINUOUS
 62
     3
 10
237.249991
 20
-122.146384
 30
0.0
 11
278.249991
 21
-122.146384
 31
0.0
  0
LINE
  5
409
  8
0
  6
CONTINUOUS
 62
     3
 10
236.749991
 20
-121.146384
 30
0.0
 11
278.749991
 21
-121.146384
 31
0.0
  0
LINE
  5
40A
  8
0
  6
CONTINUOUS
 62
     3
 10
237.249991
 20
-124.946384
 30
0.0
 11
237.249991
 21
-121.146384
 31
0.0
  0
LINE
  5
40B
  8
0
  6
CONTINUOUS
 62
     3
 10
278.249991
 20
-124.946384
 30
0.0
 11
278.249991
 21
-121.146384
 31
0.0
  0
LINE
  5
40C
  8
0
  6
CONTINUOUS
 62
     3
 10
237.249991
 20
-121.146384
 30
0.0
 11
278.249991
 21
-121.146384
 31
0.0
  0
LINE
  5
40D
  8
0
  6
CONTINUOUS
 62
     3
 10
183.716215
 20
88.053616
 30
0.0
 11
257.749991
 21
88.053616
 31
0.0
  0
LINE
  5
40E
  8
0
  6
CONTINUOUS
 62
     3
 10
169.749991
 20
-73.98016
 30
0.0
 11
169.749991
 21
0.053616
 31
0.0
  0
LINE
  5
40F
  8
0
  6
CONTINUOUS
 62
     3
 10
183.716215
 20
-87.946384
 30
0.0
 11
257.749991
 21
-87.946384
 31
0.0
  0
LINE
  5
410
  8
0
  6
CONTINUOUS
 62
     3
 10
345.749991
 20
-73.98016
 30
0.0
 11
345.749991
 21
0.053616
 31
0.0
  0
LINE
  5
411
  8
0
  6
CENTER
 62
     4
 10
-35.250009
 20
-145.527866
 30
0.0
 11
-35.250009
 21
-102.446384
 31
0.0
  0
LINE
  5
412
  8
0
  6
CONTINUOUS
 62
     3
 10
-51.650009
 20
-141.746384
 30
0.0
 11
-18.850009
 21
-141.746384
 31
0.0
  0
LINE
  5
413
  8
0
  6
CONTINUOUS
 62
     3
 10
-52.650009
 20
-140.746384
 30
0.0
 11
-52.650009
 21
-122.746384
 31
0.0
  0
LINE
  5
414
  8
0
  6
CONTINUOUS
 62
     3
 10
-17.850009
 20
-140.746384
 30
0.0
 11
-17.850009
 21
-125.746384
 31
0.0
  0
LINE
  5
415
  8
0
  6
CONTINUOUS
 62
     3
 10
-52.650009
 20
-140.746384
 30
0.0
 11
-51.650009
 21
-141.746384
 31
0.0
  0
LINE
  5
416
  8
0
  6
CONTINUOUS
 62
     3
 10
-18.850009
 20
-141.746384
 30
0.0
 11
-17.850009
 21
-140.746384
 31
0.0
  0
LINE
  5
417
  8
0
  6
CONTINUOUS
 62
     3
 10
-52.650009
 20
-140.746384
 30
0.0
 11
-17.850009
 21
-140.746384
 31
0.0
  0
LINE
  5
418
  8
0
  6
CONTINUOUS
 62
     3
 10
-18.850009
 20
-141.746384
 30
0.0
 11
-18.850009
 21
-125.746384
 31
0.0
  0
LINE
  5
419
  8
0
  6
CONTINUOUS
 62
     3
 10
-51.650009
 20
-141.746384
 30
0.0
 11
-51.650009
 21
-125.746384
 31
0.0
  0
LINE
  5
41A
  8
0
  6
CONTINUOUS
 62
     3
 10
-52.650009
 20
-125.746384
 30
0.0
 11
-17.850009
 21
-125.746384
 31
0.0
  0
LINE
  5
41B
  8
0
  6
CONTINUOUS
 62
     3
 10
-17.850009
 20
-125.746384
 30
0.0
 11
-17.850009
 21
-122.746384
 31
0.0
  0
LINE
  5
41C
  8
0
  6
CONTINUOUS
 62
     3
 10
-56.250009
 20
-118.946384
 30
0.0
 11
-14.250009
 21
-118.946384
 31
0.0
  0
LINE
  5
41D
  8
0
  6
CONTINUOUS
 62
     3
 10
-68.249991
 20
-87.946384
 30
0.0
 11
12.250009
 21
-87.946384
 31
0.0
  0
LINE
  5
41E
  8
0
  6
CONTINUOUS
 62
     3
 10
-57.749991
 20
88.053616
 30
0.0
 11
12.250009
 21
88.053616
 31
0.0
  0
LINE
  5
41F
  8
0
  6
CONTINUOUS
 62
     3
 10
12.250009
 20
-87.946384
 30
0.0
 11
12.250009
 21
-22.946384
 31
0.0
  0
TEXT
  5
44F
  8
1
  6
CONTINUOUS
 62
     4
 10
-172.5
 20
91.5
 30
0.0
 40
5.0
  1
Ѓ@
 50
0.000003
 41
0.666667
  7
STANDARD1
  0
TEXT
  5
46B
  8
1
  6
CONTINUOUS
 62
     4
 10
48.461361
 20
131.513916
 30
0.0
 40
3.2
  1
Ѓ@
 50
0.000003
 41
0.713542
  7
STANDARD1
  0
POINT
  5
56A
  8
0
  6
CONTINUOUS
 62
     3
 10
-17.250009
 20
0.053616
 30
0.0
  0
TEXT
  5
586
  8
1
  6
CONTINUOUS
 62
     4
 10
-6.432953
 20
-93.904388
 30
0.0
 40
3.2
  1
 
 50
0.000003
 41
0.57625
  7
STANDARD1
  0
ARC
  5
588
  8
0
  6
DASHDOT
 62
     4
 10
-272.250009
 20
0.053616
 30
0.0
 40
107.5
 50
227.403056
 51
233.205981
  0
CIRCLE
  5
589
  8
0
  6
CONTINUOUS
 62
     4
 10
-341.349677
 20
-82.296162
 30
0.0
 40
2.5
  0
CIRCLE
  5
58A
  8
0
  6
CONTINUOUS
 62
     3
 10
-341.349671
 20
-82.296162
 30
0.0
 40
3.0
  0
ARC
  5
58B
  8
0
  6
CENTER
 62
     4
 10
-272.250002
 20
0.053616
 30
0.0
 40
107.5
 50
227.403056
 51
233.205981
  0
CIRCLE
  5
58C
  8
0
  6
CONTINUOUS
 62
     4
 10
-341.349671
 20
-82.296162
 30
0.0
 40
2.5
  0
CIRCLE
  5
58D
  8
0
  6
CONTINUOUS
 62
     3
 10
-341.349677
 20
-82.296162
 30
0.0
 40
3.0
  0
CIRCLE
  5
58E
  8
0
  6
CONTINUOUS
 62
     3
 10
-203.15034
 20
82.403393
 30
0.0
 40
3.0
  0
ARC
  5
58F
  8
0
  6
DASHDOT
 62
     4
 10
-272.250009
 20
0.053616
 30
0.0
 40
107.5
 50
47.403056
 51
53.205981
  0
CIRCLE
  5
590
  8
0
  6
CONTINUOUS
 62
     4
 10
-203.15034
 20
82.403393
 30
0.0
 40
2.5
  0
CIRCLE
  5
591
  8
0
  6
CONTINUOUS
 62
     4
 10
-203.150334
 20
82.403393
 30
0.0
 40
2.5
  0
CIRCLE
  5
592
  8
0
  6
CONTINUOUS
 62
     3
 10
-203.150334
 20
82.403393
 30
0.0
 40
3.0
  0
ARC
  5
593
  8
0
  6
CENTER
 62
     4
 10
-272.250002
 20
0.053616
 30
0.0
 40
107.5
 50
47.403056
 51
53.205981
  0
ARC
  5
594
  8
0
  6
DASHDOT
 62
     4
 10
257.749991
 20
0.053616
 30
0.0
 40
107.5
 50
306.794019
 51
312.596944
  0
CIRCLE
  5
595
  8
0
  6
CONTINUOUS
 62
     4
 10
326.84966
 20
-82.296162
 30
0.0
 40
2.5
  0
CIRCLE
  5
596
  8
0
  6
CONTINUOUS
 62
     3
 10
326.849654
 20
-82.296162
 30
0.0
 40
3.0
  0
ARC
  5
597
  8
0
  6
CENTER
 62
     4
 10
257.749985
 20
0.053616
 30
0.0
 40
107.5
 50
306.794019
 51
312.596944
  0
CIRCLE
  5
598
  8
0
  6
CONTINUOUS
 62
     4
 10
326.849654
 20
-82.296162
 30
0.0
 40
2.5
  0
CIRCLE
  5
599
  8
0
  6
CONTINUOUS
 62
     3
 10
326.84966
 20
-82.296162
 30
0.0
 40
3.0
  0
CIRCLE
  5
59A
  8
0
  6
CONTINUOUS
 62
     3
 10
188.650323
 20
82.403393
 30
0.0
 40
3.0
  0
ARC
  5
59B
  8
0
  6
DASHDOT
 62
     4
 10
257.749991
 20
0.053616
 30
0.0
 40
107.5
 50
126.794019
 51
132.596944
  0
CIRCLE
  5
59C
  8
0
  6
CONTINUOUS
 62
     4
 10
188.650323
 20
82.403393
 30
0.0
 40
2.5
  0
CIRCLE
  5
59D
  8
0
  6
CONTINUOUS
 62
     4
 10
188.650317
 20
82.403393
 30
0.0
 40
2.5
  0
CIRCLE
  5
59E
  8
0
  6
CONTINUOUS
 62
     3
 10
188.650317
 20
82.403393
 30
0.0
 40
3.0
  0
ARC
  5
59F
  8
0
  6
CENTER
 62
     4
 10
257.749985
 20
0.053616
 30
0.0
 40
107.5
 50
126.794019
 51
132.596944
  0
TEXT
  5
7E1
  8
0
  6
CONTINUOUS
 62
     0
 10
-364.578991
 20
191.453688
 30
0.0
 40
10.0
  1
HC-UF152B
  7
STANDARD1
  0
LINE
  5
7E2
  8
0
  6
CONTINUOUS
 62
     3
 10
241.349991
 20
-143.946384
 30
0.0
 11
274.149991
 21
-143.946384
 31
0.0
  0
ENDSEC
  0
EOF
