  0
SECTION
  2
HEADER
  9
$ACADVER
  1
AC1009
  9
$INSBASE
 10
0.0
 20
0.0
 30
0.0
  9
$EXTMIN
 10
45.965103
 20
145.01082
 30
0.0
  9
$EXTMAX
 10
806.32465
 20
444.99033
 30
0.0
  9
$LIMMIN
 10
0.0
 20
0.0
  9
$LIMMAX
 10
12.0
 20
9.0
  9
$ORTHOMODE
 70
     0
  9
$REGENMODE
 70
     1
  9
$FILLMODE
 70
     1
  9
$QTEXTMODE
 70
     0
  9
$MIRRTEXT
 70
     1
  9
$DRAGMODE
 70
     2
  9
$LTSCALE
 40
1.0
  9
$OSMODE
 70
     1
  9
$ATTMODE
 70
     1
  9
$TEXTSIZE
 40
0.2
  9
$TRACEWID
 40
0.05
  9
$TEXTSTYLE
  7
STANDARD
  9
$CLAYER
  8
0
  9
$CELTYPE
  6
CONTINUOUS
  9
$CECOLOR
 62
   256
  9
$DIMSCALE
 40
1.0
  9
$DIMASZ
 40
0.18
  9
$DIMEXO
 40
0.0625
  9
$DIMDLI
 40
0.38
  9
$DIMRND
 40
0.0
  9
$DIMDLE
 40
0.0
  9
$DIMEXE
 40
0.18
  9
$DIMTP
 40
0.0
  9
$DIMTM
 40
0.0
  9
$DIMTXT
 40
5.0
  9
$DIMCEN
 40
0.09
  9
$DIMTSZ
 40
0.0
  9
$DIMTOL
 70
     0
  9
$DIMLIM
 70
     0
  9
$DIMTIH
 70
     1
  9
$DIMTOH
 70
     1
  9
$DIMSE1
 70
     0
  9
$DIMSE2
 70
     0
  9
$DIMTAD
 70
     0
  9
$DIMZIN
 70
     0
  9
$DIMBLK
  1

  9
$DIMASO
 70
     1
  9
$DIMSHO
 70
     1
  9
$DIMPOST
  1

  9
$DIMAPOST
  1

  9
$DIMALT
 70
     0
  9
$DIMALTD
 70
     2
  9
$DIMALTF
 40
25.4
  9
$DIMLFAC
 40
1.0
  9
$DIMTOFL
 70
     0
  9
$DIMTVP
 40
0.0
  9
$DIMTIX
 70
     0
  9
$DIMSOXD
 70
     0
  9
$DIMSAH
 70
     0
  9
$DIMBLK1
  1

  9
$DIMBLK2
  1

  9
$DIMSTYLE
  2
STANDARD
  9
$DIMCLRD
 70
     0
  9
$DIMCLRE
 70
     0
  9
$DIMCLRT
 70
     0
  9
$DIMTFAC
 40
1.0
  9
$DIMGAP
 40
5.0
  9
$LUNITS
 70
     2
  9
$LUPREC
 70
     4
  9
$SKETCHINC
 40
0.1
  9
$FILLETRAD
 40
0.0
  9
$AUNITS
 70
     0
  9
$AUPREC
 70
     0
  9
$MENU
  1
.
  9
$ELEVATION
 40
0.0
  9
$PELEVATION
 40
0.0
  9
$THICKNESS
 40
0.0
  9
$LIMCHECK
 70
     0
  9
$BLIPMODE
 70
     0
  9
$CHAMFERA
 40
0.0
  9
$CHAMFERB
 40
0.0
  9
$SKPOLY
 70
     0
  9
$TDCREATE
 40
2450795.571813
  9
$TDUPDATE
 40
2450795.571813
  9
$TDINDWG
 40
0.0
  9
$TDUSRTIMER
 40
0.0
  9
$USRTIMER
 70
     1
  9
$ANGBASE
 50
0.0
  9
$ANGDIR
 70
     0
  9
$PDMODE
 70
     0
  9
$PDSIZE
 40
0.0
  9
$PLINEWID
 40
0.0
  9
$COORDS
 70
     1
  9
$SPLFRAME
 70
     0
  9
$SPLINETYPE
 70
     6
  9
$SPLINESEGS
 70
     8
  9
$ATTDIA
 70
     0
  9
$ATTREQ
 70
     1
  9
$HANDLING
 70
     1
  9
$HANDSEED
  5
287
  9
$SURFTAB1
 70
     6
  9
$SURFTAB2
 70
     6
  9
$SURFTYPE
 70
     6
  9
$SURFU
 70
     6
  9
$SURFV
 70
     6
  9
$UCSNAME
  2

  9
$UCSORG
 10
0.0
 20
0.0
 30
0.0
  9
$UCSXDIR
 10
1.0
 20
0.0
 30
0.0
  9
$UCSYDIR
 10
0.0
 20
1.0
 30
0.0
  9
$PUCSNAME
  2

  9
$PUCSORG
 10
0.0
 20
0.0
 30
0.0
  9
$PUCSXDIR
 10
1.0
 20
0.0
 30
0.0
  9
$PUCSYDIR
 10
0.0
 20
1.0
 30
0.0
  9
$USERI1
 70
     0
  9
$USERI2
 70
     0
  9
$USERI3
 70
     0
  9
$USERI4
 70
     0
  9
$USERI5
 70
     0
  9
$USERR1
 40
0.0
  9
$USERR2
 40
0.0
  9
$USERR3
 40
0.0
  9
$USERR4
 40
0.0
  9
$USERR5
 40
0.0
  9
$WORLDVIEW
 70
     1
  9
$SHADEDGE
 70
     3
  9
$SHADEDIF
 70
    70
  9
$TILEMODE
 70
     1
  9
$MAXACTVP
 70
    48
  9
$PLIMCHECK
 70
     0
  9
$PEXTMIN
 10
1.000000E+020
 20
1.000000E+020
 30
1.000000E+020
  9
$PEXTMAX
 10
-1.000000E+020
 20
-1.000000E+020
 30
-1.000000E+020
  9
$PLIMMIN
 10
0.0
 20
0.0
  9
$PLIMMAX
 10
12.0
 20
9.0
  9
$UNITMODE
 70
     0
  9
$VISRETAIN
 70
     1
  9
$PLINEGEN
 70
     0
  9
$PSLTSCALE
 70
     1
  0
ENDSEC
  0
SECTION
  2
TABLES
  0
TABLE
  2
VPORT
 70
     2
  0
VPORT
  2
*ACTIVE
 70
     0
 10
0.0
 20
0.0
 11
1.0
 21
1.0
 12
403.162324
 22
236.966561
 13
0.0
 23
0.0
 14
1.0
 24
1.0
 15
0.0
 25
0.0
 16
0.0
 26
0.0
 36
1.0
 17
0.0
 27
0.0
 37
0.0
 40
708.88403
 41
1.602828
 42
50.0
 43
0.0
 44
0.0
 50
0.0
 51
0.0
 71
     0
 72
   100
 73
     1
 74
     1
 75
     0
 76
     0
 77
     0
 78
     0
  0
ENDTAB
  0
TABLE
  2
LTYPE
 70
     5
  0
LTYPE
  2
CONTINUOUS
 70
     0
  3
Solid line
 72
    65
 73
     0
 40
0.0
  0
LTYPE
  2
DASHED
 70
     0
  3
__ __ __ __ __ __ __ __ __ __ __ __ __ __ __
 72
    65
 73
     2
 40
3.5
 49
2.0
 49
-1.5
  0
LTYPE
  2
CENTER
 70
     0
  3
____ _ ____ _ ____ _ ____ _ ____ _ ____ _ ____
 72
    65
 73
     4
 40
17.5
 49
13.0
 49
-1.5
 49
1.5
 49
-1.5
  0
LTYPE
  2
PHANTOM
 70
     0
  3
_____ _ _ _____ _ _ _____ _ _ _____ _ _ ____  
 72
    65
 73
     6
 40
15.5
 49
8.0
 49
-1.5
 49
1.5
 49
-1.5
 49
1.5
 49
-1.5
  0
LTYPE
  2
DOT
 70
     0
  3
. . . . . . . . . . . . . . . . . . . . . . . .
 72
    65
 73
     2
 40
0.25
 49
0.0
 49
-0.25
  0
ENDTAB
  0
TABLE
  2
LAYER
 70
     2
  0
LAYER
  2
0
 70
     0
 62
     7
  6
CONTINUOUS
  0
LAYER
  2
DEFPOINTS
 70
     0
 62
     7
  6
CONTINUOUS
  0
ENDTAB
  0
TABLE
  2
STYLE
 70
     1
  0
STYLE
  2
STANDARD
 70
     0
 40
0.0
 41
1.0
 50
0.0
 71
     0
 42
0.2
  3
txt
  4

  0
ENDTAB
  0
TABLE
  2
VIEW
 70
     0
  0
ENDTAB
  0
TABLE
  2
UCS
 70
     0
  0
ENDTAB
  0
TABLE
  2
APPID
 70
     1
  0
APPID
  2
ACAD
 70
     0
  0
ENDTAB
  0
TABLE
  2
DIMSTYLE
 70
     1
  0
DIMSTYLE
  2
STANDARD
 70
     0
  3

  4

  5

  6

  7

 40
1.0
 41
0.18
 42
0.0625
 43
0.38
 44
0.18
 45
0.0
 46
0.0
 47
0.0
 48
0.0
140
0.18
141
0.09
142
0.0
143
25.4
144
1.0
145
0.0
146
1.0
147
0.09
 71
     0
 72
     0
 73
     1
 74
     1
 75
     0
 76
     0
 77
     0
 78
     0
170
     0
171
     2
172
     0
173
     0
174
     0
175
     0
176
     0
177
     0
178
     0
  0
ENDTAB
  0
ENDSEC
  0
SECTION
  2
BLOCKS
  0
BLOCK
  8
0
  2
$MODEL_SPACE
 70
     0
 10
0.0
 20
0.0
 30
0.0
  3
$MODEL_SPACE
  1

  0
ENDBLK
  5
281
  8
0
  0
BLOCK
 67
     1
  8
0
  2
$PAPER_SPACE
 70
     0
 10
0.0
 20
0.0
 30
0.0
  3
$PAPER_SPACE
  1

  0
ENDBLK
  5
27F
 67
     1
  8
0
  0
BLOCK
  8
0
  2
*D2
 70
     1
 10
0.0
 20
0.0
 30
0.0
  3
*D2
  1

  0
LINE
  5
1F3
  8
0
  6
BYBLOCK
 62
     0
 10
619.331409
 20
365.432431
 30
0.0
 11
619.331409
 21
428.284936
 31
0.0
  0
LINE
  5
1F4
  8
0
  6
BYBLOCK
 62
     0
 10
795.33185
 20
365.43399
 30
0.0
 11
795.33185
 21
428.284936
 31
0.0
  0
LINE
  5
1F5
  8
0
  6
BYBLOCK
 62
     0
 10
619.511409
 20
428.104936
 30
0.0
 11
706.68663
 21
428.104936
 31
0.0
  0
LINE
  5
1F6
  8
0
  6
BYBLOCK
 62
     0
 10
795.15185
 20
428.104936
 30
0.0
 11
707.97663
 21
428.104936
 31
0.0
  0
SOLID
  5
1F7
  8
0
  6
BYBLOCK
 62
     0
 10
619.511409
 20
428.134936
 30
0.0
 11
619.511409
 21
428.074936
 31
0.0
 12
619.331409
 22
428.104936
 32
0.0
 13
619.331409
 23
428.104936
 33
0.0
  0
SOLID
  5
1F8
  8
0
  6
BYBLOCK
 62
     0
 10
795.15185
 20
428.134936
 30
0.0
 11
795.15185
 21
428.074936
 31
0.0
 12
795.33185
 22
428.104936
 32
0.0
 13
795.33185
 23
428.104936
 33
0.0
  0
TEXT
  5
201
  8
0
 62
     0
 10
706.972
 20
427.786
 30
0.0
 40
0.18
  1
176.0004
  0
POINT
  5
1FB
  8
DEFPOINTS
  6
BYBLOCK
 62
     0
 10
619.331409
 20
365.369931
 30
0.0
  0
POINT
  5
1FC
  8
DEFPOINTS
  6
BYBLOCK
 62
     0
 10
795.33185
 20
365.37149
 30
0.0
  0
POINT
  5
1FD
  8
DEFPOINTS
  6
BYBLOCK
 62
     0
 10
795.33185
 20
428.104936
 30
0.0
  0
ENDBLK
  5
1FE
  8
0
  0
BLOCK
  8
0
  2
*D3
 70
     1
 10
0.0
 20
0.0
 30
0.0
  3
*D3
  1

  0
LINE
  5
22E
  8
0
  6
BYBLOCK
 62
     0
 10
481.42645
 20
348.48721
 30
0.0
 11
587.03077
 21
348.48721
 31
0.0
  0
LINE
  5
22F
  8
0
  6
BYBLOCK
 62
     0
 10
481.42645
 20
234.18719
 30
0.0
 11
587.03077
 21
234.18719
 31
0.0
  0
LINE
  5
230
  8
0
  6
BYBLOCK
 62
     0
 10
586.85077
 20
348.30721
 30
0.0
 11
586.85077
 21
291.5172
 31
0.0
  0
LINE
  5
231
  8
0
  6
BYBLOCK
 62
     0
 10
586.85077
 20
234.36719
 30
0.0
 11
586.85077
 21
291.1572
 31
0.0
  0
SOLID
  5
232
  8
0
  6
BYBLOCK
 62
     0
 10
586.82077
 20
348.30721
 30
0.0
 11
586.88077
 21
348.30721
 31
0.0
 12
586.85077
 22
348.48721
 32
0.0
 13
586.85077
 23
348.48721
 33
0.0
  0
SOLID
  5
233
  8
0
  6
BYBLOCK
 62
     0
 10
586.82077
 20
234.36719
 30
0.0
 11
586.88077
 21
234.36719
 31
0.0
 12
586.85077
 22
234.18719
 32
0.0
 13
586.85077
 23
234.18719
 33
0.0
  0
TEXT
  5
234
  8
0
  6
BYBLOCK
 62
     0
 10
586.32577
 20
291.2472
 30
0.0
 40
0.18
  1
114.3000
  0
POINT
  5
235
  8
DEFPOINTS
  6
BYBLOCK
 62
     0
 10
481.36395
 20
348.48721
 30
0.0
  0
POINT
  5
236
  8
DEFPOINTS
  6
BYBLOCK
 62
     0
 10
481.36395
 20
234.18719
 30
0.0
  0
POINT
  5
237
  8
DEFPOINTS
  6
BYBLOCK
 62
     0
 10
586.85077
 20
234.18719
 30
0.0
  0
ENDBLK
  5
238
  8
0
  0
BLOCK
  8
0
  2
*D4
 70
     1
 10
0.0
 20
0.0
 30
0.0
  3
*D4
  1

  0
LINE
  5
23C
  8
0
  6
BYBLOCK
 62
     0
 10
481.42645
 20
348.48721
 30
0.0
 11
572.90089
 21
348.48721
 31
0.0
  0
LINE
  5
23D
  8
0
  6
BYBLOCK
 62
     0
 10
481.42645
 20
234.18719
 30
0.0
 11
572.90089
 21
234.18719
 31
0.0
  0
LINE
  5
23E
  8
0
  6
BYBLOCK
 62
     0
 10
572.72089
 20
348.30721
 30
0.0
 11
572.72089
 21
298.8372
 31
0.0
  0
LINE
  5
23F
  8
0
  6
BYBLOCK
 62
     0
 10
572.72089
 20
234.36719
 30
0.0
 11
572.72089
 21
283.8372
 31
0.0
  0
SOLID
  5
240
  8
0
  6
BYBLOCK
 62
     0
 10
572.69089
 20
348.30721
 30
0.0
 11
572.75089
 21
348.30721
 31
0.0
 12
572.72089
 22
348.48721
 32
0.0
 13
572.72089
 23
348.48721
 33
0.0
  0
SOLID
  5
241
  8
0
  6
BYBLOCK
 62
     0
 10
572.69089
 20
234.36719
 30
0.0
 11
572.75089
 21
234.36719
 31
0.0
 12
572.72089
 22
234.18719
 32
0.0
 13
572.72089
 23
234.18719
 33
0.0
  0
TEXT
  5
242
  8
0
  6
BYBLOCK
 62
     0
 10
558.137556
 20
288.8372
 30
0.0
 40
5.0
  1
114.3000
  0
POINT
  5
243
  8
DEFPOINTS
  6
BYBLOCK
 62
     0
 10
481.36395
 20
348.48721
 30
0.0
  0
POINT
  5
244
  8
DEFPOINTS
  6
BYBLOCK
 62
     0
 10
481.36395
 20
234.18719
 30
0.0
  0
POINT
  5
245
  8
DEFPOINTS
  6
BYBLOCK
 62
     0
 10
572.72089
 20
234.18719
 30
0.0
  0
ENDBLK
  5
246
  8
0
  0
BLOCK
  8
0
  2
*D5
 70
     1
 10
0.0
 20
0.0
 30
0.0
  3
*D5
  1

  0
LINE
  5
24A
  8
0
  6
BYBLOCK
 62
     0
 10
557.42645
 20
308.83719
 30
0.0
 11
594.09571
 21
308.83719
 31
0.0
  0
LINE
  5
24B
  8
0
  6
BYBLOCK
 62
     0
 10
557.42645
 20
273.83719
 30
0.0
 11
594.09571
 21
273.83719
 31
0.0
  0
LINE
  5
24C
  8
0
  6
BYBLOCK
 62
     0
 10
593.91571
 20
308.65719
 30
0.0
 11
593.91571
 21
298.83719
 31
0.0
  0
LINE
  5
24D
  8
0
  6
BYBLOCK
 62
     0
 10
593.91571
 20
274.01719
 30
0.0
 11
593.91571
 21
283.83719
 31
0.0
  0
SOLID
  5
24E
  8
0
  6
BYBLOCK
 62
     0
 10
593.88571
 20
308.65719
 30
0.0
 11
593.94571
 21
308.65719
 31
0.0
 12
593.91571
 22
308.83719
 32
0.0
 13
593.91571
 23
308.83719
 33
0.0
  0
SOLID
  5
24F
  8
0
  6
BYBLOCK
 62
     0
 10
593.88571
 20
274.01719
 30
0.0
 11
593.94571
 21
274.01719
 31
0.0
 12
593.91571
 22
273.83719
 32
0.0
 13
593.91571
 23
273.83719
 33
0.0
  0
TEXT
  5
250
  8
0
  6
BYBLOCK
 62
     0
 10
580.582376
 20
288.83719
 30
0.0
 40
5.0
  1
35.0000
  0
POINT
  5
251
  8
DEFPOINTS
  6
BYBLOCK
 62
     0
 10
557.36395
 20
308.83719
 30
0.0
  0
POINT
  5
252
  8
DEFPOINTS
  6
BYBLOCK
 62
     0
 10
557.36395
 20
273.83719
 30
0.0
  0
POINT
  5
253
  8
DEFPOINTS
  6
BYBLOCK
 62
     0
 10
593.91571
 20
273.83719
 30
0.0
  0
ENDBLK
  5
254
  8
0
  0
ENDSEC
  0
SECTION
  2
ENTITIES
  0
LINE
  5
23
  8
0
  6
CONTINUOUS
 62
     5
 10
154.31914
 20
149.33707
 30
0.0
 11
118.31914
 21
149.33707
 31
0.0
  0
LINE
  5
24
  8
0
  6
CONTINUOUS
 62
     5
 10
118.31914
 20
149.33707
 30
0.0
 11
118.31914
 21
165.33707
 31
0.0
  0
LINE
  5
25
  8
0
  6
CONTINUOUS
 62
     5
 10
117.31921
 20
169.96706
 30
0.0
 11
117.31921
 21
151.33707
 31
0.0
  0
LINE
  5
26
  8
0
  6
CONTINUOUS
 62
     5
 10
155.31914
 20
151.33707
 30
0.0
 11
155.31914
 21
169.96706
 31
0.0
  0
LINE
  5
27
  8
0
  6
CONTINUOUS
 62
     5
 10
155.31914
 20
165.33707
 30
0.0
 11
117.31914
 21
165.33707
 31
0.0
  0
LINE
  5
28
  8
0
  6
CONTINUOUS
 62
     5
 10
117.31914
 20
151.33707
 30
0.0
 11
155.31914
 21
151.33707
 31
0.0
  0
LINE
  5
29
  8
0
  6
CONTINUOUS
 62
     5
 10
154.31914
 20
165.33707
 30
0.0
 11
154.31914
 21
149.33707
 31
0.0
  0
LINE
  5
2A
  8
0
  6
CENTER
 62
     6
 10
136.31935
 20
145.01082
 30
0.0
 11
136.31935
 21
384.19257
 31
0.0
  0
LINE
  5
2B
  8
0
  6
CONTINUOUS
 62
     5
 10
93.819351
 20
263.83371
 30
0.0
 11
93.819351
 21
318.84088
 31
0.0
  0
LINE
  5
2C
  8
0
  6
CONTINUOUS
 62
     5
 10
93.819366
 20
318.84088
 30
0.0
 11
108.80633
 21
333.82785
 31
0.0
  0
LINE
  5
2D
  8
0
  6
CONTINUOUS
 62
     5
 10
108.80632
 20
333.82785
 30
0.0
 11
163.83235
 21
333.82785
 31
0.0
  0
LINE
  5
2E
  8
0
  6
CONTINUOUS
 62
     5
 10
163.83235
 20
333.82785
 30
0.0
 11
178.81934
 21
318.84088
 31
0.0
  0
LINE
  5
2F
  8
0
  6
CONTINUOUS
 62
     5
 10
178.81934
 20
263.83371
 30
0.0
 11
178.81934
 21
318.84088
 31
0.0
  0
LINE
  5
30
  8
0
  6
CONTINUOUS
 62
     5
 10
163.81346
 20
248.82785
 30
0.0
 11
178.81934
 21
263.83371
 31
0.0
  0
LINE
  5
31
  8
0
  6
CONTINUOUS
 62
     5
 10
156.81935
 20
248.82785
 30
0.0
 11
163.81346
 21
248.82785
 31
0.0
  0
LINE
  5
32
  8
0
  6
CONTINUOUS
 62
     5
 10
93.819351
 20
263.83377
 30
0.0
 11
108.82521
 21
248.82785
 31
0.0
  0
LINE
  5
33
  8
0
  6
CONTINUOUS
 62
     5
 10
117.26933
 20
229.13686
 30
0.0
 11
155.36934
 21
229.13686
 31
0.0
  0
LINE
  5
34
  8
0
  6
CONTINUOUS
 62
     5
 10
156.81935
 20
231.92786
 30
0.0
 11
115.81935
 21
231.92786
 31
0.0
  0
LINE
  5
35
  8
0
  6
CONTINUOUS
 62
     5
 10
115.81935
 20
231.92786
 30
0.0
 11
115.81935
 21
256.98969
 31
0.0
  0
LINE
  5
36
  8
0
  6
CONTINUOUS
 62
     5
 10
155.36934
 20
229.13686
 30
0.0
 11
155.36934
 21
257.88052
 31
0.0
  0
LINE
  5
37
  8
0
  6
CONTINUOUS
 62
     5
 10
156.81935
 20
231.92786
 30
0.0
 11
156.81935
 21
256.98969
 31
0.0
  0
LINE
  5
38
  8
0
  6
CENTER
 62
     6
 10
119.08849
 20
245.82785
 30
0.0
 11
123.80104
 21
245.82785
 31
0.0
  0
LINE
  5
39
  8
0
  6
CENTER
 62
     6
 10
121.61934
 20
243.73586
 30
0.0
 11
121.61934
 21
248.73586
 31
0.0
  0
LINE
  5
3A
  8
0
  6
CENTER
 62
     6
 10
151.01933
 20
243.54407
 30
0.0
 11
151.01933
 21
248.54407
 31
0.0
  0
LINE
  5
3B
  8
0
  6
CENTER
 62
     6
 10
153.3362
 20
245.82785
 30
0.0
 11
148.43187
 21
245.82785
 31
0.0
  0
LINE
  5
3C
  8
0
  6
CONTINUOUS
 62
     5
 10
151.11934
 20
229.13686
 30
0.0
 11
151.11934
 21
210.83685
 31
0.0
  0
LINE
  5
3D
  8
0
  6
CONTINUOUS
 62
     5
 10
151.11932
 20
210.83685
 30
0.0
 11
150.11934
 21
209.83687
 31
0.0
  0
LINE
  5
3E
  8
0
  6
CONTINUOUS
 62
     5
 10
150.11934
 20
209.83685
 30
0.0
 11
122.51933
 21
209.83685
 31
0.0
  0
LINE
  5
3F
  8
0
  6
CONTINUOUS
 62
     5
 10
122.51934
 20
209.83685
 30
0.0
 11
121.51934
 21
210.83685
 31
0.0
  0
LINE
  5
40
  8
0
  6
CONTINUOUS
 62
     5
 10
121.51933
 20
210.83685
 30
0.0
 11
121.51933
 21
229.13686
 31
0.0
  0
LINE
  5
41
  8
0
  6
CONTINUOUS
 62
     5
 10
151.11934
 20
226.13686
 30
0.0
 11
121.51933
 21
226.13686
 31
0.0
  0
LINE
  5
42
  8
0
  6
CONTINUOUS
 62
     5
 10
122.51933
 20
226.13686
 30
0.0
 11
122.51933
 21
209.83685
 31
0.0
  0
LINE
  5
43
  8
0
  6
CONTINUOUS
 62
     5
 10
151.11934
 20
210.83685
 30
0.0
 11
121.51933
 21
210.83685
 31
0.0
  0
LINE
  5
44
  8
0
  6
CONTINUOUS
 62
     5
 10
150.11934
 20
209.83685
 30
0.0
 11
150.11934
 21
226.13686
 31
0.0
  0
LINE
  5
45
  8
0
  6
CONTINUOUS
 62
     5
 10
115.81935
 20
248.82785
 30
0.0
 11
108.8252
 21
248.82785
 31
0.0
  0
LINE
  5
46
  8
0
  6
CONTINUOUS
 62
     5
 10
168.00719
 20
253.57314
 30
0.0
 11
163.83391
 21
258.54666
 31
0.0
  0
LINE
  5
47
  8
0
  6
CENTER
 62
     6
 10
98.565544
 20
259.65802
 30
0.0
 11
103.56391
 21
263.85214
 31
0.0
  0
LINE
  5
48
  8
0
  6
CENTER
 62
     6
 10
167.8495
 20
317.79413
 30
0.0
 11
173.98537
 21
322.94272
 31
0.0
  0
LINE
  5
49
  8
0
  6
CONTINUOUS
 62
     5
 10
194.31934
 20
205.3373
 30
0.0
 11
194.31934
 21
218.3373
 31
0.0
  0
LINE
  5
4A
  8
0
  6
CONTINUOUS
 62
     5
 10
209.31934
 20
233.3373
 30
0.0
 11
221.22366
 21
233.3373
 31
0.0
  0
LINE
  5
4B
  8
0
  6
CONTINUOUS
 62
     5
 10
62.286598
 20
203.3373
 30
0.0
 11
210.35365
 21
203.3373
 31
0.0
  0
LINE
  5
4C
  8
0
  6
CONTINUOUS
 62
     5
 10
111.31935
 20
203.3373
 30
0.0
 11
111.31935
 21
206.83719
 31
0.0
  0
LINE
  5
4D
  8
0
  6
CONTINUOUS
 62
     5
 10
111.31935
 20
206.83719
 30
0.0
 11
161.31935
 21
206.83719
 31
0.0
  0
LINE
  5
4E
  8
0
  6
CONTINUOUS
 62
     5
 10
161.31935
 20
206.83719
 30
0.0
 11
161.31935
 21
203.3373
 31
0.0
  0
LINE
  5
4F
  8
0
  6
CONTINUOUS
 62
     5
 10
159.31898
 20
203.33719
 30
0.0
 11
159.31898
 21
172.71706
 31
0.0
  0
LINE
  5
50
  8
0
  6
CONTINUOUS
 62
     5
 10
159.31898
 20
172.71706
 30
0.0
 11
113.31898
 21
172.71706
 31
0.0
  0
LINE
  5
51
  8
0
  6
CONTINUOUS
 62
     5
 10
113.31898
 20
172.71706
 30
0.0
 11
113.31898
 21
203.33719
 31
0.0
  0
LINE
  5
52
  8
0
  6
CONTINUOUS
 62
     5
 10
122.81898
 20
203.3373
 30
0.0
 11
122.81898
 21
191.03719
 31
0.0
  0
LINE
  5
53
  8
0
  6
CONTINUOUS
 62
     5
 10
122.81898
 20
191.03719
 30
0.0
 11
149.81898
 21
191.03719
 31
0.0
  0
LINE
  5
54
  8
0
  6
CONTINUOUS
 62
     5
 10
149.81898
 20
191.03719
 30
0.0
 11
149.81898
 21
203.3373
 31
0.0
  0
LINE
  5
55
  8
0
  6
CONTINUOUS
 62
     5
 10
149.01878
 20
191.03719
 30
0.0
 11
149.01878
 21
188.83755
 31
0.0
  0
LINE
  5
56
  8
0
  6
CONTINUOUS
 62
     5
 10
149.01878
 20
188.83755
 30
0.0
 11
123.61879
 21
188.83755
 31
0.0
  0
LINE
  5
57
  8
0
  6
CONTINUOUS
 62
     5
 10
123.61879
 20
188.83755
 30
0.0
 11
123.61879
 21
191.03719
 31
0.0
  0
LINE
  5
58
  8
0
  6
CONTINUOUS
 62
     5
 10
128.38078
 20
188.83755
 30
0.0
 11
128.38078
 21
175.7059
 31
0.0
  0
LINE
  5
59
  8
0
  6
CONTINUOUS
 62
     5
 10
128.3808
 20
175.70592
 30
0.0
 11
129.0188
 21
175.33757
 31
0.0
  0
LINE
  5
5A
  8
0
  6
CONTINUOUS
 62
     5
 10
129.01878
 20
175.33755
 30
0.0
 11
143.61879
 21
175.33755
 31
0.0
  0
LINE
  5
5B
  8
0
  6
CONTINUOUS
 62
     5
 10
143.61879
 20
175.33755
 30
0.0
 11
144.25677
 21
175.7059
 31
0.0
  0
LINE
  5
5C
  8
0
  6
CONTINUOUS
 62
     5
 10
144.25679
 20
175.7059
 30
0.0
 11
144.25679
 21
188.83755
 31
0.0
  0
LINE
  5
5D
  8
0
  6
CONTINUOUS
 62
     5
 10
144.25681
 20
184.70592
 30
0.0
 11
143.61879
 21
184.33757
 31
0.0
  0
LINE
  5
5E
  8
0
  6
CONTINUOUS
 62
     5
 10
143.61879
 20
184.33755
 30
0.0
 11
129.01878
 21
184.33755
 31
0.0
  0
LINE
  5
5F
  8
0
  6
CONTINUOUS
 62
     5
 10
129.0188
 20
184.33757
 30
0.0
 11
128.3808
 21
184.70592
 31
0.0
  0
LINE
  5
60
  8
0
  6
CONTINUOUS
 62
     5
 10
129.01878
 20
184.33755
 30
0.0
 11
129.01878
 21
174.33755
 31
0.0
  0
LINE
  5
61
  8
0
  6
CONTINUOUS
 62
     5
 10
129.01878
 20
174.33755
 30
0.0
 11
143.61879
 21
174.33755
 31
0.0
  0
LINE
  5
62
  8
0
  6
CONTINUOUS
 62
     5
 10
143.61879
 20
174.33755
 30
0.0
 11
143.61879
 21
184.33755
 31
0.0
  0
LINE
  5
63
  8
0
  6
CONTINUOUS
 62
     5
 10
158.51915
 20
172.71706
 30
0.0
 11
158.51915
 21
169.96706
 31
0.0
  0
LINE
  5
64
  8
0
  6
CONTINUOUS
 62
     5
 10
158.51915
 20
169.96706
 30
0.0
 11
114.11916
 21
169.96706
 31
0.0
  0
LINE
  5
65
  8
0
  6
CONTINUOUS
 62
     5
 10
114.11916
 20
169.96706
 30
0.0
 11
114.11916
 21
172.71706
 31
0.0
  0
LINE
  5
66
  8
0
  6
CENTER
 62
     6
 10
45.965103
 20
291.33719
 30
0.0
 11
229.00128
 21
291.33719
 31
0.0
  0
LINE
  5
67
  8
0
  6
CONTINUOUS
 62
     5
 10
62.285721
 20
379.33731
 30
0.0
 11
210.35298
 21
379.33731
 31
0.0
  0
LINE
  5
68
  8
0
  6
CONTINUOUS
 62
     5
 10
224.31934
 20
365.37097
 30
0.0
 11
224.31934
 21
217.30342
 31
0.0
  0
LINE
  5
69
  8
0
  6
CONTINUOUS
 62
     5
 10
48.319351
 20
217.30342
 30
0.0
 11
48.319351
 21
365.37097
 31
0.0
  0
LINE
  5
6A
  8
0
  6
CONTINUOUS
 62
     5
 10
51.414879
 20
349.33731
 30
0.0
 11
63.319351
 21
349.33731
 31
0.0
  0
LINE
  5
6B
  8
0
  6
CONTINUOUS
 62
     5
 10
78.319351
 20
377.33731
 30
0.0
 11
78.319351
 21
364.33731
 31
0.0
  0
LINE
  5
6C
  8
0
  6
CONTINUOUS
 62
     5
 10
194.31934
 20
377.33731
 30
0.0
 11
194.31934
 21
364.33731
 31
0.0
  0
LINE
  5
6D
  8
0
  6
CONTINUOUS
 62
     5
 10
221.22383
 20
349.33731
 30
0.0
 11
209.31934
 21
349.33731
 31
0.0
  0
LINE
  5
6E
  8
0
  6
CONTINUOUS
 62
     5
 10
78.319351
 20
218.3373
 30
0.0
 11
78.319351
 21
205.3373
 31
0.0
  0
LINE
  5
6F
  8
0
  6
CONTINUOUS
 62
     5
 10
63.319351
 20
233.3373
 30
0.0
 11
51.414879
 21
233.3373
 31
0.0
  0
LINE
  5
70
  8
0
  6
CONTINUOUS
 62
     5
 10
65.119339
 20
245.5372
 30
0.0
 11
65.119339
 21
234.90715
 31
0.0
  0
LINE
  5
71
  8
0
  6
CONTINUOUS
 62
     5
 10
57.119339
 20
253.5372
 30
0.0
 11
50.744953
 21
253.5372
 31
0.0
  0
LINE
  5
72
  8
0
  6
CONTINUOUS
 62
     5
 10
174.11934
 20
212.13719
 30
0.0
 11
174.11934
 21
205.3373
 31
0.0
  0
LINE
  5
73
  8
0
  6
CONTINUOUS
 62
     5
 10
182.11934
 20
220.13719
 30
0.0
 11
192.74947
 21
220.13719
 31
0.0
  0
LINE
  5
74
  8
0
  6
CONTINUOUS
 62
     5
 10
221.90372
 20
328.83719
 30
0.0
 11
215.51933
 21
328.83719
 31
0.0
  0
LINE
  5
75
  8
0
  6
CONTINUOUS
 62
     5
 10
207.51933
 20
336.83719
 30
0.0
 11
207.51933
 21
347.76746
 31
0.0
  0
LINE
  5
76
  8
0
  6
CONTINUOUS
 62
     5
 10
79.889175
 20
362.5372
 30
0.0
 11
90.819351
 21
362.5372
 31
0.0
  0
LINE
  5
77
  8
0
  6
CONTINUOUS
 62
     5
 10
98.819351
 20
370.5372
 30
0.0
 11
98.819351
 21
377.33731
 31
0.0
  0
LINE
  5
78
  8
0
  6
CENTER
 62
     6
 10
58.27702
 20
213.29488
 30
0.0
 11
72.728752
 21
227.7466
 31
0.0
  0
LINE
  5
79
  8
0
  6
CENTER
 62
     6
 10
57.811714
 20
369.84485
 30
0.0
 11
72.723633
 21
354.93292
 31
0.0
  0
LINE
  5
7A
  8
0
  6
CENTER
 62
     6
 10
199.8929
 20
227.76367
 30
0.0
 11
214.78365
 21
212.87292
 31
0.0
  0
LINE
  5
7B
  8
0
  6
CENTER
 62
     6
 10
199.76685
 20
354.78467
 30
0.0
 11
214.95935
 21
369.97717
 31
0.0
  0
LINE
  5
7C
  8
0
  6
CONTINUOUS
 62
     5
 10
117.26933
 20
229.13686
 30
0.0
 11
117.26933
 21
257.88055
 31
0.0
  0
LINE
  5
7D
  8
0
  6
CONTINUOUS
 62
     5
 10
48.319336
 20
268.33731
 30
0.0
 11
49.415977
 21
235.27098
 31
0.0
  0
LINE
  5
7E
  8
0
  6
CONTINUOUS
 62
     5
 10
49.415974
 20
347.40356
 30
0.0
 11
48.319336
 21
314.33731
 31
0.0
  0
LINE
  5
7F
  8
0
  6
CONTINUOUS
 62
     5
 10
224.31937
 20
268.33725
 30
0.0
 11
223.22272
 21
235.27097
 31
0.0
  0
LINE
  5
80
  8
0
  6
CONTINUOUS
 62
     5
 10
223.22273
 20
347.40359
 30
0.0
 11
224.31937
 21
314.33728
 31
0.0
  0
LINE
  5
81
  8
0
  6
CENTER
 62
     6
 10
85.660873
 20
379.08029
 30
0.0
 11
95.588539
 21
361.88507
 31
0.0
  0
LINE
  5
82
  8
0
  6
CENTER
 62
     6
 10
136.3194
 20
368.32434
 30
0.0
 11
136.3194
 21
353.96692
 31
0.0
  0
LINE
  5
83
  8
0
  6
CONTINUOUS
 62
     5
 10
94.033508
 20
370.57852
 30
0.0
 11
92.30146
 21
373.57852
 31
0.0
  0
LINE
  5
84
  8
0
  6
CONTINUOUS
 62
     5
 10
92.301392
 20
373.57852
 30
0.0
 11
88.837311
 21
373.57852
 31
0.0
  0
LINE
  5
85
  8
0
  6
CONTINUOUS
 62
     5
 10
88.837341
 20
373.57852
 30
0.0
 11
87.105293
 21
370.57849
 31
0.0
  0
LINE
  5
86
  8
0
  6
CONTINUOUS
 62
     5
 10
87.105255
 20
370.57855
 30
0.0
 11
88.837311
 21
367.57852
 31
0.0
  0
LINE
  5
87
  8
0
  6
CONTINUOUS
 62
     5
 10
88.837341
 20
367.57935
 30
0.0
 11
92.301422
 21
367.57935
 31
0.0
  0
LINE
  5
88
  8
0
  6
CONTINUOUS
 62
     5
 10
92.301399
 20
367.57855
 30
0.0
 11
94.033455
 21
370.57855
 31
0.0
  0
LINE
  5
89
  8
0
  6
CONTINUOUS
 62
     5
 10
138.8195
 20
359.8938
 30
0.0
 11
138.8195
 21
362.78058
 31
0.0
  0
LINE
  5
8A
  8
0
  6
CONTINUOUS
 62
     5
 10
138.81937
 20
362.78058
 30
0.0
 11
136.31937
 21
364.22394
 31
0.0
  0
LINE
  5
8B
  8
0
  6
CONTINUOUS
 62
     5
 10
136.31934
 20
364.22409
 30
0.0
 11
133.81934
 21
362.7807
 31
0.0
  0
LINE
  5
8C
  8
0
  6
CONTINUOUS
 62
     5
 10
133.81967
 20
362.78058
 30
0.0
 11
133.81967
 21
359.89383
 31
0.0
  0
LINE
  5
8D
  8
0
  6
CONTINUOUS
 62
     5
 10
133.81898
 20
359.89316
 30
0.0
 11
136.31898
 21
358.4498
 31
0.0
  0
LINE
  5
8E
  8
0
  6
CONTINUOUS
 62
     5
 10
136.31927
 20
358.45068
 30
0.0
 11
138.81926
 21
359.89407
 31
0.0
  0
LINE
  5
8F
  8
0
  6
CENTER
 62
     6
 10
48.576275
 20
240.67871
 30
0.0
 11
65.7715
 21
250.60637
 31
0.0
  0
LINE
  5
90
  8
0
  6
CONTINUOUS
 62
     5
 10
60.078011
 20
247.31923
 30
0.0
 11
57.078018
 21
249.05128
 31
0.0
  0
LINE
  5
91
  8
0
  6
CONTINUOUS
 62
     5
 10
57.078003
 20
249.0513
 30
0.0
 11
54.078026
 21
247.31924
 31
0.0
  0
LINE
  5
92
  8
0
  6
CONTINUOUS
 62
     5
 10
54.078018
 20
247.31924
 30
0.0
 11
54.078018
 21
243.85515
 31
0.0
  0
LINE
  5
93
  8
0
  6
CONTINUOUS
 62
     5
 10
54.078022
 20
243.85516
 30
0.0
 11
57.078022
 21
242.12312
 31
0.0
  0
LINE
  5
94
  8
0
  6
CONTINUOUS
 62
     5
 10
57.078007
 20
242.12311
 30
0.0
 11
60.078007
 21
243.85515
 31
0.0
  0
LINE
  5
95
  8
0
  6
CONTINUOUS
 62
     5
 10
60.078007
 20
243.85515
 30
0.0
 11
60.078018
 21
247.31924
 31
0.0
  0
LINE
  5
96
  8
0
  6
CENTER
 62
     6
 10
186.97781
 20
203.5941
 30
0.0
 11
177.05016
 21
220.78932
 31
0.0
  0
LINE
  5
97
  8
0
  6
CONTINUOUS
 62
     5
 10
180.33733
 20
215.09586
 30
0.0
 11
178.60527
 21
212.09586
 31
0.0
  0
LINE
  5
98
  8
0
  6
CONTINUOUS
 62
     5
 10
178.60526
 20
212.09584
 30
0.0
 11
180.3373
 21
209.09586
 31
0.0
  0
LINE
  5
99
  8
0
  6
CONTINUOUS
 62
     5
 10
180.33731
 20
209.09583
 30
0.0
 11
183.80141
 21
209.09583
 31
0.0
  0
LINE
  5
9A
  8
0
  6
CONTINUOUS
 62
     5
 10
183.80138
 20
209.09587
 30
0.0
 11
185.53342
 21
212.09587
 31
0.0
  0
LINE
  5
9B
  8
0
  6
CONTINUOUS
 62
     5
 10
185.53345
 20
212.09586
 30
0.0
 11
183.80141
 21
215.09586
 31
0.0
  0
LINE
  5
9C
  8
0
  6
CONTINUOUS
 62
     5
 10
183.80139
 20
215.09502
 30
0.0
 11
180.3373
 21
215.09502
 31
0.0
  0
LINE
  5
9D
  8
0
  6
CENTER
 62
     6
 10
224.06245
 20
341.99567
 30
0.0
 11
206.86722
 21
332.06799
 31
0.0
  0
LINE
  5
9E
  8
0
  6
CONTINUOUS
 62
     5
 10
212.5607
 20
335.35513
 30
0.0
 11
215.5607
 21
333.62308
 31
0.0
  0
LINE
  5
9F
  8
0
  6
CONTINUOUS
 62
     5
 10
215.5607
 20
333.62308
 30
0.0
 11
218.56067
 21
335.3551
 31
0.0
  0
LINE
  5
A0
  8
0
  6
CONTINUOUS
 62
     5
 10
218.5607
 20
335.35516
 30
0.0
 11
218.5607
 21
338.81924
 31
0.0
  0
LINE
  5
A1
  8
0
  6
CONTINUOUS
 62
     5
 10
218.56068
 20
338.81921
 30
0.0
 11
215.56067
 21
340.55124
 31
0.0
  0
LINE
  5
A2
  8
0
  6
CONTINUOUS
 62
     5
 10
215.5607
 20
340.5513
 30
0.0
 11
212.56068
 21
338.81924
 31
0.0
  0
LINE
  5
A3
  8
0
  6
CONTINUOUS
 62
     5
 10
212.56152
 20
338.81921
 30
0.0
 11
212.56152
 21
335.35513
 31
0.0
  0
LINE
  5
A4
  8
0
  6
CENTER
 62
     6
 10
69.646507
 20
252.84364
 30
0.0
 11
82.080429
 21
260.02237
 31
0.0
  0
LINE
  5
A5
  8
0
  6
CONTINUOUS
 62
     5
 10
75.697563
 20
259.22397
 30
0.0
 11
73.197556
 21
257.78058
 31
0.0
  0
LINE
  5
A6
  8
0
  6
CONTINUOUS
 62
     5
 10
73.19754
 20
257.78058
 30
0.0
 11
73.19754
 21
254.89383
 31
0.0
  0
LINE
  5
A7
  8
0
  6
CONTINUOUS
 62
     5
 10
73.197472
 20
254.89371
 30
0.0
 11
75.697464
 21
253.45033
 31
0.0
  0
LINE
  5
A8
  8
0
  6
CONTINUOUS
 62
     5
 10
75.697563
 20
253.45044
 30
0.0
 11
78.19754
 21
254.89383
 31
0.0
  0
LINE
  5
A9
  8
0
  6
CONTINUOUS
 62
     5
 10
78.198318
 20
254.8938
 30
0.0
 11
78.198318
 21
257.78055
 31
0.0
  0
LINE
  5
AA
  8
0
  6
CONTINUOUS
 62
     5
 10
78.197403
 20
257.78036
 30
0.0
 11
75.697411
 21
259.22372
 31
0.0
  0
LINE
  5
AB
  8
0
  6
CENTER
 62
     6
 10
202.99217
 20
252.84358
 30
0.0
 11
190.55824
 21
260.02231
 31
0.0
  0
LINE
  5
AC
  8
0
  6
CONTINUOUS
 62
     5
 10
194.44112
 20
254.89378
 30
0.0
 11
196.94113
 21
253.45041
 31
0.0
  0
LINE
  5
AD
  8
0
  6
CONTINUOUS
 62
     5
 10
196.94112
 20
253.45039
 30
0.0
 11
199.44112
 21
254.89377
 31
0.0
  0
LINE
  5
AE
  8
0
  6
CONTINUOUS
 62
     5
 10
199.44127
 20
254.89377
 30
0.0
 11
199.44127
 21
257.78052
 31
0.0
  0
LINE
  5
AF
  8
0
  6
CONTINUOUS
 62
     5
 10
199.44113
 20
257.78055
 30
0.0
 11
196.94113
 21
259.22391
 31
0.0
  0
LINE
  5
B0
  8
0
  6
CONTINUOUS
 62
     5
 10
196.94077
 20
259.22458
 30
0.0
 11
194.44077
 21
257.78122
 31
0.0
  0
LINE
  5
B1
  8
0
  6
CONTINUOUS
 62
     5
 10
194.44139
 20
257.78052
 30
0.0
 11
194.44139
 21
254.89377
 31
0.0
  0
LINE
  5
B2
  8
0
  6
CONTINUOUS
 62
     5
 10
99.036209
 20
261.8898
 30
0.0
 11
103.02102
 21
261.54117
 31
0.0
  0
LINE
  5
B3
  8
0
  6
CONTINUOUS
 62
     5
 10
100.85428
 20
259.72299
 30
0.0
 11
101.20292
 21
263.70779
 31
0.0
  0
LINE
  5
B4
  8
0
  6
CONTINUOUS
 62
     5
 10
97.841934
 20
264.90292
 30
0.0
 11
95.296013
 21
262.35703
 31
0.0
  0
LINE
  5
B5
  8
0
  6
CONTINUOUS
 62
     5
 10
104.21606
 20
258.52875
 30
0.0
 11
101.67013
 21
255.98286
 31
0.0
  0
LINE
  5
B6
  8
0
  6
CENTER
 62
     6
 10
167.99855
 20
253.58339
 30
0.0
 11
163.80444
 21
258.58173
 31
0.0
  0
LINE
  5
B7
  8
0
  6
CONTINUOUS
 62
     5
 10
165.7668
 20
254.05406
 30
0.0
 11
166.11543
 21
258.03885
 31
0.0
  0
LINE
  5
B8
  8
0
  6
CONTINUOUS
 62
     5
 10
167.93352
 20
255.87213
 30
0.0
 11
163.94875
 21
256.22076
 31
0.0
  0
LINE
  5
B9
  8
0
  6
CONTINUOUS
 62
     5
 10
162.7536
 20
252.85979
 30
0.0
 11
165.2995
 21
250.31386
 31
0.0
  0
LINE
  5
BA
  8
0
  6
CONTINUOUS
 62
     5
 10
169.12781
 20
259.23392
 30
0.0
 11
171.67371
 21
256.68799
 31
0.0
  0
LINE
  5
BB
  8
0
  6
CONTINUOUS
 62
     5
 10
173.60251
 20
320.78461
 30
0.0
 11
169.61771
 21
321.13324
 31
0.0
  0
LINE
  5
BC
  8
0
  6
CONTINUOUS
 62
     5
 10
171.78439
 20
322.95135
 30
0.0
 11
171.43576
 21
318.96658
 31
0.0
  0
LINE
  5
BD
  8
0
  6
CONTINUOUS
 62
     5
 10
174.79675
 20
317.77142
 30
0.0
 11
177.34268
 21
320.31732
 31
0.0
  0
LINE
  5
BE
  8
0
  6
CONTINUOUS
 62
     5
 10
168.42262
 20
324.14563
 30
0.0
 11
170.96855
 21
326.69153
 31
0.0
  0
LINE
  5
BF
  8
0
  6
CENTER
 62
     6
 10
104.64014
 20
329.091
 30
0.0
 11
108.83427
 21
324.09265
 31
0.0
  0
LINE
  5
C0
  8
0
  6
CONTINUOUS
 62
     5
 10
106.87193
 20
328.62036
 30
0.0
 11
106.5233
 21
324.63553
 31
0.0
  0
LINE
  5
C1
  8
0
  6
CONTINUOUS
 62
     5
 10
104.70516
 20
326.80225
 30
0.0
 11
108.68993
 21
326.45361
 31
0.0
  0
LINE
  5
C2
  8
0
  6
CONTINUOUS
 62
     5
 10
109.88512
 20
329.81458
 30
0.0
 11
107.33923
 21
332.3605
 31
0.0
  0
LINE
  5
C3
  8
0
  6
CONTINUOUS
 62
     5
 10
103.51093
 20
323.44049
 30
0.0
 11
100.96503
 21
325.98642
 31
0.0
  0
LINE
  5
C4
  8
0
  6
CONTINUOUS
 62
     5
 10
482.36395
 20
308.83719
 30
0.0
 11
557.36395
 21
308.83719
 31
0.0
  0
LINE
  5
C5
  8
0
  6
CONTINUOUS
 62
     5
 10
557.36395
 20
308.83719
 30
0.0
 11
557.36395
 21
273.83719
 31
0.0
  0
LINE
  5
C6
  8
0
  6
CONTINUOUS
 62
     5
 10
557.36395
 20
273.83719
 30
0.0
 11
482.36395
 21
273.83719
 31
0.0
  0
LINE
  5
C7
  8
0
  6
CONTINUOUS
 62
     5
 10
340.86395
 20
203.33719
 30
0.0
 11
340.86395
 21
191.03719
 31
0.0
  0
LINE
  5
C8
  8
0
  6
CONTINUOUS
 62
     5
 10
340.86395
 20
191.03719
 30
0.0
 11
367.86395
 21
191.03719
 31
0.0
  0
LINE
  5
C9
  8
0
  6
CONTINUOUS
 62
     5
 10
367.86395
 20
191.03719
 30
0.0
 11
367.86395
 21
203.33719
 31
0.0
  0
LINE
  5
CA
  8
0
  6
CONTINUOUS
 62
     5
 10
341.66376
 20
191.03719
 30
0.0
 11
341.66376
 21
188.83755
 31
0.0
  0
LINE
  5
CB
  8
0
  6
CONTINUOUS
 62
     5
 10
341.66376
 20
188.83755
 30
0.0
 11
367.06378
 21
188.83755
 31
0.0
  0
LINE
  5
CC
  8
0
  6
CONTINUOUS
 62
     5
 10
367.06378
 20
188.83755
 30
0.0
 11
367.06378
 21
191.03719
 31
0.0
  0
LINE
  5
CD
  8
0
  6
CONTINUOUS
 62
     5
 10
346.42578
 20
188.83755
 30
0.0
 11
346.42578
 21
175.70589
 31
0.0
  0
LINE
  5
CE
  8
0
  6
CONTINUOUS
 62
     5
 10
346.42578
 20
175.70589
 30
0.0
 11
347.06378
 21
175.33755
 31
0.0
  0
LINE
  5
CF
  8
0
  6
CONTINUOUS
 62
     5
 10
347.06378
 20
175.33755
 30
0.0
 11
361.66376
 21
175.33755
 31
0.0
  0
LINE
  5
D0
  8
0
  6
CONTINUOUS
 62
     5
 10
361.66376
 20
175.33755
 30
0.0
 11
362.30176
 21
175.7059
 31
0.0
  0
LINE
  5
D1
  8
0
  6
CONTINUOUS
 62
     5
 10
362.30176
 20
175.7059
 30
0.0
 11
362.30176
 21
188.83755
 31
0.0
  0
LINE
  5
D2
  8
0
  6
CONTINUOUS
 62
     5
 10
346.42581
 20
184.70587
 30
0.0
 11
347.06378
 21
184.33752
 31
0.0
  0
LINE
  5
D3
  8
0
  6
CONTINUOUS
 62
     5
 10
347.06378
 20
184.33755
 30
0.0
 11
361.66376
 21
184.33755
 31
0.0
  0
LINE
  5
D4
  8
0
  6
CONTINUOUS
 62
     5
 10
361.66376
 20
184.33755
 30
0.0
 11
362.30179
 21
184.70592
 31
0.0
  0
LINE
  5
D5
  8
0
  6
CONTINUOUS
 62
     5
 10
347.06378
 20
184.33755
 30
0.0
 11
347.06378
 21
174.33755
 31
0.0
  0
LINE
  5
D6
  8
0
  6
CONTINUOUS
 62
     5
 10
347.06378
 20
174.33755
 30
0.0
 11
361.66376
 21
174.33755
 31
0.0
  0
LINE
  5
D7
  8
0
  6
CONTINUOUS
 62
     5
 10
361.66376
 20
174.33755
 30
0.0
 11
361.66376
 21
184.33755
 31
0.0
  0
LINE
  5
D8
  8
0
  6
CENTER
 62
     6
 10
354.36395
 20
174.76692
 30
0.0
 11
354.36395
 21
203.33719
 31
0.0
  0
LINE
  5
D9
  8
0
  6
CONTINUOUS
 62
     5
 10
337.86395
 20
219.79587
 30
0.0
 11
335.86395
 21
219.79587
 31
0.0
  0
LINE
  5
DA
  8
0
  6
CONTINUOUS
 62
     5
 10
335.86395
 20
219.79587
 30
0.0
 11
335.86395
 21
204.39587
 31
0.0
  0
LINE
  5
DB
  8
0
  6
CONTINUOUS
 62
     5
 10
335.86395
 20
204.39587
 30
0.0
 11
337.86395
 21
204.39587
 31
0.0
  0
LINE
  5
DC
  8
0
  6
CONTINUOUS
 62
     5
 10
335.86395
 20
218.59587
 30
0.0
 11
327.86395
 21
218.59587
 31
0.0
  0
LINE
  5
DD
  8
0
  6
CONTINUOUS
 62
     5
 10
327.86395
 20
218.59587
 30
0.0
 11
327.86395
 21
205.59587
 31
0.0
  0
LINE
  5
DE
  8
0
  6
CONTINUOUS
 62
     5
 10
327.86395
 20
205.59587
 30
0.0
 11
335.86395
 21
205.59587
 31
0.0
  0
LINE
  5
DF
  8
0
  6
CENTER
 62
     6
 10
326.57642
 20
212.09587
 30
0.0
 11
339.54254
 21
212.09587
 31
0.0
  0
LINE
  5
E0
  8
0
  6
CONTINUOUS
 62
     5
 10
323.91397
 20
231.93719
 30
0.0
 11
323.91397
 21
229.13721
 31
0.0
  0
LINE
  5
E1
  8
0
  6
CONTINUOUS
 62
     5
 10
323.91397
 20
229.13721
 30
0.0
 11
285.81396
 21
229.13721
 31
0.0
  0
LINE
  5
E2
  8
0
  6
CONTINUOUS
 62
     5
 10
285.81396
 20
229.13721
 30
0.0
 11
285.81396
 21
231.93719
 31
0.0
  0
LINE
  5
E3
  8
0
  6
CONTINUOUS
 62
     5
 10
290.06396
 20
229.13721
 30
0.0
 11
290.06396
 21
210.8372
 31
0.0
  0
LINE
  5
E4
  8
0
  6
CONTINUOUS
 62
     5
 10
290.06396
 20
210.8372
 30
0.0
 11
291.06396
 21
209.8372
 31
0.0
  0
LINE
  5
E5
  8
0
  6
CONTINUOUS
 62
     5
 10
291.06396
 20
209.8372
 30
0.0
 11
318.66397
 21
209.8372
 31
0.0
  0
LINE
  5
E6
  8
0
  6
CONTINUOUS
 62
     5
 10
318.66397
 20
209.8372
 30
0.0
 11
319.66397
 21
210.8372
 31
0.0
  0
LINE
  5
E7
  8
0
  6
CONTINUOUS
 62
     5
 10
319.66397
 20
210.8372
 30
0.0
 11
319.66397
 21
229.13721
 31
0.0
  0
LINE
  5
E8
  8
0
  6
CENTER
 62
     6
 10
304.86395
 20
202.09445
 30
0.0
 11
304.86395
 21
235.39639
 31
0.0
  0
LINE
  5
E9
  8
0
  6
CONTINUOUS
 62
     5
 10
290.06396
 20
226.13721
 30
0.0
 11
319.66397
 21
226.13721
 31
0.0
  0
LINE
  5
EA
  8
0
  6
CONTINUOUS
 62
     5
 10
318.66397
 20
209.8372
 30
0.0
 11
318.66397
 21
226.13721
 31
0.0
  0
LINE
  5
EB
  8
0
  6
CONTINUOUS
 62
     5
 10
319.66397
 20
210.8372
 30
0.0
 11
290.06396
 21
210.8372
 31
0.0
  0
LINE
  5
EC
  8
0
  6
CONTINUOUS
 62
     5
 10
291.06396
 20
209.8372
 30
0.0
 11
291.06396
 21
226.13721
 31
0.0
  0
LINE
  5
ED
  8
0
  6
CONTINUOUS
 62
     5
 10
285.36395
 20
231.93719
 30
0.0
 11
324.36395
 21
231.93719
 31
0.0
  0
LINE
  5
EE
  8
0
  6
CONTINUOUS
 62
     5
 10
324.36395
 20
231.93719
 30
0.0
 11
324.36395
 21
248.83719
 31
0.0
  0
LINE
  5
EF
  8
0
  6
CONTINUOUS
 62
     5
 10
326.86395
 20
248.83719
 30
0.0
 11
311.86395
 21
248.83719
 31
0.0
  0
LINE
  5
F0
  8
0
  6
CONTINUOUS
 62
     5
 10
317.86395
 20
250.31401
 30
0.0
 11
311.86395
 21
250.31401
 31
0.0
  0
LINE
  5
F1
  8
0
  6
CENTER
 62
     6
 10
316.37457
 20
256.33719
 30
0.0
 11
325.5614
 21
256.33719
 31
0.0
  0
LINE
  5
F2
  8
0
  6
CONTINUOUS
 62
     5
 10
324.86395
 20
262.43719
 30
0.0
 11
323.36395
 21
262.43719
 31
0.0
  0
LINE
  5
F3
  8
0
  6
CONTINUOUS
 62
     5
 10
323.36395
 20
262.43719
 30
0.0
 11
323.36395
 21
250.2372
 31
0.0
  0
LINE
  5
F4
  8
0
  6
CONTINUOUS
 62
     5
 10
323.36395
 20
250.2372
 30
0.0
 11
324.86395
 21
250.2372
 31
0.0
  0
LINE
  5
F5
  8
0
  6
CONTINUOUS
 62
     5
 10
323.36395
 20
261.33719
 30
0.0
 11
317.36395
 21
261.33719
 31
0.0
  0
LINE
  5
F6
  8
0
  6
CONTINUOUS
 62
     5
 10
317.36395
 20
261.33719
 30
0.0
 11
317.36395
 21
251.33719
 31
0.0
  0
LINE
  5
F7
  8
0
  6
CONTINUOUS
 62
     5
 10
317.36395
 20
251.33719
 30
0.0
 11
323.36395
 21
251.33719
 31
0.0
  0
LINE
  5
F8
  8
0
  6
CONTINUOUS
 62
     5
 10
317.86395
 20
248.83719
 30
0.0
 11
317.86395
 21
251.33719
 31
0.0
  0
LINE
  5
F9
  8
0
  6
CONTINUOUS
 62
     5
 10
311.86395
 20
263.83371
 30
0.0
 11
324.86395
 21
263.83371
 31
0.0
  0
LINE
  5
FA
  8
0
  6
CONTINUOUS
 62
     5
 10
315.86395
 20
256.67798
 30
0.0
 11
315.86395
 21
254.66211
 31
0.0
  0
LINE
  5
FB
  8
0
  6
CONTINUOUS
 62
     5
 10
317.36395
 20
256.67798
 30
0.0
 11
311.86395
 21
256.67798
 31
0.0
  0
LINE
  5
FC
  8
0
  6
CONTINUOUS
 62
     5
 10
316.86395
 20
253.66211
 30
0.0
 11
317.36395
 21
253.66211
 31
0.0
  0
LINE
  5
FD
  8
0
  6
CONTINUOUS
 62
     5
 10
311.86395
 20
256.98981
 30
0.0
 11
286.86395
 21
256.98981
 31
0.0
  0
LINE
  5
FE
  8
0
  6
CONTINUOUS
 62
     5
 10
285.36395
 20
257.85223
 30
0.0
 11
286.86395
 21
256.98981
 31
0.0
  0
LINE
  5
FF
  8
0
  6
CONTINUOUS
 62
     5
 10
337.86395
 20
348.33719
 30
0.0
 11
337.86395
 21
328.83719
 31
0.0
  0
LINE
  5
100
  8
0
  6
CONTINUOUS
 62
     5
 10
337.86395
 20
328.83719
 30
0.0
 11
327.86395
 21
328.83719
 31
0.0
  0
LINE
  5
101
  8
0
  6
CONTINUOUS
 62
     5
 10
327.86395
 20
330.58719
 30
0.0
 11
335.86395
 21
330.58719
 31
0.0
  0
LINE
  5
102
  8
0
  6
CONTINUOUS
 62
     5
 10
335.86395
 20
343.58719
 30
0.0
 11
327.86395
 21
343.58719
 31
0.0
  0
LINE
  5
103
  8
0
  6
CONTINUOUS
 62
     5
 10
327.86395
 20
343.58719
 30
0.0
 11
327.86395
 21
330.58719
 31
0.0
  0
LINE
  5
104
  8
0
  6
CONTINUOUS
 62
     5
 10
337.86395
 20
329.38721
 30
0.0
 11
335.86395
 21
329.38721
 31
0.0
  0
LINE
  5
105
  8
0
  6
CONTINUOUS
 62
     5
 10
335.86395
 20
329.38721
 30
0.0
 11
335.86395
 21
344.7872
 31
0.0
  0
LINE
  5
106
  8
0
  6
CONTINUOUS
 62
     5
 10
335.86395
 20
344.7872
 30
0.0
 11
337.86395
 21
344.7872
 31
0.0
  0
LINE
  5
107
  8
0
  6
CONTINUOUS
 62
     5
 10
324.86395
 20
318.84088
 30
0.0
 11
311.86395
 21
318.84088
 31
0.0
  0
LINE
  5
108
  8
0
  6
CONTINUOUS
 62
     5
 10
311.86395
 20
326.68155
 30
0.0
 11
317.86395
 21
326.68155
 31
0.0
  0
LINE
  5
109
  8
0
  6
CONTINUOUS
 62
     5
 10
326.86395
 20
333.83719
 30
0.0
 11
311.86395
 21
333.83719
 31
0.0
  0
LINE
  5
10A
  8
0
  6
CENTER
 62
     6
 10
326.09637
 20
337.08719
 30
0.0
 11
339.20563
 21
337.08719
 31
0.0
  0
LINE
  5
10B
  8
0
  6
CENTER
 62
     6
 10
320.35608
 20
320.94968
 30
0.0
 11
313.53479
 21
320.94968
 31
0.0
  0
LINE
  5
10C
  8
0
  6
CONTINUOUS
 62
     5
 10
311.86395
 20
248.83719
 30
0.0
 11
311.86395
 21
333.83719
 31
0.0
  0
LINE
  5
10D
  8
0
  6
CONTINUOUS
 62
     5
 10
317.86395
 20
333.83719
 30
0.0
 11
317.86395
 21
261.33719
 31
0.0
  0
LINE
  5
10E
  8
0
  6
CONTINUOUS
 62
     5
 10
324.86395
 20
248.83719
 30
0.0
 11
324.86395
 21
333.83719
 31
0.0
  0
LINE
  5
10F
  8
0
  6
CONTINUOUS
 62
     5
 10
287.50803
 20
330.52148
 30
0.0
 11
311.86395
 21
331.37201
 31
0.0
  0
LINE
  5
110
  8
0
  6
CONTINUOUS
 62
     5
 10
317.86395
 20
320.3176
 30
0.0
 11
311.86395
 21
320.3176
 31
0.0
  0
LINE
  5
111
  8
0
  6
CONTINUOUS
 62
     5
 10
315.86395
 20
320.3176
 30
0.0
 11
315.86395
 21
322.44968
 31
0.0
  0
LINE
  5
112
  8
0
  6
CONTINUOUS
 62
     5
 10
316.86395
 20
323.44968
 30
0.0
 11
317.86395
 21
323.44968
 31
0.0
  0
LINE
  5
113
  8
0
  6
CONTINUOUS
 62
     5
 10
326.86395
 20
367.43719
 30
0.0
 11
325.36395
 21
367.43719
 31
0.0
  0
LINE
  5
114
  8
0
  6
CONTINUOUS
 62
     5
 10
326.86395
 20
355.23721
 30
0.0
 11
325.36395
 21
355.23721
 31
0.0
  0
LINE
  5
115
  8
0
  6
CONTINUOUS
 62
     5
 10
325.36395
 20
355.23721
 30
0.0
 11
325.36395
 21
367.43719
 31
0.0
  0
LINE
  5
116
  8
0
  6
CENTER
 62
     6
 10
328.18341
 20
361.33719
 30
0.0
 11
317.92542
 21
361.33719
 31
0.0
  0
LINE
  5
117
  8
0
  6
CONTINUOUS
 62
     5
 10
325.36395
 20
356.33719
 30
0.0
 11
319.36395
 21
356.33719
 31
0.0
  0
LINE
  5
118
  8
0
  6
CONTINUOUS
 62
     5
 10
319.36395
 20
356.33719
 30
0.0
 11
319.36395
 21
366.33719
 31
0.0
  0
LINE
  5
119
  8
0
  6
CONTINUOUS
 62
     5
 10
319.36395
 20
366.33719
 30
0.0
 11
325.36395
 21
366.33719
 31
0.0
  0
LINE
  5
11A
  8
0
  6
CONTINUOUS
 62
     5
 10
362.86395
 20
379.33719
 30
0.0
 11
362.86395
 21
362.57819
 31
0.0
  0
LINE
  5
11B
  8
0
  6
CONTINUOUS
 62
     5
 10
362.86395
 20
362.57819
 30
0.0
 11
373.86395
 21
362.57819
 31
0.0
  0
LINE
  5
11C
  8
0
  6
CENTER
 62
     6
 10
363.36188
 20
370.57718
 30
0.0
 11
375.76544
 21
370.57718
 31
0.0
  0
LINE
  5
11D
  8
0
  6
CONTINUOUS
 62
     5
 10
373.86395
 20
377.07852
 30
0.0
 11
365.86395
 21
377.07852
 31
0.0
  0
LINE
  5
11E
  8
0
  6
CONTINUOUS
 62
     5
 10
365.86395
 20
377.07852
 30
0.0
 11
365.86395
 21
364.07852
 31
0.0
  0
LINE
  5
11F
  8
0
  6
CONTINUOUS
 62
     5
 10
365.86395
 20
364.07852
 30
0.0
 11
373.86395
 21
364.07852
 31
0.0
  0
LINE
  5
120
  8
0
  6
CONTINUOUS
 62
     5
 10
478.36395
 20
365.14319
 30
0.0
 11
460.36395
 21
365.14319
 31
0.0
  0
LINE
  5
121
  8
0
  6
CONTINUOUS
 62
     5
 10
478.36395
 20
348.48721
 30
0.0
 11
481.36395
 21
348.48721
 31
0.0
  0
LINE
  5
122
  8
0
  6
CONTINUOUS
 62
     5
 10
481.36395
 20
348.48721
 30
0.0
 11
481.36395
 21
234.18719
 31
0.0
  0
LINE
  5
123
  8
0
  6
CONTINUOUS
 62
     5
 10
481.36395
 20
234.18719
 30
0.0
 11
478.36395
 21
234.18719
 31
0.0
  0
LINE
  5
124
  8
0
  6
CONTINUOUS
 62
     5
 10
481.36395
 20
271.33719
 30
0.0
 11
482.36395
 21
271.33719
 31
0.0
  0
LINE
  5
125
  8
0
  6
CONTINUOUS
 62
     5
 10
482.36395
 20
271.33719
 30
0.0
 11
482.36395
 21
311.33719
 31
0.0
  0
LINE
  5
126
  8
0
  6
CONTINUOUS
 62
     5
 10
482.36395
 20
311.33719
 30
0.0
 11
481.36395
 21
311.33719
 31
0.0
  0
LINE
  5
127
  8
0
  6
CONTINUOUS
 62
     5
 10
337.86395
 20
220.13719
 30
0.0
 11
337.86395
 21
204.33719
 31
0.0
  0
LINE
  5
128
  8
0
  6
CONTINUOUS
 62
     5
 10
337.86395
 20
220.13719
 30
0.0
 11
327.86395
 21
220.13719
 31
0.0
  0
LINE
  5
129
  8
0
  6
CONTINUOUS
 62
     5
 10
458.36395
 20
342.33719
 30
0.0
 11
380.86395
 21
342.33719
 31
0.0
  0
LINE
  5
12A
  8
0
  6
CONTINUOUS
 62
     5
 10
458.36395
 20
339.33719
 30
0.0
 11
380.86395
 21
339.33719
 31
0.0
  0
LINE
  5
12B
  8
0
  6
CONTINUOUS
 62
     5
 10
458.36395
 20
336.33719
 30
0.0
 11
380.86395
 21
336.33719
 31
0.0
  0
LINE
  5
12C
  8
0
  6
CONTINUOUS
 62
     5
 10
458.36395
 20
333.33719
 30
0.0
 11
380.86395
 21
333.33719
 31
0.0
  0
LINE
  5
12D
  8
0
  6
CONTINUOUS
 62
     5
 10
326.86395
 20
349.33719
 30
0.0
 11
460.36395
 21
349.33719
 31
0.0
  0
LINE
  5
12E
  8
0
  6
CONTINUOUS
 62
     5
 10
478.36395
 20
379.33719
 30
0.0
 11
327.86395
 21
379.33719
 31
0.0
  0
LINE
  5
12F
  8
0
  6
CENTER
 62
     6
 10
566.19153
 20
291.33719
 30
0.0
 11
268.44574
 21
291.33719
 31
0.0
  0
LINE
  5
130
  8
0
  6
CONTINUOUS
 62
     5
 10
285.36395
 20
321.33719
 30
0.0
 11
285.36395
 21
231.93719
 31
0.0
  0
LINE
  5
131
  8
0
  6
CONTINUOUS
 62
     5
 10
286.86395
 20
256.98981
 30
0.0
 11
286.86395
 21
330.25623
 31
0.0
  0
LINE
  5
132
  8
0
  6
CONTINUOUS
 62
     5
 10
432.06415
 20
172.71706
 30
0.0
 11
432.06415
 21
169.96706
 31
0.0
  0
LINE
  5
133
  8
0
  6
CONTINUOUS
 62
     5
 10
432.06415
 20
169.96706
 30
0.0
 11
387.66412
 21
169.96706
 31
0.0
  0
LINE
  5
134
  8
0
  6
CONTINUOUS
 62
     5
 10
387.66412
 20
169.96706
 30
0.0
 11
387.66412
 21
172.71706
 31
0.0
  0
LINE
  5
135
  8
0
  6
CONTINUOUS
 62
     5
 10
390.86414
 20
169.96706
 30
0.0
 11
390.86414
 21
151.33707
 31
0.0
  0
LINE
  5
136
  8
0
  6
CONTINUOUS
 62
     5
 10
390.86414
 20
151.33707
 30
0.0
 11
428.86414
 21
151.33707
 31
0.0
  0
LINE
  5
137
  8
0
  6
CONTINUOUS
 62
     5
 10
428.86414
 20
151.33707
 30
0.0
 11
428.86414
 21
169.96706
 31
0.0
  0
LINE
  5
138
  8
0
  6
CONTINUOUS
 62
     5
 10
428.86414
 20
165.33707
 30
0.0
 11
390.86414
 21
165.33707
 31
0.0
  0
LINE
  5
139
  8
0
  6
CONTINUOUS
 62
     5
 10
391.86414
 20
165.33707
 30
0.0
 11
391.86414
 21
149.33707
 31
0.0
  0
LINE
  5
13A
  8
0
  6
CONTINUOUS
 62
     5
 10
391.86414
 20
149.33707
 30
0.0
 11
427.86414
 21
149.33707
 31
0.0
  0
LINE
  5
13B
  8
0
  6
CONTINUOUS
 62
     5
 10
427.86414
 20
149.33707
 30
0.0
 11
427.86414
 21
165.33707
 31
0.0
  0
LINE
  5
13C
  8
0
  6
CONTINUOUS
 62
     5
 10
441.23557
 20
172.71706
 30
0.0
 11
385.36414
 21
172.71706
 31
0.0
  0
LINE
  5
13D
  8
0
  6
CONTINUOUS
 62
     5
 10
385.36414
 20
203.3369
 30
0.0
 11
385.36414
 21
172.71706
 31
0.0
  0
LINE
  5
13E
  8
0
  6
CENTER
 62
     6
 10
409.86395
 20
187.47165
 30
0.0
 11
409.86395
 21
145.09665
 31
0.0
  0
LINE
  5
13F
  8
0
  6
CONTINUOUS
 62
     5
 10
478.36395
 20
217.53119
 30
0.0
 11
460.36395
 21
217.53119
 31
0.0
  0
LINE
  5
140
  8
0
  6
CONTINUOUS
 62
     5
 10
478.36395
 20
379.33719
 30
0.0
 11
478.36395
 21
203.33719
 31
0.0
  0
LINE
  5
141
  8
0
  6
CONTINUOUS
 62
     5
 10
478.36395
 20
203.33719
 30
0.0
 11
327.86395
 21
203.33719
 31
0.0
  0
LINE
  5
142
  8
0
  6
CONTINUOUS
 62
     5
 10
326.86395
 20
204.33719
 30
0.0
 11
326.86395
 21
378.33719
 31
0.0
  0
LINE
  5
143
  8
0
  6
CONTINUOUS
 62
     5
 10
373.86395
 20
379.33719
 30
0.0
 11
373.86395
 21
203.33719
 31
0.0
  0
LINE
  5
144
  8
0
  6
CONTINUOUS
 62
     5
 10
380.86395
 20
203.33719
 30
0.0
 11
380.86395
 21
379.33719
 31
0.0
  0
LINE
  5
145
  8
0
  6
CONTINUOUS
 62
     5
 10
458.36395
 20
249.33719
 30
0.0
 11
380.86395
 21
249.33719
 31
0.0
  0
LINE
  5
146
  8
0
  6
CONTINUOUS
 62
     5
 10
458.36395
 20
246.33719
 30
0.0
 11
380.86395
 21
246.33719
 31
0.0
  0
LINE
  5
147
  8
0
  6
CONTINUOUS
 62
     5
 10
458.36395
 20
243.33719
 30
0.0
 11
380.86395
 21
243.33719
 31
0.0
  0
LINE
  5
148
  8
0
  6
CONTINUOUS
 62
     5
 10
458.36395
 20
240.33719
 30
0.0
 11
380.86395
 21
240.33719
 31
0.0
  0
LINE
  5
149
  8
0
  6
CONTINUOUS
 62
     5
 10
460.36395
 20
233.33719
 30
0.0
 11
326.86395
 21
233.33719
 31
0.0
  0
LINE
  5
14A
  8
0
  6
CONTINUOUS
 62
     5
 10
460.36395
 20
203.33719
 30
0.0
 11
460.36395
 21
379.33719
 31
0.0
  0
LINE
  5
14B
  8
0
  6
CONTINUOUS
 62
     5
 10
458.36395
 20
379.33719
 30
0.0
 11
458.36395
 21
203.33719
 31
0.0
  0
LINE
  5
14C
  8
0
  6
CONTINUOUS
 62
     5
 10
684.33185
 20
203.33707
 30
0.0
 11
684.33185
 21
172.71722
 31
0.0
  0
LINE
  5
14D
  8
0
  6
CONTINUOUS
 62
     5
 10
684.33185
 20
172.71722
 30
0.0
 11
730.33185
 21
172.71722
 31
0.0
  0
LINE
  5
14E
  8
0
  6
CONTINUOUS
 62
     5
 10
730.33185
 20
172.71722
 30
0.0
 11
730.33185
 21
203.33707
 31
0.0
  0
LINE
  5
14F
  8
0
  6
CONTINUOUS
 62
     5
 10
729.53192
 20
172.71722
 30
0.0
 11
729.53192
 21
169.96722
 31
0.0
  0
LINE
  5
150
  8
0
  6
CONTINUOUS
 62
     5
 10
729.53192
 20
169.96722
 30
0.0
 11
685.13196
 21
169.96722
 31
0.0
  0
LINE
  5
151
  8
0
  6
CONTINUOUS
 62
     5
 10
685.13196
 20
169.96722
 30
0.0
 11
685.13196
 21
172.71722
 31
0.0
  0
LINE
  5
152
  8
0
  6
CONTINUOUS
 62
     5
 10
688.33197
 20
169.96722
 30
0.0
 11
688.33197
 21
151.33722
 31
0.0
  0
LINE
  5
153
  8
0
  6
CONTINUOUS
 62
     5
 10
688.33197
 20
151.33722
 30
0.0
 11
726.33197
 21
151.33722
 31
0.0
  0
LINE
  5
154
  8
0
  6
CONTINUOUS
 62
     5
 10
726.33197
 20
151.33722
 30
0.0
 11
726.33197
 21
169.96722
 31
0.0
  0
LINE
  5
155
  8
0
  6
CONTINUOUS
 62
     5
 10
726.33197
 20
165.33722
 30
0.0
 11
688.33197
 21
165.33722
 31
0.0
  0
LINE
  5
156
  8
0
  6
CONTINUOUS
 62
     5
 10
689.33197
 20
165.33722
 30
0.0
 11
689.33197
 21
149.33722
 31
0.0
  0
LINE
  5
157
  8
0
  6
CONTINUOUS
 62
     5
 10
689.33197
 20
149.33722
 30
0.0
 11
725.33197
 21
149.33722
 31
0.0
  0
LINE
  5
158
  8
0
  6
CONTINUOUS
 62
     5
 10
725.33197
 20
149.33722
 30
0.0
 11
725.33197
 21
165.33722
 31
0.0
  0
LINE
  5
159
  8
0
  6
CENTER
 62
     6
 10
806.32465
 20
291.33719
 30
0.0
 11
615.07941
 21
291.33719
 31
0.0
  0
LINE
  5
15A
  8
0
  6
CENTER
 62
     6
 10
707.33228
 20
146.04672
 30
0.0
 11
707.33228
 21
399.76443
 31
0.0
  0
LINE
  5
15B
  8
0
  6
CONTINUOUS
 62
     5
 10
633.29797
 20
379.33676
 30
0.0
 11
781.36505
 21
379.33804
 31
0.0
  0
LINE
  5
15C
  8
0
  6
CONTINUOUS
 62
     5
 10
795.33185
 20
365.37149
 30
0.0
 11
795.33313
 21
217.30443
 31
0.0
  0
LINE
  5
15D
  8
0
  6
CONTINUOUS
 62
     5
 10
781.36658
 20
203.33763
 30
0.0
 11
633.2995
 21
203.33633
 31
0.0
  0
LINE
  5
15E
  8
0
  6
CONTINUOUS
 62
     5
 10
619.3327
 20
217.30289
 30
0.0
 11
619.33142
 21
365.36993
 31
0.0
  0
LINE
  5
15F
  8
0
  6
CENTER
 62
     6
 10
629.6347
 20
213.63959
 30
0.0
 11
644.89435
 21
228.89928
 31
0.0
  0
LINE
  5
160
  8
0
  6
CENTER
 62
     6
 10
629.98895
 20
368.68051
 30
0.0
 11
643.33838
 21
355.33109
 31
0.0
  0
LINE
  5
161
  8
0
  6
CENTER
 62
     6
 10
771.37598
 20
355.38089
 30
0.0
 11
784.53357
 21
368.53845
 31
0.0
  0
LINE
  5
162
  8
0
  6
CENTER
 62
     6
 10
770.51904
 20
228.15044
 30
0.0
 11
785.38898
 21
213.2805
 31
0.0
  0
LINE
  5
163
  8
0
  6
CENTER
 62
     6
 10
631.98877
 20
334.83673
 30
0.0
 11
626.71088
 21
337.88394
 31
0.0
  0
LINE
  5
164
  8
0
  6
CENTER
 62
     6
 10
663.83276
 20
215.99368
 30
0.0
 11
660.78558
 21
210.71574
 31
0.0
  0
LINE
  5
165
  8
0
  6
CENTER
 62
     6
 10
782.67578
 20
247.83772
 30
0.0
 11
787.95367
 21
244.79051
 31
0.0
  0
LINE
  5
166
  8
0
  6
CENTER
 62
     6
 10
750.83179
 20
366.68069
 30
0.0
 11
753.87897
 21
371.95862
 31
0.0
  0
LINE
  5
167
  8
0
  6
CONTINUOUS
 62
     5
 10
734.50964
 20
262.34436
 30
0.0
 11
738.10962
 21
262.34436
 31
0.0
  0
LINE
  5
168
  8
0
  6
CONTINUOUS
 62
     5
 10
736.30957
 20
264.14444
 30
0.0
 11
736.30957
 21
260.54434
 31
0.0
  0
LINE
  5
169
  8
0
  6
CENTER
 62
     6
 10
733.46863
 20
265.20078
 30
0.0
 11
739.22473
 21
259.44467
 31
0.0
  0
LINE
  5
16A
  8
0
  6
CONTINUOUS
 62
     5
 10
736.32507
 20
318.5145
 30
0.0
 11
736.32507
 21
322.11447
 31
0.0
  0
LINE
  5
16B
  8
0
  6
CONTINUOUS
 62
     5
 10
734.52502
 20
320.31445
 30
0.0
 11
738.12512
 21
320.31445
 31
0.0
  0
LINE
  5
16C
  8
0
  6
CENTER
 62
     6
 10
733.46869
 20
317.47357
 30
0.0
 11
739.22479
 21
323.22971
 31
0.0
  0
LINE
  5
16D
  8
0
  6
CONTINUOUS
 62
     5
 10
680.15491
 20
320.32996
 30
0.0
 11
676.55493
 21
320.32996
 31
0.0
  0
LINE
  5
16E
  8
0
  6
CONTINUOUS
 62
     5
 10
678.35498
 20
318.52994
 30
0.0
 11
678.35498
 21
322.13004
 31
0.0
  0
LINE
  5
16F
  8
0
  6
CENTER
 62
     6
 10
681.19586
 20
317.4736
 30
0.0
 11
675.43976
 21
323.22974
 31
0.0
  0
LINE
  5
170
  8
0
  6
CONTINUOUS
 62
     5
 10
678.33948
 20
264.15982
 30
0.0
 11
678.33948
 21
260.55984
 31
0.0
  0
LINE
  5
171
  8
0
  6
CONTINUOUS
 62
     5
 10
680.13953
 20
262.35986
 30
0.0
 11
676.53943
 21
262.35986
 31
0.0
  0
LINE
  5
172
  8
0
  6
CENTER
 62
     6
 10
681.19586
 20
265.20078
 30
0.0
 11
675.43976
 21
259.44467
 31
0.0
  0
CIRCLE
  5
173
  8
0
  6
CONTINUOUS
 62
     5
 10
151.01933
 20
245.82785
 30
0.0
 40
2.0
  0
CIRCLE
  5
174
  8
0
  6
CONTINUOUS
 62
     5
 10
121.61934
 20
245.82785
 30
0.0
 40
2.0
  0
ARC
  5
175
  8
0
  6
CONTINUOUS
 62
     5
 10
136.31935
 20
291.33719
 30
0.0
 40
115.0
 50
220.07364
 51
229.92623
  0
ARC
  5
176
  8
0
  6
CONTINUOUS
 62
     5
 10
136.31935
 20
291.33719
 30
0.0
 40
115.0
 50
130.07359
 51
139.92636
  0
ARC
  5
177
  8
0
  6
CONTINUOUS
 62
     5
 10
136.31935
 20
291.33719
 30
0.0
 40
115.0
 50
40.073673
 51
49.926432
  0
ARC
  5
178
  8
0
  6
CONTINUOUS
 62
     5
 10
136.31935
 20
291.33719
 30
0.0
 40
115.0
 50
310.07375
 51
319.92633
  0
ARC
  5
179
  8
0
  6
CENTER
 62
     6
 10
136.31935
 20
291.33719
 30
0.0
 40
100.0
 50
308.55499
 51
321.25742
  0
ARC
  5
17A
  8
0
  6
CENTER
 62
     6
 10
136.31935
 20
291.33719
 30
0.0
 40
100.0
 50
38.638991
 51
51.856425
  0
ARC
  5
17B
  8
0
  6
CENTER
 62
     6
 10
136.31935
 20
291.33719
 30
0.0
 40
100.0
 50
128.77002
 51
141.28345
  0
ARC
  5
17C
  8
0
  6
CENTER
 62
     6
 10
136.31935
 20
291.33719
 30
0.0
 40
100.0
 50
218.71696
 51
232.01697
  0
ARC
  5
17D
  8
0
  6
CONTINUOUS
 62
     5
 10
136.31935
 20
291.33719
 30
0.0
 40
38.5
 50
299.65688
 51
240.34302
  0
ARC
  5
17E
  8
0
  6
CONTINUOUS
 62
     5
 10
136.31935
 20
291.33719
 30
0.0
 40
40.0
 50
300.83049
 51
239.16948
  0
ARC
  5
17F
  8
0
  6
CONTINUOUS
 62
     5
 10
63.319351
 20
218.3373
 30
0.0
 40
15.0
 50
0.0
 51
89.999982
  0
ARC
  5
180
  8
0
  6
CONTINUOUS
 62
     5
 10
209.31934
 20
218.3373
 30
0.0
 40
15.0
 50
89.999982
 51
179.99996
  0
ARC
  5
181
  8
0
  6
CONTINUOUS
 62
     5
 10
63.319351
 20
364.33731
 30
0.0
 40
15.0
 50
270.00002
 51
0.0
  0
ARC
  5
182
  8
0
  6
CONTINUOUS
 62
     5
 10
209.31934
 20
364.33731
 30
0.0
 40
15.0
 50
179.99998
 51
270.00003
  0
ARC
  5
183
  8
0
  6
CONTINUOUS
 62
     5
 10
67.119339
 20
234.90715
 30
0.0
 40
2.0
 50
179.99998
 51
257.08359
  0
ARC
  5
184
  8
0
  6
CONTINUOUS
 62
     5
 10
80.319351
 20
205.3373
 30
0.0
 40
2.0
 50
179.99998
 51
270.00003
  0
ARC
  5
185
  8
0
  6
CONTINUOUS
 62
     5
 10
172.11934
 20
205.3373
 30
0.0
 40
2.0
 50
270.00002
 51
0.0
  0
ARC
  5
186
  8
0
  6
CONTINUOUS
 62
     5
 10
192.31934
 20
205.3373
 30
0.0
 40
2.0
 50
270.00002
 51
0.0
  0
ARC
  5
187
  8
0
  6
CONTINUOUS
 62
     5
 10
192.74947
 20
222.13719
 30
0.0
 40
2.0
 50
270.00002
 51
347.08372
  0
ARC
  5
188
  8
0
  6
CONTINUOUS
 62
     5
 10
221.22366
 20
235.3373
 30
0.0
 40
2.0
 50
270.00002
 51
358.10031
  0
ARC
  5
189
  8
0
  6
CONTINUOUS
 62
     5
 10
-450.97348
 20
291.33731
 30
0.0
 40
499.8223
 50
357.36254
 51
2.637474
  0
ARC
  5
18A
  8
0
  6
CONTINUOUS
 62
     5
 10
51.414879
 20
235.3373
 30
0.0
 40
2.0
 50
181.89966
 51
270.00002
  0
ARC
  5
18B
  8
0
  6
CONTINUOUS
 62
     5
 10
50.744953
 20
255.5372
 30
0.0
 40
2.0
 50
181.89966
 51
270.00002
  0
ARC
  5
18C
  8
0
  6
CONTINUOUS
 62
     5
 10
51.414879
 20
347.33731
 30
0.0
 40
2.0
 50
89.999982
 51
178.10078
  0
ARC
  5
18D
  8
0
  6
CONTINUOUS
 62
     5
 10
79.889175
 20
360.5372
 30
0.0
 40
2.0
 50
89.999982
 51
167.08289
  0
ARC
  5
18E
  8
0
  6
CONTINUOUS
 62
     5
 10
80.319351
 20
377.33731
 30
0.0
 40
2.0
 50
89.999982
 51
179.99996
  0
ARC
  5
18F
  8
0
  6
CONTINUOUS
 62
     5
 10
100.81935
 20
377.33731
 30
0.0
 40
2.0
 50
89.999982
 51
179.99996
  0
ARC
  5
190
  8
0
  6
CONTINUOUS
 62
     5
 10
90.819351
 20
370.5372
 30
0.0
 40
8.0
 50
270.00002
 51
0.0
  0
ARC
  5
191
  8
0
  6
CONTINUOUS
 62
     5
 10
723.61218
 20
291.33731
 30
0.0
 40
499.8223
 50
177.36254
 51
182.63748
  0
ARC
  5
192
  8
0
  6
CONTINUOUS
 62
     5
 10
221.90372
 20
326.83719
 30
0.0
 40
2.0
 50
1.89925
 51
89.999982
  0
ARC
  5
193
  8
0
  6
CONTINUOUS
 62
     5
 10
221.22383
 20
347.33731
 30
0.0
 40
2.0
 50
1.89925
 51
89.999982
  0
ARC
  5
194
  8
0
  6
CONTINUOUS
 62
     5
 10
215.51933
 20
336.83719
 30
0.0
 40
8.0
 50
179.99998
 51
270.00003
  0
ARC
  5
195
  8
0
  6
CONTINUOUS
 62
     5
 10
205.51933
 20
347.76746
 30
0.0
 40
2.0
 50
0.0
 51
77.083398
  0
ARC
  5
196
  8
0
  6
CONTINUOUS
 62
     5
 10
192.31934
 20
377.33731
 30
0.0
 40
2.0
 50
0.0
 51
89.999982
  0
CIRCLE
  5
197
  8
0
  6
CONTINUOUS
 62
     5
 10
65.502831
 20
220.52078
 30
0.0
 40
6.75
  0
CIRCLE
  5
198
  8
0
  6
CONTINUOUS
 62
     5
 10
207.33829
 20
220.3183
 30
0.0
 40
6.75
  0
CIRCLE
  5
199
  8
0
  6
CONTINUOUS
 62
     5
 10
207.3631
 20
362.38095
 30
0.0
 40
6.75
  0
CIRCLE
  5
19A
  8
0
  6
CONTINUOUS
 62
     5
 10
65.26767
 20
362.38892
 30
0.0
 40
6.75
  0
ARC
  5
19B
  8
0
  6
CONTINUOUS
 62
     5
 10
182.11934
 20
212.13719
 30
0.0
 40
8.0
 50
89.999982
 51
179.99996
  0
ARC
  5
19C
  8
0
  6
CONTINUOUS
 62
     5
 10
57.119339
 20
245.5372
 30
0.0
 40
8.0
 50
0.0
 51
89.999982
  0
ARC
  5
19D
  8
0
  6
CENTER
 62
     6
 10
136.31935
 20
291.33719
 30
0.0
 40
91.5
 50
113.98397
 51
126.11898
  0
CIRCLE
  5
19E
  8
0
  6
CONTINUOUS
 62
     5
 10
90.569389
 20
370.57852
 30
0.0
 40
6.5
  0
CIRCLE
  5
19F
  8
0
  6
CONTINUOUS
 62
     5
 10
90.569389
 20
370.57852
 30
0.0
 40
7.7
  0
ARC
  5
1A0
  8
0
  6
CENTER
 62
     6
 10
136.31935
 20
291.33719
 30
0.0
 40
70.000008
 50
84.152001
 51
96.157999
  0
CIRCLE
  5
1A1
  8
0
  6
CONTINUOUS
 62
     5
 10
136.31938
 20
361.33722
 30
0.0
 40
5.0
  0
CIRCLE
  5
1A2
  8
0
  6
CONTINUOUS
 62
     5
 10
136.31938
 20
361.33722
 30
0.0
 40
6.1
  0
ARC
  5
1A3
  8
0
  6
CENTER
 62
     6
 10
136.31935
 20
291.33719
 30
0.0
 40
91.5
 50
203.98396
 51
216.11898
  0
CIRCLE
  5
1A4
  8
0
  6
CONTINUOUS
 62
     5
 10
57.078026
 20
245.58719
 30
0.0
 40
6.5
  0
CIRCLE
  5
1A5
  8
0
  6
CONTINUOUS
 62
     5
 10
57.078026
 20
245.58719
 30
0.0
 40
7.7
  0
ARC
  5
1A6
  8
0
  6
CENTER
 62
     6
 10
136.31935
 20
291.33719
 30
0.0
 40
91.5
 50
293.98398
 51
306.11899
  0
CIRCLE
  5
1A7
  8
0
  6
CONTINUOUS
 62
     5
 10
182.06934
 20
212.09586
 30
0.0
 40
6.5
  0
CIRCLE
  5
1A8
  8
0
  6
CONTINUOUS
 62
     5
 10
182.06934
 20
212.09586
 30
0.0
 40
7.7
  0
ARC
  5
1A9
  8
0
  6
CENTER
 62
     6
 10
136.31935
 20
291.33719
 30
0.0
 40
91.5
 50
23.983977
 51
36.118983
  0
CIRCLE
  5
1AA
  8
0
  6
CONTINUOUS
 62
     5
 10
215.56068
 20
337.08716
 30
0.0
 40
6.5
  0
CIRCLE
  5
1AB
  8
0
  6
CONTINUOUS
 62
     5
 10
215.56068
 20
337.08716
 30
0.0
 40
7.7
  0
ARC
  5
1AC
  8
0
  6
CENTER
 62
     6
 10
136.31935
 20
291.33719
 30
0.0
 40
70.000008
 50
204.15199
 51
216.15799
  0
CIRCLE
  5
1AD
  8
0
  6
CONTINUOUS
 62
     5
 10
75.697556
 20
256.33719
 30
0.0
 40
5.0
  0
CIRCLE
  5
1AE
  8
0
  6
CONTINUOUS
 62
     5
 10
75.697556
 20
256.33719
 30
0.0
 40
6.1
  0
ARC
  5
1AF
  8
0
  6
CENTER
 62
     6
 10
136.31935
 20
291.33719
 30
0.0
 40
70.000008
 50
324.152
 51
336.158
  0
CIRCLE
  5
1B0
  8
0
  6
CONTINUOUS
 62
     5
 10
196.94113
 20
256.33716
 30
0.0
 40
5.0
  0
CIRCLE
  5
1B1
  8
0
  6
CONTINUOUS
 62
     5
 10
196.94113
 20
256.33716
 30
0.0
 40
6.1
  0
ARC
  5
1B2
  8
0
  6
CENTER
 62
     6
 10
136.31935
 20
291.33719
 30
0.0
 40
46.074776
 50
215.39133
 51
223.96928
  0
CIRCLE
  5
1B3
  8
0
  6
CONTINUOUS
 62
     5
 10
101.02861
 20
261.71542
 30
0.0
 40
2.4
  0
ARC
  5
1B4
  8
0
  6
CONTINUOUS
 62
     5
 10
101.02861
 20
261.71542
 30
0.0
 40
4.507212
 50
314.99965
 51
134.99969
  0
ARC
  5
1B5
  8
0
  6
CENTER
 62
     6
 10
136.31935
 20
291.33719
 30
0.0
 40
46.074776
 50
305.39133
 51
313.96928
  0
CIRCLE
  5
1B6
  8
0
  6
CONTINUOUS
 62
     5
 10
165.94112
 20
256.04645
 30
0.0
 40
2.4
  0
ARC
  5
1B7
  8
0
  6
CONTINUOUS
 62
     5
 10
165.94112
 20
256.04645
 30
0.0
 40
4.507212
 50
44.999649
 51
224.99967
  0
ARC
  5
1B8
  8
0
  6
CENTER
 62
     6
 10
136.31935
 20
291.33719
 30
0.0
 40
46.074776
 50
35.391322
 51
43.969274
  0
CIRCLE
  5
1B9
  8
0
  6
CONTINUOUS
 62
     5
 10
171.61009
 20
320.95895
 30
0.0
 40
2.4
  0
ARC
  5
1BA
  8
0
  6
CONTINUOUS
 62
     5
 10
171.61009
 20
320.95895
 30
0.0
 40
4.507212
 50
134.99965
 51
314.99966
  0
ARC
  5
1BB
  8
0
  6
CENTER
 62
     6
 10
136.31935
 20
291.33719
 30
0.0
 40
46.074776
 50
125.39132
 51
133.96927
  0
CIRCLE
  5
1BC
  8
0
  6
CONTINUOUS
 62
     5
 10
106.69759
 20
326.62793
 30
0.0
 40
2.4
  0
ARC
  5
1BD
  8
0
  6
CONTINUOUS
 62
     5
 10
106.69759
 20
326.62793
 30
0.0
 40
4.507212
 50
224.99966
 51
44.99969
  0
ARC
  5
1BE
  8
0
  6
CONTINUOUS
 62
     5
 10
315.4119
 20
321.33026
 30
0.0
 40
30.047937
 50
163.61976
 51
179.98682
  0
ARC
  5
1BF
  8
0
  6
CONTINUOUS
 62
     5
 10
287.54297
 20
329.52209
 30
0.0
 40
1.0
 50
92.000742
 51
163.61965
  0
ARC
  5
1C0
  8
0
  6
CONTINUOUS
 62
     5
 10
327.86395
 20
378.33719
 30
0.0
 40
1.0
 50
89.999982
 51
179.99996
  0
ARC
  5
1C1
  8
0
  6
CONTINUOUS
 62
     5
 10
338.86395
 20
348.33719
 30
0.0
 40
1.0
 50
89.999982
 51
179.99996
  0
ARC
  5
1C2
  8
0
  6
CONTINUOUS
 62
     5
 10
327.86395
 20
327.83719
 30
0.0
 40
1.0
 50
89.999982
 51
179.99996
  0
ARC
  5
1C3
  8
0
  6
CONTINUOUS
 62
     5
 10
316.86395
 20
322.44968
 30
0.0
 40
1.0
 50
89.999982
 51
179.99996
  0
ARC
  5
1C4
  8
0
  6
CONTINUOUS
 62
     5
 10
327.86395
 20
221.13719
 30
0.0
 40
1.0
 50
179.99998
 51
270.00003
  0
ARC
  5
1C5
  8
0
  6
CONTINUOUS
 62
     5
 10
327.86395
 20
204.33719
 30
0.0
 40
1.0
 50
179.99998
 51
270.00003
  0
ARC
  5
1C6
  8
0
  6
CONTINUOUS
 62
     5
 10
338.86395
 20
204.33719
 30
0.0
 40
1.0
 50
179.99998
 51
270.00003
  0
ARC
  5
1C7
  8
0
  6
CONTINUOUS
 62
     5
 10
441.23557
 20
173.71706
 30
0.0
 40
1.0
 50
270.00002
 51
339.25117
  0
CIRCLE
  5
1C8
  8
0
  6
CONTINUOUS
 62
     5
 10
707.33228
 20
291.33719
 30
0.0
 40
57.150024
  0
CIRCLE
  5
1C9
  8
0
  6
CONTINUOUS
 62
     5
 10
707.33228
 20
291.33719
 30
0.0
 40
50.0
  0
CIRCLE
  5
1CA
  8
0
  6
CONTINUOUS
 62
     5
 10
707.33228
 20
291.33719
 30
0.0
 40
30.0
  0
CIRCLE
  5
1CB
  8
0
  6
CONTINUOUS
 62
     5
 10
707.33228
 20
291.33719
 30
0.0
 40
20.0
  0
CIRCLE
  5
1CC
  8
0
  6
CONTINUOUS
 62
     5
 10
707.33228
 20
291.33719
 30
0.0
 40
17.5
  0
ARC
  5
1CD
  8
0
  6
CENTER
 62
     6
 10
707.33228
 20
291.33719
 30
0.0
 40
100.0
 50
218.48196
 51
230.87241
  0
ARC
  5
1CE
  8
0
  6
CENTER
 62
     6
 10
707.33228
 20
291.33719
 30
0.0
 40
100.0
 50
129.67801
 51
140.17742
  0
ARC
  5
1CF
  8
0
  6
CENTER
 62
     6
 10
707.33228
 20
291.33719
 30
0.0
 40
100.0
 50
40.002171
 51
50.357431
  0
ARC
  5
1D0
  8
0
  6
CENTER
 62
     6
 10
707.33228
 20
291.33719
 30
0.0
 40
100.0
 50
309.417
 51
321.15542
  0
ARC
  5
1D1
  8
0
  6
CONTINUOUS
 62
     5
 10
707.33228
 20
291.33719
 30
0.0
 40
115.0
 50
220.07397
 51
229.92697
  0
ARC
  5
1D2
  8
0
  6
CONTINUOUS
 62
     5
 10
707.33228
 20
291.33719
 30
0.0
 40
115.0
 50
310.074
 51
319.927
  0
ARC
  5
1D3
  8
0
  6
CONTINUOUS
 62
     5
 10
707.33228
 20
291.33719
 30
0.0
 40
115.0
 50
40.07399
 51
49.926992
  0
ARC
  5
1D4
  8
0
  6
CONTINUOUS
 62
     5
 10
707.33228
 20
291.33719
 30
0.0
 40
115.0
 50
130.07403
 51
139.92701
  0
CIRCLE
  5
1D5
  8
0
  6
CONTINUOUS
 62
     5
 10
636.62158
 20
220.62651
 30
0.0
 40
6.75
  0
CIRCLE
  5
1D6
  8
0
  6
CONTINUOUS
 62
     5
 10
636.62158
 20
362.04785
 30
0.0
 40
6.75
  0
CIRCLE
  5
1D7
  8
0
  6
CONTINUOUS
 62
     5
 10
778.04297
 20
362.04785
 30
0.0
 40
6.75
  0
CIRCLE
  5
1D8
  8
0
  6
CONTINUOUS
 62
     5
 10
778.04297
 20
220.62653
 30
0.0
 40
6.75
  0
ARC
  5
1D9
  8
0
  6
CENTER
 62
     6
 10
707.33228
 20
291.33719
 30
0.0
 40
90.0
 50
148.29962
 51
151.78968
  0
CIRCLE
  5
1DA
  8
0
  6
CONTINUOUS
 62
     5
 10
629.38995
 20
336.33713
 30
0.0
 40
1.5
  0
CIRCLE
  5
1DB
  8
0
  6
CONTINUOUS
 62
     5
 10
629.38995
 20
336.33713
 30
0.0
 40
2.5
  0
CIRCLE
  5
1DC
  8
0
  6
CONTINUOUS
 62
     5
 10
662.33234
 20
213.39485
 30
0.0
 40
1.5
  0
CIRCLE
  5
1DD
  8
0
  6
CONTINUOUS
 62
     5
 10
662.33234
 20
213.39485
 30
0.0
 40
2.5
  0
ARC
  5
1DE
  8
0
  6
CENTER
 62
     6
 10
707.33228
 20
291.33719
 30
0.0
 40
90.0
 50
238.29963
 51
241.7897
  0
CIRCLE
  5
1DF
  8
0
  6
CONTINUOUS
 62
     5
 10
785.2746
 20
246.33725
 30
0.0
 40
1.5
  0
CIRCLE
  5
1E0
  8
0
  6
CONTINUOUS
 62
     5
 10
785.2746
 20
246.33725
 30
0.0
 40
2.5
  0
ARC
  5
1E1
  8
0
  6
CENTER
 62
     6
 10
707.33228
 20
291.33719
 30
0.0
 40
90.0
 50
328.29963
 51
331.78969
  0
CIRCLE
  5
1E2
  8
0
  6
CONTINUOUS
 62
     5
 10
752.33221
 20
369.27951
 30
0.0
 40
1.5
  0
CIRCLE
  5
1E3
  8
0
  6
CONTINUOUS
 62
     5
 10
752.33221
 20
369.27951
 30
0.0
 40
2.5
  0
ARC
  5
1E4
  8
0
  6
CENTER
 62
     6
 10
707.33228
 20
291.33719
 30
0.0
 40
90.0
 50
58.299626
 51
61.789689
  0
ARC
  5
1E5
  8
0
  6
CENTER
 62
     6
 10
707.33228
 20
291.33719
 30
0.0
 40
40.99107
 50
307.29944
 51
322.57118
  0
CIRCLE
  5
1E6
  8
0
  6
CONTINUOUS
 62
     5
 10
736.30957
 20
262.34433
 30
0.0
 40
2.5
  0
ARC
  5
1E7
  8
0
  6
CENTER
 62
     6
 10
707.33228
 20
291.33719
 30
0.0
 40
40.99107
 50
37.299431
 51
52.571187
  0
CIRCLE
  5
1E8
  8
0
  6
CONTINUOUS
 62
     5
 10
736.32513
 20
320.31448
 30
0.0
 40
2.5
  0
ARC
  5
1E9
  8
0
  6
CENTER
 62
     6
 10
707.33228
 20
291.33719
 30
0.0
 40
40.99107
 50
127.29943
 51
142.57118
  0
CIRCLE
  5
1EA
  8
0
  6
CONTINUOUS
 62
     5
 10
678.35498
 20
320.33005
 30
0.0
 40
2.5
  0
ARC
  5
1EB
  8
0
  6
CENTER
 62
     6
 10
707.33228
 20
291.33719
 30
0.0
 40
40.99107
 50
217.29944
 51
232.57118
  0
CIRCLE
  5
1EC
  8
0
  6
CONTINUOUS
 62
     5
 10
678.33942
 20
262.35989
 30
0.0
 40
2.5
  0
ARC
  5
1ED
  8
0
  6
CONTINUOUS
 62
     5
 10
316.86395
 20
254.66211
 30
0.0
 40
1.0
 50
179.99998
 51
270.00003
  0
ARC
  5
1EE
  8
0
  6
CONTINUOUS
 62
     5
 10
367.3797
 20
201.75835
 30
0.0
 40
80.0
 50
339.20997
 51
1.130836
  0
TEXT
  5
1EF
  8
0
  6
CONTINUOUS
 62
     7
 10
51.933963
 20
432.29033
 30
0.0
 40
12.7
  1
HC-SF121B
  0
ENDSEC
  0
EOF
