  0
SECTION
  2
HEADER
  9
$ACADVER
  1
AC1009
  9
$INSBASE
 10
0.0
 20
0.0
 30
0.0
  9
$EXTMIN
 10
-354.72533
 20
-150.89185
 30
0.0
  9
$EXTMAX
 10
337.5
 20
173.6008
 30
0.0
  9
$LIMMIN
 10
0.0
 20
0.0
  9
$LIMMAX
 10
12.0
 20
9.0
  9
$ORTHOMODE
 70
     0
  9
$REGENMODE
 70
     1
  9
$FILLMODE
 70
     1
  9
$QTEXTMODE
 70
     0
  9
$MIRRTEXT
 70
     1
  9
$DRAGMODE
 70
     2
  9
$LTSCALE
 40
1.0
  9
$OSMODE
 70
     0
  9
$ATTMODE
 70
     1
  9
$TEXTSIZE
 40
0.2
  9
$TRACEWID
 40
0.05
  9
$TEXTSTYLE
  7
STANDARD
  9
$CLAYER
  8
0
  9
$CELTYPE
  6
CONTINUOUS
  9
$CECOLOR
 62
   256
  9
$DIMSCALE
 40
1.0
  9
$DIMASZ
 40
0.18
  9
$DIMEXO
 40
0.0625
  9
$DIMDLI
 40
0.38
  9
$DIMRND
 40
0.0
  9
$DIMDLE
 40
0.0
  9
$DIMEXE
 40
0.18
  9
$DIMTP
 40
0.0
  9
$DIMTM
 40
0.0
  9
$DIMTXT
 40
0.18
  9
$DIMCEN
 40
0.09
  9
$DIMTSZ
 40
0.0
  9
$DIMTOL
 70
     0
  9
$DIMLIM
 70
     0
  9
$DIMTIH
 70
     1
  9
$DIMTOH
 70
     1
  9
$DIMSE1
 70
     0
  9
$DIMSE2
 70
     0
  9
$DIMTAD
 70
     0
  9
$DIMZIN
 70
     0
  9
$DIMBLK
  1

  9
$DIMASO
 70
     1
  9
$DIMSHO
 70
     1
  9
$DIMPOST
  1

  9
$DIMAPOST
  1

  9
$DIMALT
 70
     0
  9
$DIMALTD
 70
     2
  9
$DIMALTF
 40
25.4
  9
$DIMLFAC
 40
1.0
  9
$DIMTOFL
 70
     0
  9
$DIMTVP
 40
0.0
  9
$DIMTIX
 70
     0
  9
$DIMSOXD
 70
     0
  9
$DIMSAH
 70
     0
  9
$DIMBLK1
  1

  9
$DIMBLK2
  1

  9
$DIMSTYLE
  2
STANDARD
  9
$DIMCLRD
 70
     0
  9
$DIMCLRE
 70
     0
  9
$DIMCLRT
 70
     0
  9
$DIMTFAC
 40
1.0
  9
$DIMGAP
 40
0.09
  9
$LUNITS
 70
     2
  9
$LUPREC
 70
     4
  9
$SKETCHINC
 40
0.1
  9
$FILLETRAD
 40
0.0
  9
$AUNITS
 70
     0
  9
$AUPREC
 70
     0
  9
$MENU
  1
.
  9
$ELEVATION
 40
0.0
  9
$PELEVATION
 40
0.0
  9
$THICKNESS
 40
0.0
  9
$LIMCHECK
 70
     0
  9
$BLIPMODE
 70
     0
  9
$CHAMFERA
 40
0.0
  9
$CHAMFERB
 40
0.0
  9
$SKPOLY
 70
     0
  9
$TDCREATE
 40
0.0
  9
$TDUPDATE
 40
0.0
  9
$TDINDWG
 40
0.0
  9
$TDUSRTIMER
 40
0.0
  9
$USRTIMER
 70
     1
  9
$ANGBASE
 50
0.0
  9
$ANGDIR
 70
     0
  9
$PDMODE
 70
     0
  9
$PDSIZE
 40
0.0
  9
$PLINEWID
 40
0.0
  9
$COORDS
 70
     1
  9
$SPLFRAME
 70
     0
  9
$SPLINETYPE
 70
     6
  9
$SPLINESEGS
 70
     8
  9
$ATTDIA
 70
     0
  9
$ATTREQ
 70
     1
  9
$HANDLING
 70
     1
  9
$HANDSEED
  5
1F1
  9
$SURFTAB1
 70
     6
  9
$SURFTAB2
 70
     6
  9
$SURFTYPE
 70
     6
  9
$SURFU
 70
     6
  9
$SURFV
 70
     6
  9
$UCSNAME
  2

  9
$UCSORG
 10
0.0
 20
0.0
 30
0.0
  9
$UCSXDIR
 10
1.0
 20
0.0
 30
0.0
  9
$UCSYDIR
 10
0.0
 20
1.0
 30
0.0
  9
$PUCSNAME
  2

  9
$PUCSORG
 10
0.0
 20
0.0
 30
0.0
  9
$PUCSXDIR
 10
1.0
 20
0.0
 30
0.0
  9
$PUCSYDIR
 10
0.0
 20
1.0
 30
0.0
  9
$USERI1
 70
     0
  9
$USERI2
 70
     0
  9
$USERI3
 70
     0
  9
$USERI4
 70
     0
  9
$USERI5
 70
     0
  9
$USERR1
 40
0.0
  9
$USERR2
 40
0.0
  9
$USERR3
 40
0.0
  9
$USERR4
 40
0.0
  9
$USERR5
 40
0.0
  9
$WORLDVIEW
 70
     1
  9
$SHADEDGE
 70
     3
  9
$SHADEDIF
 70
    70
  9
$TILEMODE
 70
     1
  9
$MAXACTVP
 70
    48
  9
$PLIMCHECK
 70
     0
  9
$PEXTMIN
 10
1.000000E+020
 20
1.000000E+020
 30
1.000000E+020
  9
$PEXTMAX
 10
-1.000000E+020
 20
-1.000000E+020
 30
-1.000000E+020
  9
$PLIMMIN
 10
0.0
 20
0.0
  9
$PLIMMAX
 10
12.0
 20
9.0
  9
$UNITMODE
 70
     0
  9
$VISRETAIN
 70
     1
  9
$PLINEGEN
 70
     0
  9
$PSLTSCALE
 70
     1
  0
ENDSEC
  0
SECTION
  2
TABLES
  0
TABLE
  2
VPORT
 70
     2
  0
VPORT
  2
*ACTIVE
 70
     0
 10
0.0
 20
0.0
 11
1.0
 21
1.0
 12
-8.612666
 22
11.354475
 13
0.0
 23
0.0
 14
1.0
 24
1.0
 15
0.0
 25
0.0
 16
0.0
 26
0.0
 36
1.0
 17
0.0
 27
0.0
 37
0.0
 40
388.801839
 41
1.989154
 42
50.0
 43
0.0
 44
0.0
 50
0.0
 51
0.0
 71
     0
 72
   100
 73
     1
 74
     1
 75
     0
 76
     0
 77
     0
 78
     0
  0
ENDTAB
  0
TABLE
  2
LTYPE
 70
     5
  0
LTYPE
  2
CONTINUOUS
 70
     0
  3
Solid line
 72
    65
 73
     0
 40
0.0
  0
LTYPE
  2
DASHED
 70
     0
  3
__ __ __ __ __ __ __ __ __ __ __ __ __ __ __
 72
    65
 73
     2
 40
3.5
 49
2.0
 49
-1.5
  0
LTYPE
  2
CENTER
 70
     0
  3
____ _ ____ _ ____ _ ____ _ ____ _ ____ _ ____
 72
    65
 73
     4
 40
17.5
 49
13.0
 49
-1.5
 49
1.5
 49
-1.5
  0
LTYPE
  2
PHANTOM
 70
     0
  3
_____ _ _ _____ _ _ _____ _ _ _____ _ _ ____  
 72
    65
 73
     6
 40
15.5
 49
8.0
 49
-1.5
 49
1.5
 49
-1.5
 49
1.5
 49
-1.5
  0
LTYPE
  2
DOT
 70
     0
  3
. . . . . . . . . . . . . . . . . . . . . . . .
 72
    65
 73
     2
 40
0.25
 49
0.0
 49
-0.25
  0
ENDTAB
  0
TABLE
  2
LAYER
 70
     1
  0
LAYER
  2
0
 70
     0
 62
     7
  6
CONTINUOUS
  0
ENDTAB
  0
TABLE
  2
STYLE
 70
     1
  0
STYLE
  2
STANDARD
 70
     0
 40
0.0
 41
1.0
 50
0.0
 71
     0
 42
0.2
  3
txt
  4

  0
ENDTAB
  0
TABLE
  2
VIEW
 70
     0
  0
ENDTAB
  0
TABLE
  2
UCS
 70
     0
  0
ENDTAB
  0
TABLE
  2
APPID
 70
     1
  0
APPID
  2
ACAD
 70
     0
  0
ENDTAB
  0
TABLE
  2
DIMSTYLE
 70
     1
  0
DIMSTYLE
  2
STANDARD
 70
     0
  3

  4

  5

  6

  7

 40
1.0
 41
0.18
 42
0.0625
 43
0.38
 44
0.18
 45
0.0
 46
0.0
 47
0.0
 48
0.0
140
0.18
141
0.09
142
0.0
143
25.4
144
1.0
145
0.0
146
1.0
147
0.09
 71
     0
 72
     0
 73
     1
 74
     1
 75
     0
 76
     0
 77
     0
 78
     0
170
     0
171
     2
172
     0
173
     0
174
     0
175
     0
176
     0
177
     0
178
     0
  0
ENDTAB
  0
ENDSEC
  0
SECTION
  2
BLOCKS
  0
BLOCK
  8
0
  2
$MODEL_SPACE
 70
     0
 10
0.0
 20
0.0
 30
0.0
  3
$MODEL_SPACE
  1

  0
ENDBLK
  5
1A
  8
0
  0
BLOCK
 67
     1
  8
0
  2
$PAPER_SPACE
 70
     0
 10
0.0
 20
0.0
 30
0.0
  3
$PAPER_SPACE
  1

  0
ENDBLK
  5
17
 67
     1
  8
0
  0
ENDSEC
  0
SECTION
  2
ENTITIES
  0
LINE
  5
23
  8
0
  6
CONTINUOUS
 62
     3
 10
7.500009
 20
-10.946384
 30
0.0
 11
57.500008
 21
-10.946384
 31
0.0
  0
LINE
  5
24
  8
0
  6
CONTINUOUS
 62
     3
 10
7.500009
 20
11.053616
 30
0.0
 11
57.500008
 21
11.053616
 31
0.0
  0
LINE
  5
25
  8
0
  6
CONTINUOUS
 62
     3
 10
5.500009
 20
-14.946384
 30
0.0
 11
7.500009
 21
-14.946384
 31
0.0
  0
LINE
  5
26
  8
0
  6
CONTINUOUS
 62
     3
 10
5.500009
 20
15.053616
 30
0.0
 11
7.500009
 21
15.053616
 31
0.0
  0
LINE
  5
27
  8
0
  6
CONTINUOUS
 62
     3
 10
239.36839
 20
-33.859921
 30
0.0
 11
237.49339
 21
-32.777393
 31
0.0
  0
LINE
  5
28
  8
0
  6
CONTINUOUS
 62
     3
 10
239.36839
 20
-36.024986
 30
0.0
 11
239.36839
 21
-33.859924
 31
0.0
  0
LINE
  5
29
  8
0
  6
CONTINUOUS
 62
     3
 10
235.61839
 20
-33.859924
 30
0.0
 11
235.61839
 21
-36.024986
 31
0.0
  0
LINE
  5
2A
  8
0
  6
CONTINUOUS
 62
     3
 10
235.61839
 20
-36.02499
 30
0.0
 11
237.49339
 21
-37.107517
 31
0.0
  0
LINE
  5
2B
  8
0
  6
CONTINUOUS
 62
     3
 10
237.49339
 20
-32.77739
 30
0.0
 11
235.61839
 21
-33.859924
 31
0.0
  0
LINE
  5
2C
  8
0
  6
CONTINUOUS
 62
     3
 10
237.49339
 20
-37.107517
 30
0.0
 11
239.36839
 21
-36.024986
 31
0.0
  0
LINE
  5
2D
  8
0
  6
CENTER
 62
     4
 10
270.33533
 20
13.181118
 30
0.0
 11
265.12695
 21
22.202332
 31
0.0
  0
LINE
  5
2E
  8
0
  6
CENTER
 62
     4
 10
263.43839
 20
15.029152
 30
0.0
 11
272.45959
 21
20.237551
 31
0.0
  0
LINE
  5
2F
  8
0
  6
CONTINUOUS
 62
     3
 10
269.67929
 20
18.640072
 30
0.0
 11
267.80429
 21
19.722599
 31
0.0
  0
LINE
  5
30
  8
0
  6
CONTINUOUS
 62
     3
 10
269.67929
 20
16.475014
 30
0.0
 11
269.67929
 21
18.640076
 31
0.0
  0
LINE
  5
31
  8
0
  6
CONTINUOUS
 62
     3
 10
265.92929
 20
18.640076
 30
0.0
 11
265.92929
 21
16.475014
 31
0.0
  0
LINE
  5
32
  8
0
  6
CONTINUOUS
 62
     3
 10
265.92929
 20
16.475006
 30
0.0
 11
267.80429
 21
15.392469
 31
0.0
  0
LINE
  5
33
  8
0
  6
CONTINUOUS
 62
     3
 10
267.80429
 20
19.72262
 30
0.0
 11
265.92929
 21
18.640083
 31
0.0
  0
LINE
  5
34
  8
0
  6
CONTINUOUS
 62
     3
 10
267.80429
 20
15.392489
 30
0.0
 11
269.67929
 21
16.475025
 31
0.0
  0
LINE
  5
35
  8
0
  6
CENTER
 62
     4
 10
211.33914
 20
15.157593
 30
0.0
 11
202.79301
 21
20.091692
 31
0.0
  0
LINE
  5
36
  8
0
  6
CONTINUOUS
 62
     3
 10
209.0575
 20
18.640068
 30
0.0
 11
207.1825
 21
19.722595
 31
0.0
  0
LINE
  5
37
  8
0
  6
CONTINUOUS
 62
     3
 10
209.0575
 20
16.475014
 30
0.0
 11
209.0575
 21
18.640076
 31
0.0
  0
LINE
  5
38
  8
0
  6
CONTINUOUS
 62
     3
 10
205.3075
 20
18.640076
 30
0.0
 11
205.3075
 21
16.475014
 31
0.0
  0
LINE
  5
39
  8
0
  6
CONTINUOUS
 62
     3
 10
205.3075
 20
16.475008
 30
0.0
 11
207.1825
 21
15.39248
 31
0.0
  0
LINE
  5
3A
  8
0
  6
CONTINUOUS
 62
     3
 10
207.1825
 20
19.722618
 30
0.0
 11
205.3075
 21
18.640081
 31
0.0
  0
LINE
  5
3B
  8
0
  6
CONTINUOUS
 62
     3
 10
207.1825
 20
15.392488
 30
0.0
 11
209.0575
 21
16.475023
 31
0.0
  0
LINE
  5
3C
  8
0
  6
CONTINUOUS
 62
     3
 10
-10.499991
 20
-87.946381
 30
0.0
 11
-10.499991
 21
88.053619
 31
0.0
  0
LINE
  5
3D
  8
0
  6
CONTINUOUS
 62
     3
 10
-68.499992
 20
57.553616
 30
0.0
 11
-10.499991
 21
57.553616
 31
0.0
  0
LINE
  5
3E
  8
0
  6
CONTINUOUS
 62
     4
 10
-318.24564
 20
-78.298973
 30
0.0
 11
-325.03748
 21
-86.393173
 31
0.0
  0
LINE
  5
3F
  8
0
  6
CENTER
 62
     4
 10
-318.24561
 20
-78.298958
 30
0.0
 11
-325.03748
 21
-86.393166
 31
0.0
  0
LINE
  5
40
  8
0
  6
CONTINUOUS
 62
     4
 10
-186.75439
 20
78.406189
 30
0.0
 11
-179.96254
 21
86.500397
 31
0.0
  0
LINE
  5
41
  8
0
  6
CENTER
 62
     4
 10
-186.75439
 20
78.406189
 30
0.0
 11
-179.96254
 21
86.500397
 31
0.0
  0
LINE
  5
42
  8
0
  6
CENTER
 62
     4
 10
303.24561
 20
-78.298965
 30
0.0
 11
310.03745
 21
-86.393181
 31
0.0
  0
LINE
  5
43
  8
0
  6
CENTER
 62
     4
 10
303.24561
 20
-78.298965
 30
0.0
 11
310.03745
 21
-86.393181
 31
0.0
  0
LINE
  5
44
  8
0
  6
CONTINUOUS
 62
     4
 10
171.75438
 20
78.406189
 30
0.0
 11
164.96252
 21
86.500397
 31
0.0
  0
LINE
  5
45
  8
0
  6
CENTER
 62
     4
 10
171.75438
 20
78.406189
 30
0.0
 11
164.96252
 21
86.500397
 31
0.0
  0
LINE
  5
46
  8
0
  6
CONTINUOUS
 62
     3
 10
-13.500009
 20
-117.94638
 30
0.0
 11
-13.500009
 21
-87.946381
 31
0.0
  0
LINE
  5
47
  8
0
  6
CONTINUOUS
 62
     3
 10
-57.500008
 20
-117.94638
 30
0.0
 11
-57.500008
 21
-87.946381
 31
0.0
  0
LINE
  5
48
  8
0
  6
CONTINUOUS
 62
     3
 10
-12.499991
 20
-87.946381
 30
0.0
 11
-12.499991
 21
88.053619
 31
0.0
  0
LINE
  5
49
  8
0
  6
CONTINUOUS
 62
     3
 10
-267.30002
 20
-64.75573
 30
0.0
 11
-237.70001
 21
-64.75573
 31
0.0
  0
LINE
  5
4A
  8
0
  6
CONTINUOUS
 62
     3
 10
-277.5
 20
-86.446281
 30
0.0
 11
-277.5
 21
-87.946281
 31
0.0
  0
LINE
  5
4B
  8
0
  6
CONTINUOUS
 62
     3
 10
-227.50002
 20
-86.446281
 30
0.0
 11
-227.50002
 21
-87.946281
 31
0.0
  0
LINE
  5
4C
  8
0
  6
CONTINUOUS
 62
     3
 10
-235.10001
 20
-125.74628
 30
0.0
 11
-235.10001
 21
-122.74628
 31
0.0
  0
LINE
  5
4D
  8
0
  6
CONTINUOUS
 62
     3
 10
-269.89999
 20
-125.74628
 30
0.0
 11
-235.10001
 21
-125.74628
 31
0.0
  0
LINE
  5
4E
  8
0
  6
CONTINUOUS
 62
     3
 10
-268.89999
 20
-141.74628
 30
0.0
 11
-268.89999
 21
-125.74628
 31
0.0
  0
LINE
  5
4F
  8
0
  6
CONTINUOUS
 62
     3
 10
-236.10001
 20
-141.74628
 30
0.0
 11
-236.10001
 21
-125.74628
 31
0.0
  0
LINE
  5
50
  8
0
  6
CONTINUOUS
 62
     3
 10
-269.89999
 20
-140.74628
 30
0.0
 11
-235.10001
 21
-140.74628
 31
0.0
  0
LINE
  5
51
  8
0
  6
CONTINUOUS
 62
     3
 10
-236.10001
 20
-141.74628
 30
0.0
 11
-235.10001
 21
-140.74628
 31
0.0
  0
LINE
  5
52
  8
0
  6
CONTINUOUS
 62
     3
 10
-269.89999
 20
-140.74628
 30
0.0
 11
-268.89999
 21
-141.74628
 31
0.0
  0
LINE
  5
53
  8
0
  6
CONTINUOUS
 62
     3
 10
-235.10001
 20
-140.74628
 30
0.0
 11
-235.10001
 21
-125.74628
 31
0.0
  0
LINE
  5
54
  8
0
  6
CONTINUOUS
 62
     3
 10
-269.89999
 20
-140.74628
 30
0.0
 11
-269.89999
 21
-122.74628
 31
0.0
  0
LINE
  5
55
  8
0
  6
CONTINUOUS
 62
     3
 10
-268.89999
 20
-141.74628
 30
0.0
 11
-236.10001
 21
-141.74628
 31
0.0
  0
LINE
  5
56
  8
0
  6
CONTINUOUS
 62
     4
 10
-252.50002
 20
-141.10239
 30
0.0
 11
-252.50002
 21
-98.567192
 31
0.0
  0
LINE
  5
57
  8
0
  6
CONTINUOUS
 62
     3
 10
-232.00002
 20
-122.74628
 30
0.0
 11
-232.00002
 21
-118.94628
 31
0.0
  0
LINE
  5
58
  8
0
  6
CONTINUOUS
 62
     3
 10
-273.0
 20
-122.74628
 30
0.0
 11
-273.0
 21
-118.94628
 31
0.0
  0
LINE
  5
59
  8
0
  6
CONTINUOUS
 62
     3
 10
-273.0
 20
-122.74628
 30
0.0
 11
-232.00002
 21
-122.74628
 31
0.0
  0
LINE
  5
5A
  8
0
  6
CONTINUOUS
 62
     3
 10
-273.0
 20
-119.94628
 30
0.0
 11
-232.00002
 21
-119.94628
 31
0.0
  0
LINE
  5
5B
  8
0
  6
CONTINUOUS
 62
     3
 10
-274.5
 20
-117.94628
 30
0.0
 11
-274.5
 21
-87.946281
 31
0.0
  0
LINE
  5
5C
  8
0
  6
CONTINUOUS
 62
     3
 10
-230.50002
 20
-117.94628
 30
0.0
 11
-230.50002
 21
-87.946281
 31
0.0
  0
LINE
  5
5D
  8
0
  6
CONTINUOUS
 62
     3
 10
-273.5
 20
-118.94628
 30
0.0
 11
-231.50002
 21
-118.94628
 31
0.0
  0
LINE
  5
5E
  8
0
  6
CONTINUOUS
 62
     3
 10
259.5
 20
-120.14639
 30
0.0
 11
259.5
 21
-87.946381
 31
0.0
  0
LINE
  5
5F
  8
0
  6
CONTINUOUS
 62
     3
 10
215.49998
 20
-120.14639
 30
0.0
 11
215.49998
 21
-87.946381
 31
0.0
  0
LINE
  5
60
  8
0
  6
CONTINUOUS
 62
     3
 10
-81.499992
 20
42.553616
 30
0.0
 11
-75.999992
 21
42.553616
 31
0.0
  0
LINE
  5
61
  8
0
  6
CONTINUOUS
 62
     3
 10
-102.29999
 20
-81.046387
 30
0.0
 11
-75.999992
 21
-81.046387
 31
0.0
  0
LINE
  5
62
  8
0
  6
CONTINUOUS
 62
     3
 10
-80.499992
 20
-38.380814
 30
0.0
 11
-80.499992
 21
-34.60561
 31
0.0
  0
LINE
  5
63
  8
0
  6
CONTINUOUS
 62
     3
 10
-107.54999
 20
-61.746384
 30
0.0
 11
-107.54999
 21
-57.946384
 31
0.0
  0
LINE
  5
64
  8
0
  6
CONTINUOUS
 62
     3
 10
-102.29999
 20
-81.046387
 30
0.0
 11
-102.29999
 21
-64.746384
 31
0.0
  0
LINE
  5
65
  8
0
  6
CONTINUOUS
 62
     3
 10
-103.29999
 20
-80.046387
 30
0.0
 11
-75.999992
 21
-80.046387
 31
0.0
  0
LINE
  5
66
  8
0
  6
CONTINUOUS
 62
     3
 10
-103.29999
 20
-80.046387
 30
0.0
 11
-102.29999
 21
-81.046387
 31
0.0
  0
LINE
  5
67
  8
0
  6
CONTINUOUS
 62
     3
 10
-103.29999
 20
-80.046387
 30
0.0
 11
-103.29999
 21
-61.746384
 31
0.0
  0
LINE
  5
68
  8
0
  6
CENTER
 62
     4
 10
-88.499992
 20
-87.789139
 30
0.0
 11
-88.499992
 21
-54.487194
 31
0.0
  0
LINE
  5
69
  8
0
  6
CONTINUOUS
 62
     3
 10
-108.0
 20
-33.431355
 30
0.0
 11
-106.49999
 21
-34.293777
 31
0.0
  0
LINE
  5
6A
  8
0
  6
CONTINUOUS
 62
     3
 10
-106.49999
 20
-34.293774
 30
0.0
 11
-81.499992
 21
-34.293774
 31
0.0
  0
LINE
  5
6B
  8
0
  6
CENTER
 62
     4
 10
-82.299492
 20
-35.130814
 30
0.0
 11
-74.488564
 21
-35.130814
 31
0.0
  0
LINE
  5
6C
  8
0
  6
CONTINUOUS
 62
     3
 10
-76.499992
 20
-38.980812
 30
0.0
 11
-76.499992
 21
-34.60561
 31
0.0
  0
LINE
  5
6D
  8
0
  6
CONTINUOUS
 62
     3
 10
-76.499992
 20
-38.380814
 30
0.0
 11
-80.499992
 21
-38.380814
 31
0.0
  0
LINE
  5
6E
  8
0
  6
CONTINUOUS
 62
     3
 10
-76.499992
 20
-38.980812
 30
0.0
 11
-75.499992
 21
-38.980812
 31
0.0
  0
LINE
  5
6F
  8
0
  6
CONTINUOUS
 62
     4
 10
-80.515991
 20
-79.187706
 30
0.0
 11
-66.648918
 21
-79.187706
 31
0.0
  0
LINE
  5
70
  8
0
  6
CONTINUOUS
 62
     3
 10
-74.699989
 20
-71.687706
 30
0.0
 11
-74.699989
 21
-64.746384
 31
0.0
  0
LINE
  5
71
  8
0
  6
CONTINUOUS
 62
     3
 10
-73.699989
 20
-71.687706
 30
0.0
 11
-73.699989
 21
-61.746384
 31
0.0
  0
LINE
  5
72
  8
0
  6
CONTINUOUS
 62
     3
 10
-75.499992
 20
-42.446384
 30
0.0
 11
-68.499992
 21
-42.446384
 31
0.0
  0
LINE
  5
73
  8
0
  6
CONTINUOUS
 62
     3
 10
-107.99999
 20
-57.946384
 30
0.0
 11
-68.999992
 21
-57.946384
 31
0.0
  0
LINE
  5
74
  8
0
  6
CONTINUOUS
 62
     3
 10
-103.29999
 20
-64.746384
 30
0.0
 11
-73.699989
 21
-64.746384
 31
0.0
  0
LINE
  5
75
  8
0
  6
CONTINUOUS
 62
     3
 10
-107.54999
 20
-58.946384
 30
0.0
 11
-68.999992
 21
-58.946384
 31
0.0
  0
LINE
  5
76
  8
0
  6
CONTINUOUS
 62
     3
 10
-107.54999
 20
-61.746384
 30
0.0
 11
-69.449989
 21
-61.746384
 31
0.0
  0
LINE
  5
77
  8
0
  6
CONTINUOUS
 62
     3
 10
-81.499992
 20
-42.446384
 30
0.0
 11
-75.499992
 21
-42.446384
 31
0.0
  0
LINE
  5
78
  8
0
  6
CONTINUOUS
 62
     3
 10
-81.499992
 20
-27.449854
 30
0.0
 11
-68.499992
 21
-27.449854
 31
0.0
  0
LINE
  5
79
  8
0
  6
CONTINUOUS
 62
     3
 10
-81.499992
 20
-34.60561
 30
0.0
 11
-75.499992
 21
-34.60561
 31
0.0
  0
LINE
  5
7A
  8
0
  6
CONTINUOUS
 62
     3
 10
-81.499992
 20
-40.96957
 30
0.0
 11
-75.499992
 21
-40.96957
 31
0.0
  0
LINE
  5
7B
  8
0
  6
CENTER
 62
     4
 10
-83.369957
 20
29.666967
 30
0.0
 11
-73.930573
 21
29.666967
 31
0.0
  0
LINE
  5
7C
  8
0
  6
CONTINUOUS
 62
     3
 10
-80.499992
 20
29.034
 30
0.0
 11
-80.499992
 21
32.916969
 31
0.0
  0
LINE
  5
7D
  8
0
  6
CONTINUOUS
 62
     3
 10
-76.499992
 20
29.034
 30
0.0
 11
-76.499992
 21
33.516968
 31
0.0
  0
LINE
  5
7E
  8
0
  6
CONTINUOUS
 62
     3
 10
-80.499992
 20
32.916969
 30
0.0
 11
-76.499992
 21
32.916969
 31
0.0
  0
LINE
  5
7F
  8
0
  6
CONTINUOUS
 62
     3
 10
-75.499992
 20
33.516968
 30
0.0
 11
-76.499992
 21
33.516968
 31
0.0
  0
LINE
  5
80
  8
0
  6
CONTINUOUS
 62
     3
 10
-75.499992
 20
-42.446384
 30
0.0
 11
-75.499992
 21
38.303616
 31
0.0
  0
LINE
  5
81
  8
0
  6
CONTINUOUS
 62
     3
 10
-107.99999
 20
-57.946384
 30
0.0
 11
-107.99999
 21
30.053616
 31
0.0
  0
LINE
  5
82
  8
0
  6
CONTINUOUS
 62
     3
 10
-81.499992
 20
40.053616
 30
0.0
 11
-81.499992
 21
42.553616
 31
0.0
  0
LINE
  5
83
  8
0
  6
CONTINUOUS
 62
     3
 10
-81.499992
 20
-42.446384
 30
0.0
 11
-81.499992
 21
42.553616
 31
0.0
  0
LINE
  5
84
  8
0
  6
CONTINUOUS
 62
     3
 10
-105.85588
 20
39.2379
 30
0.0
 11
-81.499992
 21
40.088425
 31
0.0
  0
LINE
  5
85
  8
0
  6
CONTINUOUS
 62
     3
 10
-106.49999
 20
-57.946384
 30
0.0
 11
-106.49999
 21
30.053616
 31
0.0
  0
LINE
  5
86
  8
0
  6
CONTINUOUS
 62
     3
 10
-106.49999
 20
-57.946384
 30
0.0
 11
-106.49999
 21
38.972637
 31
0.0
  0
LINE
  5
87
  8
0
  6
CONTINUOUS
 62
     3
 10
-81.499992
 20
27.557287
 30
0.0
 11
-68.499992
 21
27.557287
 31
0.0
  0
LINE
  5
88
  8
0
  6
CONTINUOUS
 62
     3
 10
-81.499992
 20
29.034
 30
0.0
 11
-75.499992
 21
29.034
 31
0.0
  0
LINE
  5
89
  8
0
  6
CONTINUOUS
 62
     3
 10
-81.499992
 20
35.397961
 30
0.0
 11
-75.499992
 21
35.397961
 31
0.0
  0
LINE
  5
8A
  8
0
  6
CONTINUOUS
 62
     3
 10
-271.55002
 20
-61.755733
 30
0.0
 11
-271.55002
 21
-57.955734
 31
0.0
  0
LINE
  5
8B
  8
0
  6
CONTINUOUS
 62
     3
 10
-233.45001
 20
-61.755733
 30
0.0
 11
-233.45001
 21
-57.955734
 31
0.0
  0
LINE
  5
8C
  8
0
  6
CONTINUOUS
 62
     3
 10
-271.5
 20
-61.755733
 30
0.0
 11
-233.50002
 21
-61.755733
 31
0.0
  0
LINE
  5
8D
  8
0
  6
CONTINUOUS
 62
     3
 10
-271.5
 20
-58.955734
 30
0.0
 11
-233.50002
 21
-58.955734
 31
0.0
  0
LINE
  5
8E
  8
0
  6
CONTINUOUS
 62
     3
 10
-273.0
 20
-57.955734
 30
0.0
 11
-232.00002
 21
-57.955734
 31
0.0
  0
LINE
  5
8F
  8
0
  6
CONTINUOUS
 62
     3
 10
-267.30002
 20
-80.055733
 30
0.0
 11
-267.30002
 21
-61.755733
 31
0.0
  0
LINE
  5
90
  8
0
  6
CONTINUOUS
 62
     3
 10
-237.70001
 20
-80.055733
 30
0.0
 11
-237.70001
 21
-61.755733
 31
0.0
  0
LINE
  5
91
  8
0
  6
CONTINUOUS
 62
     3
 10
-238.70001
 20
-81.055733
 30
0.0
 11
-238.70001
 21
-64.75573
 31
0.0
  0
LINE
  5
92
  8
0
  6
CONTINUOUS
 62
     3
 10
-266.30002
 20
-81.055733
 30
0.0
 11
-266.30002
 21
-64.75573
 31
0.0
  0
LINE
  5
93
  8
0
  6
CONTINUOUS
 62
     3
 10
-266.30002
 20
-81.055733
 30
0.0
 11
-238.70001
 21
-81.055733
 31
0.0
  0
LINE
  5
94
  8
0
  6
CONTINUOUS
 62
     3
 10
-267.30002
 20
-80.055725
 30
0.0
 11
-266.30002
 21
-81.055733
 31
0.0
  0
LINE
  5
95
  8
0
  6
CONTINUOUS
 62
     3
 10
-238.70001
 20
-81.055733
 30
0.0
 11
-237.70001
 21
-80.055733
 31
0.0
  0
LINE
  5
96
  8
0
  6
CONTINUOUS
 62
     3
 10
-267.30002
 20
-80.055733
 30
0.0
 11
-266.30002
 21
-80.055733
 31
0.0
  0
LINE
  5
97
  8
0
  6
CONTINUOUS
 62
     3
 10
-266.30002
 20
-80.055733
 30
0.0
 11
-237.70001
 21
-80.055733
 31
0.0
  0
LINE
  5
98
  8
0
  6
CONTINUOUS
 62
     3
 10
-275.5
 20
-84.446281
 30
0.0
 11
-252.50002
 21
-84.446281
 31
0.0
  0
LINE
  5
99
  8
0
  6
CONTINUOUS
 62
     3
 10
-252.50002
 20
-84.446281
 30
0.0
 11
-229.50002
 21
-84.446281
 31
0.0
  0
LINE
  5
9A
  8
0
  6
CONTINUOUS
 62
     4
 10
-252.50002
 20
-62.576031
 30
0.0
 11
-252.50002
 21
-76.933517
 31
0.0
  0
LINE
  5
9B
  8
0
  6
CENTER
 62
     4
 10
-267.20001
 20
-47.739727
 30
0.0
 11
-267.20001
 21
-42.547726
 31
0.0
  0
LINE
  5
9C
  8
0
  6
CENTER
 62
     4
 10
-269.73087
 20
-45.455734
 30
0.0
 11
-265.01831
 21
-45.455734
 31
0.0
  0
LINE
  5
9D
  8
0
  6
CENTER
 62
     4
 10
-237.8
 20
-47.739727
 30
0.0
 11
-237.8
 21
-42.739513
 31
0.0
  0
LINE
  5
9E
  8
0
  6
CENTER
 62
     4
 10
-240.38748
 20
-45.455734
 30
0.0
 11
-235.48315
 21
-45.455734
 31
0.0
  0
LINE
  5
9F
  8
0
  6
CONTINUOUS
 62
     4
 10
-220.72601
 20
-37.822517
 30
0.0
 11
-224.81555
 21
-32.948792
 31
0.0
  0
LINE
  5
A0
  8
0
  6
CENTER
 62
     4
 10
-285.25085
 20
-27.43697
 30
0.0
 11
-290.15671
 21
-31.553473
 31
0.0
  0
LINE
  5
A1
  8
0
  6
CONTINUOUS
 62
     4
 10
-280.01923
 20
32.840412
 30
0.0
 11
-284.19254
 21
37.813961
 31
0.0
  0
LINE
  5
A2
  8
0
  6
CENTER
 62
     4
 10
-278.95691
 20
31.583805
 30
0.0
 11
-284.1055
 21
37.719673
 31
0.0
  0
LINE
  5
A3
  8
0
  6
CENTER
 62
     4
 10
-224.98077
 20
-32.732971
 30
0.0
 11
-220.80746
 21
-37.706528
 31
0.0
  0
LINE
  5
A4
  8
0
  6
CENTER
 62
     4
 10
-220.96991
 20
26.510605
 30
0.0
 11
-214.83405
 21
31.659216
 31
0.0
  0
LINE
  5
A5
  8
0
  6
CENTER
 62
     4
 10
-219.71332
 20
27.572941
 30
0.0
 11
-214.73976
 21
31.746244
 31
0.0
  0
LINE
  5
A6
  8
0
  6
CONTINUOUS
 62
     3
 10
-225.69081
 20
42.56316
 30
0.0
 11
-225.67191
 21
42.544258
 31
0.0
  0
LINE
  5
A7
  8
0
  6
CONTINUOUS
 62
     3
 10
-278.93439
 20
38.531086
 30
0.0
 11
-281.48029
 21
41.077007
 31
0.0
  0
LINE
  5
A8
  8
0
  6
CONTINUOUS
 62
     3
 10
-285.29834
 20
32.167133
 30
0.0
 11
-287.84427
 21
34.713036
 31
0.0
  0
LINE
  5
A9
  8
0
  6
CONTINUOUS
 62
     3
 10
-284.61343
 20
-32.744614
 30
0.0
 11
-287.15933
 21
-35.290531
 31
0.0
  0
LINE
  5
AA
  8
0
  6
CONTINUOUS
 62
     3
 10
-290.97739
 20
-26.38065
 30
0.0
 11
-293.52328
 21
-28.926569
 31
0.0
  0
LINE
  5
AB
  8
0
  6
CONTINUOUS
 62
     3
 10
-219.70168
 20
-32.059689
 30
0.0
 11
-217.15576
 21
-34.605614
 31
0.0
  0
LINE
  5
AC
  8
0
  6
CONTINUOUS
 62
     3
 10
-226.06564
 20
-38.423653
 30
0.0
 11
-223.51973
 21
-40.969563
 31
0.0
  0
LINE
  5
AD
  8
0
  6
CONTINUOUS
 62
     3
 10
-220.3866
 20
32.852047
 30
0.0
 11
-217.84068
 21
35.397957
 31
0.0
  0
LINE
  5
AE
  8
0
  6
CONTINUOUS
 62
     3
 10
-214.02263
 20
26.488085
 30
0.0
 11
-211.47672
 21
29.033997
 31
0.0
  0
LINE
  5
AF
  8
0
  6
CONTINUOUS
 62
     3
 10
-280.01303
 20
42.544266
 30
0.0
 11
-224.98698
 21
42.544266
 31
0.0
  0
LINE
  5
B0
  8
0
  6
CONTINUOUS
 62
     3
 10
-295.0
 20
27.557278
 30
0.0
 11
-280.01303
 21
42.544266
 31
0.0
  0
LINE
  5
B1
  8
0
  6
CONTINUOUS
 62
     3
 10
-210.00002
 20
-27.449854
 30
0.0
 11
-210.00002
 21
27.557287
 31
0.0
  0
LINE
  5
B2
  8
0
  6
CONTINUOUS
 62
     3
 10
-225.00589
 20
-42.455727
 30
0.0
 11
-210.00002
 21
-27.44985
 31
0.0
  0
LINE
  5
B3
  8
0
  6
CONTINUOUS
 62
     3
 10
-224.98698
 20
42.544273
 30
0.0
 11
-210.00002
 21
27.557285
 31
0.0
  0
LINE
  5
B4
  8
0
  6
CONTINUOUS
 62
     3
 10
-295.0
 20
-27.449854
 30
0.0
 11
-287.15933
 21
-35.290524
 31
0.0
  0
LINE
  5
B5
  8
0
  6
CONTINUOUS
 62
     3
 10
-287.15933
 20
-35.290527
 30
0.0
 11
-279.99414
 21
-42.45573
 31
0.0
  0
LINE
  5
B6
  8
0
  6
CONTINUOUS
 62
     3
 10
-295.0
 20
-27.449854
 30
0.0
 11
-295.0
 21
27.557287
 31
0.0
  0
LINE
  5
B7
  8
0
  6
CONTINUOUS
 62
     3
 10
-232.00002
 20
-57.955734
 30
0.0
 11
-232.00002
 21
-42.455734
 31
0.0
  0
LINE
  5
B8
  8
0
  6
CONTINUOUS
 62
     3
 10
-233.50002
 20
-57.955734
 30
0.0
 11
-233.50002
 21
-42.455734
 31
0.0
  0
LINE
  5
B9
  8
0
  6
CONTINUOUS
 62
     3
 10
-271.5
 20
-57.955734
 30
0.0
 11
-271.5
 21
-42.455734
 31
0.0
  0
LINE
  5
BA
  8
0
  6
CONTINUOUS
 62
     3
 10
-273.0
 20
-57.955734
 30
0.0
 11
-273.0
 21
-42.455734
 31
0.0
  0
LINE
  5
BB
  8
0
  6
CONTINUOUS
 62
     3
 10
-273.0
 20
-42.455734
 30
0.0
 11
-273.0
 21
-34.293774
 31
0.0
  0
LINE
  5
BC
  8
0
  6
CONTINUOUS
 62
     3
 10
-232.00002
 20
-42.455734
 30
0.0
 11
-232.00002
 21
-34.293774
 31
0.0
  0
LINE
  5
BD
  8
0
  6
CONTINUOUS
 62
     3
 10
-233.50002
 20
-42.455734
 30
0.0
 11
-233.50002
 21
-33.431355
 31
0.0
  0
LINE
  5
BE
  8
0
  6
CONTINUOUS
 62
     3
 10
-271.5
 20
-42.455734
 30
0.0
 11
-271.5
 21
-33.431355
 31
0.0
  0
LINE
  5
BF
  8
0
  6
CONTINUOUS
 62
     3
 10
-233.50002
 20
-57.955734
 30
0.0
 11
-233.50002
 21
-42.455734
 31
0.0
  0
LINE
  5
C0
  8
0
  6
CONTINUOUS
 62
     3
 10
-271.5
 20
-57.955734
 30
0.0
 11
-271.5
 21
-42.455734
 31
0.0
  0
LINE
  5
C1
  8
0
  6
CONTINUOUS
 62
     3
 10
-232.00002
 20
-42.455734
 30
0.0
 11
-225.00589
 21
-42.455734
 31
0.0
  0
LINE
  5
C2
  8
0
  6
CONTINUOUS
 62
     3
 10
-279.99414
 20
-42.455734
 30
0.0
 11
-273.0
 21
-42.455734
 31
0.0
  0
LINE
  5
C3
  8
0
  6
CONTINUOUS
 62
     3
 10
-221.31158
 20
-34.682522
 30
0.0
 11
-222.53633
 21
-33.457775
 31
0.0
  0
LINE
  5
C4
  8
0
  6
CONTINUOUS
 62
     3
 10
-222.53633
 20
-33.457779
 30
0.0
 11
-224.20935
 21
-33.906067
 31
0.0
  0
LINE
  5
C5
  8
0
  6
CONTINUOUS
 62
     3
 10
-224.20935
 20
-33.906067
 30
0.0
 11
-224.65764
 21
-35.579098
 31
0.0
  0
LINE
  5
C6
  8
0
  6
CONTINUOUS
 62
     3
 10
-224.65764
 20
-35.579094
 30
0.0
 11
-223.43291
 21
-36.803841
 31
0.0
  0
LINE
  5
C7
  8
0
  6
CONTINUOUS
 62
     3
 10
-223.43291
 20
-36.803841
 30
0.0
 11
-221.75987
 21
-36.355553
 31
0.0
  0
LINE
  5
C8
  8
0
  6
CONTINUOUS
 62
     3
 10
-221.75987
 20
-36.355556
 30
0.0
 11
-221.31158
 21
-34.682526
 31
0.0
  0
LINE
  5
C9
  8
0
  6
CONTINUOUS
 62
     3
 10
-286.11771
 20
-29.119881
 30
0.0
 11
-287.34244
 21
-27.895136
 31
0.0
  0
LINE
  5
CA
  8
0
  6
CONTINUOUS
 62
     3
 10
-287.34244
 20
-27.895136
 30
0.0
 11
-289.01547
 21
-28.343424
 31
0.0
  0
LINE
  5
CB
  8
0
  6
CONTINUOUS
 62
     3
 10
-289.01547
 20
-28.343431
 30
0.0
 11
-289.46378
 21
-30.016466
 31
0.0
  0
LINE
  5
CC
  8
0
  6
CONTINUOUS
 62
     3
 10
-289.46378
 20
-30.016451
 30
0.0
 11
-288.23901
 21
-31.241201
 31
0.0
  0
LINE
  5
CD
  8
0
  6
CONTINUOUS
 62
     3
 10
-288.23901
 20
-31.241207
 30
0.0
 11
-286.56601
 21
-30.792919
 31
0.0
  0
LINE
  5
CE
  8
0
  6
CONTINUOUS
 62
     3
 10
-286.56601
 20
-30.792925
 30
0.0
 11
-286.11771
 21
-29.119892
 31
0.0
  0
LINE
  5
CF
  8
0
  6
CONTINUOUS
 62
     3
 10
-280.44797
 20
35.793488
 30
0.0
 11
-281.67273
 21
37.018227
 31
0.0
  0
LINE
  5
D0
  8
0
  6
CONTINUOUS
 62
     3
 10
-281.67273
 20
37.01823
 30
0.0
 11
-283.34576
 21
36.569939
 31
0.0
  0
LINE
  5
D1
  8
0
  6
CONTINUOUS
 62
     3
 10
-283.34576
 20
36.56995
 30
0.0
 11
-283.79404
 21
34.896919
 31
0.0
  0
LINE
  5
D2
  8
0
  6
CONTINUOUS
 62
     3
 10
-283.79404
 20
34.896912
 30
0.0
 11
-282.56931
 21
33.672165
 31
0.0
  0
LINE
  5
D3
  8
0
  6
CONTINUOUS
 62
     3
 10
-282.56931
 20
33.672161
 30
0.0
 11
-280.89627
 21
34.120453
 31
0.0
  0
LINE
  5
D4
  8
0
  6
CONTINUOUS
 62
     3
 10
-280.89627
 20
34.120449
 30
0.0
 11
-280.44797
 21
35.793484
 31
0.0
  0
LINE
  5
D5
  8
0
  6
CONTINUOUS
 62
     3
 10
-215.54472
 20
30.115253
 30
0.0
 11
-216.76947
 21
31.34
 31
0.0
  0
LINE
  5
D6
  8
0
  6
CONTINUOUS
 62
     3
 10
-216.76947
 20
31.34
 30
0.0
 11
-218.4425
 21
30.891712
 31
0.0
  0
LINE
  5
D7
  8
0
  6
CONTINUOUS
 62
     3
 10
-218.4425
 20
30.891708
 30
0.0
 11
-218.89079
 21
29.218676
 31
0.0
  0
LINE
  5
D8
  8
0
  6
CONTINUOUS
 62
     3
 10
-218.89079
 20
29.218678
 30
0.0
 11
-217.66605
 21
27.993942
 31
0.0
  0
LINE
  5
D9
  8
0
  6
CONTINUOUS
 62
     3
 10
-217.66605
 20
27.993935
 30
0.0
 11
-215.99301
 21
28.442223
 31
0.0
  0
LINE
  5
DA
  8
0
  6
CONTINUOUS
 62
     3
 10
-215.99301
 20
28.442219
 30
0.0
 11
-215.54472
 21
30.115252
 31
0.0
  0
LINE
  5
DB
  8
0
  6
CENTER
 62
     4
 10
237.49998
 20
-150.89185
 30
0.0
 11
237.49998
 21
108.48086
 31
0.0
  0
LINE
  5
DC
  8
0
  6
CENTER
 62
     4
 10
-117.68619
 20
0.053616
 30
0.0
 11
67.499992
 21
0.053616
 31
0.0
  0
LINE
  5
DD
  8
0
  6
CENTER
 62
     4
 10
307.93155
 20
-40.610058
 30
0.0
 11
326.13126
 21
-51.117672
 31
0.0
  0
LINE
  5
DE
  8
0
  6
CENTER
 62
     4
 10
196.8363
 20
-70.377953
 30
0.0
 11
186.3287
 21
-88.577667
 31
0.0
  0
LINE
  5
DF
  8
0
  6
CENTER
 62
     4
 10
167.06842
 20
40.7173
 30
0.0
 11
148.86871
 21
51.224911
 31
0.0
  0
LINE
  5
E0
  8
0
  6
CENTER
 62
     4
 10
278.16367
 20
70.485184
 30
0.0
 11
288.6713
 21
88.684898
 31
0.0
  0
LINE
  5
E1
  8
0
  6
CENTER
 62
     4
 10
-78.869621
 20
-79.187706
 30
0.0
 11
-64.455482
 21
-79.187706
 31
0.0
  0
LINE
  5
E2
  8
0
  6
CONTINUOUS
 62
     3
 10
-68.499992
 20
-86.987709
 30
0.0
 11
-70.499992
 21
-86.987709
 31
0.0
  0
LINE
  5
E3
  8
0
  6
CONTINUOUS
 62
     3
 10
-70.499992
 20
-71.387711
 30
0.0
 11
-68.499992
 21
-71.387711
 31
0.0
  0
LINE
  5
E4
  8
0
  6
CONTINUOUS
 62
     3
 10
-75.999992
 20
-86.687706
 30
0.0
 11
-70.499992
 21
-86.687706
 31
0.0
  0
LINE
  5
E5
  8
0
  6
CONTINUOUS
 62
     3
 10
-75.999992
 20
-71.687706
 30
0.0
 11
-70.499992
 21
-71.687706
 31
0.0
  0
LINE
  5
E6
  8
0
  6
CONTINUOUS
 62
     3
 10
-75.999992
 20
-86.687706
 30
0.0
 11
-75.999992
 21
-71.687706
 31
0.0
  0
LINE
  5
E7
  8
0
  6
CONTINUOUS
 62
     3
 10
-70.499992
 20
-86.987709
 30
0.0
 11
-70.499992
 21
-71.387711
 31
0.0
  0
LINE
  5
E8
  8
0
  6
CENTER
 62
     4
 10
-78.427933
 20
45.803616
 30
0.0
 11
-65.360512
 21
45.803616
 31
0.0
  0
LINE
  5
E9
  8
0
  6
CENTER
 62
     4
 10
-78.427933
 20
79.294937
 30
0.0
 11
-64.75782
 21
79.294937
 31
0.0
  0
LINE
  5
EA
  8
0
  6
CONTINUOUS
 62
     3
 10
-70.499992
 20
38.303616
 30
0.0
 11
-75.999992
 21
38.303616
 31
0.0
  0
LINE
  5
EB
  8
0
  6
CONTINUOUS
 62
     3
 10
-75.999992
 20
53.303616
 30
0.0
 11
-70.499992
 21
53.303616
 31
0.0
  0
LINE
  5
EC
  8
0
  6
CONTINUOUS
 62
     3
 10
-75.999992
 20
38.303616
 30
0.0
 11
-75.999992
 21
53.303616
 31
0.0
  0
LINE
  5
ED
  8
0
  6
CONTINUOUS
 62
     3
 10
-70.499992
 20
71.794937
 30
0.0
 11
-75.999992
 21
71.794937
 31
0.0
  0
LINE
  5
EE
  8
0
  6
CONTINUOUS
 62
     3
 10
-70.499992
 20
86.794937
 30
0.0
 11
-75.999992
 21
86.794937
 31
0.0
  0
LINE
  5
EF
  8
0
  6
CONTINUOUS
 62
     3
 10
-75.999992
 20
71.794937
 30
0.0
 11
-75.999992
 21
86.794937
 31
0.0
  0
LINE
  5
F0
  8
0
  6
CONTINUOUS
 62
     3
 10
-70.499992
 20
71.59494
 30
0.0
 11
-70.499992
 21
86.994942
 31
0.0
  0
LINE
  5
F1
  8
0
  6
CONTINUOUS
 62
     3
 10
-68.499992
 20
38.103615
 30
0.0
 11
-70.499992
 21
38.103615
 31
0.0
  0
LINE
  5
F2
  8
0
  6
CONTINUOUS
 62
     3
 10
-68.499992
 20
53.503616
 30
0.0
 11
-70.499992
 21
53.503616
 31
0.0
  0
LINE
  5
F3
  8
0
  6
CONTINUOUS
 62
     3
 10
-68.499992
 20
71.59494
 30
0.0
 11
-70.499992
 21
71.59494
 31
0.0
  0
LINE
  5
F4
  8
0
  6
CONTINUOUS
 62
     3
 10
-68.499992
 20
86.994942
 30
0.0
 11
-70.499992
 21
86.994942
 31
0.0
  0
LINE
  5
F5
  8
0
  6
CONTINUOUS
 62
     3
 10
-70.499992
 20
38.103615
 30
0.0
 11
-70.499992
 21
53.503616
 31
0.0
  0
LINE
  5
F6
  8
0
  6
CENTER
 62
     4
 10
-211.9131
 20
-70.244972
 30
0.0
 11
-201.71362
 21
-87.91098
 31
0.0
  0
LINE
  5
F7
  8
0
  6
CONTINUOUS
 62
     3
 10
-205.01796
 20
-76.187706
 30
0.0
 11
-208.48206
 21
-76.187706
 31
0.0
  0
LINE
  5
F8
  8
0
  6
CONTINUOUS
 62
     3
 10
-208.48206
 20
-82.187706
 30
0.0
 11
-205.01796
 21
-82.187706
 31
0.0
  0
LINE
  5
F9
  8
0
  6
CONTINUOUS
 62
     3
 10
-208.48206
 20
-76.187706
 30
0.0
 11
-210.21411
 21
-79.187698
 31
0.0
  0
LINE
  5
FA
  8
0
  6
CONTINUOUS
 62
     3
 10
-205.01796
 20
-82.187706
 30
0.0
 11
-203.2859
 21
-79.187698
 31
0.0
  0
LINE
  5
FB
  8
0
  6
CONTINUOUS
 62
     3
 10
-210.2141
 20
-79.187706
 30
0.0
 11
-208.48204
 21
-82.187706
 31
0.0
  0
LINE
  5
FC
  8
0
  6
CONTINUOUS
 62
     3
 10
-203.2859
 20
-79.187714
 30
0.0
 11
-205.01796
 21
-76.187714
 31
0.0
  0
LINE
  5
FD
  8
0
  6
CENTER
 62
     4
 10
-322.79858
 20
-40.533283
 30
0.0
 11
-340.4646
 21
-50.732761
 31
0.0
  0
LINE
  5
FE
  8
0
  6
CONTINUOUS
 62
     3
 10
-328.74133
 20
-47.428436
 30
0.0
 11
-328.74133
 21
-43.964333
 31
0.0
  0
LINE
  5
FF
  8
0
  6
CONTINUOUS
 62
     3
 10
-334.74133
 20
-43.964333
 30
0.0
 11
-334.74133
 21
-47.428436
 31
0.0
  0
LINE
  5
100
  8
0
  6
CONTINUOUS
 62
     3
 10
-328.74133
 20
-43.96434
 30
0.0
 11
-331.74133
 21
-42.232285
 31
0.0
  0
LINE
  5
101
  8
0
  6
CONTINUOUS
 62
     3
 10
-334.74133
 20
-47.42844
 30
0.0
 11
-331.74136
 21
-49.16048
 31
0.0
  0
LINE
  5
102
  8
0
  6
CONTINUOUS
 62
     3
 10
-331.74133
 20
-42.232292
 30
0.0
 11
-334.74133
 21
-43.964329
 31
0.0
  0
LINE
  5
103
  8
0
  6
CONTINUOUS
 62
     3
 10
-331.74133
 20
-49.160484
 30
0.0
 11
-328.74133
 21
-47.428444
 31
0.0
  0
LINE
  5
104
  8
0
  6
CENTER
 62
     4
 10
-293.08691
 20
70.352188
 30
0.0
 11
-303.28638
 21
88.018211
 31
0.0
  0
LINE
  5
105
  8
0
  6
CONTINUOUS
 62
     3
 10
-299.98206
 20
76.294937
 30
0.0
 11
-296.51794
 21
76.294937
 31
0.0
  0
LINE
  5
106
  8
0
  6
CONTINUOUS
 62
     3
 10
-296.51794
 20
82.294937
 30
0.0
 11
-299.98206
 21
82.294937
 31
0.0
  0
LINE
  5
107
  8
0
  6
CONTINUOUS
 62
     3
 10
-296.51794
 20
76.294945
 30
0.0
 11
-294.78592
 21
79.294937
 31
0.0
  0
LINE
  5
108
  8
0
  6
CONTINUOUS
 62
     3
 10
-299.98206
 20
82.294945
 30
0.0
 11
-301.71411
 21
79.294945
 31
0.0
  0
LINE
  5
109
  8
0
  6
CONTINUOUS
 62
     3
 10
-294.78592
 20
79.29493
 30
0.0
 11
-296.51794
 21
82.294937
 31
0.0
  0
LINE
  5
10A
  8
0
  6
CONTINUOUS
 62
     3
 10
-301.71411
 20
79.294922
 30
0.0
 11
-299.98206
 21
76.29493
 31
0.0
  0
LINE
  5
10B
  8
0
  6
CENTER
 62
     4
 10
-182.20142
 20
40.640518
 30
0.0
 11
-164.53542
 21
50.839996
 31
0.0
  0
LINE
  5
10C
  8
0
  6
CONTINUOUS
 62
     3
 10
-176.25868
 20
47.535667
 30
0.0
 11
-176.25868
 21
44.071564
 31
0.0
  0
LINE
  5
10D
  8
0
  6
CONTINUOUS
 62
     3
 10
-170.25868
 20
44.071564
 30
0.0
 11
-170.25868
 21
47.535667
 31
0.0
  0
LINE
  5
10E
  8
0
  6
CONTINUOUS
 62
     3
 10
-176.25868
 20
44.071564
 30
0.0
 11
-173.25868
 21
42.33952
 31
0.0
  0
LINE
  5
10F
  8
0
  6
CONTINUOUS
 62
     3
 10
-170.25868
 20
47.535664
 30
0.0
 11
-173.25868
 21
49.267719
 31
0.0
  0
LINE
  5
110
  8
0
  6
CONTINUOUS
 62
     3
 10
-173.25868
 20
42.339512
 30
0.0
 11
-170.25868
 21
44.07156
 31
0.0
  0
LINE
  5
111
  8
0
  6
CONTINUOUS
 62
     3
 10
-173.25868
 20
49.267708
 30
0.0
 11
-176.25868
 21
47.53566
 31
0.0
  0
LINE
  5
112
  8
0
  6
CONTINUOUS
 62
     3
 10
-340.5
 20
0.053616
 30
0.0
 11
-340.5
 21
74.087395
 31
0.0
  0
LINE
  5
113
  8
0
  6
CONTINUOUS
 62
     3
 10
-337.40543
 20
58.053719
 30
0.0
 11
-325.5
 21
58.053719
 31
0.0
  0
LINE
  5
114
  8
0
  6
CONTINUOUS
 62
     3
 10
-179.50002
 20
-57.946281
 30
0.0
 11
-167.59459
 21
-57.946281
 31
0.0
  0
LINE
  5
115
  8
0
  6
CONTINUOUS
 62
     3
 10
-164.50002
 20
-73.980164
 30
0.0
 11
-164.50002
 21
0.053616
 31
0.0
  0
LINE
  5
116
  8
0
  6
CONTINUOUS
 62
     3
 10
-252.50002
 20
-87.946281
 30
0.0
 11
-178.46611
 21
-87.946281
 31
0.0
  0
LINE
  5
117
  8
0
  6
CONTINUOUS
 62
     3
 10
-194.50002
 20
-85.946281
 30
0.0
 11
-194.50002
 21
-72.946281
 31
0.0
  0
LINE
  5
118
  8
0
  6
CENTER
 62
     4
 10
-174.03566
 20
-78.410622
 30
0.0
 11
-188.92642
 21
-63.519871
 31
0.0
  0
LINE
  5
119
  8
0
  6
CONTINUOUS
 62
     3
 10
-326.53391
 20
-87.946281
 30
0.0
 11
-252.50002
 21
-87.946281
 31
0.0
  0
LINE
  5
11A
  8
0
  6
CONTINUOUS
 62
     3
 10
-340.5
 20
-73.980164
 30
0.0
 11
-340.5
 21
0.053616
 31
0.0
  0
LINE
  5
11B
  8
0
  6
CONTINUOUS
 62
     3
 10
-310.5
 20
-85.946281
 30
0.0
 11
-310.5
 21
-72.946281
 31
0.0
  0
LINE
  5
11C
  8
0
  6
CONTINUOUS
 62
     3
 10
-337.40543
 20
-57.946281
 30
0.0
 11
-325.5
 21
-57.946281
 31
0.0
  0
LINE
  5
11D
  8
0
  6
CENTER
 62
     4
 10
-316.09064
 20
-63.536926
 30
0.0
 11
-330.54239
 21
-77.98867
 31
0.0
  0
LINE
  5
11E
  8
0
  6
CENTER
 62
     4
 10
-350.0
 20
0.053616
 30
0.0
 11
-155.00002
 21
0.053616
 31
0.0
  0
LINE
  5
11F
  8
0
  6
CONTINUOUS
 62
     3
 10
-164.50002
 20
0.053616
 30
0.0
 11
-164.50002
 21
74.087395
 31
0.0
  0
LINE
  5
120
  8
0
  6
CONTINUOUS
 62
     3
 10
-194.50002
 20
73.053719
 30
0.0
 11
-194.50002
 21
86.053719
 31
0.0
  0
LINE
  5
121
  8
0
  6
CONTINUOUS
 62
     3
 10
-179.50002
 20
58.053719
 30
0.0
 11
-167.59459
 21
58.053719
 31
0.0
  0
LINE
  5
122
  8
0
  6
CENTER
 62
     4
 10
-173.86006
 20
78.693665
 30
0.0
 11
-189.05258
 21
63.501137
 31
0.0
  0
LINE
  5
123
  8
0
  6
CONTINUOUS
 62
     3
 10
-326.53366
 20
88.053719
 30
0.0
 11
-252.50002
 21
88.053719
 31
0.0
  0
LINE
  5
124
  8
0
  6
CONTINUOUS
 62
     3
 10
-252.50002
 20
88.053719
 30
0.0
 11
-178.46635
 21
88.053719
 31
0.0
  0
LINE
  5
125
  8
0
  6
CONTINUOUS
 62
     3
 10
-310.5
 20
73.053719
 30
0.0
 11
-310.5
 21
86.053719
 31
0.0
  0
LINE
  5
126
  8
0
  6
CENTER
 62
     4
 10
-316.09567
 20
63.649357
 30
0.0
 11
-331.0076
 21
78.561317
 31
0.0
  0
LINE
  5
127
  8
0
  6
CENTER
 62
     4
 10
-252.50002
 20
-106.88749
 30
0.0
 11
-252.50002
 21
92.376953
 31
0.0
  0
LINE
  5
128
  8
0
  6
CONTINUOUS
 62
     3
 10
-58.499992
 20
-36.946384
 30
0.0
 11
-12.499991
 21
-36.946384
 31
0.0
  0
LINE
  5
129
  8
0
  6
CONTINUOUS
 62
     3
 10
-58.499992
 20
-32.946384
 30
0.0
 11
-12.499991
 21
-32.946384
 31
0.0
  0
LINE
  5
12A
  8
0
  6
CONTINUOUS
 62
     3
 10
-58.499992
 20
-28.946384
 30
0.0
 11
-12.499991
 21
-28.946384
 31
0.0
  0
LINE
  5
12B
  8
0
  6
CONTINUOUS
 62
     3
 10
-58.499992
 20
-24.946384
 30
0.0
 11
-12.499991
 21
-24.946384
 31
0.0
  0
LINE
  5
12C
  8
0
  6
CONTINUOUS
 62
     3
 10
-58.499992
 20
37.053616
 30
0.0
 11
-12.499991
 21
37.053616
 31
0.0
  0
LINE
  5
12D
  8
0
  6
CONTINUOUS
 62
     3
 10
-58.499992
 20
33.053616
 30
0.0
 11
-12.499991
 21
33.053616
 31
0.0
  0
LINE
  5
12E
  8
0
  6
CONTINUOUS
 62
     3
 10
-58.499992
 20
29.053616
 30
0.0
 11
-12.499991
 21
29.053616
 31
0.0
  0
LINE
  5
12F
  8
0
  6
CONTINUOUS
 62
     3
 10
-58.499992
 20
25.053616
 30
0.0
 11
-12.499991
 21
25.053616
 31
0.0
  0
LINE
  5
130
  8
0
  6
CONTINUOUS
 62
     3
 10
-68.499992
 20
-57.446384
 30
0.0
 11
-10.499991
 21
-57.446384
 31
0.0
  0
LINE
  5
131
  8
0
  6
CENTER
 62
     4
 10
139.99998
 20
0.053616
 30
0.0
 11
337.5
 21
0.053616
 31
0.0
  0
LINE
  5
132
  8
0
  6
CONTINUOUS
 62
     3
 10
7.500009
 20
-14.946384
 30
0.0
 11
7.500009
 21
15.053616
 31
0.0
  0
LINE
  5
133
  8
0
  6
CENTER
 62
     4
 10
315.55667
 20
-78.003044
 30
0.0
 11
300.68674
 21
-63.133141
 31
0.0
  0
LINE
  5
134
  8
0
  6
CENTER
 62
     4
 10
175.06204
 20
-62.384338
 30
0.0
 11
159.80237
 21
-77.644005
 31
0.0
  0
LINE
  5
135
  8
0
  6
CENTER
 62
     4
 10
173.50609
 20
64.047523
 30
0.0
 11
160.15668
 21
77.396927
 31
0.0
  0
LINE
  5
136
  8
0
  6
CENTER
 62
     4
 10
314.7012
 20
77.254829
 30
0.0
 11
301.54367
 21
64.097282
 31
0.0
  0
LINE
  5
137
  8
0
  6
CONTINUOUS
 62
     3
 10
237.49998
 20
-87.946381
 30
0.0
 11
311.53378
 21
-87.946381
 31
0.0
  0
LINE
  5
138
  8
0
  6
CONTINUOUS
 62
     3
 10
237.49998
 20
88.053619
 30
0.0
 11
311.306
 21
88.053619
 31
0.0
  0
LINE
  5
139
  8
0
  6
CONTINUOUS
 62
     3
 10
149.49998
 20
0.053616
 30
0.0
 11
149.49998
 21
74.087395
 31
0.0
  0
LINE
  5
13A
  8
0
  6
CONTINUOUS
 62
     3
 10
325.5
 20
0.053616
 30
0.0
 11
325.5
 21
74.087395
 31
0.0
  0
LINE
  5
13B
  8
0
  6
CONTINUOUS
 62
     3
 10
-4.499991
 20
-73.752388
 30
0.0
 11
2.500009
 21
-73.752388
 31
0.0
  0
LINE
  5
13C
  8
0
  6
CONTINUOUS
 62
     3
 10
-4.499991
 20
73.859619
 30
0.0
 11
2.500009
 21
73.859619
 31
0.0
  0
LINE
  5
13D
  8
0
  6
CONTINUOUS
 62
     3
 10
57.500008
 20
-10.946384
 30
0.0
 11
57.500008
 21
11.053616
 31
0.0
  0
LINE
  5
13E
  8
0
  6
CONTINUOUS
 62
     3
 10
5.500009
 20
-57.096382
 30
0.0
 11
5.500009
 21
57.203617
 31
0.0
  0
LINE
  5
13F
  8
0
  6
CONTINUOUS
 62
     3
 10
2.500009
 20
-57.096382
 30
0.0
 11
5.500009
 21
-57.096382
 31
0.0
  0
LINE
  5
140
  8
0
  6
CONTINUOUS
 62
     3
 10
2.500009
 20
57.203617
 30
0.0
 11
5.500009
 21
57.203617
 31
0.0
  0
LINE
  5
141
  8
0
  6
CONTINUOUS
 62
     3
 10
-58.499992
 20
-87.946381
 30
0.0
 11
-58.499992
 21
88.053619
 31
0.0
  0
LINE
  5
142
  8
0
  6
CONTINUOUS
 62
     3
 10
2.500009
 20
-87.946381
 30
0.0
 11
2.500009
 21
88.053619
 31
0.0
  0
LINE
  5
143
  8
0
  6
CONTINUOUS
 62
     3
 10
-68.499992
 20
-87.946381
 30
0.0
 11
-68.499992
 21
88.053619
 31
0.0
  0
LINE
  5
144
  8
0
  6
CONTINUOUS
 62
     3
 10
2.500009
 20
23.053616
 30
0.0
 11
2.500009
 21
88.053619
 31
0.0
  0
LINE
  5
145
  8
0
  6
CONTINUOUS
 62
     3
 10
-10.499991
 20
-73.752388
 30
0.0
 11
2.500009
 21
-73.752388
 31
0.0
  0
LINE
  5
146
  8
0
  6
CONTINUOUS
 62
     3
 10
-10.499991
 20
73.859619
 30
0.0
 11
2.500009
 21
73.859619
 31
0.0
  0
LINE
  5
147
  8
0
  6
CONTINUOUS
 62
     3
 10
-56.000008
 20
-119.94638
 30
0.0
 11
-15.000009
 21
-119.94638
 31
0.0
  0
LINE
  5
148
  8
0
  6
CONTINUOUS
 62
     3
 10
-56.000008
 20
-122.74638
 30
0.0
 11
-15.000009
 21
-122.74638
 31
0.0
  0
LINE
  5
149
  8
0
  6
CONTINUOUS
 62
     3
 10
-56.000008
 20
-122.74638
 30
0.0
 11
-56.000008
 21
-118.94638
 31
0.0
  0
LINE
  5
14A
  8
0
  6
CONTINUOUS
 62
     3
 10
-15.000009
 20
-122.74638
 30
0.0
 11
-15.000009
 21
-118.94638
 31
0.0
  0
LINE
  5
14B
  8
0
  6
CONTINUOUS
 62
     3
 10
221.09999
 20
-143.94638
 30
0.0
 11
220.09999
 21
-142.94638
 31
0.0
  0
LINE
  5
14C
  8
0
  6
CONTINUOUS
 62
     3
 10
253.89998
 20
-143.94637
 30
0.0
 11
254.89998
 21
-142.94637
 31
0.0
  0
LINE
  5
14D
  8
0
  6
CONTINUOUS
 62
     3
 10
254.89999
 20
-142.94638
 30
0.0
 11
254.89999
 21
-124.94638
 31
0.0
  0
LINE
  5
14E
  8
0
  6
CONTINUOUS
 62
     3
 10
220.09999
 20
-142.94638
 30
0.0
 11
220.09999
 21
-124.94638
 31
0.0
  0
LINE
  5
14F
  8
0
  6
CONTINUOUS
 62
     3
 10
221.09999
 20
-143.94638
 30
0.0
 11
221.09999
 21
-127.94638
 31
0.0
  0
LINE
  5
150
  8
0
  6
CONTINUOUS
 62
     3
 10
253.89999
 20
-143.94638
 30
0.0
 11
253.89999
 21
-127.94638
 31
0.0
  0
LINE
  5
151
  8
0
  6
CONTINUOUS
 62
     3
 10
220.09999
 20
-142.94638
 30
0.0
 11
254.89999
 21
-142.94638
 31
0.0
  0
LINE
  5
152
  8
0
  6
CONTINUOUS
 62
     3
 10
221.09999
 20
-143.94638
 30
0.0
 11
253.89999
 21
-143.94638
 31
0.0
  0
LINE
  5
153
  8
0
  6
CONTINUOUS
 62
     3
 10
220.09999
 20
-127.94638
 30
0.0
 11
254.89999
 21
-127.94638
 31
0.0
  0
LINE
  5
154
  8
0
  6
CONTINUOUS
 62
     3
 10
216.99998
 20
-124.94638
 30
0.0
 11
258.0
 21
-124.94638
 31
0.0
  0
LINE
  5
155
  8
0
  6
CONTINUOUS
 62
     3
 10
216.99998
 20
-122.14639
 30
0.0
 11
258.0
 21
-122.14639
 31
0.0
  0
LINE
  5
156
  8
0
  6
CONTINUOUS
 62
     3
 10
216.49998
 20
-121.14639
 30
0.0
 11
258.5
 21
-121.14639
 31
0.0
  0
LINE
  5
157
  8
0
  6
CONTINUOUS
 62
     3
 10
216.99998
 20
-124.94638
 30
0.0
 11
216.99998
 21
-121.14639
 31
0.0
  0
LINE
  5
158
  8
0
  6
CONTINUOUS
 62
     3
 10
258.0
 20
-124.94638
 30
0.0
 11
258.0
 21
-121.14639
 31
0.0
  0
LINE
  5
159
  8
0
  6
CONTINUOUS
 62
     3
 10
216.99998
 20
-121.14639
 30
0.0
 11
258.0
 21
-121.14639
 31
0.0
  0
LINE
  5
15A
  8
0
  6
CONTINUOUS
 62
     3
 10
163.46622
 20
88.053619
 30
0.0
 11
237.49998
 21
88.053619
 31
0.0
  0
LINE
  5
15B
  8
0
  6
CONTINUOUS
 62
     3
 10
149.49998
 20
-73.980164
 30
0.0
 11
149.49998
 21
0.053616
 31
0.0
  0
LINE
  5
15C
  8
0
  6
CONTINUOUS
 62
     3
 10
163.46622
 20
-87.946381
 30
0.0
 11
237.49998
 21
-87.946381
 31
0.0
  0
LINE
  5
15D
  8
0
  6
CONTINUOUS
 62
     3
 10
325.5
 20
-73.980164
 30
0.0
 11
325.5
 21
0.053616
 31
0.0
  0
LINE
  5
15E
  8
0
  6
CENTER
 62
     4
 10
-35.500008
 20
-145.52786
 30
0.0
 11
-35.500008
 21
-102.44638
 31
0.0
  0
LINE
  5
15F
  8
0
  6
CONTINUOUS
 62
     3
 10
-51.900009
 20
-141.74638
 30
0.0
 11
-19.10001
 21
-141.74638
 31
0.0
  0
LINE
  5
160
  8
0
  6
CONTINUOUS
 62
     3
 10
-52.900009
 20
-140.74638
 30
0.0
 11
-52.900009
 21
-122.74638
 31
0.0
  0
LINE
  5
161
  8
0
  6
CONTINUOUS
 62
     3
 10
-18.10001
 20
-140.74638
 30
0.0
 11
-18.10001
 21
-125.74638
 31
0.0
  0
LINE
  5
162
  8
0
  6
CONTINUOUS
 62
     3
 10
-52.900009
 20
-140.74638
 30
0.0
 11
-51.900013
 21
-141.74638
 31
0.0
  0
LINE
  5
163
  8
0
  6
CONTINUOUS
 62
     3
 10
-19.100008
 20
-141.74638
 30
0.0
 11
-18.100012
 21
-140.74638
 31
0.0
  0
LINE
  5
164
  8
0
  6
CONTINUOUS
 62
     3
 10
-52.900009
 20
-140.74638
 30
0.0
 11
-18.10001
 21
-140.74638
 31
0.0
  0
LINE
  5
165
  8
0
  6
CONTINUOUS
 62
     3
 10
-19.10001
 20
-141.74638
 30
0.0
 11
-19.10001
 21
-125.74638
 31
0.0
  0
LINE
  5
166
  8
0
  6
CONTINUOUS
 62
     3
 10
-51.900009
 20
-141.74638
 30
0.0
 11
-51.900009
 21
-125.74638
 31
0.0
  0
LINE
  5
167
  8
0
  6
CONTINUOUS
 62
     3
 10
-52.900009
 20
-125.74638
 30
0.0
 11
-18.10001
 21
-125.74638
 31
0.0
  0
LINE
  5
168
  8
0
  6
CONTINUOUS
 62
     3
 10
-18.10001
 20
-125.74638
 30
0.0
 11
-18.10001
 21
-122.74638
 31
0.0
  0
LINE
  5
169
  8
0
  6
CONTINUOUS
 62
     3
 10
-56.500008
 20
-118.94638
 30
0.0
 11
-14.500009
 21
-118.94638
 31
0.0
  0
LINE
  5
16A
  8
0
  6
CONTINUOUS
 62
     3
 10
-68.499992
 20
-87.946381
 30
0.0
 11
2.500009
 21
-87.946381
 31
0.0
  0
LINE
  5
16B
  8
0
  6
CONTINUOUS
 62
     3
 10
-68.499992
 20
88.053619
 30
0.0
 11
2.500009
 21
88.053619
 31
0.0
  0
LINE
  5
16C
  8
0
  6
CONTINUOUS
 62
     3
 10
2.500009
 20
-87.946381
 30
0.0
 11
2.500009
 21
-22.946384
 31
0.0
  0
CIRCLE
  5
16D
  8
0
  6
CONTINUOUS
 62
     3
 10
237.49998
 20
0.053616
 30
0.0
 40
57.150002
  0
CIRCLE
  5
16E
  8
0
  6
CONTINUOUS
 62
     3
 10
237.49998
 20
0.053616
 30
0.0
 40
44.75
  0
CIRCLE
  5
16F
  8
0
  6
CONTINUOUS
 62
     3
 10
237.49998
 20
0.053616
 30
0.0
 40
13.0
  0
CIRCLE
  5
170
  8
0
  6
CONTINUOUS
 62
     3
 10
158.25867
 20
45.803616
 30
0.0
 40
3.35
  0
CIRCLE
  5
171
  8
0
  6
CONTINUOUS
 62
     3
 10
191.74998
 20
-79.187706
 30
0.0
 40
3.35
  0
CIRCLE
  5
172
  8
0
  6
CONTINUOUS
 62
     3
 10
316.7413
 20
-45.696384
 30
0.0
 40
3.35
  0
CIRCLE
  5
173
  8
0
  6
CONTINUOUS
 62
     3
 10
283.25
 20
79.294937
 30
0.0
 40
3.35
  0
CIRCLE
  5
174
  8
0
  6
CONTINUOUS
 62
     4
 10
158.25867
 20
45.803616
 30
0.0
 40
4.0
  0
CIRCLE
  5
175
  8
0
  6
CONTINUOUS
 62
     4
 10
191.74998
 20
-79.187706
 30
0.0
 40
4.0
  0
CIRCLE
  5
176
  8
0
  6
CONTINUOUS
 62
     4
 10
316.7413
 20
-45.696384
 30
0.0
 40
4.0
  0
CIRCLE
  5
177
  8
0
  6
CONTINUOUS
 62
     4
 10
283.25
 20
79.294937
 30
0.0
 40
4.0
  0
CIRCLE
  5
178
  8
0
  6
CONTINUOUS
 62
     3
 10
237.49998
 20
0.053616
 30
0.0
 40
15.0
  0
CIRCLE
  5
179
  8
0
  6
CONTINUOUS
 62
     3
 10
237.49998
 20
0.053616
 30
0.0
 40
22.5
  0
ARC
  5
17A
  8
0
  6
CENTER
 62
     4
 10
237.49998
 20
0.053616
 30
0.0
 40
35.0
 50
261.22777
 51
278.70164
  0
CIRCLE
  5
17B
  8
0
  6
CONTINUOUS
 62
     3
 10
237.49512
 20
-34.940434
 30
0.0
 40
4.0625
  0
CIRCLE
  5
17C
  8
0
  6
CONTINUOUS
 62
     3
 10
237.49512
 20
-34.940434
 30
0.0
 40
4.8125
  0
CIRCLE
  5
17D
  8
0
  6
CONTINUOUS
 62
     3
 10
267.806
 20
17.559566
 30
0.0
 40
4.0625
  0
CIRCLE
  5
17E
  8
0
  6
CONTINUOUS
 62
     3
 10
267.806
 20
17.559566
 30
0.0
 40
4.8125
  0
ARC
  5
17F
  8
0
  6
CENTER
 62
     4
 10
237.49998
 20
0.053616
 30
0.0
 40
35.0
 50
141.00311
 51
158.88211
  0
CIRCLE
  5
180
  8
0
  6
CONTINUOUS
 62
     3
 10
207.18423
 20
17.559566
 30
0.0
 40
4.0625
  0
CIRCLE
  5
181
  8
0
  6
CONTINUOUS
 62
     3
 10
207.18423
 20
17.559566
 30
0.0
 40
4.8125
  0
ARC
  5
182
  8
0
  6
CONTINUOUS
 62
     3
 10
-14.500009
 20
-117.94638
 30
0.0
 40
1.0
 50
270.0
 51
0.0
  0
ARC
  5
183
  8
0
  6
CONTINUOUS
 62
     3
 10
-56.500008
 20
-117.94638
 30
0.0
 40
1.0
 50
180.00001
 51
270.0
  0
ARC
  5
184
  8
0
  6
CONTINUOUS
 62
     3
 10
-273.5
 20
-117.94628
 30
0.0
 40
1.0
 50
180.00001
 51
270.0
  0
ARC
  5
185
  8
0
  6
CONTINUOUS
 62
     3
 10
-231.50002
 20
-117.94628
 30
0.0
 40
1.0
 50
270.0
 51
0.0
  0
ARC
  5
186
  8
0
  6
CONTINUOUS
 62
     3
 10
258.5
 20
-120.14639
 30
0.0
 40
1.0
 50
270.0
 51
0.0
  0
ARC
  5
187
  8
0
  6
CONTINUOUS
 62
     3
 10
216.49998
 20
-120.14639
 30
0.0
 40
1.0
 50
180.00001
 51
270.0
  0
ARC
  5
188
  8
0
  6
CONTINUOUS
 62
     3
 10
-77.999992
 20
30.053616
 30
0.0
 40
30.0
 50
163.6062
 51
180.00001
  0
ARC
  5
189
  8
0
  6
CONTINUOUS
 62
     3
 10
-105.82098
 20
38.23851
 30
0.0
 40
1.0
 50
91.999998
 51
163.6062
  0
ARC
  5
18A
  8
0
  6
CONTINUOUS
 62
     3
 10
159.49998
 20
-22.946283
 30
0.0
 40
500.0
 50
180.00001
 51
183.79949
  0
ARC
  5
18B
  8
0
  6
CONTINUOUS
 62
     3
 10
-664.5
 20
-22.946283
 30
0.0
 40
500.0
 50
356.20051
 51
359.99999
  0
ARC
  5
18C
  8
0
  6
CONTINUOUS
 62
     3
 10
-664.5
 20
23.053717
 30
0.0
 40
500.0
 50
359.99999
 51
3.799492
  0
ARC
  5
18D
  8
0
  6
CONTINUOUS
 62
     3
 10
-229.50002
 20
-86.446281
 30
0.0
 40
2.0
 50
0.0
 51
90.000003
  0
ARC
  5
18E
  8
0
  6
CONTINUOUS
 62
     3
 10
-275.5
 20
-86.446281
 30
0.0
 40
2.0
 50
90.000003
 51
180.00001
  0
ARC
  5
18F
  8
0
  6
CENTER
 62
     4
 10
-252.50002
 20
0.151499
 30
0.0
 40
46.0
 50
125.46239
 51
134.05406
  0
ARC
  5
190
  8
0
  6
CENTER
 62
     4
 10
-252.50002
 20
0.151499
 30
0.0
 40
46.0
 50
35.516089
 51
44.041326
  0
ARC
  5
191
  8
0
  6
CENTER
 62
     4
 10
-252.59779
 20
0.053717
 30
0.0
 40
46.0
 50
215.46239
 51
224.05406
  0
ARC
  5
192
  8
0
  6
CONTINUOUS
 62
     3
 10
-282.11636
 20
35.34911
 30
0.0
 40
4.5
 50
225.0
 51
45.000001
  0
ARC
  5
193
  8
0
  6
CONTINUOUS
 62
     3
 10
-287.79541
 20
-29.562634
 30
0.0
 40
4.5
 50
315.0
 51
135.0
  0
ARC
  5
194
  8
0
  6
CONTINUOUS
 62
     3
 10
-222.88365
 20
-35.241676
 30
0.0
 40
4.5
 50
45.000001
 51
225.0
  0
ARC
  5
195
  8
0
  6
CONTINUOUS
 62
     3
 10
-217.20462
 20
29.670067
 30
0.0
 40
4.5
 50
135.0
 51
314.99999
  0
ARC
  5
196
  8
0
  6
CONTINUOUS
 62
     3
 10
-252.50002
 20
0.053717
 30
0.0
 40
40.0
 50
300.83049
 51
239.16951
  0
ARC
  5
197
  8
0
  6
CONTINUOUS
 62
     3
 10
-252.50002
 20
0.053717
 30
0.0
 40
38.5
 50
299.57132
 51
240.4287
  0
ARC
  5
198
  8
0
  6
CENTER
 62
     4
 10
-252.50002
 20
0.151499
 30
0.0
 40
46.0
 50
305.69721
 51
314.10352
  0
CIRCLE
  5
199
  8
0
  6
CONTINUOUS
 62
     3
 10
-267.20001
 20
-45.455734
 30
0.0
 40
2.0
  0
CIRCLE
  5
19A
  8
0
  6
CONTINUOUS
 62
     3
 10
-237.8
 20
-45.455734
 30
0.0
 40
2.0
  0
CIRCLE
  5
19B
  8
0
  6
CONTINUOUS
 62
     3
 10
-222.98462
 20
-35.130814
 30
0.0
 40
3.25
  0
CIRCLE
  5
19C
  8
0
  6
CONTINUOUS
 62
     3
 10
-222.98462
 20
-35.130814
 30
0.0
 40
3.85
  0
CIRCLE
  5
19D
  8
0
  6
CONTINUOUS
 62
     3
 10
-287.79074
 20
-29.568172
 30
0.0
 40
3.25
  0
CIRCLE
  5
19E
  8
0
  6
CONTINUOUS
 62
     3
 10
-287.79074
 20
-29.568172
 30
0.0
 40
3.85
  0
CIRCLE
  5
19F
  8
0
  6
CONTINUOUS
 62
     3
 10
-282.121
 20
35.3452
 30
0.0
 40
3.25
  0
CIRCLE
  5
1A0
  8
0
  6
CONTINUOUS
 62
     3
 10
-282.121
 20
35.3452
 30
0.0
 40
3.85
  0
CIRCLE
  5
1A1
  8
0
  6
CONTINUOUS
 62
     3
 10
-217.21776
 20
29.666967
 30
0.0
 40
3.25
  0
CIRCLE
  5
1A2
  8
0
  6
CONTINUOUS
 62
     3
 10
-217.21776
 20
29.666967
 30
0.0
 40
3.85
  0
ARC
  5
1A3
  8
0
  6
CENTER
 62
     4
 10
237.49998
 20
0.053616
 30
0.0
 40
91.5
 50
322.75749
 51
337.44221
  0
ARC
  5
1A4
  8
0
  6
CENTER
 62
     4
 10
237.49998
 20
0.053616
 30
0.0
 40
91.5
 50
232.75748
 51
247.4422
  0
ARC
  5
1A5
  8
0
  6
CENTER
 62
     4
 10
237.49998
 20
0.053616
 30
0.0
 40
91.5
 50
142.75748
 51
157.44221
  0
ARC
  5
1A6
  8
0
  6
CENTER
 62
     4
 10
237.49998
 20
0.053616
 30
0.0
 40
91.5
 50
52.757488
 51
67.442203
  0
ARC
  5
1A7
  8
0
  6
CENTER
 62
     4
 10
-252.50002
 20
0.053616
 30
0.0
 40
91.5
 50
293.67327
 51
306.02521
  0
CIRCLE
  5
1A8
  8
0
  6
CONTINUOUS
 62
     3
 10
-206.75002
 20
-79.187706
 30
0.0
 40
7.7
  0
CIRCLE
  5
1A9
  8
0
  6
CONTINUOUS
 62
     3
 10
-206.75002
 20
-79.187706
 30
0.0
 40
6.5
  0
ARC
  5
1AA
  8
0
  6
CENTER
 62
     4
 10
-252.50002
 20
0.053616
 30
0.0
 40
91.5
 50
203.67327
 51
216.0252
  0
CIRCLE
  5
1AB
  8
0
  6
CONTINUOUS
 62
     3
 10
-331.74133
 20
-45.696384
 30
0.0
 40
7.7
  0
CIRCLE
  5
1AC
  8
0
  6
CONTINUOUS
 62
     3
 10
-331.74133
 20
-45.696384
 30
0.0
 40
6.5
  0
ARC
  5
1AD
  8
0
  6
CENTER
 62
     4
 10
-252.50002
 20
0.053616
 30
0.0
 40
91.5
 50
113.67327
 51
126.0252
  0
CIRCLE
  5
1AE
  8
0
  6
CONTINUOUS
 62
     3
 10
-298.25
 20
79.294937
 30
0.0
 40
7.7
  0
CIRCLE
  5
1AF
  8
0
  6
CONTINUOUS
 62
     3
 10
-298.25
 20
79.294937
 30
0.0
 40
6.5
  0
ARC
  5
1B0
  8
0
  6
CENTER
 62
     4
 10
-252.50002
 20
0.053616
 30
0.0
 40
91.5
 50
23.673267
 51
36.025204
  0
CIRCLE
  5
1B1
  8
0
  6
CONTINUOUS
 62
     3
 10
-173.25868
 20
45.803616
 30
0.0
 40
7.7
  0
CIRCLE
  5
1B2
  8
0
  6
CONTINUOUS
 62
     3
 10
-173.25868
 20
45.803616
 30
0.0
 40
6.5
  0
ARC
  5
1B3
  8
0
  6
CONTINUOUS
 62
     3
 10
-337.40543
 20
56.053719
 30
0.0
 40
2.0
 50
90.000003
 51
176.20051
  0
ARC
  5
1B4
  8
0
  6
CONTINUOUS
 62
     3
 10
-167.59459
 20
-55.946281
 30
0.0
 40
2.0
 50
270.0
 51
356.20051
  0
ARC
  5
1B5
  8
0
  6
CONTINUOUS
 62
     3
 10
-252.50002
 20
0.053616
 30
0.0
 40
115.0
 50
310.07374
 51
319.92634
  0
CIRCLE
  5
1B6
  8
0
  6
CONTINUOUS
 62
     3
 10
-181.78928
 20
-70.657013
 30
0.0
 40
6.75
  0
ARC
  5
1B7
  8
0
  6
CONTINUOUS
 62
     3
 10
-179.50002
 20
-72.946281
 30
0.0
 40
15.0
 50
90.000003
 51
180.00001
  0
ARC
  5
1B8
  8
0
  6
CENTER
 62
     4
 10
-252.50002
 20
0.053616
 30
0.0
 40
100.0
 50
308.55524
 51
321.25803
  0
ARC
  5
1B9
  8
0
  6
CONTINUOUS
 62
     3
 10
-196.50002
 20
-85.946281
 30
0.0
 40
2.0
 50
270.0
 51
0.0
  0
ARC
  5
1BA
  8
0
  6
CONTINUOUS
 62
     3
 10
-252.50002
 20
0.053616
 30
0.0
 40
115.0
 50
220.07366
 51
229.92626
  0
CIRCLE
  5
1BB
  8
0
  6
CONTINUOUS
 62
     3
 10
-323.21072
 20
-70.657013
 30
0.0
 40
6.75
  0
ARC
  5
1BC
  8
0
  6
CONTINUOUS
 62
     3
 10
-325.5
 20
-72.946281
 30
0.0
 40
15.0
 50
0.0
 51
90.000003
  0
ARC
  5
1BD
  8
0
  6
CENTER
 62
     4
 10
-252.50002
 20
0.053616
 30
0.0
 40
100.0
 50
218.7175
 51
232.01725
  0
ARC
  5
1BE
  8
0
  6
CONTINUOUS
 62
     3
 10
-308.5
 20
-85.946281
 30
0.0
 40
2.0
 50
180.00001
 51
270.0
  0
ARC
  5
1BF
  8
0
  6
CONTINUOUS
 62
     3
 10
-337.40543
 20
-55.946281
 30
0.0
 40
2.0
 50
183.79949
 51
270.0
  0
ARC
  5
1C0
  8
0
  6
CONTINUOUS
 62
     3
 10
159.49998
 20
23.053717
 30
0.0
 40
500.0
 50
176.20051
 51
180.00002
  0
ARC
  5
1C1
  8
0
  6
CONTINUOUS
 62
     3
 10
-252.50002
 20
0.053616
 30
0.0
 40
115.0
 50
40.073662
 51
49.926415
  0
CIRCLE
  5
1C2
  8
0
  6
CONTINUOUS
 62
     3
 10
-181.78938
 20
70.764343
 30
0.0
 40
6.75
  0
ARC
  5
1C3
  8
0
  6
CONTINUOUS
 62
     3
 10
-179.50002
 20
73.053719
 30
0.0
 40
15.0
 50
180.00001
 51
270.0
  0
ARC
  5
1C4
  8
0
  6
CENTER
 62
     4
 10
-252.50002
 20
0.053616
 30
0.0
 40
100.0
 50
38.6392
 51
51.857286
  0
ARC
  5
1C5
  8
0
  6
CONTINUOUS
 62
     3
 10
-196.50002
 20
86.053719
 30
0.0
 40
2.0
 50
0.0
 51
90.000003
  0
ARC
  5
1C6
  8
0
  6
CONTINUOUS
 62
     3
 10
-167.59459
 20
56.053719
 30
0.0
 40
2.0
 50
3.799492
 51
90.000003
  0
ARC
  5
1C7
  8
0
  6
CONTINUOUS
 62
     3
 10
-252.50002
 20
0.053616
 30
0.0
 40
115.0
 50
130.07359
 51
139.92634
  0
ARC
  5
1C8
  8
0
  6
CENTER
 62
     4
 10
-252.50002
 20
0.053616
 30
0.0
 40
100.0
 50
128.76975
 51
141.28388
  0
CIRCLE
  5
1C9
  8
0
  6
CONTINUOUS
 62
     3
 10
-323.21063
 20
70.764343
 30
0.0
 40
6.75
  0
ARC
  5
1CA
  8
0
  6
CONTINUOUS
 62
     3
 10
-325.5
 20
73.053719
 30
0.0
 40
15.0
 50
270.0
 51
0.0
  0
ARC
  5
1CB
  8
0
  6
CONTINUOUS
 62
     3
 10
-308.5
 20
86.053719
 30
0.0
 40
2.0
 50
90.000003
 51
180.00001
  0
ARC
  5
1CC
  8
0
  6
CENTER
 62
     4
 10
237.49998
 20
0.053616
 30
0.0
 40
100.0
 50
309.41697
 51
321.15567
  0
ARC
  5
1CD
  8
0
  6
CENTER
 62
     4
 10
237.49998
 20
0.053616
 30
0.0
 40
100.0
 50
216.00978
 51
230.87337
  0
ARC
  5
1CE
  8
0
  6
CENTER
 62
     4
 10
237.49998
 20
0.053616
 30
0.0
 40
100.0
 50
129.67773
 51
140.1781
  0
CIRCLE
  5
1CF
  8
0
  6
CONTINUOUS
 62
     3
 10
166.78931
 20
-70.657066
 30
0.0
 40
6.75
  0
CIRCLE
  5
1D0
  8
0
  6
CONTINUOUS
 62
     3
 10
308.21066
 20
-70.657066
 30
0.0
 40
6.75
  0
CIRCLE
  5
1D1
  8
0
  6
CONTINUOUS
 62
     3
 10
166.78931
 20
70.764297
 30
0.0
 40
6.75
  0
CIRCLE
  5
1D2
  8
0
  6
CONTINUOUS
 62
     3
 10
308.21066
 20
70.764297
 30
0.0
 40
6.75
  0
ARC
  5
1D3
  8
0
  6
CENTER
 62
     4
 10
237.49998
 20
0.053616
 30
0.0
 40
100.0
 50
36.776515
 51
50.357612
  0
ARC
  5
1D4
  8
0
  6
CONTINUOUS
 62
     3
 10
237.49998
 20
0.053616
 30
0.0
 40
115.0
 50
130.07366
 51
139.92634
  0
ARC
  5
1D5
  8
0
  6
CONTINUOUS
 62
     3
 10
237.49998
 20
0.053616
 30
0.0
 40
115.0
 50
220.07366
 51
229.92634
  0
ARC
  5
1D6
  8
0
  6
CONTINUOUS
 62
     3
 10
237.49998
 20
0.053616
 30
0.0
 40
115.0
 50
310.07366
 51
319.92634
  0
ARC
  5
1D7
  8
0
  6
CONTINUOUS
 62
     3
 10
237.49998
 20
0.053616
 30
0.0
 40
115.0
 50
40.073662
 51
49.926337
  0
ARC
  5
1D8
  8
0
  6
CONTINUOUS
 62
     4
 10
-252.50002
 20
0.053616
 30
0.0
 40
107.5
 50
227.40305
 51
233.20598
  0
CIRCLE
  5
1D9
  8
0
  6
CONTINUOUS
 62
     4
 10
-321.59967
 20
-82.296165
 30
0.0
 40
2.5
  0
CIRCLE
  5
1DA
  8
0
  6
CONTINUOUS
 62
     3
 10
-321.59967
 20
-82.296165
 30
0.0
 40
3.0
  0
ARC
  5
1DB
  8
0
  6
CENTER
 62
     4
 10
-252.5
 20
0.053616
 30
0.0
 40
107.5
 50
227.40305
 51
233.20598
  0
CIRCLE
  5
1DC
  8
0
  6
CONTINUOUS
 62
     4
 10
-321.59967
 20
-82.296165
 30
0.0
 40
2.5
  0
CIRCLE
  5
1DD
  8
0
  6
CONTINUOUS
 62
     3
 10
-321.59967
 20
-82.296165
 30
0.0
 40
3.0
  0
CIRCLE
  5
1DE
  8
0
  6
CONTINUOUS
 62
     3
 10
-183.40034
 20
82.403397
 30
0.0
 40
3.0
  0
ARC
  5
1DF
  8
0
  6
CONTINUOUS
 62
     4
 10
-252.50002
 20
0.053616
 30
0.0
 40
107.5
 50
47.403056
 51
53.205982
  0
CIRCLE
  5
1E0
  8
0
  6
CONTINUOUS
 62
     4
 10
-183.40034
 20
82.403397
 30
0.0
 40
2.5
  0
CIRCLE
  5
1E1
  8
0
  6
CONTINUOUS
 62
     4
 10
-183.40033
 20
82.403397
 30
0.0
 40
2.5
  0
CIRCLE
  5
1E2
  8
0
  6
CONTINUOUS
 62
     3
 10
-183.40033
 20
82.403397
 30
0.0
 40
3.0
  0
ARC
  5
1E3
  8
0
  6
CENTER
 62
     4
 10
-252.5
 20
0.053616
 30
0.0
 40
107.5
 50
47.403056
 51
53.205982
  0
CIRCLE
  5
1E4
  8
0
  6
CONTINUOUS
 62
     4
 10
306.59967
 20
-82.296165
 30
0.0
 40
2.5
  0
CIRCLE
  5
1E5
  8
0
  6
CONTINUOUS
 62
     3
 10
306.59964
 20
-82.296165
 30
0.0
 40
3.0
  0
ARC
  5
1E6
  8
0
  6
CENTER
 62
     4
 10
237.49998
 20
0.053616
 30
0.0
 40
107.5
 50
306.79402
 51
312.59694
  0
CIRCLE
  5
1E7
  8
0
  6
CONTINUOUS
 62
     3
 10
306.59967
 20
-82.296165
 30
0.0
 40
3.0
  0
CIRCLE
  5
1E8
  8
0
  6
CONTINUOUS
 62
     3
 10
168.40033
 20
82.403397
 30
0.0
 40
3.0
  0
ARC
  5
1E9
  8
0
  6
CENTER
 62
     4
 10
237.49998
 20
0.053616
 30
0.0
 40
107.5
 50
126.79402
 51
132.59695
  0
CIRCLE
  5
1EA
  8
0
  6
CONTINUOUS
 62
     4
 10
168.40033
 20
82.403397
 30
0.0
 40
2.5
  0
CIRCLE
  5
1EB
  8
0
  6
CONTINUOUS
 62
     4
 10
168.40031
 20
82.403397
 30
0.0
 40
2.5
  0
CIRCLE
  5
1EC
  8
0
  6
CONTINUOUS
 62
     3
 10
168.40031
 20
82.403397
 30
0.0
 40
3.0
  0
ARC
  5
1ED
  8
0
  6
CENTER
 62
     4
 10
237.49998
 20
0.053616
 30
0.0
 40
107.5
 50
126.79402
 51
132.59695
  0
TEXT
  5
1EE
  8
0
  6
CONTINUOUS
 62
     0
 10
-354.72533
 20
163.6008
 30
0.0
 40
10.0
  1
HC-UF72
  0
ENDSEC
  0
EOF
