  0
SECTION
  2
HEADER
  9
$ACADVER
  1
AC1009
  9
$INSBASE
 10
0.0
 20
0.0
 30
0.0
  9
$EXTMIN
 10
-181.5215
 20
-80.079559
 30
0.0
  9
$EXTMAX
 10
171.07526
 20
103.500191
 30
0.0
  9
$LIMMIN
 10
0.0
 20
0.0
  9
$LIMMAX
 10
12.0
 20
9.0
  9
$ORTHOMODE
 70
     0
  9
$REGENMODE
 70
     1
  9
$FILLMODE
 70
     1
  9
$QTEXTMODE
 70
     0
  9
$MIRRTEXT
 70
     1
  9
$DRAGMODE
 70
     2
  9
$LTSCALE
 40
1.0
  9
$OSMODE
 70
     0
  9
$ATTMODE
 70
     1
  9
$TEXTSIZE
 40
0.2
  9
$TRACEWID
 40
0.05
  9
$TEXTSTYLE
  7
STANDARD
  9
$CLAYER
  8
0
  9
$CELTYPE
  6
CONTINUOUS
  9
$CECOLOR
 62
   256
  9
$DIMSCALE
 40
1.0
  9
$DIMASZ
 40
0.18
  9
$DIMEXO
 40
0.0625
  9
$DIMDLI
 40
0.38
  9
$DIMRND
 40
0.0
  9
$DIMDLE
 40
0.0
  9
$DIMEXE
 40
0.18
  9
$DIMTP
 40
0.0
  9
$DIMTM
 40
0.0
  9
$DIMTXT
 40
0.18
  9
$DIMCEN
 40
0.09
  9
$DIMTSZ
 40
0.0
  9
$DIMTOL
 70
     0
  9
$DIMLIM
 70
     0
  9
$DIMTIH
 70
     1
  9
$DIMTOH
 70
     1
  9
$DIMSE1
 70
     0
  9
$DIMSE2
 70
     0
  9
$DIMTAD
 70
     0
  9
$DIMZIN
 70
     0
  9
$DIMBLK
  1

  9
$DIMASO
 70
     1
  9
$DIMSHO
 70
     1
  9
$DIMPOST
  1

  9
$DIMAPOST
  1

  9
$DIMALT
 70
     0
  9
$DIMALTD
 70
     2
  9
$DIMALTF
 40
25.4
  9
$DIMLFAC
 40
1.0
  9
$DIMTOFL
 70
     0
  9
$DIMTVP
 40
0.0
  9
$DIMTIX
 70
     0
  9
$DIMSOXD
 70
     0
  9
$DIMSAH
 70
     0
  9
$DIMBLK1
  1

  9
$DIMBLK2
  1

  9
$DIMSTYLE
  2
STANDARD
  9
$DIMCLRD
 70
     0
  9
$DIMCLRE
 70
     0
  9
$DIMCLRT
 70
     0
  9
$DIMTFAC
 40
1.0
  9
$DIMGAP
 40
0.09
  9
$LUNITS
 70
     2
  9
$LUPREC
 70
     4
  9
$SKETCHINC
 40
0.1
  9
$FILLETRAD
 40
0.0
  9
$AUNITS
 70
     0
  9
$AUPREC
 70
     0
  9
$MENU
  1
.
  9
$ELEVATION
 40
0.0
  9
$PELEVATION
 40
0.0
  9
$THICKNESS
 40
0.0
  9
$LIMCHECK
 70
     0
  9
$BLIPMODE
 70
     0
  9
$CHAMFERA
 40
0.0
  9
$CHAMFERB
 40
0.0
  9
$SKPOLY
 70
     0
  9
$TDCREATE
 40
0.0
  9
$TDUPDATE
 40
0.0
  9
$TDINDWG
 40
0.0
  9
$TDUSRTIMER
 40
0.0
  9
$USRTIMER
 70
     1
  9
$ANGBASE
 50
0.0
  9
$ANGDIR
 70
     0
  9
$PDMODE
 70
     0
  9
$PDSIZE
 40
0.0
  9
$PLINEWID
 40
0.0
  9
$COORDS
 70
     1
  9
$SPLFRAME
 70
     0
  9
$SPLINETYPE
 70
     6
  9
$SPLINESEGS
 70
     8
  9
$ATTDIA
 70
     0
  9
$ATTREQ
 70
     1
  9
$HANDLING
 70
     1
  9
$HANDSEED
  5
380
  9
$SURFTAB1
 70
     6
  9
$SURFTAB2
 70
     6
  9
$SURFTYPE
 70
     6
  9
$SURFU
 70
     6
  9
$SURFV
 70
     6
  9
$UCSNAME
  2

  9
$UCSORG
 10
0.0
 20
0.0
 30
0.0
  9
$UCSXDIR
 10
1.0
 20
0.0
 30
0.0
  9
$UCSYDIR
 10
0.0
 20
1.0
 30
0.0
  9
$PUCSNAME
  2

  9
$PUCSORG
 10
0.0
 20
0.0
 30
0.0
  9
$PUCSXDIR
 10
1.0
 20
0.0
 30
0.0
  9
$PUCSYDIR
 10
0.0
 20
1.0
 30
0.0
  9
$USERI1
 70
     0
  9
$USERI2
 70
     0
  9
$USERI3
 70
     0
  9
$USERI4
 70
     0
  9
$USERI5
 70
     0
  9
$USERR1
 40
0.0
  9
$USERR2
 40
0.0
  9
$USERR3
 40
0.0
  9
$USERR4
 40
0.0
  9
$USERR5
 40
0.0
  9
$WORLDVIEW
 70
     1
  9
$SHADEDGE
 70
     3
  9
$SHADEDIF
 70
    70
  9
$TILEMODE
 70
     1
  9
$MAXACTVP
 70
    48
  9
$PLIMCHECK
 70
     0
  9
$PEXTMIN
 10
1.000000E+020
 20
1.000000E+020
 30
1.000000E+020
  9
$PEXTMAX
 10
-1.000000E+020
 20
-1.000000E+020
 30
-1.000000E+020
  9
$PLIMMIN
 10
0.0
 20
0.0
  9
$PLIMMAX
 10
12.0
 20
9.0
  9
$UNITMODE
 70
     0
  9
$VISRETAIN
 70
     1
  9
$PLINEGEN
 70
     0
  9
$PSLTSCALE
 70
     1
  0
ENDSEC
  0
SECTION
  2
TABLES
  0
TABLE
  2
VPORT
 70
     2
  0
VPORT
  2
*ACTIVE
 70
     0
 10
0.0
 20
0.0
 11
1.0
 21
1.0
 12
-5.22312
 22
11.710316
 13
0.0
 23
0.0
 14
1.0
 24
1.0
 15
0.0
 25
0.0
 16
0.0
 26
0.0
 36
1.0
 17
0.0
 27
0.0
 37
0.0
 40
370.322964
 41
1.581315
 42
50.0
 43
0.0
 44
0.0
 50
0.0
 51
0.0
 71
     0
 72
   100
 73
     1
 74
     1
 75
     0
 76
     0
 77
     0
 78
     0
  0
ENDTAB
  0
TABLE
  2
LTYPE
 70
     5
  0
LTYPE
  2
CONTINUOUS
 70
     0
  3
Solid line
 72
    65
 73
     0
 40
0.0
  0
LTYPE
  2
DASHED
 70
     0
  3
__ __ __ __ __ __ __ __ __ __ __ __ __ __ __
 72
    65
 73
     2
 40
3.5
 49
2.0
 49
-1.5
  0
LTYPE
  2
CENTER
 70
     0
  3
____ _ ____ _ ____ _ ____ _ ____ _ ____ _ ____
 72
    65
 73
     4
 40
17.5
 49
13.0
 49
-1.5
 49
1.5
 49
-1.5
  0
LTYPE
  2
PHANTOM
 70
     0
  3
_____ _ _ _____ _ _ _____ _ _ _____ _ _ ____  
 72
    65
 73
     6
 40
15.5
 49
8.0
 49
-1.5
 49
1.5
 49
-1.5
 49
1.5
 49
-1.5
  0
LTYPE
  2
DOT
 70
     0
  3
. . . . . . . . . . . . . . . . . . . . . . . .
 72
    65
 73
     2
 40
0.25
 49
0.0
 49
-0.25
  0
ENDTAB
  0
TABLE
  2
LAYER
 70
     2
  0
LAYER
  2
0
 70
     0
 62
     7
  6
CONTINUOUS
  0
LAYER
  2
1
 70
     0
 62
     7
  6
CONTINUOUS
  0
ENDTAB
  0
TABLE
  2
STYLE
 70
     1
  0
STYLE
  2
STANDARD
 70
     0
 40
0.0
 41
1.0
 50
0.0
 71
     0
 42
0.2
  3
txt
  4

  0
ENDTAB
  0
TABLE
  2
VIEW
 70
     0
  0
ENDTAB
  0
TABLE
  2
UCS
 70
     0
  0
ENDTAB
  0
TABLE
  2
APPID
 70
     1
  0
APPID
  2
ACAD
 70
     0
  0
ENDTAB
  0
TABLE
  2
DIMSTYLE
 70
     1
  0
DIMSTYLE
  2
STANDARD
 70
     0
  3

  4

  5

  6

  7

 40
1.0
 41
0.18
 42
0.0625
 43
0.38
 44
0.18
 45
0.0
 46
0.0
 47
0.0
 48
0.0
140
0.18
141
0.09
142
0.0
143
25.4
144
1.0
145
0.0
146
1.0
147
0.09
 71
     0
 72
     0
 73
     1
 74
     1
 75
     0
 76
     0
 77
     0
 78
     0
170
     0
171
     2
172
     0
173
     0
174
     0
175
     0
176
     0
177
     0
178
     0
  0
ENDTAB
  0
ENDSEC
  0
SECTION
  2
BLOCKS
  0
BLOCK
  8
0
  2
$MODEL_SPACE
 70
     0
 10
0.0
 20
0.0
 30
0.0
  3
$MODEL_SPACE
  1

  0
ENDBLK
  5
1A
  8
0
  0
BLOCK
 67
     1
  8
0
  2
$PAPER_SPACE
 70
     0
 10
0.0
 20
0.0
 30
0.0
  3
$PAPER_SPACE
  1

  0
ENDBLK
  5
17
 67
     1
  8
0
  0
BLOCK
  8
0
  2
KOZU1
 70
     0
 10
0.0
 20
0.0
 30
0.0
  3
KOZU1
  1

  0
ENDBLK
  5
26
  8
0
  0
BLOCK
  8
0
  2
KOZU2
 70
     0
 10
0.0
 20
0.0
 30
0.0
  3
KOZU2
  1

  0
ENDBLK
  5
29
  8
0
  0
BLOCK
  8
0
  2
SYM1
 70
     0
 10
0.0
 20
0.0
 30
0.0
  3
SYM1
  1

  0
LINE
  5
2C
  8
0
  6
CONTINUOUS
 62
     2
 10
0.168649
 20
3.699999
 30
0.0
 11
2.5
 21
3.699999
 31
0.0
  0
LINE
  5
2D
  8
0
  6
CONTINUOUS
 62
     2
 10
2.043599
 20
7.699999
 30
0.0
 11
1.64284
 21
4.848463
 31
0.0
  0
LINE
  5
2E
  8
0
  6
CONTINUOUS
 62
     2
 10
0.168649
 20
3.699999
 30
0.0
 11
0.913518
 21
8.999999
 31
0.0
  0
LINE
  5
2F
  8
0
  6
CONTINUOUS
 62
     2
 10
5.0
 20
7.7
 30
0.0
 11
5.0
 21
9.0
 31
0.0
  0
LINE
  5
30
  8
0
  6
CONTINUOUS
 62
     2
 10
2.043599
 20
7.699998
 30
0.0
 11
5.0
 21
7.699998
 31
0.0
  0
LINE
  5
31
  8
0
  6
CONTINUOUS
 62
     2
 10
0.913518
 20
8.999999
 30
0.0
 11
5.0
 21
8.999999
 31
0.0
  0
LINE
  5
32
  8
0
  6
CONTINUOUS
 62
     2
 10
0.0
 20
2.5
 30
0.0
 11
1.3
 21
2.5
 31
0.0
  0
ARC
  5
33
  8
0
  6
CONTINUOUS
 62
     2
 10
2.5
 20
2.5
 30
0.0
 40
2.5
 50
180.00002
 51
110.05143
  0
ARC
  5
34
  8
0
  6
CONTINUOUS
 62
     2
 10
2.5
 20
2.5
 30
0.0
 40
1.2
 50
183.55932
 51
90.000003
  0
ENDBLK
  5
35
  8
0
  0
BLOCK
  8
0
  2
SYM2
 70
     0
 10
0.0
 20
0.0
 30
0.0
  3
SYM2
  1

  0
LINE
  5
38
  8
0
  6
CONTINUOUS
 62
     2
 10
5.0
 20
3.0
 30
0.0
 11
4.0
 21
3.0
 31
0.0
  0
LINE
  5
39
  8
0
  6
CONTINUOUS
 62
     2
 10
5.0
 20
1.7
 30
0.0
 11
4.0
 21
1.7
 31
0.0
  0
LINE
  5
3A
  8
0
  6
CONTINUOUS
 62
     2
 10
4.0
 20
0.0
 30
0.0
 11
4.0
 21
1.7
 31
0.0
  0
LINE
  5
3B
  8
0
  6
CONTINUOUS
 62
     2
 10
2.7
 20
0.0
 30
0.0
 11
2.7
 21
1.7
 31
0.0
  0
LINE
  5
3C
  8
0
  6
CONTINUOUS
 62
     2
 10
4.0
 20
0.0
 30
0.0
 11
2.7
 21
0.0
 31
0.0
  0
LINE
  5
3D
  8
0
  6
CONTINUOUS
 62
     2
 10
2.7
 20
9.0
 30
0.0
 11
4.0
 21
9.0
 31
0.0
  0
LINE
  5
3E
  8
0
  6
CONTINUOUS
 62
     2
 10
0.0
 20
1.7
 30
0.0
 11
0.0
 21
3.0
 31
0.0
  0
LINE
  5
3F
  8
0
  6
CONTINUOUS
 62
     2
 10
5.0
 20
1.7
 30
0.0
 11
5.0
 21
3.0
 31
0.0
  0
LINE
  5
40
  8
0
  6
CONTINUOUS
 62
     2
 10
4.0
 20
9.0
 30
0.0
 11
4.0
 21
3.0
 31
0.0
  0
LINE
  5
41
  8
0
  6
CONTINUOUS
 62
     2
 10
2.7
 20
6.111109
 30
0.0
 11
2.7
 21
3.0
 31
0.0
  0
LINE
  5
42
  8
0
  6
CONTINUOUS
 62
     2
 10
0.0
 20
1.7
 30
0.0
 11
2.7
 21
1.7
 31
0.0
  0
LINE
  5
43
  8
0
  6
CONTINUOUS
 62
     2
 10
1.3
 20
3.0
 30
0.0
 11
2.7
 21
3.0
 31
0.0
  0
LINE
  5
44
  8
0
  6
CONTINUOUS
 62
     2
 10
1.3
 20
3.0
 30
0.0
 11
2.699997
 21
6.111109
 31
0.0
  0
LINE
  5
45
  8
0
  6
CONTINUOUS
 62
     2
 10
2.699999
 20
9.0
 30
0.0
 11
-0.000001
 21
3.0
 31
0.0
  0
ENDBLK
  5
46
  8
0
  0
BLOCK
  8
0
  2
SYM3
 70
     0
 10
0.0
 20
0.0
 30
0.0
  3
SYM3
  1

  0
LINE
  5
49
  8
0
  6
CONTINUOUS
 62
     2
 10
0.0
 20
6.5
 30
0.0
 11
0.0
 21
2.5
 31
0.0
  0
LINE
  5
4A
  8
0
  6
CONTINUOUS
 62
     2
 10
5.0
 20
6.5
 30
0.0
 11
5.0
 21
2.5
 31
0.0
  0
LINE
  5
4B
  8
0
  6
CONTINUOUS
 62
     2
 10
3.7
 20
2.5
 30
0.0
 11
3.7
 21
6.5
 31
0.0
  0
LINE
  5
4C
  8
0
  6
CONTINUOUS
 62
     2
 10
1.3
 20
6.5
 30
0.0
 11
1.3
 21
2.5
 31
0.0
  0
ARC
  5
4D
  8
0
  6
CONTINUOUS
 62
     2
 10
2.5
 20
2.5
 30
0.0
 40
2.5
 50
180.00002
 51
359.99998
  0
ARC
  5
4E
  8
0
  6
CONTINUOUS
 62
     2
 10
2.5
 20
2.5
 30
0.0
 40
1.2
 50
180.00002
 51
359.99998
  0
ARC
  5
4F
  8
0
  6
CONTINUOUS
 62
     2
 10
2.5
 20
6.5
 30
0.0
 40
2.5
 50
0.0
 51
180.00002
  0
ARC
  5
50
  8
0
  6
CONTINUOUS
 62
     2
 10
2.5
 20
6.5
 30
0.0
 40
1.2
 50
0.0
 51
180.00002
  0
ENDBLK
  5
51
  8
0
  0
BLOCK
  8
0
  2
SYM4
 70
     0
 10
0.0
 20
0.0
 30
0.0
  3
SYM4
  1

  0
POINT
  5
54
  8
0
  6
CONTINUOUS
 62
     3
 10
0.0
 20
-0.000001
 30
0.0
  0
LINE
  5
55
  8
0
  6
CONTINUOUS
 62
     3
 10
0.0
 20
-2.75
 30
0.0
 11
0.0
 21
2.75
 31
0.0
  0
LINE
  5
56
  8
0
  6
CONTINUOUS
 62
     3
 10
0.0
 20
2.75
 30
0.0
 11
-0.73912
 21
2.75
 31
0.0
  0
LINE
  5
57
  8
0
  6
CONTINUOUS
 62
     3
 10
0.0
 20
-2.75
 30
0.0
 11
-0.73912
 21
-2.75
 31
0.0
  0
ARC
  5
58
  8
0
  6
CONTINUOUS
 62
     3
 10
5.0
 20
-0.000001
 30
0.0
 40
7.0
 50
163.04224
 51
196.95774
  0
ARC
  5
59
  8
0
  6
CONTINUOUS
 62
     3
 10
-0.73912
 20
1.75
 30
0.0
 40
1.0
 50
90.000003
 51
163.04219
  0
ARC
  5
5A
  8
0
  6
CONTINUOUS
 62
     3
 10
-0.73912
 20
-1.75
 30
0.0
 40
1.0
 50
196.95774
 51
270.0
  0
ENDBLK
  5
5B
  8
0
  0
BLOCK
  8
0
  2
SYM16
 70
     0
 10
0.0
 20
0.0
 30
0.0
  3
SYM16
  1

  0
POINT
  5
5E
  8
0
  6
CONTINUOUS
 62
     3
 10
0.0
 20
0.0
 30
0.0
  0
POINT
  5
5F
  8
0
  6
CONTINUOUS
 62
     3
 10
0.0
 20
0.0
 30
0.0
  0
LINE
  5
60
  8
0
  6
CONTINUOUS
 62
     2
 10
1.237439
 20
1.237436
 30
0.0
 11
-1.237439
 21
-1.237436
 31
0.0
  0
LINE
  5
61
  8
0
  6
CONTINUOUS
 62
     2
 10
-1.237434
 20
1.237439
 30
0.0
 11
1.237434
 21
-1.237439
 31
0.0
  0
CIRCLE
  5
62
  8
0
  6
CONTINUOUS
 62
     3
 10
0.0
 20
0.0
 30
0.0
 40
2.749999
  0
ENDBLK
  5
63
  8
0
  0
BLOCK
  8
0
  2
SYM20
 70
     0
 10
0.0
 20
0.0
 30
0.0
  3
SYM20
  1

  0
LINE
  5
66
  8
0
  6
CONTINUOUS
 62
     2
 10
3.7
 20
7.7
 30
0.0
 11
0.0
 21
7.7
 31
0.0
  0
LINE
  5
67
  8
0
  6
CONTINUOUS
 62
     2
 10
5.0
 20
0.0
 30
0.0
 11
5.0
 21
1.3
 31
0.0
  0
LINE
  5
68
  8
0
  6
CONTINUOUS
 62
     2
 10
0.0
 20
0.0
 30
0.0
 11
0.0
 21
1.3
 31
0.0
  0
LINE
  5
69
  8
0
  6
CONTINUOUS
 62
     2
 10
5.0
 20
0.0
 30
0.0
 11
0.0
 21
0.0
 31
0.0
  0
LINE
  5
6A
  8
0
  6
CONTINUOUS
 62
     2
 10
5.0
 20
9.0
 30
0.0
 11
0.0
 21
9.0
 31
0.0
  0
LINE
  5
6B
  8
0
  6
CONTINUOUS
 62
     2
 10
1.3
 20
1.3
 30
0.0
 11
5.0
 21
1.3
 31
0.0
  0
LINE
  5
6C
  8
0
  6
CONTINUOUS
 62
     2
 10
0.0
 20
9.0
 30
0.0
 11
0.0
 21
7.7
 31
0.0
  0
LINE
  5
6D
  8
0
  6
CONTINUOUS
 62
     2
 10
5.0
 20
9.0
 30
0.0
 11
5.0
 21
7.7
 31
0.0
  0
LINE
  5
6E
  8
0
  6
CONTINUOUS
 62
     2
 10
0.0
 20
1.3
 30
0.0
 11
3.7
 21
7.699999
 31
0.0
  0
LINE
  5
6F
  8
0
  6
CONTINUOUS
 62
     2
 10
1.300001
 20
1.300002
 30
0.0
 11
5.0
 21
7.700008
 31
0.0
  0
ENDBLK
  5
70
  8
0
  0
BLOCK
  8
0
  2
SYM21
 70
     0
 10
0.0
 20
0.0
 30
0.0
  3
SYM21
  1

  0
LINE
  5
73
  8
0
  6
CONTINUOUS
 62
     2
 10
1.3
 20
6.5
 30
0.0
 11
1.3
 21
4.693172
 31
0.0
  0
LINE
  5
74
  8
0
  6
CONTINUOUS
 62
     2
 10
0.0
 20
2.5
 30
0.0
 11
0.0
 21
6.5
 31
0.0
  0
LINE
  5
75
  8
0
  6
CONTINUOUS
 62
     2
 10
3.7
 20
6.5
 30
0.0
 11
5.0
 21
6.5
 31
0.0
  0
CIRCLE
  5
76
  8
0
  6
CONTINUOUS
 62
     2
 10
2.5
 20
2.5
 30
0.0
 40
1.2
  0
ARC
  5
77
  8
0
  6
CONTINUOUS
 62
     2
 10
2.5
 20
6.5
 30
0.0
 40
1.2
 50
0.0
 51
180.00002
  0
ARC
  5
78
  8
0
  6
CONTINUOUS
 62
     2
 10
2.5
 20
2.5
 30
0.0
 40
2.5
 50
180.00002
 51
53.130003
  0
ARC
  5
79
  8
0
  6
CONTINUOUS
 62
     2
 10
2.5
 20
2.5
 30
0.0
 40
2.5
 50
53.130061
 51
118.68547
  0
ARC
  5
7A
  8
0
  6
CONTINUOUS
 62
     2
 10
2.5
 20
6.5
 30
0.0
 40
2.5
 50
0.0
 51
180.00002
  0
ENDBLK
  5
7B
  8
0
  0
BLOCK
  8
0
  2
SYM22
 70
     0
 10
0.0
 20
0.0
 30
0.0
  3
SYM22
  1

  0
LINE
  5
7E
  8
0
  6
CONTINUOUS
 62
     2
 10
5.0
 20
6.5
 30
0.0
 11
5.0
 21
2.5
 31
0.0
  0
LINE
  5
7F
  8
0
  6
CONTINUOUS
 62
     2
 10
3.7
 20
4.306828
 30
0.0
 11
3.7
 21
2.5
 31
0.0
  0
LINE
  5
80
  8
0
  6
CONTINUOUS
 62
     2
 10
1.3
 20
2.5
 30
0.0
 11
0.0
 21
2.5
 31
0.0
  0
CIRCLE
  5
81
  8
0
  6
CONTINUOUS
 62
     2
 10
2.5
 20
6.5
 30
0.0
 40
1.2
  0
ARC
  5
82
  8
0
  6
CONTINUOUS
 62
     2
 10
2.5
 20
6.5
 30
0.0
 40
2.5
 50
0.0
 51
61.314554
  0
ARC
  5
83
  8
0
  6
CONTINUOUS
 62
     2
 10
2.5
 20
2.5
 30
0.0
 40
1.2
 50
180.00002
 51
0.000037
  0
ARC
  5
84
  8
0
  6
CONTINUOUS
 62
     2
 10
2.5
 20
2.5
 30
0.0
 40
2.5
 50
180.00002
 51
359.99993
  0
ARC
  5
85
  8
0
  6
CONTINUOUS
 62
     2
 10
2.5
 20
6.5
 30
0.0
 40
2.5
 50
61.314554
 51
298.68548
  0
ENDBLK
  5
86
  8
0
  0
BLOCK
  8
0
  2
KOZU11
 70
     0
 10
0.0
 20
0.0
 30
0.0
  3
KOZU11
  1

  0
LINE
  5
89
  8
0
  6
CONTINUOUS
 62
     4
 10
31.001217
 20
-106.69798
 30
0.0
 11
32.701149
 21
-106.69798
 31
0.0
  0
LINE
  5
8A
  8
0
  6
CONTINUOUS
 62
     4
 10
31.061216
 20
-106.59797
 30
0.0
 11
32.757816
 21
-106.59797
 31
0.0
  0
LINE
  5
8B
  8
0
  6
CONTINUOUS
 62
     4
 10
31.121218
 20
-106.49797
 30
0.0
 11
32.814484
 21
-106.49797
 31
0.0
  0
LINE
  5
8C
  8
0
  6
CONTINUOUS
 62
     4
 10
31.181217
 20
-106.39797
 30
0.0
 11
32.871147
 21
-106.39797
 31
0.0
  0
LINE
  5
8D
  8
0
  6
CONTINUOUS
 62
     4
 10
31.241217
 20
-106.29797
 30
0.0
 11
32.927814
 21
-106.29797
 31
0.0
  0
LINE
  5
8E
  8
0
  6
CONTINUOUS
 62
     4
 10
31.301216
 20
-106.19798
 30
0.0
 11
32.984482
 21
-106.19798
 31
0.0
  0
LINE
  5
8F
  8
0
  6
CONTINUOUS
 62
     4
 10
31.361217
 20
-106.09797
 30
0.0
 11
33.041149
 21
-106.09797
 31
0.0
  0
LINE
  5
90
  8
0
  6
CONTINUOUS
 62
     4
 10
31.421217
 20
-105.99797
 30
0.0
 11
33.097816
 21
-105.99797
 31
0.0
  0
LINE
  5
91
  8
0
  6
CONTINUOUS
 62
     4
 10
31.481216
 20
-105.89797
 30
0.0
 11
33.154484
 21
-105.89797
 31
0.0
  0
LINE
  5
92
  8
0
  6
CONTINUOUS
 62
     4
 10
31.541218
 20
-105.79797
 30
0.0
 11
33.211147
 21
-105.79797
 31
0.0
  0
LINE
  5
93
  8
0
  6
CONTINUOUS
 62
     4
 10
31.601217
 20
-105.69798
 30
0.0
 11
33.267815
 21
-105.69798
 31
0.0
  0
LINE
  5
94
  8
0
  6
CONTINUOUS
 62
     4
 10
31.661217
 20
-105.59797
 30
0.0
 11
33.324482
 21
-105.59797
 31
0.0
  0
LINE
  5
95
  8
0
  6
CONTINUOUS
 62
     4
 10
31.721216
 20
-105.49797
 30
0.0
 11
33.381149
 21
-105.49797
 31
0.0
  0
LINE
  5
96
  8
0
  6
CONTINUOUS
 62
     4
 10
31.781218
 20
-105.39797
 30
0.0
 11
33.437817
 21
-105.39797
 31
0.0
  0
LINE
  5
97
  8
0
  6
CONTINUOUS
 62
     4
 10
31.841217
 20
-105.29797
 30
0.0
 11
33.494484
 21
-105.29797
 31
0.0
  0
ENDBLK
  5
98
  8
0
  0
BLOCK
  8
0
  2
KOZU12
 70
     0
 10
0.0
 20
0.0
 30
0.0
  3
KOZU12
  1

  0
LINE
  5
9B
  8
0
  6
CONTINUOUS
 62
     4
 10
33.541412
 20
-102.29765
 30
0.0
 11
33.652077
 21
-102.29765
 31
0.0
  0
LINE
  5
9C
  8
0
  6
CONTINUOUS
 62
     4
 10
33.481411
 20
-102.39764
 30
0.0
 11
33.705414
 21
-102.39764
 31
0.0
  0
LINE
  5
9D
  8
0
  6
CONTINUOUS
 62
     4
 10
33.421413
 20
-102.49765
 30
0.0
 11
33.758743
 21
-102.49765
 31
0.0
  0
LINE
  5
9E
  8
0
  6
CONTINUOUS
 62
     4
 10
33.361412
 20
-102.59765
 30
0.0
 11
33.812077
 21
-102.59765
 31
0.0
  0
LINE
  5
9F
  8
0
  6
CONTINUOUS
 62
     4
 10
33.301411
 20
-102.69765
 30
0.0
 11
33.865414
 21
-102.69765
 31
0.0
  0
LINE
  5
A0
  8
0
  6
CONTINUOUS
 62
     4
 10
33.241413
 20
-102.79765
 30
0.0
 11
33.918743
 21
-102.79765
 31
0.0
  0
LINE
  5
A1
  8
0
  6
CONTINUOUS
 62
     4
 10
33.181412
 20
-102.89764
 30
0.0
 11
33.972076
 21
-102.89764
 31
0.0
  0
LINE
  5
A2
  8
0
  6
CONTINUOUS
 62
     4
 10
33.12141
 20
-102.99765
 30
0.0
 11
34.025414
 21
-102.99765
 31
0.0
  0
LINE
  5
A3
  8
0
  6
CONTINUOUS
 62
     4
 10
33.061413
 20
-103.09765
 30
0.0
 11
34.078747
 21
-103.09765
 31
0.0
  0
LINE
  5
A4
  8
0
  6
CONTINUOUS
 62
     4
 10
33.001411
 20
-103.19765
 30
0.0
 11
34.132076
 21
-103.19765
 31
0.0
  0
LINE
  5
A5
  8
0
  6
CONTINUOUS
 62
     4
 10
32.941414
 20
-103.29765
 30
0.0
 11
34.185413
 21
-103.29765
 31
0.0
  0
LINE
  5
A6
  8
0
  6
CONTINUOUS
 62
     4
 10
32.881413
 20
-103.39764
 30
0.0
 11
34.238747
 21
-103.39764
 31
0.0
  0
LINE
  5
A7
  8
0
  6
CONTINUOUS
 62
     4
 10
32.821411
 20
-103.49765
 30
0.0
 11
34.292076
 21
-103.49765
 31
0.0
  0
LINE
  5
A8
  8
0
  6
CONTINUOUS
 62
     4
 10
32.761414
 20
-103.59765
 30
0.0
 11
34.345413
 21
-103.59765
 31
0.0
  0
LINE
  5
A9
  8
0
  6
CONTINUOUS
 62
     4
 10
32.701412
 20
-103.69765
 30
0.0
 11
34.398746
 21
-103.69765
 31
0.0
  0
LINE
  5
AA
  8
0
  6
CONTINUOUS
 62
     4
 10
32.755333
 20
-103.79765
 30
0.0
 11
34.344666
 21
-103.79765
 31
0.0
  0
LINE
  5
AB
  8
0
  6
CONTINUOUS
 62
     4
 10
32.812
 20
-103.89764
 30
0.0
 11
34.287998
 21
-103.89764
 31
0.0
  0
LINE
  5
AC
  8
0
  6
CONTINUOUS
 62
     4
 10
32.868668
 20
-103.99765
 30
0.0
 11
34.231335
 21
-103.99765
 31
0.0
  0
LINE
  5
AD
  8
0
  6
CONTINUOUS
 62
     4
 10
32.925331
 20
-104.09765
 30
0.0
 11
34.174667
 21
-104.09765
 31
0.0
  0
LINE
  5
AE
  8
0
  6
CONTINUOUS
 62
     4
 10
32.981998
 20
-104.19765
 30
0.0
 11
34.118
 21
-104.19765
 31
0.0
  0
LINE
  5
AF
  8
0
  6
CONTINUOUS
 62
     4
 10
33.038666
 20
-104.29765
 30
0.0
 11
34.061333
 21
-104.29765
 31
0.0
  0
LINE
  5
B0
  8
0
  6
CONTINUOUS
 62
     4
 10
33.095333
 20
-104.39764
 30
0.0
 11
34.004665
 21
-104.39764
 31
0.0
  0
LINE
  5
B1
  8
0
  6
CONTINUOUS
 62
     4
 10
33.152
 20
-104.49765
 30
0.0
 11
33.948002
 21
-104.49765
 31
0.0
  0
LINE
  5
B2
  8
0
  6
CONTINUOUS
 62
     4
 10
33.208668
 20
-104.59765
 30
0.0
 11
33.891335
 21
-104.59765
 31
0.0
  0
LINE
  5
B3
  8
0
  6
CONTINUOUS
 62
     4
 10
33.265331
 20
-104.69765
 30
0.0
 11
33.834667
 21
-104.69765
 31
0.0
  0
LINE
  5
B4
  8
0
  6
CONTINUOUS
 62
     4
 10
33.321999
 20
-104.79765
 30
0.0
 11
33.778
 21
-104.79765
 31
0.0
  0
LINE
  5
B5
  8
0
  6
CONTINUOUS
 62
     4
 10
33.378666
 20
-104.89764
 30
0.0
 11
33.721333
 21
-104.89764
 31
0.0
  0
LINE
  5
B6
  8
0
  6
CONTINUOUS
 62
     4
 10
33.435333
 20
-104.99765
 30
0.0
 11
33.664665
 21
-104.99765
 31
0.0
  0
LINE
  5
B7
  8
0
  6
CONTINUOUS
 62
     4
 10
33.492001
 20
-105.09765
 30
0.0
 11
33.608002
 21
-105.09765
 31
0.0
  0
LINE
  5
B8
  8
0
  6
CONTINUOUS
 62
     4
 10
33.548668
 20
-105.19765
 30
0.0
 11
33.551334
 21
-105.19765
 31
0.0
  0
ENDBLK
  5
B9
  8
0
  0
BLOCK
  8
0
  2
KOZU13
 70
     0
 10
0.0
 20
0.0
 30
0.0
  3
KOZU13
  1

  0
LINE
  5
BC
  8
0
  6
CONTINUOUS
 62
     4
 10
34.39888
 20
-106.69802
 30
0.0
 11
35.998814
 21
-106.69802
 31
0.0
  0
LINE
  5
BD
  8
0
  6
CONTINUOUS
 62
     4
 10
34.342213
 20
-106.59802
 30
0.0
 11
35.938812
 21
-106.59802
 31
0.0
  0
LINE
  5
BE
  8
0
  6
CONTINUOUS
 62
     4
 10
34.285545
 20
-106.49802
 30
0.0
 11
35.878815
 21
-106.49802
 31
0.0
  0
LINE
  5
BF
  8
0
  6
CONTINUOUS
 62
     4
 10
34.228878
 20
-106.39803
 30
0.0
 11
35.818813
 21
-106.39803
 31
0.0
  0
LINE
  5
C0
  8
0
  6
CONTINUOUS
 62
     4
 10
34.172211
 20
-106.29802
 30
0.0
 11
35.758812
 21
-106.29802
 31
0.0
  0
LINE
  5
C1
  8
0
  6
CONTINUOUS
 62
     4
 10
34.115547
 20
-106.19802
 30
0.0
 11
35.698814
 21
-106.19802
 31
0.0
  0
LINE
  5
C2
  8
0
  6
CONTINUOUS
 62
     4
 10
34.05888
 20
-106.09802
 30
0.0
 11
35.638813
 21
-106.09802
 31
0.0
  0
LINE
  5
C3
  8
0
  6
CONTINUOUS
 62
     4
 10
34.002213
 20
-105.99802
 30
0.0
 11
35.578812
 21
-105.99802
 31
0.0
  0
LINE
  5
C4
  8
0
  6
CONTINUOUS
 62
     4
 10
33.945545
 20
-105.89803
 30
0.0
 11
35.518814
 21
-105.89803
 31
0.0
  0
LINE
  5
C5
  8
0
  6
CONTINUOUS
 62
     4
 10
33.888878
 20
-105.79802
 30
0.0
 11
35.458813
 21
-105.79802
 31
0.0
  0
LINE
  5
C6
  8
0
  6
CONTINUOUS
 62
     4
 10
33.832211
 20
-105.69802
 30
0.0
 11
35.398811
 21
-105.69802
 31
0.0
  0
LINE
  5
C7
  8
0
  6
CONTINUOUS
 62
     4
 10
33.775547
 20
-105.59802
 30
0.0
 11
35.338814
 21
-105.59802
 31
0.0
  0
LINE
  5
C8
  8
0
  6
CONTINUOUS
 62
     4
 10
33.71888
 20
-105.49802
 30
0.0
 11
35.278812
 21
-105.49802
 31
0.0
  0
LINE
  5
C9
  8
0
  6
CONTINUOUS
 62
     4
 10
33.662212
 20
-105.39803
 30
0.0
 11
35.218815
 21
-105.39803
 31
0.0
  0
LINE
  5
CA
  8
0
  6
CONTINUOUS
 62
     4
 10
33.605545
 20
-105.29802
 30
0.0
 11
35.158813
 21
-105.29802
 31
0.0
  0
ENDBLK
  5
CB
  8
0
  0
BLOCK
  8
0
  2
KOZU14
 70
     0
 10
0.0
 20
0.0
 30
0.0
  3
KOZU14
  1

  0
LINE
  5
CE
  8
0
  6
CENTER
 62
     6
 10
0.0
 20
0.0
 30
0.0
 11
201.57297
 21
0.0
 31
0.0
  0
ENDBLK
  5
CF
  8
0
  0
ENDSEC
  0
SECTION
  2
ENTITIES
  0
LINE
  5
D0
  8
0
  6
CENTER
 62
     4
 10
146.767
 20
45.305347
 30
0.0
 11
153.767
 21
45.305347
 31
0.0
  0
LINE
  5
D1
  8
0
  6
CENTER
 62
     4
 10
150.267
 20
41.805347
 30
0.0
 11
150.267
 21
48.805347
 31
0.0
  0
LINE
  5
D2
  8
0
  6
CENTER
 62
     4
 10
146.767
 20
-24.694653
 30
0.0
 11
153.767
 21
-24.694653
 31
0.0
  0
LINE
  5
D3
  8
0
  6
CENTER
 62
     4
 10
150.267
 20
-21.194653
 30
0.0
 11
150.267
 21
-28.194653
 31
0.0
  0
LINE
  5
D4
  8
0
  6
CENTER
 62
     4
 10
111.767
 20
45.305347
 30
0.0
 11
104.767
 21
45.305347
 31
0.0
  0
LINE
  5
D5
  8
0
  6
CENTER
 62
     4
 10
108.267
 20
41.805347
 30
0.0
 11
108.267
 21
48.805347
 31
0.0
  0
LINE
  5
D6
  8
0
  6
CENTER
 62
     4
 10
111.767
 20
-24.694653
 30
0.0
 11
104.767
 21
-24.694653
 31
0.0
  0
LINE
  5
D7
  8
0
  6
CENTER
 62
     4
 10
108.267
 20
-21.194653
 30
0.0
 11
108.267
 21
-28.194653
 31
0.0
  0
LINE
  5
D8
  8
0
  6
CONTINUOUS
 62
     3
 10
-65.391953
 20
27.832327
 30
0.0
 11
-63.901543
 21
27.832327
 31
0.0
  0
LINE
  5
D9
  8
0
  6
CONTINUOUS
 62
     3
 10
-65.391953
 20
33.832325
 30
0.0
 11
-63.901543
 21
33.832325
 31
0.0
  0
LINE
  5
DA
  8
0
  6
CONTINUOUS
 62
     3
 10
-65.891953
 20
33.332325
 30
0.0
 11
-65.891953
 21
28.332327
 31
0.0
  0
LINE
  5
DB
  8
0
  6
CONTINUOUS
 62
     3
 10
-65.391953
 20
-13.388399
 30
0.0
 11
-63.901543
 21
-13.388399
 31
0.0
  0
LINE
  5
DC
  8
0
  6
CONTINUOUS
 62
     3
 10
-65.391953
 20
-7.388399
 30
0.0
 11
-63.901543
 21
-7.388399
 31
0.0
  0
LINE
  5
DD
  8
0
  6
CONTINUOUS
 62
     3
 10
-65.891953
 20
-7.888399
 30
0.0
 11
-65.891953
 21
-12.888399
 31
0.0
  0
LINE
  5
DE
  8
0
  6
CONTINUOUS
 62
     3
 10
-58.212868
 20
-38.781807
 30
0.0
 11
-58.870598
 21
-31.263918
 31
0.0
  0
LINE
  5
DF
  8
0
  6
CONTINUOUS
 62
     3
 10
-45.633003
 20
-38.694653
 30
0.0
 11
-45.633003
 21
-31.394653
 31
0.0
  0
LINE
  5
E0
  8
0
  6
CONTINUOUS
 62
     3
 10
-57.216671
 20
-39.694653
 30
0.0
 11
-46.633003
 21
-39.694653
 31
0.0
  0
LINE
  5
E1
  8
0
  6
CONTINUOUS
 62
     3
 10
-52.133003
 20
-39.694653
 30
0.0
 11
-52.133003
 21
50.505348
 31
0.0
  0
LINE
  5
E2
  8
0
  6
CONTINUOUS
 62
     3
 10
-51.633003
 20
-39.694653
 30
0.0
 11
-51.633003
 21
50.505348
 31
0.0
  0
LINE
  5
E3
  8
0
  6
CONTINUOUS
 62
     3
 10
-119.14164
 20
-29.006081
 30
0.0
 11
-153.40717
 21
-29.006081
 31
0.0
  0
LINE
  5
E4
  8
0
  6
CONTINUOUS
 62
     3
 10
-135.41019
 20
-78.314323
 30
0.0
 11
-135.41019
 21
-73.439323
 31
0.0
  0
LINE
  5
E5
  8
0
  6
CONTINUOUS
 62
     3
 10
-118.7989
 20
-29.894653
 30
0.0
 11
-103.47248
 21
-29.894653
 31
0.0
  0
LINE
  5
E6
  8
0
  6
CONTINUOUS
 62
     3
 10
-58.321289
 20
-29.894653
 30
0.0
 11
7.266997
 21
-29.894653
 31
0.0
  0
LINE
  5
E7
  8
0
  6
CENTER
 62
     4
 10
-67.543579
 20
-10.327096
 30
0.0
 11
-62.255207
 21
-10.327096
 31
0.0
  0
LINE
  5
E8
  8
0
  6
CENTER
 62
     4
 10
-67.656555
 20
30.93779
 30
0.0
 11
-59.219765
 21
30.93779
 31
0.0
  0
LINE
  5
E9
  8
0
  6
CONTINUOUS
 62
     3
 10
-119.48438
 20
-29.894653
 30
0.0
 11
-118.7989
 21
-29.894653
 31
0.0
  0
LINE
  5
EA
  8
0
  6
CENTER
 62
     4
 10
-173.0351
 20
46.667969
 30
0.0
 11
-163.62161
 21
37.254478
 31
0.0
  0
LINE
  5
EB
  8
0
  6
CENTER
 62
     4
 10
-109.05386
 20
37.923962
 30
0.0
 11
-100.58054
 21
46.397282
 31
0.0
  0
LINE
  5
EC
  8
0
  6
CONTINUOUS
 62
     3
 10
-169.87248
 20
50.505348
 30
0.0
 11
-103.47248
 21
50.505348
 31
0.0
  0
LINE
  5
ED
  8
0
  6
CONTINUOUS
 62
     3
 10
-96.472481
 20
-22.894653
 30
0.0
 11
-96.472481
 21
43.505348
 31
0.0
  0
LINE
  5
EE
  8
0
  6
CENTER
 62
     4
 10
-109.38044
 20
-16.986689
 30
0.0
 11
-99.801041
 21
-26.566086
 31
0.0
  0
LINE
  5
EF
  8
0
  6
CENTER
 62
     4
 10
-173.15096
 20
-26.173126
 30
0.0
 11
-163.62686
 21
-16.649033
 31
0.0
  0
LINE
  5
F0
  8
0
  6
CONTINUOUS
 62
     3
 10
-176.87248
 20
-22.894653
 30
0.0
 11
-176.87248
 21
43.505348
 31
0.0
  0
LINE
  5
F1
  8
0
  6
CONTINUOUS
 62
     3
 10
-63.911915
 20
24.984453
 30
0.0
 11
-63.911915
 21
38.120007
 31
0.0
  0
LINE
  5
F2
  8
0
  6
CONTINUOUS
 62
     3
 10
-63.911915
 20
-17.513096
 30
0.0
 11
-63.911915
 21
-5.668165
 31
0.0
  0
LINE
  5
F3
  8
0
  6
CONTINUOUS
 62
     3
 10
-69.087944
 20
38.120007
 30
0.0
 11
-63.911915
 21
38.120007
 31
0.0
  0
LINE
  5
F4
  8
0
  6
CONTINUOUS
 62
     3
 10
-69.553413
 20
24.984453
 30
0.0
 11
-63.911915
 21
24.984453
 31
0.0
  0
LINE
  5
F5
  8
0
  6
CONTINUOUS
 62
     3
 10
-63.911915
 20
-17.513096
 30
0.0
 11
-69.087769
 21
-17.513096
 31
0.0
  0
LINE
  5
F6
  8
0
  6
CONTINUOUS
 62
     3
 10
-69.52034
 20
-5.668165
 30
0.0
 11
-63.911915
 21
-5.668165
 31
0.0
  0
LINE
  5
F7
  8
0
  6
CONTINUOUS
 62
     3
 10
-0.733003
 20
32.605347
 30
0.0
 11
-0.733003
 21
50.505348
 31
0.0
  0
LINE
  5
F8
  8
0
  6
CONTINUOUS
 62
     3
 10
-0.733003
 20
-29.894653
 30
0.0
 11
-0.733003
 21
-11.994653
 31
0.0
  0
LINE
  5
F9
  8
0
  6
CONTINUOUS
 62
     3
 10
-64.079315
 20
38.305347
 30
0.0
 11
-2.133003
 21
38.305347
 31
0.0
  0
LINE
  5
FA
  8
0
  6
CONTINUOUS
 62
     3
 10
-69.079315
 20
-17.694653
 30
0.0
 11
-2.133003
 21
-17.694653
 31
0.0
  0
LINE
  5
FB
  8
0
  6
CONTINUOUS
 62
     3
 10
-63.911915
 20
32.605347
 30
0.0
 11
-0.733003
 21
32.605347
 31
0.0
  0
LINE
  5
FC
  8
0
  6
CONTINUOUS
 62
     3
 10
-63.911915
 20
-11.994653
 30
0.0
 11
-0.733003
 21
-11.994653
 31
0.0
  0
LINE
  5
FD
  8
0
  6
CENTER
 62
     4
 10
-71.053101
 20
10.305347
 30
0.0
 11
38.964867
 21
10.305347
 31
0.0
  0
LINE
  5
FE
  8
0
  6
CENTER
 62
     4
 10
-144.15848
 20
-39.743645
 30
0.0
 11
-144.15848
 21
-30.57667
 31
0.0
  0
LINE
  5
FF
  8
0
  6
CONTINUOUS
 62
     3
 10
-122.00222
 20
-30.155327
 30
0.0
 11
-122.50108
 21
-30.781565
 31
0.0
  0
LINE
  5
100
  8
0
  6
CONTINUOUS
 62
     3
 10
-122.50107
 20
-30.781572
 30
0.0
 11
-122.86597
 21
-31.495361
 31
0.0
  0
LINE
  5
101
  8
0
  6
CONTINUOUS
 62
     3
 10
-122.86596
 20
-31.495361
 30
0.0
 11
-123.08087
 21
-32.261906
 31
0.0
  0
LINE
  5
102
  8
0
  6
CONTINUOUS
 62
     3
 10
-119.14164
 20
-28.928223
 30
0.0
 11
-119.14164
 21
-29.875017
 31
0.0
  0
LINE
  5
103
  8
0
  6
PHANTOM
 62
     4
 10
-116.70561
 20
-29.894632
 30
0.0
 11
-113.35477
 21
-29.894632
 31
0.0
  0
LINE
  5
104
  8
0
  6
CONTINUOUS
 62
     3
 10
-118.10458
 20
-29.875017
 30
0.0
 11
-119.14164
 21
-29.875017
 31
0.0
  0
LINE
  5
105
  8
0
  6
CONTINUOUS
 62
     3
 10
-118.10458
 20
-28.948196
 30
0.0
 11
-119.14164
 21
-28.948196
 31
0.0
  0
LINE
  5
106
  8
0
  6
CONTINUOUS
 62
     3
 10
-118.10458
 20
-29.875017
 30
0.0
 11
-118.10458
 21
-28.948196
 31
0.0
  0
LINE
  5
107
  8
0
  6
CONTINUOUS
 62
     3
 10
-111.37694
 20
-29.89464
 30
0.0
 11
-118.10458
 21
-29.89464
 31
0.0
  0
LINE
  5
108
  8
0
  6
CONTINUOUS
 62
     3
 10
-110.30211
 20
-22.686829
 30
0.0
 11
-110.67978
 21
-29.236519
 31
0.0
  0
LINE
  5
109
  8
0
  6
CONTINUOUS
 62
     3
 10
-110.65804
 20
-28.859564
 30
0.0
 11
-117.51848
 21
-28.96788
 31
0.0
  0
LINE
  5
10A
  8
0
  6
CONTINUOUS
 62
     3
 10
-117.51848
 20
-28.967882
 30
0.0
 11
-117.79607
 21
-28.962318
 31
0.0
  0
LINE
  5
10B
  8
0
  6
CONTINUOUS
 62
     3
 10
-117.79607
 20
-28.962318
 30
0.0
 11
-118.10458
 21
-28.948195
 31
0.0
  0
LINE
  5
10C
  8
0
  6
CONTINUOUS
 62
     3
 10
-111.63103
 20
-22.692711
 30
0.0
 11
-112.04527
 21
-29.89464
 31
0.0
  0
LINE
  5
10D
  8
0
  6
CENTER
 62
     4
 10
-134.13603
 20
-34.775032
 30
0.0
 11
-124.23602
 21
-34.775032
 31
0.0
  0
LINE
  5
10E
  8
0
  6
CONTINUOUS
 62
     3
 10
-149.42085
 20
-38.820793
 30
0.0
 11
-149.11893
 21
-38.772762
 31
0.0
  0
LINE
  5
10F
  8
0
  6
CONTINUOUS
 62
     3
 10
-149.69307
 20
-38.854706
 30
0.0
 11
-149.42085
 21
-38.820793
 31
0.0
  0
LINE
  5
110
  8
0
  6
CONTINUOUS
 62
     3
 10
-149.91011
 20
-38.871418
 30
0.0
 11
-149.69307
 21
-38.854706
 31
0.0
  0
LINE
  5
111
  8
0
  6
CONTINUOUS
 62
     3
 10
-150.05154
 20
-38.869335
 30
0.0
 11
-149.91011
 21
-38.871418
 31
0.0
  0
LINE
  5
112
  8
0
  6
CONTINUOUS
 62
     3
 10
-150.10373
 20
-38.848667
 30
0.0
 11
-150.05154
 21
-38.869339
 31
0.0
  0
LINE
  5
113
  8
0
  6
CONTINUOUS
 62
     3
 10
-149.11893
 20
-39.675022
 30
0.0
 11
-124.25314
 21
-39.675022
 31
0.0
  0
LINE
  5
114
  8
0
  6
CONTINUOUS
 62
     3
 10
-123.3206
 20
-38.869335
 30
0.0
 11
-123.26833
 21
-38.84866
 31
0.0
  0
LINE
  5
115
  8
0
  6
CONTINUOUS
 62
     3
 10
-123.46223
 20
-38.871391
 30
0.0
 11
-123.3206
 21
-38.869335
 31
0.0
  0
LINE
  5
116
  8
0
  6
CONTINUOUS
 62
     3
 10
-123.67961
 20
-38.854652
 30
0.0
 11
-123.46223
 21
-38.871391
 31
0.0
  0
LINE
  5
117
  8
0
  6
CONTINUOUS
 62
     3
 10
-123.95195
 20
-38.820694
 30
0.0
 11
-123.6796
 21
-38.854652
 31
0.0
  0
LINE
  5
118
  8
0
  6
CONTINUOUS
 62
     3
 10
-124.25314
 20
-38.772762
 30
0.0
 11
-123.95195
 21
-38.82069
 31
0.0
  0
LINE
  5
119
  8
0
  6
CONTINUOUS
 62
     3
 10
-149.11893
 20
-38.772762
 30
0.0
 11
-124.25314
 21
-38.772762
 31
0.0
  0
LINE
  5
11A
  8
0
  6
CONTINUOUS
 62
     3
 10
-162.68692
 20
-28.859562
 30
0.0
 11
-153.40717
 21
-29.006079
 31
0.0
  0
LINE
  5
11B
  8
0
  6
CONTINUOUS
 62
     3
 10
-118.13166
 20
-29.875017
 30
0.0
 11
-119.16872
 21
-29.875017
 31
0.0
  0
LINE
  5
11C
  8
0
  6
CONTINUOUS
 62
     3
 10
-155.24037
 20
-29.875017
 30
0.0
 11
-154.20332
 21
-29.875017
 31
0.0
  0
LINE
  5
11D
  8
0
  6
CONTINUOUS
 62
     3
 10
-122.89307
 20
-31.495384
 30
0.0
 11
-123.10796
 21
-32.261906
 31
0.0
  0
LINE
  5
11E
  8
0
  6
CONTINUOUS
 62
     3
 10
-122.52821
 20
-30.781643
 30
0.0
 11
-122.89307
 21
-31.495386
 31
0.0
  0
LINE
  5
11F
  8
0
  6
CONTINUOUS
 62
     3
 10
-151.19728
 20
-32.369934
 30
0.0
 11
-151.2489
 21
-32.35408
 31
0.0
  0
LINE
  5
120
  8
0
  6
CONTINUOUS
 62
     3
 10
-151.05595
 20
-32.367569
 30
0.0
 11
-151.19728
 21
-32.36993
 31
0.0
  0
LINE
  5
121
  8
0
  6
CONTINUOUS
 62
     3
 10
-150.83849
 20
-32.347225
 30
0.0
 11
-151.05595
 21
-32.367569
 31
0.0
  0
LINE
  5
122
  8
0
  6
CONTINUOUS
 62
     3
 10
-150.56578
 20
-32.310825
 30
0.0
 11
-150.83849
 21
-32.347221
 31
0.0
  0
LINE
  5
123
  8
0
  6
CONTINUOUS
 62
     3
 10
-150.26408
 20
-32.261906
 30
0.0
 11
-150.5658
 21
-32.310825
 31
0.0
  0
LINE
  5
124
  8
0
  6
CONTINUOUS
 62
     3
 10
-118.13166
 20
-28.948196
 30
0.0
 11
-119.16872
 21
-28.948196
 31
0.0
  0
LINE
  5
125
  8
0
  6
CONTINUOUS
 62
     3
 10
-151.2489
 20
-32.354084
 30
0.0
 11
-150.10374
 21
-38.84866
 31
0.0
  0
LINE
  5
126
  8
0
  6
CONTINUOUS
 62
     3
 10
-150.26408
 20
-32.261906
 30
0.0
 11
-149.11893
 21
-38.772766
 31
0.0
  0
LINE
  5
127
  8
0
  6
CONTINUOUS
 62
     3
 10
-155.24037
 20
-29.875017
 30
0.0
 11
-155.24037
 21
-28.994633
 31
0.0
  0
LINE
  5
128
  8
0
  6
CONTINUOUS
 62
     3
 10
-154.20332
 20
-28.994633
 30
0.0
 11
-154.20332
 21
-29.875017
 31
0.0
  0
LINE
  5
129
  8
0
  6
CONTINUOUS
 62
     3
 10
-133.18602
 20
-39.775036
 30
0.0
 11
-133.18604
 21
-45.230408
 31
0.0
  0
LINE
  5
12A
  8
0
  6
CONTINUOUS
 62
     3
 10
-149.11893
 20
-39.675022
 30
0.0
 11
-149.11893
 21
-38.772762
 31
0.0
  0
LINE
  5
12B
  8
0
  6
CONTINUOUS
 62
     3
 10
-140.62637
 20
-34.010796
 30
0.0
 11
-140.53603
 21
-34.818947
 31
0.0
  0
LINE
  5
12C
  8
0
  6
CONTINUOUS
 62
     3
 10
-140.89627
 20
-33.235847
 30
0.0
 11
-140.62639
 21
-34.010799
 31
0.0
  0
LINE
  5
12D
  8
0
  6
CONTINUOUS
 62
     3
 10
-141.33167
 20
-32.541225
 30
0.0
 11
-140.89626
 21
-33.23584
 31
0.0
  0
LINE
  5
12E
  8
0
  6
CONTINUOUS
 62
     3
 10
-141.91049
 20
-31.961552
 30
0.0
 11
-141.33167
 21
-32.541233
 31
0.0
  0
LINE
  5
12F
  8
0
  6
CONTINUOUS
 62
     3
 10
-142.60301
 20
-31.525993
 30
0.0
 11
-141.91048
 21
-31.961552
 31
0.0
  0
LINE
  5
130
  8
0
  6
CONTINUOUS
 62
     3
 10
-143.37436
 20
-31.255888
 30
0.0
 11
-142.60301
 21
-31.525991
 31
0.0
  0
LINE
  5
131
  8
0
  6
CONTINUOUS
 62
     3
 10
-144.18602
 20
-31.164373
 30
0.0
 11
-143.37436
 21
-31.255888
 31
0.0
  0
LINE
  5
132
  8
0
  6
CONTINUOUS
 62
     3
 10
-144.9977
 20
-31.255888
 30
0.0
 11
-144.18602
 21
-31.164373
 31
0.0
  0
LINE
  5
133
  8
0
  6
CONTINUOUS
 62
     3
 10
-145.76906
 20
-31.525993
 30
0.0
 11
-144.9977
 21
-31.255888
 31
0.0
  0
LINE
  5
134
  8
0
  6
CONTINUOUS
 62
     3
 10
-146.46158
 20
-31.961542
 30
0.0
 11
-145.76906
 21
-31.52599
 31
0.0
  0
LINE
  5
135
  8
0
  6
CONTINUOUS
 62
     3
 10
-147.04039
 20
-32.541229
 30
0.0
 11
-146.46158
 21
-31.961552
 31
0.0
  0
LINE
  5
136
  8
0
  6
CONTINUOUS
 62
     3
 10
-147.4758
 20
-33.235844
 30
0.0
 11
-147.04039
 21
-32.541233
 31
0.0
  0
LINE
  5
137
  8
0
  6
CONTINUOUS
 62
     3
 10
-147.74567
 20
-34.010796
 30
0.0
 11
-147.4758
 21
-33.235847
 31
0.0
  0
LINE
  5
138
  8
0
  6
CONTINUOUS
 62
     3
 10
-147.83603
 20
-34.818947
 30
0.0
 11
-147.74567
 21
-34.010796
 31
0.0
  0
LINE
  5
139
  8
0
  6
CONTINUOUS
 62
     3
 10
-147.74561
 20
-35.62743
 30
0.0
 11
-147.83603
 21
-34.818951
 31
0.0
  0
LINE
  5
13A
  8
0
  6
CONTINUOUS
 62
     3
 10
-147.47542
 20
-36.402813
 30
0.0
 11
-147.74559
 21
-35.627426
 31
0.0
  0
LINE
  5
13B
  8
0
  6
CONTINUOUS
 62
     3
 10
-147.03955
 20
-37.097733
 30
0.0
 11
-147.47542
 21
-36.402813
 31
0.0
  0
LINE
  5
13C
  8
0
  6
CONTINUOUS
 62
     3
 10
-146.46028
 20
-37.67738
 30
0.0
 11
-147.03955
 21
-37.097725
 31
0.0
  0
LINE
  5
13D
  8
0
  6
CONTINUOUS
 62
     3
 10
-145.7677
 20
-38.112572
 30
0.0
 11
-146.46028
 21
-37.677395
 31
0.0
  0
LINE
  5
13E
  8
0
  6
CONTINUOUS
 62
     3
 10
-144.99684
 20
-38.38221
 30
0.0
 11
-145.7677
 21
-38.11256
 31
0.0
  0
LINE
  5
13F
  8
0
  6
CONTINUOUS
 62
     3
 10
-144.18602
 20
-38.473526
 30
0.0
 11
-144.99684
 21
-38.382214
 31
0.0
  0
LINE
  5
140
  8
0
  6
CONTINUOUS
 62
     3
 10
-143.37523
 20
-38.382214
 30
0.0
 11
-144.18602
 21
-38.473526
 31
0.0
  0
LINE
  5
141
  8
0
  6
CONTINUOUS
 62
     3
 10
-142.60435
 20
-38.112564
 30
0.0
 11
-143.37521
 21
-38.382214
 31
0.0
  0
LINE
  5
142
  8
0
  6
CONTINUOUS
 62
     3
 10
-141.91177
 20
-37.677383
 30
0.0
 11
-142.60437
 21
-38.112568
 31
0.0
  0
LINE
  5
143
  8
0
  6
CONTINUOUS
 62
     3
 10
-141.3325
 20
-37.097733
 30
0.0
 11
-141.91177
 21
-37.677387
 31
0.0
  0
LINE
  5
144
  8
0
  6
CONTINUOUS
 62
     3
 10
-140.89661
 20
-36.402821
 30
0.0
 11
-141.3325
 21
-37.09774
 31
0.0
  0
LINE
  5
145
  8
0
  6
CONTINUOUS
 62
     3
 10
-140.62646
 20
-35.627434
 30
0.0
 11
-140.89662
 21
-36.402817
 31
0.0
  0
LINE
  5
146
  8
0
  6
CONTINUOUS
 62
     3
 10
-140.53604
 20
-34.818951
 30
0.0
 11
-140.62646
 21
-35.62743
 31
0.0
  0
LINE
  5
147
  8
0
  6
CONTINUOUS
 62
     3
 10
-125.62647
 20
-35.62743
 30
0.0
 11
-125.53602
 21
-34.818947
 31
0.0
  0
LINE
  5
148
  8
0
  6
CONTINUOUS
 62
     3
 10
-125.89662
 20
-36.402821
 30
0.0
 11
-125.62646
 21
-35.62743
 31
0.0
  0
LINE
  5
149
  8
0
  6
CONTINUOUS
 62
     3
 10
-126.33251
 20
-37.097736
 30
0.0
 11
-125.89662
 21
-36.402821
 31
0.0
  0
LINE
  5
14A
  8
0
  6
CONTINUOUS
 62
     3
 10
-126.91175
 20
-37.677391
 30
0.0
 11
-126.3325
 21
-37.097736
 31
0.0
  0
LINE
  5
14B
  8
0
  6
CONTINUOUS
 62
     3
 10
-127.60436
 20
-38.112564
 30
0.0
 11
-126.91176
 21
-37.677387
 31
0.0
  0
LINE
  5
14C
  8
0
  6
CONTINUOUS
 62
     3
 10
-128.37523
 20
-38.382214
 30
0.0
 11
-127.60436
 21
-38.112568
 31
0.0
  0
LINE
  5
14D
  8
0
  6
CONTINUOUS
 62
     3
 10
-129.18602
 20
-38.473526
 30
0.0
 11
-128.37523
 21
-38.382214
 31
0.0
  0
LINE
  5
14E
  8
0
  6
CONTINUOUS
 62
     3
 10
-129.99684
 20
-38.382214
 30
0.0
 11
-129.18602
 21
-38.473526
 31
0.0
  0
LINE
  5
14F
  8
0
  6
CONTINUOUS
 62
     3
 10
-130.7677
 20
-38.112564
 30
0.0
 11
-129.99684
 21
-38.38221
 31
0.0
  0
LINE
  5
150
  8
0
  6
CONTINUOUS
 62
     3
 10
-131.46028
 20
-37.677391
 30
0.0
 11
-130.76772
 21
-38.112564
 31
0.0
  0
LINE
  5
151
  8
0
  6
CONTINUOUS
 62
     3
 10
-132.03954
 20
-37.097729
 30
0.0
 11
-131.46028
 21
-37.677383
 31
0.0
  0
LINE
  5
152
  8
0
  6
CONTINUOUS
 62
     3
 10
-132.47542
 20
-36.402817
 30
0.0
 11
-132.03954
 21
-37.097736
 31
0.0
  0
LINE
  5
153
  8
0
  6
CONTINUOUS
 62
     3
 10
-132.74557
 20
-35.62743
 30
0.0
 11
-132.47542
 21
-36.402817
 31
0.0
  0
LINE
  5
154
  8
0
  6
CONTINUOUS
 62
     3
 10
-132.83603
 20
-34.818951
 30
0.0
 11
-132.74559
 21
-35.627434
 31
0.0
  0
LINE
  5
155
  8
0
  6
CONTINUOUS
 62
     3
 10
-132.74565
 20
-34.010796
 30
0.0
 11
-132.83603
 21
-34.818951
 31
0.0
  0
LINE
  5
156
  8
0
  6
CONTINUOUS
 62
     3
 10
-132.47578
 20
-33.235844
 30
0.0
 11
-132.74565
 21
-34.010792
 31
0.0
  0
LINE
  5
157
  8
0
  6
CONTINUOUS
 62
     3
 10
-132.04041
 20
-32.541233
 30
0.0
 11
-132.47578
 21
-33.235844
 31
0.0
  0
LINE
  5
158
  8
0
  6
CONTINUOUS
 62
     3
 10
-131.46159
 20
-31.96155
 30
0.0
 11
-132.04041
 21
-32.541225
 31
0.0
  0
LINE
  5
159
  8
0
  6
CONTINUOUS
 62
     3
 10
-130.76904
 20
-31.525988
 30
0.0
 11
-131.46159
 21
-31.961552
 31
0.0
  0
LINE
  5
15A
  8
0
  6
CONTINUOUS
 62
     3
 10
-129.9977
 20
-31.255886
 30
0.0
 11
-130.76906
 21
-31.525991
 31
0.0
  0
LINE
  5
15B
  8
0
  6
CONTINUOUS
 62
     3
 10
-129.18602
 20
-31.164371
 30
0.0
 11
-129.99771
 21
-31.255888
 31
0.0
  0
LINE
  5
15C
  8
0
  6
CONTINUOUS
 62
     3
 10
-128.37436
 20
-31.25589
 30
0.0
 11
-129.18602
 21
-31.164373
 31
0.0
  0
LINE
  5
15D
  8
0
  6
CONTINUOUS
 62
     3
 10
-127.603
 20
-31.525993
 30
0.0
 11
-128.37436
 21
-31.255892
 31
0.0
  0
LINE
  5
15E
  8
0
  6
CONTINUOUS
 62
     3
 10
-126.91049
 20
-31.961554
 30
0.0
 11
-127.603
 21
-31.525995
 31
0.0
  0
LINE
  5
15F
  8
0
  6
CONTINUOUS
 62
     3
 10
-126.33165
 20
-32.541233
 30
0.0
 11
-126.91049
 21
-31.961552
 31
0.0
  0
LINE
  5
160
  8
0
  6
CONTINUOUS
 62
     3
 10
-125.89626
 20
-33.235844
 30
0.0
 11
-126.33164
 21
-32.541233
 31
0.0
  0
LINE
  5
161
  8
0
  6
CONTINUOUS
 62
     3
 10
-125.62639
 20
-34.010799
 30
0.0
 11
-125.89626
 21
-33.235844
 31
0.0
  0
LINE
  5
162
  8
0
  6
CONTINUOUS
 62
     3
 10
-125.53602
 20
-34.818951
 30
0.0
 11
-125.62639
 21
-34.010796
 31
0.0
  0
LINE
  5
163
  8
0
  6
CONTINUOUS
 62
     3
 10
-124.25314
 20
-39.675022
 30
0.0
 11
-124.25314
 21
-38.772762
 31
0.0
  0
LINE
  5
164
  8
0
  6
CONTINUOUS
 62
     3
 10
-119.16872
 20
-28.925104
 30
0.0
 11
-119.16872
 21
-29.875017
 31
0.0
  0
LINE
  5
165
  8
0
  6
CONTINUOUS
 62
     3
 10
-122.12315
 20
-32.354084
 30
0.0
 11
-123.26833
 21
-38.84866
 31
0.0
  0
LINE
  5
166
  8
0
  6
CONTINUOUS
 62
     3
 10
-123.10796
 20
-32.261906
 30
0.0
 11
-124.25314
 21
-38.772766
 31
0.0
  0
LINE
  5
167
  8
0
  6
CONTINUOUS
 62
     3
 10
-118.13166
 20
-29.875017
 30
0.0
 11
-118.13166
 21
-28.948196
 31
0.0
  0
LINE
  5
168
  8
0
  6
CONTINUOUS
 62
     3
 10
-140.18602
 20
-39.575016
 30
0.0
 11
-140.18604
 21
-45.230408
 31
0.0
  0
LINE
  5
169
  8
0
  6
CONTINUOUS
 62
     3
 10
-122.80625
 20
-32.310825
 30
0.0
 11
-123.10796
 21
-32.261906
 31
0.0
  0
LINE
  5
16A
  8
0
  6
CONTINUOUS
 62
     3
 10
-122.53355
 20
-32.347221
 30
0.0
 11
-122.80625
 21
-32.310825
 31
0.0
  0
LINE
  5
16B
  8
0
  6
CONTINUOUS
 62
     3
 10
-122.31609
 20
-32.367569
 30
0.0
 11
-122.53356
 21
-32.347225
 31
0.0
  0
LINE
  5
16C
  8
0
  6
CONTINUOUS
 62
     3
 10
-122.17476
 20
-32.36993
 30
0.0
 11
-122.31608
 21
-32.367569
 31
0.0
  0
LINE
  5
16D
  8
0
  6
CONTINUOUS
 62
     3
 10
-122.12315
 20
-32.354084
 30
0.0
 11
-122.17476
 21
-32.36993
 31
0.0
  0
LINE
  5
16E
  8
0
  6
CENTER
 62
     4
 10
-129.18602
 20
-39.72504
 30
0.0
 11
-129.18602
 21
-29.825026
 31
0.0
  0
LINE
  5
16F
  8
0
  6
CENTER
 62
     4
 10
-149.13602
 20
-34.775032
 30
0.0
 11
-139.23601
 21
-34.775032
 31
0.0
  0
LINE
  5
170
  8
0
  6
CENTER
 62
     4
 10
-136.67249
 20
-42.939682
 30
0.0
 11
-136.67249
 21
-50.011581
 31
0.0
  0
LINE
  5
171
  8
0
  6
CENTER
 62
     4
 10
-176.20691
 20
30.93779
 30
0.0
 11
-166.35658
 21
30.93779
 31
0.0
  0
LINE
  5
172
  8
0
  6
CENTER
 62
     4
 10
-106.98837
 20
30.93779
 30
0.0
 11
-96.340492
 21
30.93779
 31
0.0
  0
LINE
  5
173
  8
0
  6
CENTER
 62
     4
 10
-102.06321
 20
26.012629
 30
0.0
 11
-102.06321
 21
35.862949
 31
0.0
  0
LINE
  5
174
  8
0
  6
CENTER
 62
     4
 10
-176.20691
 20
-10.327096
 30
0.0
 11
-166.35658
 21
-10.327096
 31
0.0
  0
LINE
  5
175
  8
0
  6
CENTER
 62
     4
 10
-171.28175
 20
-15.252257
 30
0.0
 11
-171.28175
 21
-5.401935
 31
0.0
  0
LINE
  5
176
  8
0
  6
CENTER
 62
     4
 10
-106.98837
 20
-10.327096
 30
0.0
 11
-96.11454
 21
-10.327096
 31
0.0
  0
LINE
  5
177
  8
0
  6
CENTER
 62
     4
 10
-136.67249
 20
-53.026608
 30
0.0
 11
-136.67249
 21
54.74511
 31
0.0
  0
LINE
  5
178
  8
0
  6
CENTER
 62
     4
 10
-102.06321
 20
-15.252257
 30
0.0
 11
-102.06321
 21
-5.401935
 31
0.0
  0
LINE
  5
179
  8
0
  6
CONTINUOUS
 62
     3
 10
-161.78027
 20
49.290386
 30
0.0
 11
-161.37065
 21
49.271652
 31
0.0
  0
LINE
  5
17A
  8
0
  6
CONTINUOUS
 62
     3
 10
-162.14998
 20
49.297821
 30
0.0
 11
-161.78026
 21
49.290382
 31
0.0
  0
LINE
  5
17B
  8
0
  6
CONTINUOUS
 62
     3
 10
-162.44379
 20
49.293228
 30
0.0
 11
-162.14998
 21
49.297825
 31
0.0
  0
LINE
  5
17C
  8
0
  6
CONTINUOUS
 62
     3
 10
-162.63316
 20
49.277061
 30
0.0
 11
-162.4438
 21
49.293224
 31
0.0
  0
LINE
  5
17D
  8
0
  6
CONTINUOUS
 62
     3
 10
-162.69957
 20
49.250862
 30
0.0
 11
-162.63316
 21
49.277061
 31
0.0
  0
LINE
  5
17E
  8
0
  6
CONTINUOUS
 62
     3
 10
-162.12367
 20
43.322948
 30
0.0
 11
-161.71391
 21
43.303406
 31
0.0
  0
LINE
  5
17F
  8
0
  6
CONTINUOUS
 62
     3
 10
-162.49353
 20
43.332516
 30
0.0
 11
-162.12367
 21
43.322948
 31
0.0
  0
LINE
  5
180
  8
0
  6
CONTINUOUS
 62
     3
 10
-162.78737
 20
43.331196
 30
0.0
 11
-162.49353
 21
43.332516
 31
0.0
  0
LINE
  5
181
  8
0
  6
CONTINUOUS
 62
     3
 10
-162.97665
 20
43.319164
 30
0.0
 11
-162.78737
 21
43.3312
 31
0.0
  0
LINE
  5
182
  8
0
  6
CONTINUOUS
 62
     3
 10
-163.04285
 20
43.297562
 30
0.0
 11
-162.97665
 21
43.319164
 31
0.0
  0
LINE
  5
183
  8
0
  6
CONTINUOUS
 62
     3
 10
-174.98634
 20
34.669266
 30
0.0
 11
-167.41109
 21
37.426414
 31
0.0
  0
LINE
  5
184
  8
0
  6
CONTINUOUS
 62
     3
 10
-165.70409
 20
37.076073
 30
0.0
 11
-165.29166
 21
37.07935
 31
0.0
  0
LINE
  5
185
  8
0
  6
CONTINUOUS
 62
     3
 10
-166.07495
 20
37.066532
 30
0.0
 11
-165.70409
 21
37.076069
 31
0.0
  0
LINE
  5
186
  8
0
  6
CONTINUOUS
 62
     3
 10
-166.36896
 20
37.051727
 30
0.0
 11
-166.07495
 21
37.066536
 31
0.0
  0
LINE
  5
187
  8
0
  6
CONTINUOUS
 62
     3
 10
-166.55777
 20
37.033096
 30
0.0
 11
-166.36897
 21
37.051723
 31
0.0
  0
LINE
  5
188
  8
0
  6
CONTINUOUS
 62
     3
 10
-166.62282
 20
37.01244
 30
0.0
 11
-166.55777
 21
37.033096
 31
0.0
  0
LINE
  5
189
  8
0
  6
CONTINUOUS
 62
     3
 10
-174.53108
 20
33.418411
 30
0.0
 11
-166.95583
 21
36.175594
 31
0.0
  0
LINE
  5
18A
  8
0
  6
CONTINUOUS
 62
     3
 10
-175.13637
 20
26.278858
 30
0.0
 11
-175.13637
 21
24.984453
 31
0.0
  0
LINE
  5
18B
  8
0
  6
CONTINUOUS
 62
     3
 10
-175.13637
 20
-5.668165
 30
0.0
 11
-175.13637
 21
-4.373726
 31
0.0
  0
LINE
  5
18C
  8
0
  6
CONTINUOUS
 62
     3
 10
-175.49634
 20
15.201189
 30
0.0
 11
-175.13635
 21
24.984453
 31
0.0
  0
LINE
  5
18D
  8
0
  6
CONTINUOUS
 62
     3
 10
-175.49634
 20
5.409539
 30
0.0
 11
-175.49634
 21
15.201189
 31
0.0
  0
LINE
  5
18E
  8
0
  6
CONTINUOUS
 62
     3
 10
-175.13635
 20
-4.373726
 30
0.0
 11
-175.49634
 21
5.409539
 31
0.0
  0
LINE
  5
18F
  8
0
  6
CONTINUOUS
 62
     3
 10
-176.46545
 20
-4.410612
 30
0.0
 11
-175.8571
 21
-12.923851
 31
0.0
  0
LINE
  5
190
  8
0
  6
CONTINUOUS
 62
     3
 10
-111.97428
 20
-29.89464
 30
0.0
 11
-113.35473
 21
-29.89464
 31
0.0
  0
LINE
  5
191
  8
0
  6
CONTINUOUS
 62
     3
 10
-161.37065
 20
-29.89464
 30
0.0
 11
-159.99019
 21
-29.89464
 31
0.0
  0
LINE
  5
192
  8
0
  6
CONTINUOUS
 62
     3
 10
-171.28175
 20
24.984453
 30
0.0
 11
-171.28175
 21
26.278858
 31
0.0
  0
LINE
  5
193
  8
0
  6
CONTINUOUS
 62
     3
 10
-171.28175
 20
-5.668165
 30
0.0
 11
-171.28175
 21
-4.373726
 31
0.0
  0
LINE
  5
194
  8
0
  6
CONTINUOUS
 62
     3
 10
-174.98634
 20
-14.058532
 30
0.0
 11
-167.41109
 21
-16.815718
 31
0.0
  0
LINE
  5
195
  8
0
  6
CONTINUOUS
 62
     3
 10
-162.12369
 20
-22.712221
 30
0.0
 11
-161.71393
 21
-22.692711
 31
0.0
  0
LINE
  5
196
  8
0
  6
CONTINUOUS
 62
     3
 10
-162.49353
 20
-22.72179
 30
0.0
 11
-162.12367
 21
-22.712221
 31
0.0
  0
LINE
  5
197
  8
0
  6
CONTINUOUS
 62
     3
 10
-162.78737
 20
-22.720505
 30
0.0
 11
-162.49353
 21
-22.72179
 31
0.0
  0
LINE
  5
198
  8
0
  6
CONTINUOUS
 62
     3
 10
-162.97665
 20
-22.708467
 30
0.0
 11
-162.78738
 21
-22.720505
 31
0.0
  0
LINE
  5
199
  8
0
  6
CONTINUOUS
 62
     3
 10
-163.04285
 20
-22.686831
 30
0.0
 11
-162.97665
 21
-22.708467
 31
0.0
  0
LINE
  5
19A
  8
0
  6
CONTINUOUS
 62
     3
 10
-174.53108
 20
-12.807711
 30
0.0
 11
-174.98634
 21
-14.058529
 31
0.0
  0
LINE
  5
19B
  8
0
  6
CONTINUOUS
 62
     3
 10
-164.13913
 20
38.004982
 30
0.0
 11
-165.29167
 21
37.07935
 31
0.0
  0
LINE
  5
19C
  8
0
  6
CONTINUOUS
 62
     3
 10
-163.17021
 20
39.136009
 30
0.0
 11
-164.13913
 21
38.004974
 31
0.0
  0
LINE
  5
19D
  8
0
  6
CONTINUOUS
 62
     3
 10
-162.42715
 20
40.42778
 30
0.0
 11
-163.17021
 21
39.136013
 31
0.0
  0
LINE
  5
19E
  8
0
  6
CONTINUOUS
 62
     3
 10
-161.93556
 20
41.836906
 30
0.0
 11
-162.42717
 21
40.42778
 31
0.0
  0
LINE
  5
19F
  8
0
  6
CONTINUOUS
 62
     3
 10
-161.71393
 20
43.303406
 30
0.0
 11
-161.93555
 21
41.836906
 31
0.0
  0
LINE
  5
1A0
  8
0
  6
CONTINUOUS
 62
     3
 10
-166.62282
 20
-10.327096
 30
0.0
 11
-166.62282
 21
-16.401711
 31
0.0
  0
LINE
  5
1A1
  8
0
  6
CONTINUOUS
 62
     3
 10
-166.62282
 20
30.93779
 30
0.0
 11
-166.62282
 21
37.01244
 31
0.0
  0
LINE
  5
1A2
  8
0
  6
CONTINUOUS
 62
     3
 10
-164.13913
 20
-17.394258
 30
0.0
 11
-165.29166
 21
-16.468657
 31
0.0
  0
LINE
  5
1A3
  8
0
  6
CONTINUOUS
 62
     3
 10
-163.17021
 20
-18.525356
 30
0.0
 11
-164.13913
 21
-17.394258
 31
0.0
  0
LINE
  5
1A4
  8
0
  6
CONTINUOUS
 62
     3
 10
-162.42715
 20
-19.817148
 30
0.0
 11
-163.17021
 21
-18.525349
 31
0.0
  0
LINE
  5
1A5
  8
0
  6
CONTINUOUS
 62
     3
 10
-161.93553
 20
-21.22621
 30
0.0
 11
-162.42717
 21
-19.817154
 31
0.0
  0
LINE
  5
1A6
  8
0
  6
CONTINUOUS
 62
     3
 10
-161.71393
 20
-22.692713
 30
0.0
 11
-161.93552
 21
-21.226213
 31
0.0
  0
LINE
  5
1A7
  8
0
  6
CONTINUOUS
 62
     3
 10
-174.53108
 20
33.418404
 30
0.0
 11
-174.98634
 21
34.669266
 31
0.0
  0
LINE
  5
1A8
  8
0
  6
CONTINUOUS
 62
     3
 10
-174.53108
 20
-12.807706
 30
0.0
 11
-166.95581
 21
-15.564862
 31
0.0
  0
LINE
  5
1A9
  8
0
  6
CONTINUOUS
 62
     3
 10
-165.70303
 20
-16.465374
 30
0.0
 11
-165.29167
 21
-16.468655
 31
0.0
  0
LINE
  5
1AA
  8
0
  6
CONTINUOUS
 62
     3
 10
-166.07411
 20
-16.455873
 30
0.0
 11
-165.70303
 21
-16.465374
 31
0.0
  0
LINE
  5
1AB
  8
0
  6
CONTINUOUS
 62
     3
 10
-166.36861
 20
-16.441067
 30
0.0
 11
-166.07411
 21
-16.455875
 31
0.0
  0
LINE
  5
1AC
  8
0
  6
CONTINUOUS
 62
     3
 10
-166.55766
 20
-16.422401
 30
0.0
 11
-166.36859
 21
-16.441065
 31
0.0
  0
LINE
  5
1AD
  8
0
  6
CONTINUOUS
 62
     3
 10
-166.62282
 20
-16.401705
 30
0.0
 11
-166.55766
 21
-16.422398
 31
0.0
  0
LINE
  5
1AE
  8
0
  6
CONTINUOUS
 62
     3
 10
-163.04285
 20
43.297558
 30
0.0
 11
-162.69957
 21
49.250858
 31
0.0
  0
LINE
  5
1AF
  8
0
  6
CONTINUOUS
 62
     3
 10
-161.71393
 20
43.30341
 30
0.0
 11
-161.37065
 21
49.271652
 31
0.0
  0
LINE
  5
1B0
  8
0
  6
CONTINUOUS
 62
     3
 10
-165.29166
 20
-10.378792
 30
0.0
 11
-165.29166
 21
-16.468655
 31
0.0
  0
LINE
  5
1B1
  8
0
  6
CONTINUOUS
 62
     3
 10
-165.29166
 20
30.989519
 30
0.0
 11
-165.29166
 21
37.07935
 31
0.0
  0
LINE
  5
1B2
  8
0
  6
CONTINUOUS
 62
     3
 10
-161.71393
 20
-22.692711
 30
0.0
 11
-161.29968
 21
-29.89464
 31
0.0
  0
LINE
  5
1B3
  8
0
  6
CONTINUOUS
 62
     3
 10
-163.04286
 20
-22.686831
 30
0.0
 11
-162.66519
 21
-29.236519
 31
0.0
  0
LINE
  5
1B4
  8
0
  6
CONTINUOUS
 62
     3
 10
-167.41107
 20
-16.815727
 30
0.0
 11
-166.95581
 21
-15.564869
 31
0.0
  0
LINE
  5
1B5
  8
0
  6
CONTINUOUS
 62
     3
 10
-161.37065
 20
50.505367
 30
0.0
 11
-161.37065
 21
49.271652
 31
0.0
  0
LINE
  5
1B6
  8
0
  6
CENTER
 62
     4
 10
-136.67249
 20
-74.10762
 30
0.0
 11
-136.67249
 21
-53.026608
 31
0.0
  0
LINE
  5
1B7
  8
0
  6
CONTINUOUS
 62
     3
 10
-159.99019
 20
-28.902142
 30
0.0
 11
-159.99019
 21
-29.89464
 31
0.0
  0
LINE
  5
1B8
  8
0
  6
CONTINUOUS
 62
     3
 10
-167.41109
 20
37.426411
 30
0.0
 11
-166.95583
 21
36.175594
 31
0.0
  0
LINE
  5
1B9
  8
0
  6
CONTINUOUS
 62
     3
 10
-165.70303
 20
-10.376289
 30
0.0
 11
-165.29166
 21
-10.378792
 31
0.0
  0
LINE
  5
1BA
  8
0
  6
CONTINUOUS
 62
     3
 10
-166.0741
 20
-10.368918
 30
0.0
 11
-165.70303
 21
-10.376289
 31
0.0
  0
LINE
  5
1BB
  8
0
  6
CONTINUOUS
 62
     3
 10
-166.36861
 20
-10.357491
 30
0.0
 11
-166.07411
 21
-10.368918
 31
0.0
  0
LINE
  5
1BC
  8
0
  6
CONTINUOUS
 62
     3
 10
-166.55766
 20
-10.343087
 30
0.0
 11
-166.36859
 21
-10.357491
 31
0.0
  0
LINE
  5
1BD
  8
0
  6
CONTINUOUS
 62
     3
 10
-166.62282
 20
-10.327097
 30
0.0
 11
-166.55766
 21
-10.343087
 31
0.0
  0
LINE
  5
1BE
  8
0
  6
CONTINUOUS
 62
     3
 10
-98.813881
 20
-12.80771
 30
0.0
 11
-97.487823
 21
-12.92385
 31
0.0
  0
LINE
  5
1BF
  8
0
  6
CONTINUOUS
 62
     3
 10
-106.78729
 20
-10.343087
 30
0.0
 11
-106.72215
 21
-10.327096
 31
0.0
  0
LINE
  5
1C0
  8
0
  6
CONTINUOUS
 62
     3
 10
-106.97636
 20
-10.357491
 30
0.0
 11
-106.78729
 21
-10.343088
 31
0.0
  0
LINE
  5
1C1
  8
0
  6
CONTINUOUS
 62
     3
 10
-107.27085
 20
-10.368919
 30
0.0
 11
-106.97636
 21
-10.357491
 31
0.0
  0
LINE
  5
1C2
  8
0
  6
CONTINUOUS
 62
     3
 10
-107.64192
 20
-10.37629
 30
0.0
 11
-107.27086
 21
-10.368919
 31
0.0
  0
LINE
  5
1C3
  8
0
  6
CONTINUOUS
 62
     3
 10
-108.05327
 20
-10.378792
 30
0.0
 11
-107.64193
 21
-10.37629
 31
0.0
  0
LINE
  5
1C4
  8
0
  6
CONTINUOUS
 62
     3
 10
-174.53108
 20
-12.807711
 30
0.0
 11
-175.8571
 21
-12.92385
 31
0.0
  0
LINE
  5
1C5
  8
0
  6
CONTINUOUS
 62
     3
 10
-175.54773
 20
-4.394688
 30
0.0
 11
-175.13635
 21
-4.373726
 31
0.0
  0
LINE
  5
1C6
  8
0
  6
CONTINUOUS
 62
     3
 10
-175.9178
 20
-4.409937
 30
0.0
 11
-175.54773
 21
-4.394688
 31
0.0
  0
LINE
  5
1C7
  8
0
  6
CONTINUOUS
 62
     3
 10
-176.21127
 20
-4.418085
 30
0.0
 11
-175.91779
 21
-4.409937
 31
0.0
  0
LINE
  5
1C8
  8
0
  6
CONTINUOUS
 62
     3
 10
-176.39999
 20
-4.418322
 30
0.0
 11
-176.21127
 21
-4.418085
 31
0.0
  0
LINE
  5
1C9
  8
0
  6
CONTINUOUS
 62
     3
 10
-176.46547
 20
-4.410613
 30
0.0
 11
-176.39999
 21
-4.418323
 31
0.0
  0
LINE
  5
1CA
  8
0
  6
CONTINUOUS
 62
     3
 10
-165.44009
 20
-9.050374
 30
0.0
 11
-165.29167
 21
-10.378793
 31
0.0
  0
LINE
  5
1CB
  8
0
  6
CONTINUOUS
 62
     3
 10
-165.88379
 20
-7.77558
 30
0.0
 11
-165.44009
 21
-9.050376
 31
0.0
  0
LINE
  5
1CC
  8
0
  6
CONTINUOUS
 62
     3
 10
-166.6003
 20
-6.632466
 30
0.0
 11
-165.88377
 21
-7.775572
 31
0.0
  0
LINE
  5
1CD
  8
0
  6
CONTINUOUS
 62
     3
 10
-167.55339
 20
-5.67875
 30
0.0
 11
-166.6003
 21
-6.632478
 31
0.0
  0
LINE
  5
1CE
  8
0
  6
CONTINUOUS
 62
     3
 10
-168.69307
 20
-4.963451
 30
0.0
 11
-167.55339
 21
-5.678742
 31
0.0
  0
LINE
  5
1CF
  8
0
  6
CONTINUOUS
 62
     3
 10
-169.96164
 20
-4.521376
 30
0.0
 11
-168.69308
 21
-4.963446
 31
0.0
  0
LINE
  5
1D0
  8
0
  6
CONTINUOUS
 62
     3
 10
-171.28174
 20
-4.373726
 30
0.0
 11
-169.96165
 21
-4.521376
 31
0.0
  0
LINE
  5
1D1
  8
0
  6
CONTINUOUS
 62
     3
 10
-98.208595
 20
-5.668165
 30
0.0
 11
-102.06321
 21
-5.668165
 31
0.0
  0
LINE
  5
1D2
  8
0
  6
CONTINUOUS
 62
     3
 10
-175.13637
 20
-5.668165
 30
0.0
 11
-171.28175
 21
-5.668165
 31
0.0
  0
LINE
  5
1D3
  8
0
  6
CONTINUOUS
 62
     3
 10
-107.90487
 20
-9.050441
 30
0.0
 11
-108.05327
 21
-10.378792
 31
0.0
  0
LINE
  5
1D4
  8
0
  6
CONTINUOUS
 62
     3
 10
-107.46121
 20
-7.775716
 30
0.0
 11
-107.90487
 21
-9.050444
 31
0.0
  0
LINE
  5
1D5
  8
0
  6
CONTINUOUS
 62
     3
 10
-106.74473
 20
-6.632546
 30
0.0
 11
-107.4612
 21
-7.775715
 31
0.0
  0
LINE
  5
1D6
  8
0
  6
CONTINUOUS
 62
     3
 10
-105.7916
 20
-5.678783
 30
0.0
 11
-106.74472
 21
-6.632544
 31
0.0
  0
LINE
  5
1D7
  8
0
  6
CONTINUOUS
 62
     3
 10
-104.65195
 20
-4.963481
 30
0.0
 11
-105.79161
 21
-5.678778
 31
0.0
  0
LINE
  5
1D8
  8
0
  6
CONTINUOUS
 62
     3
 10
-103.38335
 20
-4.521378
 30
0.0
 11
-104.65195
 21
-4.963485
 31
0.0
  0
LINE
  5
1D9
  8
0
  6
CONTINUOUS
 62
     3
 10
-102.06321
 20
-4.373726
 30
0.0
 11
-103.38335
 21
-4.521377
 31
0.0
  0
LINE
  5
1DA
  8
0
  6
CONTINUOUS
 62
     3
 10
-96.945061
 20
-4.418322
 30
0.0
 11
-96.879501
 21
-4.410613
 31
0.0
  0
LINE
  5
1DB
  8
0
  6
CONTINUOUS
 62
     3
 10
-97.134064
 20
-4.418052
 30
0.0
 11
-96.945061
 21
-4.418322
 31
0.0
  0
LINE
  5
1DC
  8
0
  6
CONTINUOUS
 62
     3
 10
-97.428047
 20
-4.409903
 30
0.0
 11
-97.134064
 21
-4.418052
 31
0.0
  0
LINE
  5
1DD
  8
0
  6
CONTINUOUS
 62
     3
 10
-97.798279
 20
-4.394621
 30
0.0
 11
-97.428047
 21
-4.409903
 31
0.0
  0
LINE
  5
1DE
  8
0
  6
CONTINUOUS
 62
     3
 10
-98.208603
 20
-4.373726
 30
0.0
 11
-97.798271
 21
-4.394621
 31
0.0
  0
LINE
  5
1DF
  8
0
  6
CONTINUOUS
 62
     3
 10
-98.208595
 20
-4.373726
 30
0.0
 11
-102.06321
 21
-4.373726
 31
0.0
  0
LINE
  5
1E0
  8
0
  6
CONTINUOUS
 62
     3
 10
-175.13637
 20
-4.373726
 30
0.0
 11
-171.28175
 21
-4.373726
 31
0.0
  0
LINE
  5
1E1
  8
0
  6
CONTINUOUS
 62
     3
 10
-165.51241
 20
-16.79953
 30
0.0
 11
-165.29166
 21
-16.468658
 31
0.0
  0
LINE
  5
1E2
  8
0
  6
CONTINUOUS
 62
     3
 10
-165.71268
 20
-17.093513
 30
0.0
 11
-165.51241
 21
-16.799528
 31
0.0
  0
LINE
  5
1E3
  8
0
  6
CONTINUOUS
 62
     3
 10
-165.87384
 20
-17.32332
 30
0.0
 11
-165.71268
 21
-17.093512
 31
0.0
  0
LINE
  5
1E4
  8
0
  6
CONTINUOUS
 62
     3
 10
-165.98106
 20
-17.467651
 30
0.0
 11
-165.87384
 21
-17.323313
 31
0.0
  0
LINE
  5
1E5
  8
0
  6
CONTINUOUS
 62
     3
 10
-166.02431
 20
-17.513088
 30
0.0
 11
-165.98106
 21
-17.467648
 31
0.0
  0
LINE
  5
1E6
  8
0
  6
CONTINUOUS
 62
     3
 10
-107.83255
 20
37.410255
 30
0.0
 11
-108.05326
 21
37.07935
 31
0.0
  0
LINE
  5
1E7
  8
0
  6
CONTINUOUS
 62
     3
 10
-107.63229
 20
37.704235
 30
0.0
 11
-107.83255
 21
37.410252
 31
0.0
  0
LINE
  5
1E8
  8
0
  6
CONTINUOUS
 62
     3
 10
-107.47108
 20
37.934048
 30
0.0
 11
-107.63229
 21
37.704239
 31
0.0
  0
LINE
  5
1E9
  8
0
  6
CONTINUOUS
 62
     3
 10
-107.3639
 20
38.078354
 30
0.0
 11
-107.47108
 21
37.934052
 31
0.0
  0
LINE
  5
1EA
  8
0
  6
CONTINUOUS
 62
     3
 10
-107.32066
 20
38.123795
 30
0.0
 11
-107.3639
 21
38.07835
 31
0.0
  0
LINE
  5
1EB
  8
0
  6
CONTINUOUS
 62
     3
 10
-165.51295
 20
37.41103
 30
0.0
 11
-165.29166
 21
37.079346
 31
0.0
  0
LINE
  5
1EC
  8
0
  6
CONTINUOUS
 62
     3
 10
-165.7131
 20
37.704876
 30
0.0
 11
-165.51295
 21
37.411034
 31
0.0
  0
LINE
  5
1ED
  8
0
  6
CONTINUOUS
 62
     3
 10
-165.87405
 20
37.934319
 30
0.0
 11
-165.71312
 21
37.704876
 31
0.0
  0
LINE
  5
1EE
  8
0
  6
CONTINUOUS
 62
     3
 10
-165.98112
 20
38.078423
 30
0.0
 11
-165.87405
 21
37.934319
 31
0.0
  0
LINE
  5
1EF
  8
0
  6
CONTINUOUS
 62
     3
 10
-166.02431
 20
38.123798
 30
0.0
 11
-165.98112
 21
38.078423
 31
0.0
  0
LINE
  5
1F0
  8
0
  6
CENTER
 62
     4
 10
-181.5215
 20
10.305347
 30
0.0
 11
-93.370758
 21
10.305347
 31
0.0
  0
LINE
  5
1F1
  8
0
  6
CONTINUOUS
 62
     3
 10
-107.832
 20
-16.800337
 30
0.0
 11
-108.05326
 21
-16.468655
 31
0.0
  0
LINE
  5
1F2
  8
0
  6
CONTINUOUS
 62
     3
 10
-107.63185
 20
-17.094149
 30
0.0
 11
-107.83201
 21
-16.800335
 31
0.0
  0
LINE
  5
1F3
  8
0
  6
CONTINUOUS
 62
     3
 10
-107.47087
 20
-17.323624
 30
0.0
 11
-107.63184
 21
-17.094151
 31
0.0
  0
LINE
  5
1F4
  8
0
  6
CONTINUOUS
 62
     3
 10
-107.36383
 20
-17.467728
 30
0.0
 11
-107.47088
 21
-17.323629
 31
0.0
  0
LINE
  5
1F5
  8
0
  6
CONTINUOUS
 62
     3
 10
-107.32066
 20
-17.513096
 30
0.0
 11
-107.36383
 21
-17.467722
 31
0.0
  0
LINE
  5
1F6
  8
0
  6
CONTINUOUS
 62
     3
 10
-176.39989
 20
25.029018
 30
0.0
 11
-176.46545
 21
25.021309
 31
0.0
  0
LINE
  5
1F7
  8
0
  6
CONTINUOUS
 62
     3
 10
-176.21089
 20
25.02878
 30
0.0
 11
-176.39989
 21
25.029016
 31
0.0
  0
LINE
  5
1F8
  8
0
  6
CONTINUOUS
 62
     3
 10
-175.91692
 20
25.020632
 30
0.0
 11
-176.21089
 21
25.02878
 31
0.0
  0
LINE
  5
1F9
  8
0
  6
CONTINUOUS
 62
     3
 10
-175.54668
 20
25.00535
 30
0.0
 11
-175.91692
 21
25.020632
 31
0.0
  0
LINE
  5
1FA
  8
0
  6
CONTINUOUS
 62
     3
 10
-175.13635
 20
24.984455
 30
0.0
 11
-175.54669
 21
25.00535
 31
0.0
  0
LINE
  5
1FB
  8
0
  6
CONTINUOUS
 62
     3
 10
-105.93388
 20
37.426414
 30
0.0
 11
-106.38914
 21
36.175591
 31
0.0
  0
LINE
  5
1FC
  8
0
  6
CONTINUOUS
 62
     3
 10
-105.93388
 20
-16.815722
 30
0.0
 11
-106.38914
 21
-15.564865
 31
0.0
  0
LINE
  5
1FD
  8
0
  6
CONTINUOUS
 62
     3
 10
-98.208595
 20
24.984453
 30
0.0
 11
-102.06321
 21
24.984453
 31
0.0
  0
LINE
  5
1FE
  8
0
  6
CONTINUOUS
 62
     3
 10
-175.13637
 20
24.984453
 30
0.0
 11
-171.28175
 21
24.984453
 31
0.0
  0
LINE
  5
1FF
  8
0
  6
CONTINUOUS
 62
     3
 10
-102.06321
 20
26.278858
 30
0.0
 11
-98.208595
 21
26.278858
 31
0.0
  0
LINE
  5
200
  8
0
  6
CONTINUOUS
 62
     3
 10
-175.13637
 20
26.278858
 30
0.0
 11
-171.28175
 21
26.278858
 31
0.0
  0
LINE
  5
201
  8
0
  6
CONTINUOUS
 62
     3
 10
-97.797226
 20
25.005383
 30
0.0
 11
-98.208595
 21
24.984453
 31
0.0
  0
LINE
  5
202
  8
0
  6
CONTINUOUS
 62
     3
 10
-97.42717
 20
25.020664
 30
0.0
 11
-97.797226
 21
25.005383
 31
0.0
  0
LINE
  5
203
  8
0
  6
CONTINUOUS
 62
     3
 10
-97.13369
 20
25.02878
 30
0.0
 11
-97.42717
 21
25.020664
 31
0.0
  0
LINE
  5
204
  8
0
  6
CONTINUOUS
 62
     3
 10
-96.944962
 20
25.029016
 30
0.0
 11
-97.133698
 21
25.02878
 31
0.0
  0
LINE
  5
205
  8
0
  6
CONTINUOUS
 62
     3
 10
-96.879509
 20
25.021309
 30
0.0
 11
-96.944969
 21
25.029016
 31
0.0
  0
LINE
  5
206
  8
0
  6
CONTINUOUS
 62
     3
 10
-107.90487
 20
29.6611
 30
0.0
 11
-108.05326
 21
30.989519
 31
0.0
  0
LINE
  5
207
  8
0
  6
CONTINUOUS
 62
     3
 10
-107.46117
 20
28.386307
 30
0.0
 11
-107.90487
 21
29.661102
 31
0.0
  0
LINE
  5
208
  8
0
  6
CONTINUOUS
 62
     3
 10
-106.74466
 20
27.243174
 30
0.0
 11
-107.46117
 21
28.386309
 31
0.0
  0
LINE
  5
209
  8
0
  6
CONTINUOUS
 62
     3
 10
-105.79153
 20
26.28944
 30
0.0
 11
-106.74466
 21
27.243174
 31
0.0
  0
LINE
  5
20A
  8
0
  6
CONTINUOUS
 62
     3
 10
-104.65189
 20
25.574141
 30
0.0
 11
-105.79154
 21
26.289438
 31
0.0
  0
LINE
  5
20B
  8
0
  6
CONTINUOUS
 62
     3
 10
-103.38331
 20
25.132071
 30
0.0
 11
-104.65188
 21
25.574144
 31
0.0
  0
LINE
  5
20C
  8
0
  6
CONTINUOUS
 62
     3
 10
-102.06321
 20
24.984453
 30
0.0
 11
-103.38331
 21
25.132071
 31
0.0
  0
LINE
  5
20D
  8
0
  6
CONTINUOUS
 62
     3
 10
-174.53108
 20
33.418407
 30
0.0
 11
-175.8571
 21
33.534546
 31
0.0
  0
LINE
  5
20E
  8
0
  6
CONTINUOUS
 62
     3
 10
-166.55766
 20
30.953781
 30
0.0
 11
-166.62282
 21
30.937786
 31
0.0
  0
LINE
  5
20F
  8
0
  6
CONTINUOUS
 62
     3
 10
-166.36859
 20
30.968184
 30
0.0
 11
-166.55766
 21
30.953781
 31
0.0
  0
LINE
  5
210
  8
0
  6
CONTINUOUS
 62
     3
 10
-166.0741
 20
30.979649
 30
0.0
 11
-166.36861
 21
30.968185
 31
0.0
  0
LINE
  5
211
  8
0
  6
CONTINUOUS
 62
     3
 10
-165.70303
 20
30.986982
 30
0.0
 11
-166.07411
 21
30.979647
 31
0.0
  0
LINE
  5
212
  8
0
  6
CONTINUOUS
 62
     3
 10
-165.29167
 20
30.989521
 30
0.0
 11
-165.70303
 21
30.986986
 31
0.0
  0
LINE
  5
213
  8
0
  6
CONTINUOUS
 62
     3
 10
-98.813873
 20
33.418407
 30
0.0
 11
-97.487823
 21
33.534546
 31
0.0
  0
LINE
  5
214
  8
0
  6
CONTINUOUS
 62
     3
 10
-165.44009
 20
29.661169
 30
0.0
 11
-165.29167
 21
30.989519
 31
0.0
  0
LINE
  5
215
  8
0
  6
CONTINUOUS
 62
     3
 10
-165.88373
 20
28.386408
 30
0.0
 11
-165.44009
 21
29.661169
 31
0.0
  0
LINE
  5
216
  8
0
  6
CONTINUOUS
 62
     3
 10
-166.60023
 20
27.243267
 30
0.0
 11
-165.88371
 21
28.38641
 31
0.0
  0
LINE
  5
217
  8
0
  6
CONTINUOUS
 62
     3
 10
-167.55331
 20
26.289511
 30
0.0
 11
-166.60023
 21
27.243271
 31
0.0
  0
LINE
  5
218
  8
0
  6
CONTINUOUS
 62
     3
 10
-168.69301
 20
25.574171
 30
0.0
 11
-167.55331
 21
26.289505
 31
0.0
  0
LINE
  5
219
  8
0
  6
CONTINUOUS
 62
     3
 10
-169.96161
 20
25.132107
 30
0.0
 11
-168.69301
 21
25.574183
 31
0.0
  0
LINE
  5
21A
  8
0
  6
CONTINUOUS
 62
     3
 10
-171.28175
 20
24.984457
 30
0.0
 11
-169.96161
 21
25.132109
 31
0.0
  0
LINE
  5
21B
  8
0
  6
CONTINUOUS
 62
     3
 10
-98.813873
 20
33.418404
 30
0.0
 11
-98.358612
 21
34.669262
 31
0.0
  0
LINE
  5
21C
  8
0
  6
CONTINUOUS
 62
     3
 10
-111.97428
 20
50.505367
 30
0.0
 11
-111.97428
 21
49.271652
 31
0.0
  0
LINE
  5
21D
  8
0
  6
CONTINUOUS
 62
     3
 10
-111.63103
 20
43.303406
 30
0.0
 11
-111.97428
 21
49.271652
 31
0.0
  0
LINE
  5
21E
  8
0
  6
CONTINUOUS
 62
     3
 10
-109.20584
 20
38.004982
 30
0.0
 11
-108.05327
 21
37.079346
 31
0.0
  0
LINE
  5
21F
  8
0
  6
CONTINUOUS
 62
     3
 10
-110.17474
 20
39.136047
 30
0.0
 11
-109.20583
 21
38.004982
 31
0.0
  0
LINE
  5
220
  8
0
  6
CONTINUOUS
 62
     3
 10
-110.9178
 20
40.427849
 30
0.0
 11
-110.17475
 21
39.136044
 31
0.0
  0
LINE
  5
221
  8
0
  6
CONTINUOUS
 62
     3
 10
-111.40941
 20
41.836945
 30
0.0
 11
-110.9178
 21
40.427853
 31
0.0
  0
LINE
  5
222
  8
0
  6
CONTINUOUS
 62
     3
 10
-111.63103
 20
43.30341
 30
0.0
 11
-111.4094
 21
41.836941
 31
0.0
  0
LINE
  5
223
  8
0
  6
CONTINUOUS
 62
     3
 10
-98.813873
 20
-12.807708
 30
0.0
 11
-98.358612
 21
-14.058531
 31
0.0
  0
LINE
  5
224
  8
0
  6
CONTINUOUS
 62
     3
 10
-107.64088
 20
-16.465342
 30
0.0
 11
-108.05326
 21
-16.468655
 31
0.0
  0
LINE
  5
225
  8
0
  6
CONTINUOUS
 62
     3
 10
-107.26997
 20
-16.455841
 30
0.0
 11
-107.64088
 21
-16.465342
 31
0.0
  0
LINE
  5
226
  8
0
  6
CONTINUOUS
 62
     3
 10
-106.97599
 20
-16.441032
 30
0.0
 11
-107.26997
 21
-16.455841
 31
0.0
  0
LINE
  5
227
  8
0
  6
CONTINUOUS
 62
     3
 10
-106.78719
 20
-16.422369
 30
0.0
 11
-106.97599
 21
-16.441032
 31
0.0
  0
LINE
  5
228
  8
0
  6
CONTINUOUS
 62
     3
 10
-106.72214
 20
-16.401709
 30
0.0
 11
-106.78719
 21
-16.422367
 31
0.0
  0
LINE
  5
229
  8
0
  6
CONTINUOUS
 62
     3
 10
-98.813873
 20
-12.807711
 30
0.0
 11
-106.38914
 21
-15.564864
 31
0.0
  0
LINE
  5
22A
  8
0
  6
CONTINUOUS
 62
     3
 10
-98.35862
 20
-14.058536
 30
0.0
 11
-105.93388
 21
-16.815722
 31
0.0
  0
LINE
  5
22B
  8
0
  6
CONTINUOUS
 62
     3
 10
-109.20583
 20
-17.394258
 30
0.0
 11
-108.05327
 21
-16.468658
 31
0.0
  0
LINE
  5
22C
  8
0
  6
CONTINUOUS
 62
     3
 10
-110.17471
 20
-18.52532
 30
0.0
 11
-109.20583
 21
-17.394251
 31
0.0
  0
LINE
  5
22D
  8
0
  6
CONTINUOUS
 62
     3
 10
-110.91776
 20
-19.817085
 30
0.0
 11
-110.17471
 21
-18.525324
 31
0.0
  0
LINE
  5
22E
  8
0
  6
CONTINUOUS
 62
     3
 10
-111.40941
 20
-21.226208
 30
0.0
 11
-110.91777
 21
-19.817085
 31
0.0
  0
LINE
  5
22F
  8
0
  6
CONTINUOUS
 62
     3
 10
-111.63103
 20
-22.692711
 30
0.0
 11
-111.40941
 21
-21.22621
 31
0.0
  0
LINE
  5
230
  8
0
  6
CONTINUOUS
 62
     3
 10
-108.05326
 20
-10.378792
 30
0.0
 11
-108.05326
 21
-16.468655
 31
0.0
  0
LINE
  5
231
  8
0
  6
CONTINUOUS
 62
     3
 10
-108.05326
 20
30.989519
 30
0.0
 11
-108.05326
 21
37.07935
 31
0.0
  0
LINE
  5
232
  8
0
  6
CONTINUOUS
 62
     3
 10
-106.72214
 20
-10.327096
 30
0.0
 11
-106.72214
 21
-16.401711
 31
0.0
  0
LINE
  5
233
  8
0
  6
CONTINUOUS
 62
     3
 10
-106.72214
 20
30.93779
 30
0.0
 11
-106.72214
 21
37.01244
 31
0.0
  0
LINE
  5
234
  8
0
  6
CONTINUOUS
 62
     3
 10
-110.30211
 20
43.297558
 30
0.0
 11
-110.64535
 21
49.250862
 31
0.0
  0
LINE
  5
235
  8
0
  6
CONTINUOUS
 62
     3
 10
-107.64192
 20
30.986984
 30
0.0
 11
-108.05326
 21
30.989519
 31
0.0
  0
LINE
  5
236
  8
0
  6
CONTINUOUS
 62
     3
 10
-107.27085
 20
30.979649
 30
0.0
 11
-107.64192
 21
30.986986
 31
0.0
  0
LINE
  5
237
  8
0
  6
CONTINUOUS
 62
     3
 10
-106.97636
 20
30.968187
 30
0.0
 11
-107.27085
 21
30.979649
 31
0.0
  0
LINE
  5
238
  8
0
  6
CONTINUOUS
 62
     3
 10
-106.78729
 20
30.953783
 30
0.0
 11
-106.97636
 21
30.968185
 31
0.0
  0
LINE
  5
239
  8
0
  6
CONTINUOUS
 62
     3
 10
-106.72214
 20
30.93779
 30
0.0
 11
-106.78729
 21
30.953783
 31
0.0
  0
LINE
  5
23A
  8
0
  6
CONTINUOUS
 62
     3
 10
-111.22125
 20
-22.712219
 30
0.0
 11
-111.63103
 21
-22.692711
 31
0.0
  0
LINE
  5
23B
  8
0
  6
CONTINUOUS
 62
     3
 10
-110.85143
 20
-22.72179
 30
0.0
 11
-111.22124
 21
-22.712221
 31
0.0
  0
LINE
  5
23C
  8
0
  6
CONTINUOUS
 62
     3
 10
-110.55758
 20
-22.720505
 30
0.0
 11
-110.85143
 21
-22.721788
 31
0.0
  0
LINE
  5
23D
  8
0
  6
CONTINUOUS
 62
     3
 10
-110.36831
 20
-22.708467
 30
0.0
 11
-110.55758
 21
-22.720505
 31
0.0
  0
LINE
  5
23E
  8
0
  6
CONTINUOUS
 62
     3
 10
-110.30211
 20
-22.686829
 30
0.0
 11
-110.36831
 21
-22.708467
 31
0.0
  0
LINE
  5
23F
  8
0
  6
CONTINUOUS
 62
     3
 10
-102.06321
 20
-4.373726
 30
0.0
 11
-102.06321
 21
-5.668165
 31
0.0
  0
LINE
  5
240
  8
0
  6
CONTINUOUS
 62
     3
 10
-102.06321
 20
26.278858
 30
0.0
 11
-102.06321
 21
24.984453
 31
0.0
  0
LINE
  5
241
  8
0
  6
CONTINUOUS
 62
     3
 10
-97.848618
 20
15.201189
 30
0.0
 11
-98.208603
 21
24.984453
 31
0.0
  0
LINE
  5
242
  8
0
  6
CONTINUOUS
 62
     3
 10
-97.848618
 20
5.409505
 30
0.0
 11
-97.848618
 21
15.201189
 31
0.0
  0
LINE
  5
243
  8
0
  6
CONTINUOUS
 62
     3
 10
-98.208595
 20
-4.373726
 30
0.0
 11
-97.848618
 21
5.409505
 31
0.0
  0
LINE
  5
244
  8
0
  6
CONTINUOUS
 62
     3
 10
-98.208595
 20
26.278858
 30
0.0
 11
-98.208595
 21
24.984453
 31
0.0
  0
LINE
  5
245
  8
0
  6
CONTINUOUS
 62
     3
 10
-98.208595
 20
-5.668165
 30
0.0
 11
-98.208595
 21
-4.373726
 31
0.0
  0
LINE
  5
246
  8
0
  6
CONTINUOUS
 62
     3
 10
-98.813873
 20
33.418404
 30
0.0
 11
-106.38914
 21
36.175591
 31
0.0
  0
LINE
  5
247
  8
0
  6
CONTINUOUS
 62
     3
 10
-105.93388
 20
37.426414
 30
0.0
 11
-98.35862
 21
34.669262
 31
0.0
  0
LINE
  5
248
  8
0
  6
CONTINUOUS
 62
     3
 10
-107.64192
 20
37.076069
 30
0.0
 11
-108.05327
 21
37.07935
 31
0.0
  0
LINE
  5
249
  8
0
  6
CONTINUOUS
 62
     3
 10
-107.27085
 20
37.06657
 30
0.0
 11
-107.64192
 21
37.076073
 31
0.0
  0
LINE
  5
24A
  8
0
  6
CONTINUOUS
 62
     3
 10
-106.97636
 20
37.051762
 30
0.0
 11
-107.27086
 21
37.06657
 31
0.0
  0
LINE
  5
24B
  8
0
  6
CONTINUOUS
 62
     3
 10
-106.78729
 20
37.033096
 30
0.0
 11
-106.97636
 21
37.051762
 31
0.0
  0
LINE
  5
24C
  8
0
  6
CONTINUOUS
 62
     3
 10
-106.72215
 20
37.01244
 30
0.0
 11
-106.7873
 21
37.033096
 31
0.0
  0
LINE
  5
24D
  8
0
  6
CONTINUOUS
 62
     3
 10
-96.879501
 20
25.021307
 30
0.0
 11
-97.487823
 21
33.534542
 31
0.0
  0
LINE
  5
24E
  8
0
  6
CONTINUOUS
 62
     3
 10
-111.22125
 20
43.322952
 30
0.0
 11
-111.63103
 21
43.30341
 31
0.0
  0
LINE
  5
24F
  8
0
  6
CONTINUOUS
 62
     3
 10
-110.85143
 20
43.33252
 30
0.0
 11
-111.22125
 21
43.322948
 31
0.0
  0
LINE
  5
250
  8
0
  6
CONTINUOUS
 62
     3
 10
-110.55759
 20
43.3312
 30
0.0
 11
-110.85143
 21
43.33252
 31
0.0
  0
LINE
  5
251
  8
0
  6
CONTINUOUS
 62
     3
 10
-110.36831
 20
43.319164
 30
0.0
 11
-110.55758
 21
43.3312
 31
0.0
  0
LINE
  5
252
  8
0
  6
CONTINUOUS
 62
     3
 10
-110.30211
 20
43.297558
 30
0.0
 11
-110.36831
 21
43.319164
 31
0.0
  0
LINE
  5
253
  8
0
  6
CONTINUOUS
 62
     3
 10
-111.97428
 20
49.271652
 30
0.0
 11
-161.37065
 21
49.271652
 31
0.0
  0
LINE
  5
254
  8
0
  6
CONTINUOUS
 62
     3
 10
-161.37065
 20
50.505367
 30
0.0
 11
-111.97428
 21
50.505367
 31
0.0
  0
LINE
  5
255
  8
0
  6
CONTINUOUS
 62
     3
 10
-111.56365
 20
49.290417
 30
0.0
 11
-111.97427
 21
49.271652
 31
0.0
  0
LINE
  5
256
  8
0
  6
CONTINUOUS
 62
     3
 10
-111.1941
 20
49.297821
 30
0.0
 11
-111.56364
 21
49.290417
 31
0.0
  0
LINE
  5
257
  8
0
  6
CONTINUOUS
 62
     3
 10
-110.90076
 20
49.293224
 30
0.0
 11
-111.1941
 21
49.297821
 31
0.0
  0
LINE
  5
258
  8
0
  6
CONTINUOUS
 62
     3
 10
-110.71169
 20
49.277031
 30
0.0
 11
-110.90076
 21
49.293224
 31
0.0
  0
LINE
  5
259
  8
0
  6
CONTINUOUS
 62
     3
 10
-110.64535
 20
49.250858
 30
0.0
 11
-110.71169
 21
49.277027
 31
0.0
  0
LINE
  5
25A
  8
0
  6
CENTER
 62
     4
 10
-171.28175
 20
26.012629
 30
0.0
 11
-171.28175
 21
35.862949
 31
0.0
  0
LINE
  5
25B
  8
0
  6
CENTER
 62
     4
 10
-51.633003
 20
-46.321571
 30
0.0
 11
-51.633003
 21
-37.663769
 31
0.0
  0
LINE
  5
25C
  8
0
  6
CONTINUOUS
 62
     3
 10
-169.87248
 20
-29.89464
 30
0.0
 11
-118.7989
 21
-29.89464
 31
0.0
  0
LINE
  5
25D
  8
0
  6
CONTINUOUS
 62
     3
 10
-55.133003
 20
-39.694653
 30
0.0
 11
-55.133003
 21
-45.150021
 31
0.0
  0
LINE
  5
25E
  8
0
  6
CONTINUOUS
 62
     3
 10
-48.133003
 20
-39.694645
 30
0.0
 11
-48.133003
 21
-45.150021
 31
0.0
  0
LINE
  5
25F
  8
0
  6
CONTINUOUS
 62
     3
 10
-43.237545
 20
-29.894653
 30
0.0
 11
-50.033009
 21
-29.894653
 31
0.0
  0
LINE
  5
260
  8
0
  6
CONTINUOUS
 62
     3
 10
13.766997
 20
17.305347
 30
0.0
 11
37.266998
 21
17.305347
 31
0.0
  0
LINE
  5
261
  8
0
  6
CONTINUOUS
 62
     3
 10
-67.448952
 20
-29.894653
 30
0.0
 11
-58.321289
 21
-29.894653
 31
0.0
  0
LINE
  5
262
  8
0
  6
CONTINUOUS
 62
     3
 10
7.266997
 20
-24.694653
 30
0.0
 11
10.266997
 21
-24.694653
 31
0.0
  0
LINE
  5
263
  8
0
  6
CONTINUOUS
 62
     3
 10
10.266997
 20
-17.694653
 30
0.0
 11
13.766997
 21
-17.694653
 31
0.0
  0
LINE
  5
264
  8
0
  6
CONTINUOUS
 62
     3
 10
37.266998
 20
3.305347
 30
0.0
 11
37.266998
 21
17.305347
 31
0.0
  0
LINE
  5
265
  8
0
  6
CONTINUOUS
 62
     3
 10
13.766997
 20
3.305347
 30
0.0
 11
37.266998
 21
3.305347
 31
0.0
  0
LINE
  5
266
  8
0
  6
CONTINUOUS
 62
     3
 10
-2.133003
 20
-29.894653
 30
0.0
 11
-2.133003
 21
10.305347
 31
0.0
  0
LINE
  5
267
  8
0
  6
CONTINUOUS
 62
     3
 10
10.266997
 20
-24.694653
 30
0.0
 11
10.266997
 21
38.305347
 31
0.0
  0
LINE
  5
268
  8
0
  6
CONTINUOUS
 62
     3
 10
7.266997
 20
-29.894653
 30
0.0
 11
7.266997
 21
45.305347
 31
0.0
  0
LINE
  5
269
  8
0
  6
CONTINUOUS
 62
     3
 10
7.266997
 20
45.305347
 30
0.0
 11
10.266997
 21
45.305347
 31
0.0
  0
LINE
  5
26A
  8
0
  6
CONTINUOUS
 62
     3
 10
7.266997
 20
50.505348
 30
0.0
 11
-30.233004
 21
50.505348
 31
0.0
  0
LINE
  5
26B
  8
0
  6
CONTINUOUS
 62
     3
 10
-30.233004
 20
50.505348
 30
0.0
 11
-67.448952
 21
50.505348
 31
0.0
  0
LINE
  5
26C
  8
0
  6
CONTINUOUS
 62
     3
 10
10.266997
 20
38.305347
 30
0.0
 11
13.766997
 21
38.305347
 31
0.0
  0
LINE
  5
26D
  8
0
  6
CONTINUOUS
 62
     3
 10
-42.433002
 20
-29.894653
 30
0.0
 11
-42.433002
 21
50.505348
 31
0.0
  0
LINE
  5
26E
  8
0
  6
CONTINUOUS
 62
     3
 10
13.766997
 20
-17.694653
 30
0.0
 11
13.766997
 21
38.305347
 31
0.0
  0
LINE
  5
26F
  8
0
  6
CONTINUOUS
 62
     3
 10
-2.133003
 20
10.305347
 30
0.0
 11
-2.133003
 21
50.505348
 31
0.0
  0
LINE
  5
270
  8
0
  6
CONTINUOUS
 62
     3
 10
10.266997
 20
38.305347
 30
0.0
 11
10.266997
 21
45.305347
 31
0.0
  0
LINE
  5
271
  8
0
  6
CONTINUOUS
 62
     3
 10
7.266997
 20
45.305347
 30
0.0
 11
7.266997
 21
50.505348
 31
0.0
  0
LINE
  5
272
  8
0
  6
CENTER
 62
     4
 10
84.000999
 20
10.305347
 30
0.0
 11
171.07526
 21
10.305347
 31
0.0
  0
LINE
  5
273
  8
0
  6
CONTINUOUS
 62
     3
 10
96.066994
 20
50.505348
 30
0.0
 11
162.467
 21
50.505348
 31
0.0
  0
LINE
  5
274
  8
0
  6
CONTINUOUS
 62
     3
 10
96.066994
 20
-29.894653
 30
0.0
 11
162.467
 21
-29.894653
 31
0.0
  0
LINE
  5
275
  8
0
  6
CONTINUOUS
 62
     3
 10
89.066994
 20
-22.894653
 30
0.0
 11
89.066994
 21
43.505348
 31
0.0
  0
LINE
  5
276
  8
0
  6
CONTINUOUS
 62
     3
 10
169.467
 20
-22.894653
 30
0.0
 11
169.467
 21
43.505348
 31
0.0
  0
LINE
  5
277
  8
0
  6
CENTER
 62
     4
 10
156.88562
 20
37.923965
 30
0.0
 11
165.35893
 21
46.397278
 31
0.0
  0
LINE
  5
278
  8
0
  6
CENTER
 62
     4
 10
92.904381
 20
46.667965
 30
0.0
 11
102.31786
 21
37.254478
 31
0.0
  0
LINE
  5
279
  8
0
  6
CENTER
 62
     4
 10
92.788528
 20
-26.173126
 30
0.0
 11
102.31262
 21
-16.649033
 31
0.0
  0
LINE
  5
27A
  8
0
  6
CENTER
 62
     4
 10
156.55904
 20
-16.986689
 30
0.0
 11
166.13843
 21
-26.566084
 31
0.0
  0
LINE
  5
27B
  8
0
  6
CENTER
 62
     4
 10
129.267
 20
-52.855141
 30
0.0
 11
129.267
 21
55.993248
 31
0.0
  0
LINE
  5
27C
  8
0
  6
CONTINUOUS
 62
     3
 10
-140.17247
 20
-53.003708
 30
0.0
 11
-140.17247
 21
-47.548332
 31
0.0
  0
LINE
  5
27D
  8
0
  6
CONTINUOUS
 62
     3
 10
-133.17247
 20
-53.203728
 30
0.0
 11
-133.17247
 21
-47.548332
 31
0.0
  0
LINE
  5
27E
  8
0
  6
CENTER
 62
     4
 10
-136.67249
 20
-61.154896
 30
0.0
 11
-136.67249
 21
-45.317913
 31
0.0
  0
LINE
  5
27F
  8
0
  6
CONTINUOUS
 62
     3
 10
-55.133003
 20
-53.103718
 30
0.0
 11
-55.133003
 21
-47.648342
 31
0.0
  0
LINE
  5
280
  8
0
  6
CONTINUOUS
 62
     3
 10
-48.133003
 20
-53.303738
 30
0.0
 11
-48.132999
 21
-47.648346
 31
0.0
  0
LINE
  5
281
  8
0
  6
CENTER
 62
     4
 10
-51.633003
 20
-62.332802
 30
0.0
 11
-51.633003
 21
-46.321571
 31
0.0
  0
LINE
  5
282
  8
0
  6
CONTINUOUS
 62
     3
 10
-141.92249
 20
-73.439323
 30
0.0
 11
-141.92249
 21
-68.564323
 31
0.0
  0
LINE
  5
283
  8
0
  6
CONTINUOUS
 62
     3
 10
-131.42249
 20
-73.439323
 30
0.0
 11
-131.42249
 21
-68.564323
 31
0.0
  0
LINE
  5
284
  8
0
  6
CONTINUOUS
 62
     3
 10
-134.66019
 20
-78.314323
 30
0.0
 11
-132.17249
 21
-78.314323
 31
0.0
  0
LINE
  5
285
  8
0
  6
CONTINUOUS
 62
     3
 10
-137.93649
 20
-78.314323
 30
0.0
 11
-135.41019
 21
-78.314323
 31
0.0
  0
LINE
  5
286
  8
0
  6
CONTINUOUS
 62
     3
 10
-137.94748
 20
-78.314323
 30
0.0
 11
-137.94748
 21
-73.439323
 31
0.0
  0
LINE
  5
287
  8
0
  6
CONTINUOUS
 62
     3
 10
-138.62248
 20
-78.314323
 30
0.0
 11
-138.62248
 21
-73.439323
 31
0.0
  0
LINE
  5
288
  8
0
  6
CONTINUOUS
 62
     3
 10
-134.72247
 20
-78.314323
 30
0.0
 11
-134.72247
 21
-73.439323
 31
0.0
  0
LINE
  5
289
  8
0
  6
CONTINUOUS
 62
     3
 10
-132.17249
 20
-78.314323
 30
0.0
 11
-132.17249
 21
-73.439323
 31
0.0
  0
LINE
  5
28A
  8
0
  6
CONTINUOUS
 62
     3
 10
-141.17249
 20
-78.314323
 30
0.0
 11
-141.17249
 21
-73.439323
 31
0.0
  0
LINE
  5
28B
  8
0
  6
CONTINUOUS
 62
     3
 10
-141.17249
 20
-78.314323
 30
0.0
 11
-138.68649
 21
-78.314323
 31
0.0
  0
LINE
  5
28C
  8
0
  6
CONTINUOUS
 62
     3
 10
-131.42249
 20
-73.439323
 30
0.0
 11
-141.92249
 21
-73.439323
 31
0.0
  0
LINE
  5
28D
  8
0
  6
CONTINUOUS
 62
     3
 10
-143.34747
 20
-68.564323
 30
0.0
 11
-129.99748
 21
-68.564323
 31
0.0
  0
LINE
  5
28E
  8
0
  6
CONTINUOUS
 62
     3
 10
-143.2028
 20
-64.641869
 30
0.0
 11
-141.01715
 21
-62.456215
 31
0.0
  0
LINE
  5
28F
  8
0
  6
CONTINUOUS
 62
     3
 10
-130.14215
 20
-64.641876
 30
0.0
 11
-132.32782
 21
-62.456215
 31
0.0
  0
LINE
  5
290
  8
0
  6
CONTINUOUS
 62
     3
 10
-132.54749
 20
-61.925884
 30
0.0
 11
-132.54749
 21
-53.853718
 31
0.0
  0
LINE
  5
291
  8
0
  6
CONTINUOUS
 62
     3
 10
-140.79749
 20
-53.853718
 30
0.0
 11
-140.79749
 21
-61.925884
 31
0.0
  0
LINE
  5
292
  8
0
  6
CONTINUOUS
 62
     3
 10
-129.92249
 20
-68.489326
 30
0.0
 11
-129.92249
 21
-65.172203
 31
0.0
  0
LINE
  5
293
  8
0
  6
CONTINUOUS
 62
     3
 10
-143.42249
 20
-68.489326
 30
0.0
 11
-143.42249
 21
-65.172203
 31
0.0
  0
LINE
  5
294
  8
0
  6
CONTINUOUS
 62
     3
 10
-133.29749
 20
-53.103718
 30
0.0
 11
-140.04749
 21
-53.103718
 31
0.0
  0
LINE
  5
295
  8
0
  6
CONTINUOUS
 62
     3
 10
-44.883003
 20
-62.332802
 30
0.0
 11
-58.383003
 21
-62.332802
 31
0.0
  0
LINE
  5
296
  8
0
  6
CONTINUOUS
 62
     3
 10
-44.883003
 20
-65.03286
 30
0.0
 11
-58.383003
 21
-65.03286
 31
0.0
  0
LINE
  5
297
  8
0
  6
CONTINUOUS
 62
     3
 10
-44.883003
 20
-53.203728
 30
0.0
 11
-58.383003
 21
-53.203728
 31
0.0
  0
LINE
  5
298
  8
0
  6
CONTINUOUS
 62
     3
 10
-44.883003
 20
-68.664337
 30
0.0
 11
-58.383003
 21
-68.664337
 31
0.0
  0
LINE
  5
299
  8
0
  6
CONTINUOUS
 62
     3
 10
-44.883003
 20
-68.664337
 30
0.0
 11
-44.883003
 21
-53.203728
 31
0.0
  0
LINE
  5
29A
  8
0
  6
CONTINUOUS
 62
     3
 10
-58.383003
 20
-68.664337
 30
0.0
 11
-58.383003
 21
-53.203728
 31
0.0
  0
LINE
  5
29B
  8
0
  6
CONTINUOUS
 62
     3
 10
-56.883003
 20
-73.539337
 30
0.0
 11
-56.883003
 21
-68.664337
 31
0.0
  0
LINE
  5
29C
  8
0
  6
CONTINUOUS
 62
     3
 10
-46.383003
 20
-73.539337
 30
0.0
 11
-46.383003
 21
-68.664337
 31
0.0
  0
LINE
  5
29D
  8
0
  6
CONTINUOUS
 62
     3
 10
-48.258003
 20
-53.203728
 30
0.0
 11
-55.008003
 21
-53.203728
 31
0.0
  0
LINE
  5
29E
  8
0
  6
CONTINUOUS
 62
     3
 10
-49.620716
 20
-78.414337
 30
0.0
 11
-47.305504
 21
-78.414337
 31
0.0
  0
LINE
  5
29F
  8
0
  6
CONTINUOUS
 62
     3
 10
-47.305504
 20
-78.414337
 30
0.0
 11
-47.305504
 21
-73.539337
 31
0.0
  0
LINE
  5
2A0
  8
0
  6
CONTINUOUS
 62
     3
 10
-49.683002
 20
-78.414337
 30
0.0
 11
-49.683002
 21
-73.539337
 31
0.0
  0
LINE
  5
2A1
  8
0
  6
CONTINUOUS
 62
     3
 10
-50.358002
 20
-78.414337
 30
0.0
 11
-50.358002
 21
-73.539337
 31
0.0
  0
LINE
  5
2A2
  8
0
  6
CONTINUOUS
 62
     3
 10
-52.908005
 20
-78.414337
 30
0.0
 11
-52.908005
 21
-73.539337
 31
0.0
  0
LINE
  5
2A3
  8
0
  6
CONTINUOUS
 62
     3
 10
-53.583004
 20
-78.414337
 30
0.0
 11
-53.583004
 21
-73.539337
 31
0.0
  0
LINE
  5
2A4
  8
0
  6
CONTINUOUS
 62
     3
 10
-56.133003
 20
-78.414337
 30
0.0
 11
-53.647018
 21
-78.414337
 31
0.0
  0
LINE
  5
2A5
  8
0
  6
CONTINUOUS
 62
     3
 10
-52.897018
 20
-78.414337
 30
0.0
 11
-50.370716
 21
-78.414337
 31
0.0
  0
LINE
  5
2A6
  8
0
  6
CONTINUOUS
 62
     3
 10
-56.133003
 20
-78.414337
 30
0.0
 11
-56.133003
 21
-73.539337
 31
0.0
  0
LINE
  5
2A7
  8
0
  6
CONTINUOUS
 62
     3
 10
-46.383003
 20
-73.539337
 30
0.0
 11
-56.883003
 21
-73.539337
 31
0.0
  0
LINE
  5
2A8
  8
0
  6
CONTINUOUS
 62
     3
 10
-42.433002
 20
-31.894653
 30
0.0
 11
-29.433002
 21
-31.894653
 31
0.0
  0
LINE
  5
2A9
  8
0
  6
CONTINUOUS
 62
     3
 10
-40.483002
 20
-44.694653
 30
0.0
 11
-32.583004
 21
-44.694653
 31
0.0
  0
LINE
  5
2AA
  8
0
  6
CONTINUOUS
 62
     3
 10
-41.483002
 20
-43.694653
 30
0.0
 11
-31.583002
 21
-43.694653
 31
0.0
  0
LINE
  5
2AB
  8
0
  6
CONTINUOUS
 62
     3
 10
-41.483002
 20
-34.094654
 30
0.0
 11
-31.583002
 21
-34.094654
 31
0.0
  0
LINE
  5
2AC
  8
0
  6
CONTINUOUS
 62
     3
 10
-40.433002
 20
-34.094654
 30
0.0
 11
-40.433002
 21
-31.894653
 31
0.0
  0
LINE
  5
2AD
  8
0
  6
CONTINUOUS
 62
     3
 10
-32.633003
 20
-34.094654
 30
0.0
 11
-32.633003
 21
-31.894653
 31
0.0
  0
LINE
  5
2AE
  8
0
  6
CONTINUOUS
 62
     3
 10
-41.483002
 20
-43.694653
 30
0.0
 11
-41.483002
 21
-34.094654
 31
0.0
  0
LINE
  5
2AF
  8
0
  6
CONTINUOUS
 62
     3
 10
-31.583002
 20
-43.694653
 30
0.0
 11
-31.583002
 21
-34.094654
 31
0.0
  0
LINE
  5
2B0
  8
0
  6
CONTINUOUS
 62
     3
 10
-42.433002
 20
-29.894653
 30
0.0
 11
-42.433002
 21
-31.894653
 31
0.0
  0
LINE
  5
2B1
  8
0
  6
CONTINUOUS
 62
     3
 10
-29.433002
 20
-29.894653
 30
0.0
 11
-29.433002
 21
-31.894653
 31
0.0
  0
LINE
  5
2B2
  8
0
  6
CONTINUOUS
 62
     3
 10
-35.393002
 20
-44.694653
 30
0.0
 11
-35.393002
 21
-47.628262
 31
0.0
  0
LINE
  5
2B3
  8
0
  6
CENTER
 62
     4
 10
-36.533005
 20
-48.73243
 30
0.0
 11
-36.532993
 21
-27.562754
 31
0.0
  0
LINE
  5
2B4
  8
0
  6
CONTINUOUS
 62
     3
 10
-37.673004
 20
-44.694653
 30
0.0
 11
-37.673
 21
-47.622555
 31
0.0
  0
LINE
  5
2B5
  8
0
  6
CONTINUOUS
 62
     3
 10
142.78148
 20
-38.86795
 30
0.0
 11
142.72926
 21
-38.888599
 31
0.0
  0
LINE
  5
2B6
  8
0
  6
CONTINUOUS
 62
     3
 10
144.36383
 20
-29.893957
 30
0.0
 11
142.78148
 21
-38.867954
 31
0.0
  0
LINE
  5
2B7
  8
0
  6
CONTINUOUS
 62
     3
 10
141.79668
 20
-39.69429
 30
0.0
 11
139.267
 21
-39.69429
 31
0.0
  0
LINE
  5
2B8
  8
0
  6
CONTINUOUS
 62
     3
 10
116.73733
 20
-39.69429
 30
0.0
 11
119.267
 21
-39.69429
 31
0.0
  0
LINE
  5
2B9
  8
0
  6
CONTINUOUS
 62
     3
 10
114.17017
 20
-29.893955
 30
0.0
 11
115.75252
 21
-38.867954
 31
0.0
  0
LINE
  5
2BA
  8
0
  6
CONTINUOUS
 62
     3
 10
115.75252
 20
-38.867954
 30
0.0
 11
115.80473
 21
-38.888603
 31
0.0
  0
LINE
  5
2BB
  8
0
  6
CENTER
 62
     4
 10
129.267
 20
-52.380814
 30
0.0
 11
129.267
 21
55.993248
 31
0.0
  0
LINE
  5
2BC
  8
0
  6
CONTINUOUS
 62
     3
 10
125.767
 20
-53.203728
 30
0.0
 11
125.767
 21
-50.011894
 31
0.0
  0
LINE
  5
2BD
  8
0
  6
CONTINUOUS
 62
     3
 10
132.767
 20
-53.203728
 30
0.0
 11
132.767
 21
-50.011894
 31
0.0
  0
LINE
  5
2BE
  8
0
  6
CENTER
 62
     4
 10
129.267
 20
-80.079559
 30
0.0
 11
129.267
 21
-52.855141
 31
0.0
  0
LINE
  5
2BF
  8
0
  6
CONTINUOUS
 62
     3
 10
123.90717
 20
-73.539337
 30
0.0
 11
123.90717
 21
-68.664337
 31
0.0
  0
LINE
  5
2C0
  8
0
  6
CONTINUOUS
 62
     3
 10
134.40717
 20
-73.539337
 30
0.0
 11
134.40717
 21
-68.664337
 31
0.0
  0
LINE
  5
2C1
  8
0
  6
CONTINUOUS
 62
     3
 10
124.65717
 20
-78.414337
 30
0.0
 11
124.65717
 21
-73.539337
 31
0.0
  0
LINE
  5
2C2
  8
0
  6
CONTINUOUS
 62
     3
 10
124.65717
 20
-78.414337
 30
0.0
 11
127.14314
 21
-78.414337
 31
0.0
  0
LINE
  5
2C3
  8
0
  6
CONTINUOUS
 62
     3
 10
127.20716
 20
-78.414337
 30
0.0
 11
127.20716
 21
-73.539337
 31
0.0
  0
LINE
  5
2C4
  8
0
  6
CONTINUOUS
 62
     3
 10
127.88216
 20
-78.414337
 30
0.0
 11
127.88216
 21
-73.539337
 31
0.0
  0
LINE
  5
2C5
  8
0
  6
CONTINUOUS
 62
     3
 10
133.65717
 20
-78.414337
 30
0.0
 11
133.65717
 21
-73.539337
 31
0.0
  0
LINE
  5
2C6
  8
0
  6
CONTINUOUS
 62
     3
 10
122.40717
 20
-68.589333
 30
0.0
 11
122.40717
 21
-65.272217
 31
0.0
  0
LINE
  5
2C7
  8
0
  6
CONTINUOUS
 62
     3
 10
122.62683
 20
-64.74189
 30
0.0
 11
124.81249
 21
-62.556229
 31
0.0
  0
LINE
  5
2C8
  8
0
  6
CONTINUOUS
 62
     3
 10
135.68748
 20
-64.741882
 30
0.0
 11
133.50183
 21
-62.556221
 31
0.0
  0
LINE
  5
2C9
  8
0
  6
CONTINUOUS
 62
     3
 10
135.90717
 20
-68.589333
 30
0.0
 11
135.90717
 21
-65.272217
 31
0.0
  0
LINE
  5
2CA
  8
0
  6
CONTINUOUS
 62
     3
 10
134.40717
 20
-73.539337
 30
0.0
 11
123.90717
 21
-73.539337
 31
0.0
  0
LINE
  5
2CB
  8
0
  6
CONTINUOUS
 62
     3
 10
127.89314
 20
-78.414337
 30
0.0
 11
130.41945
 21
-78.414337
 31
0.0
  0
LINE
  5
2CC
  8
0
  6
CONTINUOUS
 62
     3
 10
130.43216
 20
-78.414337
 30
0.0
 11
130.43216
 21
-73.539337
 31
0.0
  0
LINE
  5
2CD
  8
0
  6
CONTINUOUS
 62
     3
 10
131.10716
 20
-78.414337
 30
0.0
 11
131.10716
 21
-73.539337
 31
0.0
  0
LINE
  5
2CE
  8
0
  6
CONTINUOUS
 62
     3
 10
131.16945
 20
-78.414337
 30
0.0
 11
133.65717
 21
-78.414337
 31
0.0
  0
LINE
  5
2CF
  8
0
  6
CONTINUOUS
 62
     3
 10
133.28217
 20
-62.025894
 30
0.0
 11
133.28217
 21
-53.953728
 31
0.0
  0
LINE
  5
2D0
  8
0
  6
CONTINUOUS
 62
     3
 10
122.48216
 20
-68.664337
 30
0.0
 11
135.83217
 21
-68.664337
 31
0.0
  0
LINE
  5
2D1
  8
0
  6
CONTINUOUS
 62
     3
 10
125.03217
 20
-53.953728
 30
0.0
 11
125.03217
 21
-62.025894
 31
0.0
  0
LINE
  5
2D2
  8
0
  6
CONTINUOUS
 62
     3
 10
132.53217
 20
-53.203728
 30
0.0
 11
125.78217
 21
-53.203728
 31
0.0
  0
LINE
  5
2D3
  8
0
  6
CONTINUOUS
 62
     3
 10
117.267
 20
-31.894653
 30
0.0
 11
141.267
 21
-31.894653
 31
0.0
  0
LINE
  5
2D4
  8
0
  6
CONTINUOUS
 62
     3
 10
119.267
 20
-34.094654
 30
0.0
 11
139.267
 21
-34.094654
 31
0.0
  0
LINE
  5
2D5
  8
0
  6
CONTINUOUS
 62
     3
 10
120.267
 20
-44.694653
 30
0.0
 11
138.267
 21
-44.694653
 31
0.0
  0
LINE
  5
2D6
  8
0
  6
CONTINUOUS
 62
     3
 10
119.267
 20
-43.694653
 30
0.0
 11
139.267
 21
-43.694653
 31
0.0
  0
LINE
  5
2D7
  8
0
  6
CONTINUOUS
 62
     3
 10
117.267
 20
-31.894653
 30
0.0
 11
117.267
 21
-29.894653
 31
0.0
  0
LINE
  5
2D8
  8
0
  6
CONTINUOUS
 62
     3
 10
141.267
 20
-31.894653
 30
0.0
 11
141.267
 21
-29.894653
 31
0.0
  0
LINE
  5
2D9
  8
0
  6
CONTINUOUS
 62
     3
 10
138.267
 20
-34.094654
 30
0.0
 11
138.267
 21
-31.894653
 31
0.0
  0
LINE
  5
2DA
  8
0
  6
CONTINUOUS
 62
     3
 10
120.267
 20
-34.094654
 30
0.0
 11
120.267
 21
-31.894653
 31
0.0
  0
LINE
  5
2DB
  8
0
  6
CONTINUOUS
 62
     3
 10
139.267
 20
-43.694653
 30
0.0
 11
139.267
 21
-34.094654
 31
0.0
  0
LINE
  5
2DC
  8
0
  6
CONTINUOUS
 62
     3
 10
119.267
 20
-43.694653
 30
0.0
 11
119.267
 21
-34.094654
 31
0.0
  0
LINE
  5
2DD
  8
0
  6
CONTINUOUS
 62
     3
 10
122.127
 20
-44.694653
 30
0.0
 11
122.127
 21
-47.622555
 31
0.0
  0
LINE
  5
2DE
  8
0
  6
CONTINUOUS
 62
     3
 10
126.127
 20
-44.694653
 30
0.0
 11
126.127
 21
-47.622555
 31
0.0
  0
LINE
  5
2DF
  8
0
  6
CONTINUOUS
 62
     3
 10
128.407
 20
-44.694653
 30
0.0
 11
128.407
 21
-47.628262
 31
0.0
  0
LINE
  5
2E0
  8
0
  6
CONTINUOUS
 62
     3
 10
124.407
 20
-44.694653
 30
0.0
 11
124.407
 21
-47.628262
 31
0.0
  0
LINE
  5
2E1
  8
0
  6
CONTINUOUS
 62
     3
 10
132.407
 20
-44.694653
 30
0.0
 11
132.407
 21
-47.628262
 31
0.0
  0
LINE
  5
2E2
  8
0
  6
CONTINUOUS
 62
     3
 10
130.127
 20
-44.694653
 30
0.0
 11
130.127
 21
-47.622555
 31
0.0
  0
LINE
  5
2E3
  8
0
  6
CONTINUOUS
 62
     3
 10
134.127
 20
-44.694653
 30
0.0
 11
134.127
 21
-47.622555
 31
0.0
  0
LINE
  5
2E4
  8
0
  6
CONTINUOUS
 62
     3
 10
136.407
 20
-44.694653
 30
0.0
 11
136.407
 21
-47.628262
 31
0.0
  0
CIRCLE
  5
2E5
  8
0
  6
CONTINUOUS
 62
     3
 10
150.267
 20
45.305347
 30
0.0
 40
1.0
  0
CIRCLE
  5
2E6
  8
0
  6
CONTINUOUS
 62
     3
 10
150.267
 20
45.305347
 30
0.0
 40
1.5
  0
CIRCLE
  5
2E7
  8
0
  6
CONTINUOUS
 62
     3
 10
150.267
 20
-24.694653
 30
0.0
 40
1.0
  0
CIRCLE
  5
2E8
  8
0
  6
CONTINUOUS
 62
     3
 10
150.267
 20
-24.694653
 30
0.0
 40
1.5
  0
CIRCLE
  5
2E9
  8
0
  6
CONTINUOUS
 62
     3
 10
108.267
 20
45.305347
 30
0.0
 40
1.0
  0
CIRCLE
  5
2EA
  8
0
  6
CONTINUOUS
 62
     3
 10
108.267
 20
45.305347
 30
0.0
 40
1.5
  0
CIRCLE
  5
2EB
  8
0
  6
CONTINUOUS
 62
     3
 10
108.267
 20
-24.694653
 30
0.0
 40
1.0
  0
CIRCLE
  5
2EC
  8
0
  6
CONTINUOUS
 62
     3
 10
108.267
 20
-24.694653
 30
0.0
 40
1.5
  0
ARC
  5
2ED
  8
0
  6
CONTINUOUS
 62
     3
 10
-65.391953
 20
28.332327
 30
0.0
 40
0.5
 50
180.00001
 51
270.0
  0
ARC
  5
2EE
  8
0
  6
CONTINUOUS
 62
     3
 10
-65.391953
 20
33.332325
 30
0.0
 40
0.5
 50
90.000003
 51
180.00001
  0
ARC
  5
2EF
  8
0
  6
CONTINUOUS
 62
     3
 10
-65.391953
 20
-12.888399
 30
0.0
 40
0.5
 50
180.00001
 51
270.0
  0
ARC
  5
2F0
  8
0
  6
CONTINUOUS
 62
     3
 10
-65.391953
 20
-7.888399
 30
0.0
 40
0.5
 50
90.000003
 51
180.00001
  0
CIRCLE
  5
2F1
  8
0
  6
CONTINUOUS
 62
     3
 10
129.267
 20
10.305347
 30
0.0
 40
15.0
  0
ARC
  5
2F2
  8
0
  6
CONTINUOUS
 62
     3
 10
-60.364887
 20
-31.394653
 30
0.0
 40
1.5
 50
5.0
 51
90.000003
  0
ARC
  5
2F3
  8
0
  6
CONTINUOUS
 62
     3
 10
-57.216671
 20
-38.694653
 30
0.0
 40
1.0
 50
184.99999
 51
270.0
  0
ARC
  5
2F4
  8
0
  6
CONTINUOUS
 62
     3
 10
-44.133003
 20
-31.394653
 30
0.0
 40
1.5
 50
90.000003
 51
180.00001
  0
ARC
  5
2F5
  8
0
  6
CONTINUOUS
 62
     3
 10
-46.633003
 20
-38.694653
 30
0.0
 40
1.0
 50
270.0
 51
0.0
  0
ARC
  5
2F6
  8
0
  6
CONTINUOUS
 62
     3
 10
-67.448952
 20
49.505348
 30
0.0
 40
1.0
 50
90.000003
 51
176.24774
  0
ARC
  5
2F7
  8
0
  6
CONTINUOUS
 62
     3
 10
-119.14164
 20
-32.875011
 30
0.0
 40
3.95
 50
131.01618
 51
170.00031
  0
CIRCLE
  5
2F8
  8
0
  6
CONTINUOUS
 62
     3
 10
129.267
 20
10.305347
 30
0.0
 40
28.0
  0
ARC
  5
2F9
  8
0
  6
CONTINUOUS
 62
     3
 10
-154.20332
 20
-32.875011
 30
0.0
 40
3.95
 50
8.747687
 51
48.983818
  0
ARC
  5
2FA
  8
0
  6
CONTINUOUS
 62
     3
 10
-67.448952
 20
-28.894653
 30
0.0
 40
1.0
 50
183.75226
 51
270.0
  0
ARC
  5
2FB
  8
0
  6
CENTER
 62
     4
 10
-136.67249
 20
10.305347
 30
0.0
 40
45.0
 50
126.81247
 51
144.64285
  0
CIRCLE
  5
2FC
  8
0
  6
CONTINUOUS
 62
     3
 10
-168.49228
 20
42.125153
 30
0.0
 40
3.3
  0
ARC
  5
2FD
  8
0
  6
CONTINUOUS
 62
     3
 10
-169.87248
 20
43.505348
 30
0.0
 40
7.0
 50
90.000003
 51
180.00001
  0
ARC
  5
2FE
  8
0
  6
CENTER
 62
     4
 10
-136.67249
 20
10.305347
 30
0.0
 40
45.0
 50
36.948694
 51
52.918578
  0
CIRCLE
  5
2FF
  8
0
  6
CONTINUOUS
 62
     3
 10
-104.85268
 20
42.125153
 30
0.0
 40
3.3
  0
CIRCLE
  5
300
  8
0
  6
CONTINUOUS
 62
     3
 10
-104.85268
 20
42.125153
 30
0.0
 40
3.3
  0
ARC
  5
301
  8
0
  6
CONTINUOUS
 62
     3
 10
-103.47248
 20
43.505348
 30
0.0
 40
7.0
 50
0.0
 51
90.000003
  0
ARC
  5
302
  8
0
  6
CENTER
 62
     4
 10
-136.67249
 20
10.305347
 30
0.0
 40
45.0
 50
303.32771
 51
325.37911
  0
CIRCLE
  5
303
  8
0
  6
CONTINUOUS
 62
     3
 10
-104.85268
 20
-21.514458
 30
0.0
 40
3.3
  0
ARC
  5
304
  8
0
  6
CONTINUOUS
 62
     3
 10
-103.47248
 20
-22.894653
 30
0.0
 40
7.0
 50
270.0
 51
0.0
  0
ARC
  5
305
  8
0
  6
CENTER
 62
     4
 10
-136.67249
 20
10.305347
 30
0.0
 40
45.0
 50
215.44824
 51
236.12937
  0
CIRCLE
  5
306
  8
0
  6
CONTINUOUS
 62
     3
 10
-168.49228
 20
-21.514458
 30
0.0
 40
3.3
  0
ARC
  5
307
  8
0
  6
CONTINUOUS
 62
     3
 10
-169.87248
 20
-22.894653
 30
0.0
 40
7.0
 50
180.00001
 51
270.0
  0
CIRCLE
  5
308
  8
0
  6
CONTINUOUS
 62
     3
 10
-171.28175
 20
30.93779
 30
0.0
 40
2.75
  0
ARC
  5
309
  8
0
  6
CONTINUOUS
 62
     3
 10
96.066994
 20
43.505348
 30
0.0
 40
7.0
 50
90.000003
 51
180.00001
  0
ARC
  5
30A
  8
0
  6
CONTINUOUS
 62
     3
 10
-119.14164
 20
-32.875011
 30
0.0
 40
2.999994
 50
90.000003
 51
170.00031
  0
ARC
  5
30B
  8
0
  6
CONTINUOUS
 62
     3
 10
-111.37694
 20
-29.196318
 30
0.0
 40
0.698323
 50
270.0
 51
356.69987
  0
ARC
  5
30C
  8
0
  6
CONTINUOUS
 62
     3
 10
-161.96802
 20
-29.196318
 30
0.0
 40
0.698323
 50
183.30014
 51
270.0
  0
ARC
  5
30D
  8
0
  6
CONTINUOUS
 62
     3
 10
-154.20332
 20
-32.875011
 30
0.0
 40
3.0
 50
9.99969
 51
90.000003
  0
ARC
  5
30E
  8
0
  6
CONTINUOUS
 62
     3
 10
-149.11893
 20
-38.675026
 30
0.0
 40
0.999999
 50
189.99921
 51
270.0
  0
ARC
  5
30F
  8
0
  6
CONTINUOUS
 62
     3
 10
-124.25314
 20
-38.675026
 30
0.0
 40
0.999998
 50
270.0
 51
350.00079
  0
ARC
  5
310
  8
0
  6
CONTINUOUS
 62
     3
 10
-119.16872
 20
-32.875011
 30
0.0
 40
2.999994
 50
90.000003
 51
170.00031
  0
ARC
  5
311
  8
0
  6
CONTINUOUS
 62
     4
 10
-134.93604
 20
-42.199318
 30
0.0
 40
3.5
 50
239.99998
 51
299.99998
  0
ARC
  5
312
  8
0
  6
CONTINUOUS
 62
     4
 10
-138.43604
 20
-48.261497
 30
0.0
 40
3.5
 50
59.999988
 51
119.99999
  0
ARC
  5
313
  8
0
  6
CONTINUOUS
 62
     4
 10
-138.43604
 20
-42.199318
 30
0.0
 40
3.5
 50
239.99998
 51
299.99998
  0
ARC
  5
314
  8
0
  6
CONTINUOUS
 62
     3
 10
-103.65752
 20
43.680668
 30
0.0
 40
7.986745
 50
247.43607
 51
249.99998
  0
ARC
  5
315
  8
0
  6
CONTINUOUS
 62
     3
 10
-362.69763
 20
10.305347
 30
0.0
 40
264.89404
 50
3.45712
 51
5.00565
  0
ARC
  5
316
  8
0
  6
CONTINUOUS
 62
     3
 10
89.352707
 20
10.305347
 30
0.0
 40
264.89407
 50
174.99435
 51
176.54288
  0
ARC
  5
317
  8
0
  6
CONTINUOUS
 62
     3
 10
-362.69763
 20
10.305347
 30
0.0
 40
264.89404
 50
354.99435
 51
356.54288
  0
ARC
  5
318
  8
0
  6
CONTINUOUS
 62
     3
 10
-103.65752
 20
-23.069971
 30
0.0
 40
7.986765
 50
109.99993
 51
112.56383
  0
ARC
  5
319
  8
0
  6
CONTINUOUS
 62
     3
 10
-169.68744
 20
43.680668
 30
0.0
 40
7.986733
 50
290.00001
 51
292.56393
  0
ARC
  5
31A
  8
0
  6
CONTINUOUS
 62
     3
 10
89.352707
 20
10.305347
 30
0.0
 40
264.89407
 50
183.45712
 51
185.00565
  0
ARC
  5
31B
  8
0
  6
CONTINUOUS
 62
     3
 10
-169.68744
 20
-23.069971
 30
0.0
 40
7.986777
 50
67.436165
 51
70.000068
  0
ARC
  5
31C
  8
0
  6
CONTINUOUS
 62
     3
 10
-103.65752
 20
43.680668
 30
0.0
 40
6.655629
 50
183.29985
 51
249.99996
  0
ARC
  5
31D
  8
0
  6
CONTINUOUS
 62
     3
 10
-98.813873
 20
33.418407
 30
0.0
 40
1.331128
 50
5.005356
 51
70.000608
  0
ARC
  5
31E
  8
0
  6
CONTINUOUS
 62
     3
 10
-362.69763
 20
10.305347
 30
0.0
 40
266.22516
 50
354.99435
 51
5.005649
  0
ARC
  5
31F
  8
0
  6
CONTINUOUS
 62
     3
 10
-98.813873
 20
-12.807711
 30
0.0
 40
1.331097
 50
289.99989
 51
354.99464
  0
ARC
  5
320
  8
0
  6
CONTINUOUS
 62
     3
 10
-103.65752
 20
-23.069971
 30
0.0
 40
6.655636
 50
110.00004
 51
176.69985
  0
ARC
  5
321
  8
0
  6
CONTINUOUS
 62
     3
 10
-108.05326
 20
-16.401711
 30
0.0
 40
1.331127
 50
303.39219
 51
0.0
  0
ARC
  5
322
  8
0
  6
CONTINUOUS
 62
     3
 10
-102.06321
 20
-10.327096
 30
0.0
 40
4.658931
 50
90.000003
 51
180.00001
  0
ARC
  5
323
  8
0
  6
CONTINUOUS
 62
     3
 10
-98.208595
 20
-4.337041
 30
0.0
 40
1.331123
 50
270.0
 51
356.83163
  0
ARC
  5
324
  8
0
  6
CONTINUOUS
 62
     3
 10
-98.208595
 20
24.947737
 30
0.0
 40
1.331129
 50
3.168367
 51
90.000003
  0
ARC
  5
325
  8
0
  6
CONTINUOUS
 62
     3
 10
-102.06321
 20
30.93779
 30
0.0
 40
4.658931
 50
180.00001
 51
270.0
  0
ARC
  5
326
  8
0
  6
CONTINUOUS
 62
     3
 10
-108.05326
 20
37.01244
 30
0.0
 40
1.331123
 50
0.0
 51
56.607013
  0
ARC
  5
327
  8
0
  6
CONTINUOUS
 62
     3
 10
-111.97428
 20
49.174244
 30
0.0
 40
1.331132
 50
3.299547
 51
90.000003
  0
ARC
  5
328
  8
0
  6
CONTINUOUS
 62
     3
 10
-161.37065
 20
49.174244
 30
0.0
 40
1.331123
 50
90.000003
 51
176.70045
  0
ARC
  5
329
  8
0
  6
CONTINUOUS
 62
     3
 10
-169.68744
 20
43.680668
 30
0.0
 40
6.655636
 50
290.00004
 51
356.70015
  0
ARC
  5
32A
  8
0
  6
CONTINUOUS
 62
     3
 10
-165.29166
 20
37.01244
 30
0.0
 40
1.331117
 50
123.3942
 51
180.00001
  0
ARC
  5
32B
  8
0
  6
CONTINUOUS
 62
     3
 10
-171.28175
 20
30.93779
 30
0.0
 40
4.658931
 50
270.0
 51
0.0
  0
ARC
  5
32C
  8
0
  6
CONTINUOUS
 62
     3
 10
89.352707
 20
10.305347
 30
0.0
 40
266.22516
 50
174.99435
 51
185.00565
  0
ARC
  5
32D
  8
0
  6
CONTINUOUS
 62
     3
 10
-175.13637
 20
24.947737
 30
0.0
 40
1.331123
 50
90.000003
 51
176.83163
  0
ARC
  5
32E
  8
0
  6
CONTINUOUS
 62
     3
 10
-174.53108
 20
33.418407
 30
0.0
 40
1.331129
 50
109.99939
 51
174.99451
  0
ARC
  5
32F
  8
0
  6
CONTINUOUS
 62
     3
 10
-175.13637
 20
-4.337041
 30
0.0
 40
1.331129
 50
183.16837
 51
270.0
  0
ARC
  5
330
  8
0
  6
CONTINUOUS
 62
     3
 10
-171.28175
 20
-10.327096
 30
0.0
 40
4.658931
 50
0.0
 51
90.000003
  0
ARC
  5
331
  8
0
  6
CONTINUOUS
 62
     3
 10
-165.29166
 20
-16.401711
 30
0.0
 40
1.331157
 50
180.00001
 51
236.6066
  0
ARC
  5
332
  8
0
  6
CONTINUOUS
 62
     3
 10
-169.68744
 20
-23.069971
 30
0.0
 40
6.655631
 50
3.300145
 51
69.999959
  0
ARC
  5
333
  8
0
  6
CONTINUOUS
 62
     3
 10
-174.53108
 20
-12.807711
 30
0.0
 40
1.331094
 50
185.00549
 51
250.00011
  0
ARC
  5
334
  8
0
  6
CONTINUOUS
 62
     4
 10
-53.383003
 20
-48.18111
 30
0.0
 40
3.5
 50
59.999988
 51
119.99999
  0
ARC
  5
335
  8
0
  6
CONTINUOUS
 62
     4
 10
-53.383003
 20
-42.118931
 30
0.0
 40
3.5
 50
239.99998
 51
299.99998
  0
ARC
  5
336
  8
0
  6
CONTINUOUS
 62
     4
 10
-49.883003
 20
-42.118931
 30
0.0
 40
3.5
 50
239.99998
 51
299.99998
  0
CIRCLE
  5
337
  8
0
  6
CONTINUOUS
 62
     3
 10
129.267
 20
10.305347
 30
0.0
 40
7.0
  0
ARC
  5
338
  8
0
  6
CONTINUOUS
 62
     3
 10
530.26697
 20
10.305347
 30
0.0
 40
600.0
 50
176.24774
 51
183.75225
  0
CIRCLE
  5
339
  8
0
  6
CONTINUOUS
 62
     3
 10
129.267
 20
10.305347
 30
0.0
 40
35.0
  0
ARC
  5
33A
  8
0
  6
CONTINUOUS
 62
     3
 10
162.467
 20
43.505348
 30
0.0
 40
7.0
 50
0.0
 51
90.000003
  0
ARC
  5
33B
  8
0
  6
CONTINUOUS
 62
     3
 10
96.066994
 20
-22.894653
 30
0.0
 40
7.0
 50
180.00001
 51
270.0
  0
ARC
  5
33C
  8
0
  6
CONTINUOUS
 62
     3
 10
162.467
 20
-22.894653
 30
0.0
 40
7.0
 50
270.0
 51
0.0
  0
CIRCLE
  5
33D
  8
0
  6
CONTINUOUS
 62
     3
 10
161.08681
 20
42.125153
 30
0.0
 40
3.3
  0
CIRCLE
  5
33E
  8
0
  6
CONTINUOUS
 62
     3
 10
161.08681
 20
42.125153
 30
0.0
 40
3.3
  0
CIRCLE
  5
33F
  8
0
  6
CONTINUOUS
 62
     3
 10
97.447189
 20
42.125153
 30
0.0
 40
3.3
  0
CIRCLE
  5
340
  8
0
  6
CONTINUOUS
 62
     3
 10
97.447189
 20
-21.514458
 30
0.0
 40
3.3
  0
CIRCLE
  5
341
  8
0
  6
CONTINUOUS
 62
     3
 10
161.08681
 20
-21.514458
 30
0.0
 40
3.3
  0
ARC
  5
342
  8
0
  6
CENTER
 62
     4
 10
129.267
 20
10.305347
 30
0.0
 40
45.0
 50
36.948694
 51
52.918578
  0
ARC
  5
343
  8
0
  6
CENTER
 62
     4
 10
129.267
 20
10.305347
 30
0.0
 40
45.0
 50
126.81247
 51
144.64285
  0
ARC
  5
344
  8
0
  6
CENTER
 62
     4
 10
129.267
 20
10.305347
 30
0.0
 40
45.0
 50
215.44824
 51
236.12937
  0
ARC
  5
345
  8
0
  6
CENTER
 62
     4
 10
129.267
 20
10.305347
 30
0.0
 40
45.0
 50
303.32771
 51
325.37911
  0
ARC
  5
346
  8
0
  6
CONTINUOUS
 62
     4
 10
-138.42249
 20
-50.579418
 30
0.0
 40
3.5
 50
59.999988
 51
119.99999
  0
ARC
  5
347
  8
0
  6
CONTINUOUS
 62
     4
 10
-134.92249
 20
-44.517242
 30
0.0
 40
3.5
 50
239.99998
 51
299.99998
  0
ARC
  5
348
  8
0
  6
CONTINUOUS
 62
     4
 10
-134.92249
 20
-50.579422
 30
0.0
 40
3.5
 50
59.999988
 51
119.99999
  0
ARC
  5
349
  8
0
  6
CONTINUOUS
 62
     4
 10
-53.383003
 20
-50.679428
 30
0.0
 40
3.5
 50
59.999988
 51
119.99999
  0
ARC
  5
34A
  8
0
  6
CONTINUOUS
 62
     4
 10
-49.882999
 20
-44.617252
 30
0.0
 40
3.5
 50
239.99998
 51
299.99998
  0
ARC
  5
34B
  8
0
  6
CONTINUOUS
 62
     4
 10
-49.883003
 20
-50.679432
 30
0.0
 40
3.5
 50
59.999988
 51
119.99999
  0
ARC
  5
34C
  8
0
  6
CONTINUOUS
 62
     3
 10
-129.99748
 20
-68.489326
 30
0.0
 40
0.075
 50
270.0
 51
0.0
  0
ARC
  5
34D
  8
0
  6
CONTINUOUS
 62
     3
 10
-140.04749
 20
-53.853718
 30
0.0
 40
0.75
 50
90.000003
 51
180.00001
  0
ARC
  5
34E
  8
0
  6
CONTINUOUS
 62
     3
 10
-141.54749
 20
-61.925884
 30
0.0
 40
0.75
 50
315.0
 51
0.0
  0
ARC
  5
34F
  8
0
  6
CONTINUOUS
 62
     3
 10
-142.67249
 20
-65.172203
 30
0.0
 40
0.75
 50
135.0
 51
180.00001
  0
ARC
  5
350
  8
0
  6
CONTINUOUS
 62
     3
 10
-130.67249
 20
-65.172203
 30
0.0
 40
0.75
 50
0.0
 51
45.000001
  0
ARC
  5
351
  8
0
  6
CONTINUOUS
 62
     3
 10
-131.79749
 20
-61.925884
 30
0.0
 40
0.75
 50
180.00001
 51
225.0
  0
ARC
  5
352
  8
0
  6
CONTINUOUS
 62
     3
 10
-133.29749
 20
-53.853718
 30
0.0
 40
0.75
 50
0.0
 51
90.000003
  0
ARC
  5
353
  8
0
  6
CONTINUOUS
 62
     3
 10
-141.17249
 20
-62.081215
 30
0.0
 40
0.375
 50
315.0
 51
0.0
  0
ARC
  5
354
  8
0
  6
CONTINUOUS
 62
     4
 10
-37.108002
 20
-46.626629
 30
0.0
 40
1.15
 50
240.57372
 51
300.00011
  0
ARC
  5
355
  8
0
  6
CONTINUOUS
 62
     4
 10
-35.958
 20
-46.626625
 30
0.0
 40
1.15
 50
239.99998
 51
299.42628
  0
ARC
  5
356
  8
0
  6
CONTINUOUS
 62
     4
 10
-35.958
 20
-48.618484
 30
0.0
 40
1.15
 50
60.573717
 51
120.00002
  0
ARC
  5
357
  8
0
  6
CONTINUOUS
 62
     3
 10
-40.483002
 20
-43.694653
 30
0.0
 40
1.0
 50
180.00001
 51
270.0
  0
ARC
  5
358
  8
0
  6
CONTINUOUS
 62
     3
 10
-32.583004
 20
-43.694653
 30
0.0
 40
1.0
 50
270.0
 51
0.0
  0
ARC
  5
359
  8
0
  6
CONTINUOUS
 62
     3
 10
141.79668
 20
-38.694294
 30
0.0
 40
0.999998
 50
270.0
 51
349.99926
  0
ARC
  5
35A
  8
0
  6
CONTINUOUS
 62
     3
 10
116.73733
 20
-38.694294
 30
0.0
 40
1.000003
 50
190.00066
 51
270.0
  0
ARC
  5
35B
  8
0
  6
CONTINUOUS
 62
     4
 10
127.517
 20
-53.042984
 30
0.0
 40
3.5
 50
60.000008
 51
119.99999
  0
ARC
  5
35C
  8
0
  6
CONTINUOUS
 62
     4
 10
131.017
 20
-46.980804
 30
0.0
 40
3.5
 50
240.00001
 51
299.99999
  0
ARC
  5
35D
  8
0
  6
CONTINUOUS
 62
     4
 10
131.017
 20
-53.042984
 30
0.0
 40
3.5
 50
60.000008
 51
119.99999
  0
ARC
  5
35E
  8
0
  6
CONTINUOUS
 62
     3
 10
122.48216
 20
-68.589333
 30
0.0
 40
0.075
 50
180.00001
 51
270.0
  0
ARC
  5
35F
  8
0
  6
CONTINUOUS
 62
     3
 10
135.83217
 20
-68.589333
 30
0.0
 40
0.075
 50
270.0
 51
0.0
  0
ARC
  5
360
  8
0
  6
CONTINUOUS
 62
     3
 10
124.65717
 20
-62.181225
 30
0.0
 40
0.375
 50
314.99959
 51
0.0
  0
ARC
  5
361
  8
0
  6
CONTINUOUS
 62
     3
 10
124.28217
 20
-62.025894
 30
0.0
 40
0.75
 50
314.99979
 51
0.0
  0
ARC
  5
362
  8
0
  6
CONTINUOUS
 62
     3
 10
123.15717
 20
-65.272217
 30
0.0
 40
0.75
 50
135.0
 51
180.00001
  0
ARC
  5
363
  8
0
  6
CONTINUOUS
 62
     3
 10
135.15717
 20
-65.272217
 30
0.0
 40
0.75
 50
0.0
 51
45.000824
  0
ARC
  5
364
  8
0
  6
CONTINUOUS
 62
     3
 10
132.53217
 20
-53.953728
 30
0.0
 40
0.75
 50
0.0
 51
90.000003
  0
ARC
  5
365
  8
0
  6
CONTINUOUS
 62
     3
 10
134.03217
 20
-62.025894
 30
0.0
 40
0.75
 50
180.00001
 51
224.99979
  0
ARC
  5
366
  8
0
  6
CONTINUOUS
 62
     3
 10
125.78217
 20
-53.953728
 30
0.0
 40
0.75
 50
90.000003
 51
180.00001
  0
ARC
  5
367
  8
0
  6
CONTINUOUS
 62
     4
 10
127.842
 20
-48.618484
 30
0.0
 40
1.15
 50
60.573888
 51
120.00018
  0
ARC
  5
368
  8
0
  6
CONTINUOUS
 62
     4
 10
127.842
 20
-46.626625
 30
0.0
 40
1.15
 50
240.00015
 51
299.42645
  0
ARC
  5
369
  8
0
  6
CONTINUOUS
 62
     4
 10
126.692
 20
-46.626629
 30
0.0
 40
1.15
 50
240.57355
 51
299.99995
  0
ARC
  5
36A
  8
0
  6
CONTINUOUS
 62
     4
 10
122.692
 20
-46.626629
 30
0.0
 40
1.15
 50
240.57355
 51
299.99995
  0
ARC
  5
36B
  8
0
  6
CONTINUOUS
 62
     4
 10
130.692
 20
-46.626629
 30
0.0
 40
1.15
 50
240.57355
 51
299.99995
  0
ARC
  5
36C
  8
0
  6
CONTINUOUS
 62
     4
 10
131.842
 20
-46.626625
 30
0.0
 40
1.15
 50
240.00015
 51
299.42645
  0
ARC
  5
36D
  8
0
  6
CONTINUOUS
 62
     4
 10
131.842
 20
-48.618484
 30
0.0
 40
1.15
 50
60.573553
 51
119.99985
  0
ARC
  5
36E
  8
0
  6
CONTINUOUS
 62
     4
 10
135.842
 20
-48.618484
 30
0.0
 40
1.15
 50
60.573553
 51
119.99985
  0
ARC
  5
36F
  8
0
  6
CONTINUOUS
 62
     4
 10
123.842
 20
-48.618484
 30
0.0
 40
1.15
 50
60.573888
 51
120.00018
  0
ARC
  5
370
  8
0
  6
CONTINUOUS
 62
     4
 10
135.842
 20
-46.626625
 30
0.0
 40
1.15
 50
240.00015
 51
299.42645
  0
ARC
  5
371
  8
0
  6
CONTINUOUS
 62
     4
 10
134.692
 20
-46.626629
 30
0.0
 40
1.15
 50
240.57355
 51
299.99995
  0
ARC
  5
372
  8
0
  6
CONTINUOUS
 62
     4
 10
123.842
 20
-46.626625
 30
0.0
 40
1.15
 50
240.00015
 51
299.42645
  0
ARC
  5
373
  8
0
  6
CONTINUOUS
 62
     3
 10
120.267
 20
-43.694653
 30
0.0
 40
1.0
 50
180.00001
 51
270.0
  0
ARC
  5
374
  8
0
  6
CONTINUOUS
 62
     3
 10
138.267
 20
-43.694653
 30
0.0
 40
1.0
 50
270.0
 51
0.0
  0
TEXT
  5
375
  8
0
  6
CONTINUOUS
 62
     3
 10
-179.40228
 20
98.500191
 30
0.0
 40
5.0
  1
HC-UF23
  0
INSERT
  5
376
  8
0
  6
CONTINUOUS
 62
     3
  2
SYM4
 10
-65.901543
 20
30.832327
 30
0.0
  0
INSERT
  5
377
  8
0
  6
CONTINUOUS
 62
     3
  2
SYM4
 10
-65.901543
 20
-10.388399
 30
0.0
  0
INSERT
  5
378
  8
0
  6
CONTINUOUS
 62
     3
  2
SYM16
 10
-144.15848
 20
-34.775032
 30
0.0
  0
INSERT
  5
379
  8
0
  6
CONTINUOUS
 62
     3
  2
SYM16
 10
-129.18602
 20
-34.775032
 30
0.0
  0
INSERT
  5
37A
  8
0
  6
CONTINUOUS
 62
     3
  2
SYM16
 10
-171.28175
 20
-10.327096
 30
0.0
  0
INSERT
  5
37B
  8
0
  6
CONTINUOUS
 62
     3
  2
SYM16
 10
-102.06321
 20
-10.327096
 30
0.0
  0
INSERT
  5
37C
  8
0
  6
CONTINUOUS
 62
     3
  2
SYM16
 10
-102.06321
 20
30.93779
 30
0.0
  0
INSERT
  5
37D
  8
0
  6
CONTINUOUS
 62
     3
  2
SYM16
 10
-171.28175
 20
30.93779
 30
0.0
  0
ENDSEC
  0
EOF
