  0
SECTION
  2
HEADER
  9
$ACADVER
  1
AC1009
  9
$INSBASE
 10
0.0
 20
0.0
 30
0.0
  9
$EXTMIN
 10
-173.55265
 20
-72.490288
 30
0.0
  9
$EXTMAX
 10
168.43597
 20
80.208771
 30
0.0
  9
$LIMMIN
 10
0.0
 20
0.0
  9
$LIMMAX
 10
12.0
 20
9.0
  9
$ORTHOMODE
 70
     0
  9
$REGENMODE
 70
     1
  9
$FILLMODE
 70
     1
  9
$QTEXTMODE
 70
     0
  9
$MIRRTEXT
 70
     1
  9
$DRAGMODE
 70
     2
  9
$LTSCALE
 40
1.0
  9
$OSMODE
 70
     0
  9
$ATTMODE
 70
     1
  9
$TEXTSIZE
 40
0.2
  9
$TRACEWID
 40
0.05
  9
$TEXTSTYLE
  7
STANDARD
  9
$CLAYER
  8
0
  9
$CELTYPE
  6
CONTINUOUS
  9
$CECOLOR
 62
   256
  9
$DIMSCALE
 40
1.0
  9
$DIMASZ
 40
0.18
  9
$DIMEXO
 40
0.0625
  9
$DIMDLI
 40
0.38
  9
$DIMRND
 40
0.0
  9
$DIMDLE
 40
0.0
  9
$DIMEXE
 40
0.18
  9
$DIMTP
 40
0.0
  9
$DIMTM
 40
0.0
  9
$DIMTXT
 40
0.18
  9
$DIMCEN
 40
0.09
  9
$DIMTSZ
 40
0.0
  9
$DIMTOL
 70
     0
  9
$DIMLIM
 70
     0
  9
$DIMTIH
 70
     1
  9
$DIMTOH
 70
     1
  9
$DIMSE1
 70
     0
  9
$DIMSE2
 70
     0
  9
$DIMTAD
 70
     0
  9
$DIMZIN
 70
     0
  9
$DIMBLK
  1

  9
$DIMASO
 70
     1
  9
$DIMSHO
 70
     1
  9
$DIMPOST
  1

  9
$DIMAPOST
  1

  9
$DIMALT
 70
     0
  9
$DIMALTD
 70
     2
  9
$DIMALTF
 40
25.4
  9
$DIMLFAC
 40
1.0
  9
$DIMTOFL
 70
     0
  9
$DIMTVP
 40
0.0
  9
$DIMTIX
 70
     0
  9
$DIMSOXD
 70
     0
  9
$DIMSAH
 70
     0
  9
$DIMBLK1
  1

  9
$DIMBLK2
  1

  9
$DIMSTYLE
  2
STANDARD
  9
$DIMCLRD
 70
     0
  9
$DIMCLRE
 70
     0
  9
$DIMCLRT
 70
     0
  9
$DIMTFAC
 40
1.0
  9
$DIMGAP
 40
0.09
  9
$LUNITS
 70
     2
  9
$LUPREC
 70
     4
  9
$SKETCHINC
 40
0.1
  9
$FILLETRAD
 40
0.0
  9
$AUNITS
 70
     0
  9
$AUPREC
 70
     0
  9
$MENU
  1
.
  9
$ELEVATION
 40
0.0
  9
$PELEVATION
 40
0.0
  9
$THICKNESS
 40
0.0
  9
$LIMCHECK
 70
     0
  9
$BLIPMODE
 70
     0
  9
$CHAMFERA
 40
0.0
  9
$CHAMFERB
 40
0.0
  9
$SKPOLY
 70
     0
  9
$TDCREATE
 40
0.0
  9
$TDUPDATE
 40
0.0
  9
$TDINDWG
 40
0.0
  9
$TDUSRTIMER
 40
0.0
  9
$USRTIMER
 70
     1
  9
$ANGBASE
 50
0.0
  9
$ANGDIR
 70
     0
  9
$PDMODE
 70
     0
  9
$PDSIZE
 40
0.0
  9
$PLINEWID
 40
0.0
  9
$COORDS
 70
     1
  9
$SPLFRAME
 70
     0
  9
$SPLINETYPE
 70
     6
  9
$SPLINESEGS
 70
     8
  9
$ATTDIA
 70
     0
  9
$ATTREQ
 70
     1
  9
$HANDLING
 70
     1
  9
$HANDSEED
  5
3C8
  9
$SURFTAB1
 70
     6
  9
$SURFTAB2
 70
     6
  9
$SURFTYPE
 70
     6
  9
$SURFU
 70
     6
  9
$SURFV
 70
     6
  9
$UCSNAME
  2

  9
$UCSORG
 10
0.0
 20
0.0
 30
0.0
  9
$UCSXDIR
 10
1.0
 20
0.0
 30
0.0
  9
$UCSYDIR
 10
0.0
 20
1.0
 30
0.0
  9
$PUCSNAME
  2

  9
$PUCSORG
 10
0.0
 20
0.0
 30
0.0
  9
$PUCSXDIR
 10
1.0
 20
0.0
 30
0.0
  9
$PUCSYDIR
 10
0.0
 20
1.0
 30
0.0
  9
$USERI1
 70
     0
  9
$USERI2
 70
     0
  9
$USERI3
 70
     0
  9
$USERI4
 70
     0
  9
$USERI5
 70
     0
  9
$USERR1
 40
0.0
  9
$USERR2
 40
0.0
  9
$USERR3
 40
0.0
  9
$USERR4
 40
0.0
  9
$USERR5
 40
0.0
  9
$WORLDVIEW
 70
     1
  9
$SHADEDGE
 70
     3
  9
$SHADEDIF
 70
    70
  9
$TILEMODE
 70
     1
  9
$MAXACTVP
 70
    48
  9
$PLIMCHECK
 70
     0
  9
$PEXTMIN
 10
1.000000E+020
 20
1.000000E+020
 30
1.000000E+020
  9
$PEXTMAX
 10
-1.000000E+020
 20
-1.000000E+020
 30
-1.000000E+020
  9
$PLIMMIN
 10
0.0
 20
0.0
  9
$PLIMMAX
 10
12.0
 20
9.0
  9
$UNITMODE
 70
     0
  9
$VISRETAIN
 70
     1
  9
$PLINEGEN
 70
     0
  9
$PSLTSCALE
 70
     1
  0
ENDSEC
  0
SECTION
  2
TABLES
  0
TABLE
  2
VPORT
 70
     2
  0
VPORT
  2
*ACTIVE
 70
     0
 10
0.0
 20
0.0
 11
1.0
 21
1.0
 12
-2.55834
 22
3.859242
 13
0.0
 23
0.0
 14
1.0
 24
1.0
 15
0.0
 25
0.0
 16
0.0
 26
0.0
 36
1.0
 17
0.0
 27
0.0
 37
0.0
 40
333.059226
 41
1.581315
 42
50.0
 43
0.0
 44
0.0
 50
0.0
 51
0.0
 71
     0
 72
   100
 73
     1
 74
     1
 75
     0
 76
     0
 77
     0
 78
     0
  0
ENDTAB
  0
TABLE
  2
LTYPE
 70
     5
  0
LTYPE
  2
CONTINUOUS
 70
     0
  3
Solid line
 72
    65
 73
     0
 40
0.0
  0
LTYPE
  2
DASHED
 70
     0
  3
__ __ __ __ __ __ __ __ __ __ __ __ __ __ __
 72
    65
 73
     2
 40
3.5
 49
2.0
 49
-1.5
  0
LTYPE
  2
CENTER
 70
     0
  3
____ _ ____ _ ____ _ ____ _ ____ _ ____ _ ____
 72
    65
 73
     4
 40
17.5
 49
13.0
 49
-1.5
 49
1.5
 49
-1.5
  0
LTYPE
  2
PHANTOM
 70
     0
  3
_____ _ _ _____ _ _ _____ _ _ _____ _ _ ____  
 72
    65
 73
     6
 40
15.5
 49
8.0
 49
-1.5
 49
1.5
 49
-1.5
 49
1.5
 49
-1.5
  0
LTYPE
  2
DOT
 70
     0
  3
. . . . . . . . . . . . . . . . . . . . . . . .
 72
    65
 73
     2
 40
0.25
 49
0.0
 49
-0.25
  0
ENDTAB
  0
TABLE
  2
LAYER
 70
     1
  0
LAYER
  2
0
 70
     0
 62
     7
  6
CONTINUOUS
  0
ENDTAB
  0
TABLE
  2
STYLE
 70
     1
  0
STYLE
  2
STANDARD
 70
     0
 40
0.0
 41
1.0
 50
0.0
 71
     0
 42
0.2
  3
txt
  4

  0
ENDTAB
  0
TABLE
  2
VIEW
 70
     0
  0
ENDTAB
  0
TABLE
  2
UCS
 70
     0
  0
ENDTAB
  0
TABLE
  2
APPID
 70
     1
  0
APPID
  2
ACAD
 70
     0
  0
ENDTAB
  0
TABLE
  2
DIMSTYLE
 70
     1
  0
DIMSTYLE
  2
STANDARD
 70
     0
  3

  4

  5

  6

  7

 40
1.0
 41
0.18
 42
0.0625
 43
0.38
 44
0.18
 45
0.0
 46
0.0
 47
0.0
 48
0.0
140
0.18
141
0.09
142
0.0
143
25.4
144
1.0
145
0.0
146
1.0
147
0.09
 71
     0
 72
     0
 73
     1
 74
     1
 75
     0
 76
     0
 77
     0
 78
     0
170
     0
171
     2
172
     0
173
     0
174
     0
175
     0
176
     0
177
     0
178
     0
  0
ENDTAB
  0
ENDSEC
  0
SECTION
  2
BLOCKS
  0
BLOCK
  8
0
  2
$MODEL_SPACE
 70
     0
 10
0.0
 20
0.0
 30
0.0
  3
$MODEL_SPACE
  1

  0
ENDBLK
  5
1A
  8
0
  0
BLOCK
 67
     1
  8
0
  2
$PAPER_SPACE
 70
     0
 10
0.0
 20
0.0
 30
0.0
  3
$PAPER_SPACE
  1

  0
ENDBLK
  5
17
 67
     1
  8
0
  0
BLOCK
  8
0
  2
KOZU1
 70
     0
 10
0.0
 20
0.0
 30
0.0
  3
KOZU1
  1

  0
ENDBLK
  5
25
  8
0
  0
BLOCK
  8
0
  2
KOZU2
 70
     0
 10
0.0
 20
0.0
 30
0.0
  3
KOZU2
  1

  0
ENDBLK
  5
28
  8
0
  0
BLOCK
  8
0
  2
KOZU0001
 70
     0
 10
0.0
 20
0.0
 30
0.0
  3
KOZU0001
  1

  0
ENDBLK
  5
2B
  8
0
  0
BLOCK
  8
0
  2
KOZU0002
 70
     0
 10
0.0
 20
0.0
 30
0.0
  3
KOZU0002
  1

  0
ENDBLK
  5
2E
  8
0
  0
BLOCK
  8
0
  2
KOZU0003
 70
     0
 10
0.0
 20
0.0
 30
0.0
  3
KOZU0003
  1

  0
LINE
  5
31
  8
0
  6
CONTINUOUS
 62
     2
 10
5.0
 20
6.5
 30
0.0
 11
5.0
 21
2.5
 31
0.0
  0
LINE
  5
32
  8
0
  6
CONTINUOUS
 62
     2
 10
3.7
 20
4.306828
 30
0.0
 11
3.7
 21
2.5
 31
0.0
  0
LINE
  5
33
  8
0
  6
CONTINUOUS
 62
     2
 10
1.3
 20
2.5
 30
0.0
 11
0.0
 21
2.5
 31
0.0
  0
CIRCLE
  5
34
  8
0
  6
CONTINUOUS
 62
     2
 10
2.5
 20
6.5
 30
0.0
 40
1.2
  0
ARC
  5
35
  8
0
  6
CONTINUOUS
 62
     2
 10
2.5
 20
6.5
 30
0.0
 40
2.5
 50
0.0
 51
61.314554
  0
ARC
  5
36
  8
0
  6
CONTINUOUS
 62
     2
 10
2.5
 20
2.5
 30
0.0
 40
1.2
 50
180.00002
 51
0.000034
  0
ARC
  5
37
  8
0
  6
CONTINUOUS
 62
     2
 10
2.5
 20
2.5
 30
0.0
 40
2.5
 50
180.00002
 51
359.99993
  0
ARC
  5
38
  8
0
  6
CONTINUOUS
 62
     2
 10
2.5
 20
6.5
 30
0.0
 40
2.5
 50
61.314554
 51
298.68548
  0
ENDBLK
  5
39
  8
0
  0
BLOCK
  8
0
  2
KOZU0004
 70
     0
 10
0.0
 20
0.0
 30
0.0
  3
KOZU0004
  1

  0
LINE
  5
3C
  8
0
  6
CONTINUOUS
 62
     2
 10
0.0
 20
6.5
 30
0.0
 11
1.2
 21
6.5
 31
0.0
  0
LINE
  5
3D
  8
0
  6
CONTINUOUS
 62
     2
 10
0.0
 20
2.5
 30
0.0
 11
1.2
 21
2.5
 31
0.0
  0
LINE
  5
3E
  8
0
  6
CONTINUOUS
 62
     2
 10
1.2
 20
5.2
 30
0.0
 11
1.2
 21
3.8
 31
0.0
  0
LINE
  5
3F
  8
0
  6
CONTINUOUS
 62
     2
 10
1.2
 20
3.8
 30
0.0
 11
2.5
 21
3.8
 31
0.0
  0
LINE
  5
40
  8
0
  6
CONTINUOUS
 62
     2
 10
1.2
 20
5.2
 30
0.0
 11
2.5
 21
5.2
 31
0.0
  0
ARC
  5
41
  8
0
  6
CONTINUOUS
 62
     2
 10
2.5
 20
2.5
 30
0.0
 40
2.5
 50
180.00002
 51
53.13001
  0
ARC
  5
42
  8
0
  6
CONTINUOUS
 62
     2
 10
2.5
 20
6.5
 30
0.0
 40
2.5
 50
306.86997
 51
180.00001
  0
ARC
  5
43
  8
0
  6
CONTINUOUS
 62
     2
 10
2.5
 20
6.5
 30
0.0
 40
1.3
 50
270.0
 51
180.00006
  0
ARC
  5
44
  8
0
  6
CONTINUOUS
 62
     2
 10
2.5
 20
2.5
 30
0.0
 40
1.3
 50
180.00002
 51
90.000003
  0
ENDBLK
  5
45
  8
0
  0
BLOCK
  8
0
  2
KOZU0005
 70
     0
 10
0.0
 20
0.0
 30
0.0
  3
KOZU0005
  1

  0
LINE
  5
48
  8
0
  6
CONTINUOUS
 62
     2
 10
0.168649
 20
3.699999
 30
0.0
 11
2.5
 21
3.699999
 31
0.0
  0
LINE
  5
49
  8
0
  6
CONTINUOUS
 62
     2
 10
2.043599
 20
7.699999
 30
0.0
 11
1.64284
 21
4.848463
 31
0.0
  0
LINE
  5
4A
  8
0
  6
CONTINUOUS
 62
     2
 10
0.168649
 20
3.699999
 30
0.0
 11
0.913518
 21
8.999999
 31
0.0
  0
LINE
  5
4B
  8
0
  6
CONTINUOUS
 62
     2
 10
5.0
 20
7.7
 30
0.0
 11
5.0
 21
9.0
 31
0.0
  0
LINE
  5
4C
  8
0
  6
CONTINUOUS
 62
     2
 10
2.043599
 20
7.699998
 30
0.0
 11
5.0
 21
7.699998
 31
0.0
  0
LINE
  5
4D
  8
0
  6
CONTINUOUS
 62
     2
 10
0.913518
 20
8.999999
 30
0.0
 11
5.0
 21
8.999999
 31
0.0
  0
LINE
  5
4E
  8
0
  6
CONTINUOUS
 62
     2
 10
0.0
 20
2.5
 30
0.0
 11
1.3
 21
2.5
 31
0.0
  0
ARC
  5
4F
  8
0
  6
CONTINUOUS
 62
     2
 10
2.5
 20
2.5
 30
0.0
 40
2.5
 50
180.00002
 51
110.05144
  0
ARC
  5
50
  8
0
  6
CONTINUOUS
 62
     2
 10
2.5
 20
2.5
 30
0.0
 40
1.2
 50
183.55932
 51
90.000003
  0
ENDBLK
  5
51
  8
0
  0
BLOCK
  8
0
  2
KOZU0006
 70
     0
 10
0.0
 20
0.0
 30
0.0
  3
KOZU0006
  1

  0
POINT
  5
54
  8
0
  6
CONTINUOUS
 62
     3
 10
0.0
 20
-0.000001
 30
0.0
  0
LINE
  5
55
  8
0
  6
CONTINUOUS
 62
     3
 10
0.0
 20
-2.75
 30
0.0
 11
0.0
 21
2.75
 31
0.0
  0
LINE
  5
56
  8
0
  6
CONTINUOUS
 62
     3
 10
0.0
 20
2.75
 30
0.0
 11
-0.73912
 21
2.75
 31
0.0
  0
LINE
  5
57
  8
0
  6
CONTINUOUS
 62
     3
 10
0.0
 20
-2.75
 30
0.0
 11
-0.73912
 21
-2.75
 31
0.0
  0
ARC
  5
58
  8
0
  6
CONTINUOUS
 62
     3
 10
5.0
 20
-0.000001
 30
0.0
 40
7.0
 50
163.04224
 51
196.95774
  0
ARC
  5
59
  8
0
  6
CONTINUOUS
 62
     3
 10
-0.73912
 20
1.75
 30
0.0
 40
1.0
 50
90.000003
 51
163.04219
  0
ARC
  5
5A
  8
0
  6
CONTINUOUS
 62
     3
 10
-0.73912
 20
-1.75
 30
0.0
 40
1.0
 50
196.95774
 51
270.0
  0
ENDBLK
  5
5B
  8
0
  0
BLOCK
  8
0
  2
KOZU0007
 70
     0
 10
0.0
 20
0.0
 30
0.0
  3
KOZU0007
  1

  0
POINT
  5
5E
  8
0
  6
CONTINUOUS
 62
     7
 10
-59.626556
 20
8.083771
 30
0.0
  0
POINT
  5
5F
  8
0
  6
CONTINUOUS
 62
     7
 10
9.873445
 20
38.283852
 30
0.0
  0
POINT
  5
60
  8
0
  6
CONTINUOUS
 62
     7
 10
9.873445
 20
64.444229
 30
0.0
  0
LINE
  5
61
  8
0
  6
CONTINUOUS
 62
     4
 10
9.873445
 20
39.283852
 30
0.0
 11
9.873445
 21
66.444229
 31
0.0
  0
LINE
  5
62
  8
0
  6
CONTINUOUS
 62
     4
 10
-59.626556
 20
9.083771
 30
0.0
 11
-59.626556
 21
66.444229
 31
0.0
  0
LINE
  5
63
  8
0
  6
CONTINUOUS
 62
     4
 10
9.873445
 20
64.444229
 30
0.0
 11
-59.626556
 21
64.444229
 31
0.0
  0
LINE
  5
64
  8
0
  6
CONTINUOUS
 62
     4
 10
9.873446
 20
64.444229
 30
0.0
 11
7.941594
 21
63.92659
 31
0.0
  0
LINE
  5
65
  8
0
  6
CONTINUOUS
 62
     4
 10
9.873446
 20
64.444229
 30
0.0
 11
7.941593
 21
64.961868
 31
0.0
  0
LINE
  5
66
  8
0
  6
CONTINUOUS
 62
     4
 10
-59.626556
 20
64.444229
 30
0.0
 11
-57.694706
 21
64.961868
 31
0.0
  0
LINE
  5
67
  8
0
  6
CONTINUOUS
 62
     4
 10
-59.626556
 20
64.444229
 30
0.0
 11
-57.694706
 21
63.92659
 31
0.0
  0
ENDBLK
  5
68
  8
0
  0
BLOCK
  8
0
  2
KOZU0008
 70
     0
 10
0.0
 20
0.0
 30
0.0
  3
KOZU0008
  1

  0
POINT
  5
6B
  8
0
  6
CONTINUOUS
 62
     7
 10
15.873445
 20
28.083851
 30
0.0
  0
POINT
  5
6C
  8
0
  6
CONTINUOUS
 62
     7
 10
12.873454
 20
28.083851
 30
0.0
  0
POINT
  5
6D
  8
0
  6
CONTINUOUS
 62
     7
 10
12.873454
 20
48.536095
 30
0.0
  0
LINE
  5
6E
  8
0
  6
CONTINUOUS
 62
     4
 10
12.873454
 20
29.083851
 30
0.0
 11
12.873454
 21
50.536095
 31
0.0
  0
LINE
  5
6F
  8
0
  6
CONTINUOUS
 62
     4
 10
15.873445
 20
29.083851
 30
0.0
 11
15.873445
 21
50.536095
 31
0.0
  0
LINE
  5
70
  8
0
  6
CONTINUOUS
 62
     4
 10
7.873454
 20
48.536095
 30
0.0
 11
20.873444
 21
48.536095
 31
0.0
  0
LINE
  5
71
  8
0
  6
CONTINUOUS
 62
     4
 10
12.873453
 20
48.536095
 30
0.0
 11
10.941602
 21
49.053734
 31
0.0
  0
LINE
  5
72
  8
0
  6
CONTINUOUS
 62
     4
 10
12.873455
 20
48.536095
 30
0.0
 11
10.941602
 21
48.018456
 31
0.0
  0
LINE
  5
73
  8
0
  6
CONTINUOUS
 62
     4
 10
15.873446
 20
48.536095
 30
0.0
 11
17.805296
 21
48.018456
 31
0.0
  0
LINE
  5
74
  8
0
  6
CONTINUOUS
 62
     4
 10
15.873446
 20
48.536095
 30
0.0
 11
17.805298
 21
49.053734
 31
0.0
  0
ENDBLK
  5
75
  8
0
  0
BLOCK
  8
0
  2
KOZU0009
 70
     0
 10
0.0
 20
0.0
 30
0.0
  3
KOZU0009
  1

  0
POINT
  5
78
  8
0
  6
CONTINUOUS
 62
     7
 10
9.873457
 20
33.083851
 30
0.0
  0
POINT
  5
79
  8
0
  6
CONTINUOUS
 62
     7
 10
12.873454
 20
28.083851
 30
0.0
  0
POINT
  5
7A
  8
0
  6
CONTINUOUS
 62
     7
 10
12.873454
 20
56.536095
 30
0.0
  0
LINE
  5
7B
  8
0
  6
CONTINUOUS
 62
     4
 10
12.873454
 20
29.083851
 30
0.0
 11
12.873454
 21
58.536095
 31
0.0
  0
LINE
  5
7C
  8
0
  6
CONTINUOUS
 62
     4
 10
9.873457
 20
34.083851
 30
0.0
 11
9.873457
 21
58.536095
 31
0.0
  0
LINE
  5
7D
  8
0
  6
CONTINUOUS
 62
     4
 10
17.873455
 20
56.536095
 30
0.0
 11
4.873457
 21
56.536095
 31
0.0
  0
LINE
  5
7E
  8
0
  6
CONTINUOUS
 62
     4
 10
12.873454
 20
56.536098
 30
0.0
 11
14.805306
 21
56.018459
 31
0.0
  0
LINE
  5
7F
  8
0
  6
CONTINUOUS
 62
     4
 10
12.873454
 20
56.536095
 30
0.0
 11
14.805305
 21
57.053734
 31
0.0
  0
LINE
  5
80
  8
0
  6
CONTINUOUS
 62
     4
 10
9.873457
 20
56.536095
 30
0.0
 11
7.941605
 21
57.053734
 31
0.0
  0
LINE
  5
81
  8
0
  6
CONTINUOUS
 62
     4
 10
9.873458
 20
56.536095
 30
0.0
 11
7.941605
 21
56.018456
 31
0.0
  0
ENDBLK
  5
82
  8
0
  0
BLOCK
  8
0
  2
KOZU0010
 70
     0
 10
0.0
 20
0.0
 30
0.0
  3
KOZU0010
  1

  0
POINT
  5
85
  8
0
  6
CONTINUOUS
 62
     7
 10
34.873444
 20
12.083852
 30
0.0
  0
POINT
  5
86
  8
0
  6
CONTINUOUS
 62
     7
 10
9.873457
 20
33.083851
 30
0.0
  0
POINT
  5
87
  8
0
  6
CONTINUOUS
 62
     7
 10
9.873457
 20
64.536095
 30
0.0
  0
LINE
  5
88
  8
0
  6
CONTINUOUS
 62
     4
 10
9.873457
 20
34.083851
 30
0.0
 11
9.873457
 21
66.536095
 31
0.0
  0
LINE
  5
89
  8
0
  6
CONTINUOUS
 62
     4
 10
34.873444
 20
13.083852
 30
0.0
 11
34.873444
 21
66.536095
 31
0.0
  0
LINE
  5
8A
  8
0
  6
CONTINUOUS
 62
     4
 10
9.873457
 20
64.536095
 30
0.0
 11
34.873444
 21
64.536095
 31
0.0
  0
LINE
  5
8B
  8
0
  6
CONTINUOUS
 62
     4
 10
9.873457
 20
64.536095
 30
0.0
 11
11.805308
 21
65.053734
 31
0.0
  0
LINE
  5
8C
  8
0
  6
CONTINUOUS
 62
     4
 10
9.873457
 20
64.536095
 30
0.0
 11
11.805309
 21
64.018456
 31
0.0
  0
LINE
  5
8D
  8
0
  6
CONTINUOUS
 62
     4
 10
34.873444
 20
64.536095
 30
0.0
 11
32.941593
 21
64.018456
 31
0.0
  0
LINE
  5
8E
  8
0
  6
CONTINUOUS
 62
     4
 10
34.873444
 20
64.536095
 30
0.0
 11
32.941593
 21
65.053734
 31
0.0
  0
ENDBLK
  5
8F
  8
0
  0
BLOCK
  8
0
  2
KOZU0011
 70
     0
 10
0.0
 20
0.0
 30
0.0
  3
KOZU0011
  1

  0
POINT
  5
92
  8
0
  6
CONTINUOUS
 62
     7
 10
34.873444
 20
4.083851
 30
0.0
  0
POINT
  5
93
  8
0
  6
CONTINUOUS
 62
     7
 10
34.873444
 20
12.083852
 30
0.0
  0
POINT
  5
94
  8
0
  6
CONTINUOUS
 62
     7
 10
43.846745
 20
12.083852
 30
0.0
  0
LINE
  5
95
  8
0
  6
CONTINUOUS
 62
     4
 10
35.873444
 20
12.083852
 30
0.0
 11
45.846745
 21
12.083852
 31
0.0
  0
LINE
  5
96
  8
0
  6
CONTINUOUS
 62
     4
 10
35.873444
 20
4.083851
 30
0.0
 11
45.846745
 21
4.083851
 31
0.0
  0
LINE
  5
97
  8
0
  6
CONTINUOUS
 62
     4
 10
43.846745
 20
24.303028
 30
0.0
 11
43.846745
 21
-0.916149
 31
0.0
  0
LINE
  5
98
  8
0
  6
CONTINUOUS
 62
     4
 10
43.846745
 20
12.083853
 30
0.0
 11
44.364384
 21
14.015704
 31
0.0
  0
LINE
  5
99
  8
0
  6
CONTINUOUS
 62
     4
 10
43.846745
 20
12.083853
 30
0.0
 11
43.329105
 21
14.015703
 31
0.0
  0
LINE
  5
9A
  8
0
  6
CONTINUOUS
 62
     4
 10
43.846745
 20
4.083851
 30
0.0
 11
43.329102
 21
2.152
 31
0.0
  0
LINE
  5
9B
  8
0
  6
CONTINUOUS
 62
     4
 10
43.846748
 20
4.083851
 30
0.0
 11
44.364384
 21
2.152
 31
0.0
  0
ENDBLK
  5
9C
  8
0
  0
BLOCK
  8
0
  2
KOZU0012
 70
     0
 10
0.0
 20
0.0
 30
0.0
  3
KOZU0012
  1

  0
POINT
  5
9F
  8
0
  6
CONTINUOUS
 62
     7
 10
15.873434
 20
28.083868
 30
0.0
  0
POINT
  5
A0
  8
0
  6
CONTINUOUS
 62
     7
 10
15.873434
 20
-11.91614
 30
0.0
  0
POINT
  5
A1
  8
0
  6
CONTINUOUS
 62
     7
 10
51.846745
 20
-11.91614
 30
0.0
  0
LINE
  5
A2
  8
0
  6
CONTINUOUS
 62
     4
 10
16.873434
 20
-11.91614
 30
0.0
 11
53.846745
 21
-11.91614
 31
0.0
  0
LINE
  5
A3
  8
0
  6
CONTINUOUS
 62
     4
 10
16.873434
 20
28.083868
 30
0.0
 11
53.846745
 21
28.083868
 31
0.0
  0
LINE
  5
A4
  8
0
  6
CONTINUOUS
 62
     4
 10
51.846745
 20
-11.91614
 30
0.0
 11
51.846745
 21
28.083868
 31
0.0
  0
LINE
  5
A5
  8
0
  6
CONTINUOUS
 62
     4
 10
51.846745
 20
-11.916141
 30
0.0
 11
51.329105
 21
-9.984289
 31
0.0
  0
LINE
  5
A6
  8
0
  6
CONTINUOUS
 62
     4
 10
51.846745
 20
-11.916141
 30
0.0
 11
52.364384
 21
-9.984288
 31
0.0
  0
LINE
  5
A7
  8
0
  6
CONTINUOUS
 62
     4
 10
51.846745
 20
28.083868
 30
0.0
 11
52.364384
 21
26.152016
 31
0.0
  0
LINE
  5
A8
  8
0
  6
CONTINUOUS
 62
     4
 10
51.846745
 20
28.083866
 30
0.0
 11
51.329105
 21
26.152016
 31
0.0
  0
ENDBLK
  5
A9
  8
0
  0
BLOCK
  8
0
  2
KOZU0013
 70
     0
 10
0.0
 20
0.0
 30
0.0
  3
KOZU0013
  1

  0
POINT
  5
AC
  8
0
  6
CONTINUOUS
 62
     7
 10
9.873432
 20
33.083866
 30
0.0
  0
POINT
  5
AD
  8
0
  6
CONTINUOUS
 62
     7
 10
9.873432
 20
-16.916136
 30
0.0
  0
POINT
  5
AE
  8
0
  6
CONTINUOUS
 62
     7
 10
59.846745
 20
-16.916136
 30
0.0
  0
LINE
  5
AF
  8
0
  6
CONTINUOUS
 62
     4
 10
10.873432
 20
-16.916136
 30
0.0
 11
61.846745
 21
-16.916136
 31
0.0
  0
LINE
  5
B0
  8
0
  6
CONTINUOUS
 62
     4
 10
10.873432
 20
33.083866
 30
0.0
 11
61.846745
 21
33.083866
 31
0.0
  0
LINE
  5
B1
  8
0
  6
CONTINUOUS
 62
     4
 10
59.846745
 20
-16.916136
 30
0.0
 11
59.846745
 21
33.083866
 31
0.0
  0
LINE
  5
B2
  8
0
  6
CONTINUOUS
 62
     4
 10
59.846745
 20
-16.916136
 30
0.0
 11
59.329105
 21
-14.984284
 31
0.0
  0
LINE
  5
B3
  8
0
  6
CONTINUOUS
 62
     4
 10
59.846745
 20
-16.916136
 30
0.0
 11
60.364384
 21
-14.984283
 31
0.0
  0
LINE
  5
B4
  8
0
  6
CONTINUOUS
 62
     4
 10
59.846741
 20
33.083866
 30
0.0
 11
60.36438
 21
31.152014
 31
0.0
  0
LINE
  5
B5
  8
0
  6
CONTINUOUS
 62
     4
 10
59.846745
 20
33.08387
 30
0.0
 11
59.329105
 21
31.152014
 31
0.0
  0
ENDBLK
  5
B6
  8
0
  0
BLOCK
  8
0
  2
KOZU0014
 70
     0
 10
0.0
 20
0.0
 30
0.0
  3
KOZU0014
  1

  0
POINT
  5
B9
  8
0
  6
CONTINUOUS
 62
     7
 10
4.873445
 20
38.283852
 30
0.0
  0
POINT
  5
BA
  8
0
  6
CONTINUOUS
 62
     7
 10
9.873445
 20
38.283852
 30
0.0
  0
POINT
  5
BB
  8
0
  6
CONTINUOUS
 62
     7
 10
9.873445
 20
56.536095
 30
0.0
  0
LINE
  5
BC
  8
0
  6
CONTINUOUS
 62
     4
 10
9.873445
 20
39.283852
 30
0.0
 11
9.873445
 21
58.536095
 31
0.0
  0
LINE
  5
BD
  8
0
  6
CONTINUOUS
 62
     4
 10
4.873445
 20
39.283852
 30
0.0
 11
4.873445
 21
58.536095
 31
0.0
  0
LINE
  5
BE
  8
0
  6
CONTINUOUS
 62
     4
 10
9.873445
 20
56.536095
 30
0.0
 11
4.873445
 21
56.536095
 31
0.0
  0
LINE
  5
BF
  8
0
  6
CONTINUOUS
 62
     4
 10
9.873446
 20
56.536095
 30
0.0
 11
7.941592
 21
56.018456
 31
0.0
  0
LINE
  5
C0
  8
0
  6
CONTINUOUS
 62
     4
 10
9.873445
 20
56.536095
 30
0.0
 11
7.941593
 21
57.053734
 31
0.0
  0
LINE
  5
C1
  8
0
  6
CONTINUOUS
 62
     4
 10
4.873445
 20
56.536095
 30
0.0
 11
6.805296
 21
57.053734
 31
0.0
  0
LINE
  5
C2
  8
0
  6
CONTINUOUS
 62
     4
 10
4.873446
 20
56.536095
 30
0.0
 11
6.805296
 21
56.018456
 31
0.0
  0
ENDBLK
  5
C3
  8
0
  0
BLOCK
  8
0
  2
KOZU0015
 70
     0
 10
0.0
 20
0.0
 30
0.0
  3
KOZU0015
  1

  0
POINT
  5
C6
  8
0
  6
CONTINUOUS
 62
     3
 10
0.0
 20
0.0
 30
0.0
  0
POINT
  5
C7
  8
0
  6
CONTINUOUS
 62
     3
 10
0.0
 20
0.0
 30
0.0
  0
LINE
  5
C8
  8
0
  6
CONTINUOUS
 62
     2
 10
1.237439
 20
1.237436
 30
0.0
 11
-1.237439
 21
-1.237436
 31
0.0
  0
LINE
  5
C9
  8
0
  6
CONTINUOUS
 62
     2
 10
-1.237434
 20
1.237439
 30
0.0
 11
1.237434
 21
-1.237439
 31
0.0
  0
CIRCLE
  5
CA
  8
0
  6
CONTINUOUS
 62
     3
 10
0.0
 20
0.0
 30
0.0
 40
2.749999
  0
ENDBLK
  5
CB
  8
0
  0
BLOCK
  8
0
  2
KOZU0016
 70
     0
 10
0.0
 20
0.0
 30
0.0
  3
KOZU0016
  1

  0
POINT
  5
CE
  8
0
  6
CONTINUOUS
 62
     7
 10
-118.2274
 20
-31.089769
 30
0.0
  0
POINT
  5
CF
  8
0
  6
CONTINUOUS
 62
     7
 10
-145.06281
 20
-31.089769
 30
0.0
  0
POINT
  5
D0
  8
0
  6
CONTINUOUS
 62
     7
 10
-145.06281
 20
-38.986221
 30
0.0
  0
LINE
  5
D1
  8
0
  6
CONTINUOUS
 62
     4
 10
-145.06281
 20
-32.089767
 30
0.0
 11
-145.06281
 21
-40.986221
 31
0.0
  0
LINE
  5
D2
  8
0
  6
CONTINUOUS
 62
     4
 10
-118.2274
 20
-32.089767
 30
0.0
 11
-118.2274
 21
-40.986221
 31
0.0
  0
LINE
  5
D3
  8
0
  6
CONTINUOUS
 62
     4
 10
-150.06281
 20
-38.986221
 30
0.0
 11
-105.94375
 21
-38.986221
 31
0.0
  0
LINE
  5
D4
  8
0
  6
CONTINUOUS
 62
     4
 10
-145.06281
 20
-38.986225
 30
0.0
 11
-146.99466
 21
-38.468586
 31
0.0
  0
LINE
  5
D5
  8
0
  6
CONTINUOUS
 62
     4
 10
-145.06281
 20
-38.986217
 30
0.0
 11
-146.99466
 21
-39.503857
 31
0.0
  0
LINE
  5
D6
  8
0
  6
CONTINUOUS
 62
     4
 10
-118.2274
 20
-38.986221
 30
0.0
 11
-116.29555
 21
-39.50386
 31
0.0
  0
LINE
  5
D7
  8
0
  6
CONTINUOUS
 62
     4
 10
-118.2274
 20
-38.986221
 30
0.0
 11
-116.29555
 21
-38.468582
 31
0.0
  0
ENDBLK
  5
D8
  8
0
  0
BLOCK
  8
0
  2
KOZU0017
 70
     0
 10
0.0
 20
0.0
 30
0.0
  3
KOZU0017
  1

  0
POINT
  5
DB
  8
0
  6
CONTINUOUS
 62
     7
 10
159.74998
 20
33.283516
 30
0.0
  0
POINT
  5
DC
  8
0
  6
CONTINUOUS
 62
     7
 10
164.33592
 20
35.275791
 30
0.0
  0
LINE
  5
DD
  8
0
  6
CONTINUOUS
 62
     4
 10
159.74998
 20
33.283516
 30
0.0
 11
173.10194
 21
39.084023
 31
0.0
  0
LINE
  5
DE
  8
0
  6
CONTINUOUS
 62
     4
 10
164.33592
 20
35.275787
 30
0.0
 11
162.77031
 21
34.031261
 31
0.0
  0
LINE
  5
DF
  8
0
  6
CONTINUOUS
 62
     4
 10
164.33592
 20
35.275791
 30
0.0
 11
162.3578
 21
34.980804
 31
0.0
  0
ENDBLK
  5
E0
  8
0
  0
BLOCK
  8
0
  2
KOZU0018
 70
     0
 10
0.0
 20
0.0
 30
0.0
  3
KOZU0018
  1

  0
POINT
  5
E3
  8
0
  6
CONTINUOUS
 62
     7
 10
0.0
 20
0.0
 30
0.0
  0
POINT
  5
E4
  8
0
  6
CONTINUOUS
 62
     7
 10
134.54999
 20
8.083517
 30
0.0
  0
POINT
  5
E5
  8
0
  6
CONTINUOUS
 62
     7
 10
134.54999
 20
50.110806
 30
0.0
  0
POINT
  5
E6
  8
0
  6
CONTINUOUS
 62
     7
 10
104.97138
 20
37.662125
 30
0.0
  0
POINT
  5
E7
  8
0
  6
CONTINUOUS
 62
     7
 10
116.76215
 20
51.027157
 30
0.0
  0
LINE
  5
E8
  8
0
  6
CONTINUOUS
 62
     4
 10
134.54999
 20
51.110806
 30
0.0
 11
134.54999
 21
56.565376
 31
0.0
  0
LINE
  5
E9
  8
0
  6
CONTINUOUS
 62
     4
 10
104.26427
 20
38.369228
 30
0.0
 11
100.26814
 21
42.365368
 31
0.0
  0
LINE
  5
EA
  8
0
  6
CONTINUOUS
 62
     4
 10
134.54999
 20
54.565376
 30
0.0
 11
132.61813
 21
54.047733
 31
0.0
  0
LINE
  5
EB
  8
0
  6
CONTINUOUS
 62
     4
 10
134.54999
 20
54.56538
 30
0.0
 11
132.61813
 21
55.083015
 31
0.0
  0
LINE
  5
EC
  8
0
  6
CONTINUOUS
 62
     4
 10
101.68235
 20
40.95116
 30
0.0
 11
102.68235
 21
42.683208
 31
0.0
  0
LINE
  5
ED
  8
0
  6
CONTINUOUS
 62
     4
 10
101.68235
 20
40.951157
 30
0.0
 11
103.4144
 21
41.951157
 31
0.0
  0
ARC
  5
EE
  8
0
  6
CONTINUOUS
 62
     4
 10
134.54999
 20
8.083517
 30
0.0
 40
46.481857
 50
90.000003
 51
135.0
  0
ENDBLK
  5
EF
  8
0
  0
BLOCK
  8
0
  2
KOZU0019
 70
     0
 10
0.0
 20
0.0
 30
0.0
  3
KOZU0019
  1

  0
POINT
  5
F2
  8
0
  6
CONTINUOUS
 62
     7
 10
105.12822
 20
27.040302
 30
0.0
  0
POINT
  5
F3
  8
0
  6
CONTINUOUS
 62
     7
 10
163.97176
 20
-10.873268
 30
0.0
  0
LINE
  5
F4
  8
0
  6
CONTINUOUS
 62
     4
 10
163.97176
 20
-10.873263
 30
0.0
 11
105.12822
 21
27.040304
 31
0.0
  0
LINE
  5
F5
  8
0
  6
CONTINUOUS
 62
     4
 10
163.97176
 20
-10.873267
 30
0.0
 11
162.06743
 21
-10.262073
 31
0.0
  0
LINE
  5
F6
  8
0
  6
CONTINUOUS
 62
     4
 10
163.97176
 20
-10.873274
 30
0.0
 11
162.62816
 21
-9.391799
 31
0.0
  0
LINE
  5
F7
  8
0
  6
CONTINUOUS
 62
     4
 10
105.12822
 20
27.040304
 30
0.0
 11
107.03254
 21
26.42911
 31
0.0
  0
LINE
  5
F8
  8
0
  6
CONTINUOUS
 62
     4
 10
105.12822
 20
27.040304
 30
0.0
 11
106.47181
 21
25.558834
 31
0.0
  0
ENDBLK
  5
F9
  8
0
  0
BLOCK
  8
0
  2
KOZU0020
 70
     0
 10
0.0
 20
0.0
 30
0.0
  3
KOZU0020
  1

  0
POINT
  5
FC
  8
0
  6
CONTINUOUS
 62
     7
 10
-119.21221
 20
-31.916132
 30
0.0
  0
POINT
  5
FD
  8
0
  6
CONTINUOUS
 62
     7
 10
-99.114952
 20
8.083864
 30
0.0
  0
POINT
  5
FE
  8
0
  6
CONTINUOUS
 62
     7
 10
-90.265488
 20
8.083864
 30
0.0
  0
LINE
  5
FF
  8
0
  6
CONTINUOUS
 62
     4
 10
-98.114952
 20
8.083864
 30
0.0
 11
-88.265488
 21
8.083864
 31
0.0
  0
LINE
  5
100
  8
0
  6
CONTINUOUS
 62
     4
 10
-118.21221
 20
-31.916132
 30
0.0
 11
-88.265488
 21
-31.916132
 31
0.0
  0
LINE
  5
101
  8
0
  6
CONTINUOUS
 62
     4
 10
-90.265488
 20
8.083864
 30
0.0
 11
-90.265488
 21
-31.916132
 31
0.0
  0
LINE
  5
102
  8
0
  6
CONTINUOUS
 62
     4
 10
-90.265488
 20
8.083865
 30
0.0
 11
-89.747849
 21
6.152014
 31
0.0
  0
LINE
  5
103
  8
0
  6
CONTINUOUS
 62
     4
 10
-90.265488
 20
8.083863
 30
0.0
 11
-90.783127
 21
6.152013
 31
0.0
  0
LINE
  5
104
  8
0
  6
CONTINUOUS
 62
     4
 10
-90.265488
 20
-31.916132
 30
0.0
 11
-90.783127
 21
-29.98428
 31
0.0
  0
LINE
  5
105
  8
0
  6
CONTINUOUS
 62
     4
 10
-90.265488
 20
-31.916132
 30
0.0
 11
-89.747849
 21
-29.98428
 31
0.0
  0
ENDBLK
  5
106
  8
0
  0
BLOCK
  8
0
  2
KOZU0021
 70
     0
 10
0.0
 20
0.0
 30
0.0
  3
KOZU0021
  1

  0
POINT
  5
109
  8
0
  6
CONTINUOUS
 62
     7
 10
164.74998
 20
33.283516
 30
0.0
  0
POINT
  5
10A
  8
0
  6
CONTINUOUS
 62
     7
 10
104.34999
 20
33.283516
 30
0.0
  0
POINT
  5
10B
  8
0
  6
CONTINUOUS
 62
     7
 10
104.34999
 20
64.536095
 30
0.0
  0
LINE
  5
10C
  8
0
  6
CONTINUOUS
 62
     4
 10
104.34999
 20
34.283516
 30
0.0
 11
104.34999
 21
66.536095
 31
0.0
  0
LINE
  5
10D
  8
0
  6
CONTINUOUS
 62
     4
 10
164.74998
 20
34.283516
 30
0.0
 11
164.74998
 21
66.536095
 31
0.0
  0
LINE
  5
10E
  8
0
  6
CONTINUOUS
 62
     4
 10
104.34999
 20
64.536095
 30
0.0
 11
164.74998
 21
64.536095
 31
0.0
  0
LINE
  5
10F
  8
0
  6
CONTINUOUS
 62
     4
 10
104.34999
 20
64.536095
 30
0.0
 11
106.28185
 21
65.053734
 31
0.0
  0
LINE
  5
110
  8
0
  6
CONTINUOUS
 62
     4
 10
104.34999
 20
64.536095
 30
0.0
 11
106.28185
 21
64.018456
 31
0.0
  0
LINE
  5
111
  8
0
  6
CONTINUOUS
 62
     4
 10
164.74998
 20
64.536095
 30
0.0
 11
162.81813
 21
64.018456
 31
0.0
  0
LINE
  5
112
  8
0
  6
CONTINUOUS
 62
     4
 10
164.74998
 20
64.536095
 30
0.0
 11
162.81813
 21
65.053734
 31
0.0
  0
ENDBLK
  5
113
  8
0
  0
BLOCK
  8
0
  2
KOZU0022
 70
     0
 10
0.0
 20
0.0
 30
0.0
  3
KOZU0022
  1

  0
LINE
  5
116
  8
0
  6
CONTINUOUS
 62
     2
 10
3.7
 20
7.7
 30
0.0
 11
0.0
 21
7.7
 31
0.0
  0
LINE
  5
117
  8
0
  6
CONTINUOUS
 62
     2
 10
5.0
 20
0.0
 30
0.0
 11
5.0
 21
1.3
 31
0.0
  0
LINE
  5
118
  8
0
  6
CONTINUOUS
 62
     2
 10
0.0
 20
0.0
 30
0.0
 11
0.0
 21
1.3
 31
0.0
  0
LINE
  5
119
  8
0
  6
CONTINUOUS
 62
     2
 10
5.0
 20
0.0
 30
0.0
 11
0.0
 21
0.0
 31
0.0
  0
LINE
  5
11A
  8
0
  6
CONTINUOUS
 62
     2
 10
5.0
 20
9.0
 30
0.0
 11
0.0
 21
9.0
 31
0.0
  0
LINE
  5
11B
  8
0
  6
CONTINUOUS
 62
     2
 10
1.3
 20
1.3
 30
0.0
 11
5.0
 21
1.3
 31
0.0
  0
LINE
  5
11C
  8
0
  6
CONTINUOUS
 62
     2
 10
0.0
 20
9.0
 30
0.0
 11
0.0
 21
7.7
 31
0.0
  0
LINE
  5
11D
  8
0
  6
CONTINUOUS
 62
     2
 10
5.0
 20
9.0
 30
0.0
 11
5.0
 21
7.7
 31
0.0
  0
LINE
  5
11E
  8
0
  6
CONTINUOUS
 62
     2
 10
0.0
 20
1.3
 30
0.0
 11
3.7
 21
7.699999
 31
0.0
  0
LINE
  5
11F
  8
0
  6
CONTINUOUS
 62
     2
 10
1.300001
 20
1.300002
 30
0.0
 11
5.0
 21
7.700008
 31
0.0
  0
ENDBLK
  5
120
  8
0
  0
BLOCK
  8
0
  2
KOZU0023
 70
     0
 10
0.0
 20
0.0
 30
0.0
  3
KOZU0023
  1

  0
LINE
  5
123
  8
0
  6
CONTINUOUS
 62
     2
 10
1.3
 20
6.5
 30
0.0
 11
1.3
 21
4.693172
 31
0.0
  0
LINE
  5
124
  8
0
  6
CONTINUOUS
 62
     2
 10
0.0
 20
2.5
 30
0.0
 11
0.0
 21
6.5
 31
0.0
  0
LINE
  5
125
  8
0
  6
CONTINUOUS
 62
     2
 10
3.7
 20
6.5
 30
0.0
 11
5.0
 21
6.5
 31
0.0
  0
CIRCLE
  5
126
  8
0
  6
CONTINUOUS
 62
     2
 10
2.5
 20
2.5
 30
0.0
 40
1.2
  0
ARC
  5
127
  8
0
  6
CONTINUOUS
 62
     2
 10
2.5
 20
6.5
 30
0.0
 40
1.2
 50
0.0
 51
180.00002
  0
ARC
  5
128
  8
0
  6
CONTINUOUS
 62
     2
 10
2.5
 20
2.5
 30
0.0
 40
2.5
 50
180.00002
 51
53.13001
  0
ARC
  5
129
  8
0
  6
CONTINUOUS
 62
     2
 10
2.5
 20
2.5
 30
0.0
 40
2.5
 50
53.130064
 51
118.68547
  0
ARC
  5
12A
  8
0
  6
CONTINUOUS
 62
     2
 10
2.5
 20
6.5
 30
0.0
 40
2.5
 50
0.0
 51
180.00002
  0
ENDBLK
  5
12B
  8
0
  0
BLOCK
  8
0
  2
KOZU0024
 70
     0
 10
0.0
 20
0.0
 30
0.0
  3
KOZU0024
  1

  0
LINE
  5
12E
  8
0
  6
CONTINUOUS
 62
     4
 10
31.001217
 20
-106.69798
 30
0.0
 11
32.701149
 21
-106.69798
 31
0.0
  0
LINE
  5
12F
  8
0
  6
CONTINUOUS
 62
     4
 10
31.061216
 20
-106.59797
 30
0.0
 11
32.757816
 21
-106.59797
 31
0.0
  0
LINE
  5
130
  8
0
  6
CONTINUOUS
 62
     4
 10
31.121218
 20
-106.49797
 30
0.0
 11
32.814484
 21
-106.49797
 31
0.0
  0
LINE
  5
131
  8
0
  6
CONTINUOUS
 62
     4
 10
31.181217
 20
-106.39797
 30
0.0
 11
32.871147
 21
-106.39797
 31
0.0
  0
LINE
  5
132
  8
0
  6
CONTINUOUS
 62
     4
 10
31.241217
 20
-106.29797
 30
0.0
 11
32.927814
 21
-106.29797
 31
0.0
  0
LINE
  5
133
  8
0
  6
CONTINUOUS
 62
     4
 10
31.301216
 20
-106.19798
 30
0.0
 11
32.984482
 21
-106.19798
 31
0.0
  0
LINE
  5
134
  8
0
  6
CONTINUOUS
 62
     4
 10
31.361217
 20
-106.09797
 30
0.0
 11
33.041149
 21
-106.09797
 31
0.0
  0
LINE
  5
135
  8
0
  6
CONTINUOUS
 62
     4
 10
31.421217
 20
-105.99797
 30
0.0
 11
33.097816
 21
-105.99797
 31
0.0
  0
LINE
  5
136
  8
0
  6
CONTINUOUS
 62
     4
 10
31.481216
 20
-105.89797
 30
0.0
 11
33.154484
 21
-105.89797
 31
0.0
  0
LINE
  5
137
  8
0
  6
CONTINUOUS
 62
     4
 10
31.541218
 20
-105.79797
 30
0.0
 11
33.211147
 21
-105.79797
 31
0.0
  0
LINE
  5
138
  8
0
  6
CONTINUOUS
 62
     4
 10
31.601217
 20
-105.69798
 30
0.0
 11
33.267815
 21
-105.69798
 31
0.0
  0
LINE
  5
139
  8
0
  6
CONTINUOUS
 62
     4
 10
31.661217
 20
-105.59797
 30
0.0
 11
33.324482
 21
-105.59797
 31
0.0
  0
LINE
  5
13A
  8
0
  6
CONTINUOUS
 62
     4
 10
31.721216
 20
-105.49797
 30
0.0
 11
33.381149
 21
-105.49797
 31
0.0
  0
LINE
  5
13B
  8
0
  6
CONTINUOUS
 62
     4
 10
31.781218
 20
-105.39797
 30
0.0
 11
33.437817
 21
-105.39797
 31
0.0
  0
LINE
  5
13C
  8
0
  6
CONTINUOUS
 62
     4
 10
31.841217
 20
-105.29797
 30
0.0
 11
33.494484
 21
-105.29797
 31
0.0
  0
ENDBLK
  5
13D
  8
0
  0
BLOCK
  8
0
  2
KOZU0025
 70
     0
 10
0.0
 20
0.0
 30
0.0
  3
KOZU0025
  1

  0
LINE
  5
140
  8
0
  6
CONTINUOUS
 62
     4
 10
33.541412
 20
-102.29765
 30
0.0
 11
33.652077
 21
-102.29765
 31
0.0
  0
LINE
  5
141
  8
0
  6
CONTINUOUS
 62
     4
 10
33.481411
 20
-102.39764
 30
0.0
 11
33.705414
 21
-102.39764
 31
0.0
  0
LINE
  5
142
  8
0
  6
CONTINUOUS
 62
     4
 10
33.421413
 20
-102.49765
 30
0.0
 11
33.758743
 21
-102.49765
 31
0.0
  0
LINE
  5
143
  8
0
  6
CONTINUOUS
 62
     4
 10
33.361412
 20
-102.59765
 30
0.0
 11
33.812077
 21
-102.59765
 31
0.0
  0
LINE
  5
144
  8
0
  6
CONTINUOUS
 62
     4
 10
33.301411
 20
-102.69765
 30
0.0
 11
33.865414
 21
-102.69765
 31
0.0
  0
LINE
  5
145
  8
0
  6
CONTINUOUS
 62
     4
 10
33.241413
 20
-102.79765
 30
0.0
 11
33.918743
 21
-102.79765
 31
0.0
  0
LINE
  5
146
  8
0
  6
CONTINUOUS
 62
     4
 10
33.181412
 20
-102.89764
 30
0.0
 11
33.972076
 21
-102.89764
 31
0.0
  0
LINE
  5
147
  8
0
  6
CONTINUOUS
 62
     4
 10
33.12141
 20
-102.99765
 30
0.0
 11
34.025414
 21
-102.99765
 31
0.0
  0
LINE
  5
148
  8
0
  6
CONTINUOUS
 62
     4
 10
33.061413
 20
-103.09765
 30
0.0
 11
34.078747
 21
-103.09765
 31
0.0
  0
LINE
  5
149
  8
0
  6
CONTINUOUS
 62
     4
 10
33.001411
 20
-103.19765
 30
0.0
 11
34.132076
 21
-103.19765
 31
0.0
  0
LINE
  5
14A
  8
0
  6
CONTINUOUS
 62
     4
 10
32.941414
 20
-103.29765
 30
0.0
 11
34.185413
 21
-103.29765
 31
0.0
  0
LINE
  5
14B
  8
0
  6
CONTINUOUS
 62
     4
 10
32.881413
 20
-103.39764
 30
0.0
 11
34.238747
 21
-103.39764
 31
0.0
  0
LINE
  5
14C
  8
0
  6
CONTINUOUS
 62
     4
 10
32.821411
 20
-103.49765
 30
0.0
 11
34.292076
 21
-103.49765
 31
0.0
  0
LINE
  5
14D
  8
0
  6
CONTINUOUS
 62
     4
 10
32.761414
 20
-103.59765
 30
0.0
 11
34.345413
 21
-103.59765
 31
0.0
  0
LINE
  5
14E
  8
0
  6
CONTINUOUS
 62
     4
 10
32.701412
 20
-103.69765
 30
0.0
 11
34.398746
 21
-103.69765
 31
0.0
  0
LINE
  5
14F
  8
0
  6
CONTINUOUS
 62
     4
 10
32.755333
 20
-103.79765
 30
0.0
 11
34.344666
 21
-103.79765
 31
0.0
  0
LINE
  5
150
  8
0
  6
CONTINUOUS
 62
     4
 10
32.812
 20
-103.89764
 30
0.0
 11
34.287998
 21
-103.89764
 31
0.0
  0
LINE
  5
151
  8
0
  6
CONTINUOUS
 62
     4
 10
32.868668
 20
-103.99765
 30
0.0
 11
34.231335
 21
-103.99765
 31
0.0
  0
LINE
  5
152
  8
0
  6
CONTINUOUS
 62
     4
 10
32.925331
 20
-104.09765
 30
0.0
 11
34.174667
 21
-104.09765
 31
0.0
  0
LINE
  5
153
  8
0
  6
CONTINUOUS
 62
     4
 10
32.981998
 20
-104.19765
 30
0.0
 11
34.118
 21
-104.19765
 31
0.0
  0
LINE
  5
154
  8
0
  6
CONTINUOUS
 62
     4
 10
33.038666
 20
-104.29765
 30
0.0
 11
34.061333
 21
-104.29765
 31
0.0
  0
LINE
  5
155
  8
0
  6
CONTINUOUS
 62
     4
 10
33.095333
 20
-104.39764
 30
0.0
 11
34.004665
 21
-104.39764
 31
0.0
  0
LINE
  5
156
  8
0
  6
CONTINUOUS
 62
     4
 10
33.152
 20
-104.49765
 30
0.0
 11
33.948002
 21
-104.49765
 31
0.0
  0
LINE
  5
157
  8
0
  6
CONTINUOUS
 62
     4
 10
33.208668
 20
-104.59765
 30
0.0
 11
33.891335
 21
-104.59765
 31
0.0
  0
LINE
  5
158
  8
0
  6
CONTINUOUS
 62
     4
 10
33.265331
 20
-104.69765
 30
0.0
 11
33.834667
 21
-104.69765
 31
0.0
  0
LINE
  5
159
  8
0
  6
CONTINUOUS
 62
     4
 10
33.321999
 20
-104.79765
 30
0.0
 11
33.778
 21
-104.79765
 31
0.0
  0
LINE
  5
15A
  8
0
  6
CONTINUOUS
 62
     4
 10
33.378666
 20
-104.89764
 30
0.0
 11
33.721333
 21
-104.89764
 31
0.0
  0
LINE
  5
15B
  8
0
  6
CONTINUOUS
 62
     4
 10
33.435333
 20
-104.99765
 30
0.0
 11
33.664665
 21
-104.99765
 31
0.0
  0
LINE
  5
15C
  8
0
  6
CONTINUOUS
 62
     4
 10
33.492001
 20
-105.09765
 30
0.0
 11
33.608002
 21
-105.09765
 31
0.0
  0
LINE
  5
15D
  8
0
  6
CONTINUOUS
 62
     4
 10
33.548668
 20
-105.19765
 30
0.0
 11
33.551334
 21
-105.19765
 31
0.0
  0
ENDBLK
  5
15E
  8
0
  0
BLOCK
  8
0
  2
KOZU0026
 70
     0
 10
0.0
 20
0.0
 30
0.0
  3
KOZU0026
  1

  0
LINE
  5
161
  8
0
  6
CONTINUOUS
 62
     4
 10
34.39888
 20
-106.69802
 30
0.0
 11
35.998814
 21
-106.69802
 31
0.0
  0
LINE
  5
162
  8
0
  6
CONTINUOUS
 62
     4
 10
34.342213
 20
-106.59802
 30
0.0
 11
35.938812
 21
-106.59802
 31
0.0
  0
LINE
  5
163
  8
0
  6
CONTINUOUS
 62
     4
 10
34.285545
 20
-106.49802
 30
0.0
 11
35.878815
 21
-106.49802
 31
0.0
  0
LINE
  5
164
  8
0
  6
CONTINUOUS
 62
     4
 10
34.228878
 20
-106.39803
 30
0.0
 11
35.818813
 21
-106.39803
 31
0.0
  0
LINE
  5
165
  8
0
  6
CONTINUOUS
 62
     4
 10
34.172211
 20
-106.29802
 30
0.0
 11
35.758812
 21
-106.29802
 31
0.0
  0
LINE
  5
166
  8
0
  6
CONTINUOUS
 62
     4
 10
34.115547
 20
-106.19802
 30
0.0
 11
35.698814
 21
-106.19802
 31
0.0
  0
LINE
  5
167
  8
0
  6
CONTINUOUS
 62
     4
 10
34.05888
 20
-106.09802
 30
0.0
 11
35.638813
 21
-106.09802
 31
0.0
  0
LINE
  5
168
  8
0
  6
CONTINUOUS
 62
     4
 10
34.002213
 20
-105.99802
 30
0.0
 11
35.578812
 21
-105.99802
 31
0.0
  0
LINE
  5
169
  8
0
  6
CONTINUOUS
 62
     4
 10
33.945545
 20
-105.89803
 30
0.0
 11
35.518814
 21
-105.89803
 31
0.0
  0
LINE
  5
16A
  8
0
  6
CONTINUOUS
 62
     4
 10
33.888878
 20
-105.79802
 30
0.0
 11
35.458813
 21
-105.79802
 31
0.0
  0
LINE
  5
16B
  8
0
  6
CONTINUOUS
 62
     4
 10
33.832211
 20
-105.69802
 30
0.0
 11
35.398811
 21
-105.69802
 31
0.0
  0
LINE
  5
16C
  8
0
  6
CONTINUOUS
 62
     4
 10
33.775547
 20
-105.59802
 30
0.0
 11
35.338814
 21
-105.59802
 31
0.0
  0
LINE
  5
16D
  8
0
  6
CONTINUOUS
 62
     4
 10
33.71888
 20
-105.49802
 30
0.0
 11
35.278812
 21
-105.49802
 31
0.0
  0
LINE
  5
16E
  8
0
  6
CONTINUOUS
 62
     4
 10
33.662212
 20
-105.39803
 30
0.0
 11
35.218815
 21
-105.39803
 31
0.0
  0
LINE
  5
16F
  8
0
  6
CONTINUOUS
 62
     4
 10
33.605545
 20
-105.29802
 30
0.0
 11
35.158813
 21
-105.29802
 31
0.0
  0
ENDBLK
  5
170
  8
0
  0
BLOCK
  8
0
  2
KOZU0027
 70
     0
 10
0.0
 20
0.0
 30
0.0
  3
KOZU0027
  1

  0
POINT
  5
173
  8
0
  6
CONTINUOUS
 62
     7
 10
164.74998
 20
33.283516
 30
0.0
  0
POINT
  5
174
  8
0
  6
CONTINUOUS
 62
     7
 10
104.34999
 20
34.283516
 30
0.0
  0
POINT
  5
175
  8
0
  6
CONTINUOUS
 62
     7
 10
104.34999
 20
64.536095
 30
0.0
  0
LINE
  5
176
  8
0
  6
CONTINUOUS
 62
     3
 10
164.74998
 20
34.283516
 30
0.0
 11
164.74998
 21
66.536095
 31
0.0
  0
LINE
  5
177
  8
0
  6
CONTINUOUS
 62
     3
 10
104.34999
 20
35.283516
 30
0.0
 11
104.34999
 21
66.536095
 31
0.0
  0
LINE
  5
178
  8
0
  6
CONTINUOUS
 62
     3
 10
162.81813
 20
64.536095
 30
0.0
 11
106.28185
 21
64.536095
 31
0.0
  0
LINE
  5
179
  8
0
  6
CONTINUOUS
 62
     3
 10
162.81813
 20
64.214119
 30
0.0
 11
162.81813
 21
64.85807
 31
0.0
  0
LINE
  5
17A
  8
0
  6
CONTINUOUS
 62
     3
 10
162.81813
 20
64.85807
 30
0.0
 11
164.74998
 21
64.536095
 31
0.0
  0
LINE
  5
17B
  8
0
  6
CONTINUOUS
 62
     3
 10
164.74998
 20
64.536095
 30
0.0
 11
162.81813
 21
64.214119
 31
0.0
  0
LINE
  5
17C
  8
0
  6
CONTINUOUS
 62
     3
 10
106.28185
 20
64.214119
 30
0.0
 11
106.28185
 21
64.85807
 31
0.0
  0
LINE
  5
17D
  8
0
  6
CONTINUOUS
 62
     3
 10
106.28185
 20
64.85807
 30
0.0
 11
104.34999
 21
64.536095
 31
0.0
  0
LINE
  5
17E
  8
0
  6
CONTINUOUS
 62
     3
 10
104.34999
 20
64.536095
 30
0.0
 11
106.28185
 21
64.214119
 31
0.0
  0
ENDBLK
  5
17F
  8
0
  0
BLOCK
  8
0
  2
KOZU0028
 70
     0
 10
0.0
 20
0.0
 30
0.0
  3
KOZU0028
  1

  0
LINE
  5
182
  8
0
  6
CENTER
 62
     6
 10
0.0
 20
0.0
 30
0.0
 11
201.57297
 21
0.0
 31
0.0
  0
ENDBLK
  5
183
  8
0
  0
ENDSEC
  0
SECTION
  2
ENTITIES
  0
LINE
  5
184
  8
0
  6
CONTINUOUS
 62
     3
 10
138.04999
 20
-34.716137
 30
0.0
 11
138.04999
 21
-39.019676
 31
0.0
  0
LINE
  5
185
  8
0
  6
CONTINUOUS
 62
     3
 10
131.04999
 20
-34.716137
 30
0.0
 11
131.04999
 21
-39.019676
 31
0.0
  0
LINE
  5
186
  8
0
  6
CENTER
 62
     4
 10
119.44999
 20
30.083851
 30
0.0
 11
119.44999
 21
37.083851
 31
0.0
  0
LINE
  5
187
  8
0
  6
CENTER
 62
     4
 10
122.94999
 20
33.583851
 30
0.0
 11
115.94999
 21
33.583851
 31
0.0
  0
LINE
  5
188
  8
0
  6
CENTER
 62
     4
 10
149.64999
 20
30.083851
 30
0.0
 11
149.64999
 21
37.083851
 31
0.0
  0
LINE
  5
189
  8
0
  6
CENTER
 62
     4
 10
146.14999
 20
33.583851
 30
0.0
 11
153.14999
 21
33.583851
 31
0.0
  0
LINE
  5
18A
  8
0
  6
CENTER
 62
     4
 10
149.64999
 20
-13.916149
 30
0.0
 11
149.64999
 21
-20.916149
 31
0.0
  0
LINE
  5
18B
  8
0
  6
CENTER
 62
     4
 10
146.14999
 20
-17.416149
 30
0.0
 11
153.14999
 21
-17.416149
 31
0.0
  0
LINE
  5
18C
  8
0
  6
CENTER
 62
     4
 10
122.94999
 20
-17.416149
 30
0.0
 11
115.94999
 21
-17.416149
 31
0.0
  0
LINE
  5
18D
  8
0
  6
CENTER
 62
     4
 10
119.44999
 20
-13.916149
 30
0.0
 11
119.44999
 21
-20.916149
 31
0.0
  0
LINE
  5
18E
  8
0
  6
CONTINUOUS
 62
     3
 10
-59.998951
 20
18.186586
 30
0.0
 11
-55.324646
 21
18.186586
 31
0.0
  0
LINE
  5
18F
  8
0
  6
CONTINUOUS
 62
     3
 10
-56.815056
 20
20.583858
 30
0.0
 11
-55.324646
 21
20.583858
 31
0.0
  0
LINE
  5
190
  8
0
  6
CONTINUOUS
 62
     3
 10
-55.324646
 20
27.083853
 30
0.0
 11
-55.324646
 21
18.186586
 31
0.0
  0
LINE
  5
191
  8
0
  6
CONTINUOUS
 62
     3
 10
-59.675049
 20
27.083853
 30
0.0
 11
-55.324646
 21
27.083853
 31
0.0
  0
LINE
  5
192
  8
0
  6
CONTINUOUS
 62
     3
 10
-57.315056
 20
26.083858
 30
0.0
 11
-57.315056
 21
21.083858
 31
0.0
  0
LINE
  5
193
  8
0
  6
CONTINUOUS
 62
     3
 10
-56.815056
 20
26.583858
 30
0.0
 11
-55.324646
 21
26.583858
 31
0.0
  0
LINE
  5
194
  8
0
  6
CONTINUOUS
 62
     3
 10
-57.31506
 20
-4.91613
 30
0.0
 11
-57.31506
 21
-9.91613
 31
0.0
  0
LINE
  5
195
  8
0
  6
CONTINUOUS
 62
     3
 10
-56.81506
 20
-4.41613
 30
0.0
 11
-55.32465
 21
-4.41613
 31
0.0
  0
LINE
  5
196
  8
0
  6
CONTINUOUS
 62
     3
 10
-56.81506
 20
-10.41613
 30
0.0
 11
-55.32465
 21
-10.41613
 31
0.0
  0
LINE
  5
197
  8
0
  6
CENTER
 62
     4
 10
-42.126671
 20
-48.992558
 30
0.0
 11
-42.126671
 21
-31.916136
 31
0.0
  0
LINE
  5
198
  8
0
  6
CONTINUOUS
 62
     3
 10
-48.17622
 20
-30.968472
 30
0.0
 11
-48.491158
 21
-24.959127
 31
0.0
  0
LINE
  5
199
  8
0
  6
CONTINUOUS
 62
     3
 10
-47.177589
 20
-31.916136
 30
0.0
 11
-37.126568
 21
-31.916136
 31
0.0
  0
LINE
  5
19A
  8
0
  6
CONTINUOUS
 62
     3
 10
-29.626556
 20
-22.11615
 30
0.0
 11
-29.626556
 21
8.083864
 31
0.0
  0
LINE
  5
19B
  8
0
  6
CONTINUOUS
 62
     3
 10
-29.626556
 20
38.283844
 30
0.0
 11
-29.626556
 21
8.083864
 31
0.0
  0
LINE
  5
19C
  8
0
  6
CONTINUOUS
 62
     3
 10
-114.12779
 20
-21.189306
 30
0.0
 11
-149.16238
 21
-21.189306
 31
0.0
  0
LINE
  5
19D
  8
0
  6
CONTINUOUS
 62
     3
 10
-42.826557
 20
-22.116137
 30
0.0
 11
-41.626564
 21
-22.116137
 31
0.0
  0
LINE
  5
19E
  8
0
  6
CONTINUOUS
 62
     3
 10
-43.826557
 20
-22.116137
 30
0.0
 11
-42.826557
 21
-22.116137
 31
0.0
  0
LINE
  5
19F
  8
0
  6
CONTINUOUS
 62
     3
 10
-42.626556
 20
38.283844
 30
0.0
 11
-42.626556
 21
8.083864
 31
0.0
  0
LINE
  5
1A0
  8
0
  6
CONTINUOUS
 62
     3
 10
-42.626556
 20
-31.916142
 30
0.0
 11
-42.626556
 21
8.083864
 31
0.0
  0
LINE
  5
1A1
  8
0
  6
CONTINUOUS
 62
     3
 10
4.073444
 20
38.283852
 30
0.0
 11
-28.426556
 21
38.283852
 31
0.0
  0
LINE
  5
1A2
  8
0
  6
CONTINUOUS
 62
     3
 10
3.373429
 20
-22.116133
 30
0.0
 11
3.373457
 21
33.083858
 31
0.0
  0
LINE
  5
1A3
  8
0
  6
CONTINUOUS
 62
     3
 10
3.373444
 20
38.283852
 30
0.0
 11
3.373444
 21
26.083864
 31
0.0
  0
LINE
  5
1A4
  8
0
  6
CONTINUOUS
 62
     3
 10
3.373444
 20
8.083851
 30
0.0
 11
3.373444
 21
-22.11615
 31
0.0
  0
LINE
  5
1A5
  8
0
  6
CENTER
 62
     4
 10
36.811611
 20
8.083864
 30
0.0
 11
-67.205826
 21
8.083864
 31
0.0
  0
LINE
  5
1A6
  8
0
  6
CONTINUOUS
 62
     3
 10
4.873444
 20
38.283852
 30
0.0
 11
4.873444
 21
25.534655
 31
0.0
  0
LINE
  5
1A7
  8
0
  6
CONTINUOUS
 62
     3
 10
3.373444
 20
-22.11615
 30
0.0
 11
-43.126564
 21
-22.11615
 31
0.0
  0
LINE
  5
1A8
  8
0
  6
CENTER
 62
     4
 10
29.837427
 20
8.083851
 30
0.0
 11
37.907299
 21
8.083851
 31
0.0
  0
LINE
  5
1A9
  8
0
  6
CONTINUOUS
 62
     3
 10
4.873444
 20
-9.366926
 30
0.0
 11
4.873444
 21
-22.11615
 31
0.0
  0
LINE
  5
1AA
  8
0
  6
CONTINUOUS
 62
     3
 10
-55.32465
 20
-9.366926
 30
0.0
 11
4.873444
 21
-9.366926
 31
0.0
  0
LINE
  5
1AB
  8
0
  6
CONTINUOUS
 62
     3
 10
-55.324646
 20
25.534655
 30
0.0
 11
4.873444
 21
25.534655
 31
0.0
  0
LINE
  5
1AC
  8
0
  6
CONTINUOUS
 62
     3
 10
3.373444
 20
-12.813403
 30
0.0
 11
-59.580318
 21
-12.813403
 31
0.0
  0
LINE
  5
1AD
  8
0
  6
CONTINUOUS
 62
     3
 10
-59.580395
 20
28.979454
 30
0.0
 11
3.373444
 21
28.979454
 31
0.0
  0
LINE
  5
1AE
  8
0
  6
CONTINUOUS
 62
     3
 10
15.873435
 20
-11.916139
 30
0.0
 11
15.873445
 21
8.083864
 31
0.0
  0
LINE
  5
1AF
  8
0
  6
CONTINUOUS
 62
     3
 10
12.873435
 20
-11.916138
 30
0.0
 11
15.873435
 21
-11.91614
 31
0.0
  0
LINE
  5
1B0
  8
0
  6
CONTINUOUS
 62
     3
 10
12.873444
 20
33.083851
 30
0.0
 11
12.873444
 21
28.083851
 31
0.0
  0
LINE
  5
1B1
  8
0
  6
CONTINUOUS
 62
     3
 10
3.373444
 20
38.283852
 30
0.0
 11
9.873444
 21
38.283852
 31
0.0
  0
LINE
  5
1B2
  8
0
  6
CONTINUOUS
 62
     3
 10
12.873432
 20
-16.916138
 30
0.0
 11
12.873454
 21
28.083851
 31
0.0
  0
LINE
  5
1B3
  8
0
  6
CONTINUOUS
 62
     3
 10
9.873428
 20
-22.116137
 30
0.0
 11
9.873457
 21
33.083851
 31
0.0
  0
LINE
  5
1B4
  8
0
  6
CONTINUOUS
 62
     3
 10
9.873432
 20
-16.916136
 30
0.0
 11
12.873432
 21
-16.916138
 31
0.0
  0
LINE
  5
1B5
  8
0
  6
CONTINUOUS
 62
     3
 10
3.373444
 20
-22.116133
 30
0.0
 11
9.873429
 21
-22.116137
 31
0.0
  0
LINE
  5
1B6
  8
0
  6
CONTINUOUS
 62
     3
 10
9.873444
 20
33.083851
 30
0.0
 11
12.873444
 21
33.083851
 31
0.0
  0
LINE
  5
1B7
  8
0
  6
CONTINUOUS
 62
     3
 10
12.873444
 20
28.083851
 30
0.0
 11
15.873444
 21
28.083851
 31
0.0
  0
LINE
  5
1B8
  8
0
  6
CONTINUOUS
 62
     3
 10
15.873444
 20
28.083851
 30
0.0
 11
15.873444
 21
14.083851
 31
0.0
  0
LINE
  5
1B9
  8
0
  6
CONTINUOUS
 62
     3
 10
9.873444
 20
38.283852
 30
0.0
 11
9.873444
 21
33.083851
 31
0.0
  0
LINE
  5
1BA
  8
0
  6
CONTINUOUS
 62
     3
 10
34.873444
 20
4.083851
 30
0.0
 11
34.873444
 21
12.083851
 31
0.0
  0
LINE
  5
1BB
  8
0
  6
CONTINUOUS
 62
     3
 10
15.873444
 20
12.083851
 30
0.0
 11
34.873444
 21
12.083851
 31
0.0
  0
LINE
  5
1BC
  8
0
  6
CONTINUOUS
 62
     3
 10
15.873444
 20
4.083851
 30
0.0
 11
34.873444
 21
4.083851
 31
0.0
  0
LINE
  5
1BD
  8
0
  6
CONTINUOUS
 62
     3
 10
15.873444
 20
14.083851
 30
0.0
 11
15.873444
 21
4.083851
 31
0.0
  0
LINE
  5
1BE
  8
0
  6
CONTINUOUS
 62
     3
 10
-114.17323
 20
-22.11647
 30
0.0
 11
-106.44511
 21
-22.11647
 31
0.0
  0
LINE
  5
1BF
  8
0
  6
CONTINUOUS
 62
     3
 10
-149.11653
 20
-22.11647
 30
0.0
 11
-156.84511
 21
-22.11647
 31
0.0
  0
LINE
  5
1C0
  8
0
  6
CENTER
 62
     4
 10
-152.03931
 20
28.477745
 30
0.0
 11
-161.22371
 21
37.662148
 31
0.0
  0
LINE
  5
1C1
  8
0
  6
CONTINUOUS
 62
     3
 10
-131.6451
 20
38.283531
 30
0.0
 11
-156.84511
 21
38.283531
 31
0.0
  0
LINE
  5
1C2
  8
0
  6
CENTER
 62
     4
 10
-111.25089
 20
28.477741
 30
0.0
 11
-102.0665
 21
37.66214
 31
0.0
  0
LINE
  5
1C3
  8
0
  6
CONTINUOUS
 62
     3
 10
-131.6451
 20
38.283531
 30
0.0
 11
-106.44511
 21
38.283531
 31
0.0
  0
LINE
  5
1C4
  8
0
  6
CENTER
 62
     4
 10
-110.4237
 20
-13.137874
 30
0.0
 11
-102.00777
 21
-21.55381
 31
0.0
  0
LINE
  5
1C5
  8
0
  6
CONTINUOUS
 62
     3
 10
-101.44511
 20
-17.11647
 30
0.0
 11
-101.44511
 21
33.283531
 31
0.0
  0
LINE
  5
1C6
  8
0
  6
CONTINUOUS
 62
     3
 10
-161.84511
 20
-17.11647
 30
0.0
 11
-161.84511
 21
33.283531
 31
0.0
  0
LINE
  5
1C7
  8
0
  6
CENTER
 62
     4
 10
-152.8665
 20
-13.13787
 30
0.0
 11
-161.28244
 21
-21.553804
 31
0.0
  0
LINE
  5
1C8
  8
0
  6
CENTER
 62
     4
 10
-60.200134
 20
23.583858
 30
0.0
 11
-55.367622
 21
23.583858
 31
0.0
  0
LINE
  5
1C9
  8
0
  6
CENTER
 62
     4
 10
-60.132313
 20
-7.41613
 30
0.0
 11
-54.689423
 21
-7.41613
 31
0.0
  0
LINE
  5
1CA
  8
0
  6
CONTINUOUS
 62
     3
 10
-55.32465
 20
-3.916137
 30
0.0
 11
-55.32465
 21
-12.813403
 31
0.0
  0
LINE
  5
1CB
  8
0
  6
CONTINUOUS
 62
     3
 10
-59.946514
 20
-3.916137
 30
0.0
 11
-55.32465
 21
-3.916137
 31
0.0
  0
LINE
  5
1CC
  8
0
  6
CONTINUOUS
 62
     3
 10
131.04999
 20
-47.279675
 30
0.0
 11
131.04999
 21
-42.087845
 31
0.0
  0
LINE
  5
1CD
  8
0
  6
CONTINUOUS
 62
     3
 10
138.04999
 20
-47.279675
 30
0.0
 11
138.04999
 21
-42.087845
 31
0.0
  0
LINE
  5
1CE
  8
0
  6
CENTER
 62
     4
 10
134.54999
 20
-54.019676
 30
0.0
 11
134.54999
 21
-38.988792
 31
0.0
  0
LINE
  5
1CF
  8
0
  6
CONTINUOUS
 62
     3
 10
-135.1451
 20
-47.179665
 30
0.0
 11
-135.1451
 21
-41.724289
 31
0.0
  0
LINE
  5
1D0
  8
0
  6
CONTINUOUS
 62
     3
 10
-128.1451
 20
-47.379684
 30
0.0
 11
-128.1451
 21
-41.724293
 31
0.0
  0
LINE
  5
1D1
  8
0
  6
CENTER
 62
     4
 10
-131.6451
 20
-55.330853
 30
0.0
 11
-131.6451
 21
-39.493874
 31
0.0
  0
LINE
  5
1D2
  8
0
  6
CONTINUOUS
 62
     3
 10
-128.1451
 20
-32.016144
 30
0.0
 11
-128.14511
 21
-37.471516
 31
0.0
  0
LINE
  5
1D3
  8
0
  6
CONTINUOUS
 62
     3
 10
-135.1451
 20
-31.816122
 30
0.0
 11
-135.14511
 21
-37.471516
 31
0.0
  0
LINE
  5
1D4
  8
0
  6
CONTINUOUS
 62
     3
 10
-45.626671
 20
-47.279675
 30
0.0
 11
-45.626667
 21
-41.724289
 31
0.0
  0
LINE
  5
1D5
  8
0
  6
CONTINUOUS
 62
     3
 10
-38.626671
 20
-47.279675
 30
0.0
 11
-38.626667
 21
-41.724293
 31
0.0
  0
LINE
  5
1D6
  8
0
  6
CONTINUOUS
 62
     3
 10
-116.64508
 20
-22.116119
 30
0.0
 11
-149.16238
 21
-22.116119
 31
0.0
  0
LINE
  5
1D7
  8
0
  6
PHANTOM
 62
     4
 10
-117.09379
 20
-24.660824
 30
0.0
 11
-116.64508
 21
-22.116121
 31
0.0
  0
LINE
  5
1D8
  8
0
  6
PHANTOM
 62
     4
 10
-146.20796
 20
-24.595181
 30
0.0
 11
-146.64508
 21
-22.116117
 31
0.0
  0
LINE
  5
1D9
  8
0
  6
CONTINUOUS
 62
     3
 10
-114.12779
 20
-22.116119
 30
0.0
 11
-116.64508
 21
-22.116119
 31
0.0
  0
LINE
  5
1DA
  8
0
  6
CENTER
 62
     4
 10
-161.34509
 20
23.583858
 30
0.0
 11
-153.9451
 21
23.583858
 31
0.0
  0
LINE
  5
1DB
  8
0
  6
CENTER
 62
     4
 10
-109.3451
 20
23.583858
 30
0.0
 11
-101.10344
 21
23.583858
 31
0.0
  0
LINE
  5
1DC
  8
0
  6
CENTER
 62
     4
 10
-105.6451
 20
19.883862
 30
0.0
 11
-105.6451
 21
27.283855
 31
0.0
  0
LINE
  5
1DD
  8
0
  6
CENTER
 62
     4
 10
-161.34509
 20
-7.41613
 30
0.0
 11
-153.9451
 21
-7.41613
 31
0.0
  0
LINE
  5
1DE
  8
0
  6
CENTER
 62
     4
 10
-157.6451
 20
-11.116127
 30
0.0
 11
-157.6451
 21
-3.716134
 31
0.0
  0
LINE
  5
1DF
  8
0
  6
CENTER
 62
     4
 10
-109.3451
 20
-7.41613
 30
0.0
 11
-101.48515
 21
-7.41613
 31
0.0
  0
LINE
  5
1E0
  8
0
  6
CENTER
 62
     4
 10
-131.6451
 20
-39.493874
 30
0.0
 11
-131.6451
 21
45.095776
 31
0.0
  0
LINE
  5
1E1
  8
0
  6
CENTER
 62
     4
 10
-105.6451
 20
-11.116127
 30
0.0
 11
-105.6451
 21
-3.716134
 31
0.0
  0
LINE
  5
1E2
  8
0
  6
CENTER
 62
     4
 10
-129.09509
 20
-27.016142
 30
0.0
 11
-119.19508
 21
-27.016142
 31
0.0
  0
LINE
  5
1E3
  8
0
  6
CONTINUOUS
 62
     3
 10
-150.50717
 20
37.371132
 30
0.0
 11
-150.19945
 21
37.357059
 31
0.0
  0
LINE
  5
1E4
  8
0
  6
CONTINUOUS
 62
     3
 10
-150.78491
 20
37.37672
 30
0.0
 11
-150.50717
 21
37.371132
 31
0.0
  0
LINE
  5
1E5
  8
0
  6
CONTINUOUS
 62
     3
 10
-151.00565
 20
37.37326
 30
0.0
 11
-150.78491
 21
37.376717
 31
0.0
  0
LINE
  5
1E6
  8
0
  6
CONTINUOUS
 62
     3
 10
-151.1479
 20
37.361118
 30
0.0
 11
-151.00565
 21
37.37326
 31
0.0
  0
LINE
  5
1E7
  8
0
  6
CONTINUOUS
 62
     3
 10
-151.1978
 20
37.341434
 30
0.0
 11
-151.1479
 21
37.361118
 31
0.0
  0
LINE
  5
1E8
  8
0
  6
CONTINUOUS
 62
     3
 10
-144.37993
 20
-31.061905
 30
0.0
 11
-144.078
 21
-31.013872
 31
0.0
  0
LINE
  5
1E9
  8
0
  6
CONTINUOUS
 62
     3
 10
-144.65215
 20
-31.095816
 30
0.0
 11
-144.37993
 21
-31.061907
 31
0.0
  0
LINE
  5
1EA
  8
0
  6
CONTINUOUS
 62
     3
 10
-144.86919
 20
-31.112528
 30
0.0
 11
-144.65215
 21
-31.095814
 31
0.0
  0
LINE
  5
1EB
  8
0
  6
CONTINUOUS
 62
     3
 10
-145.0106
 20
-31.110441
 30
0.0
 11
-144.86919
 21
-31.112526
 31
0.0
  0
LINE
  5
1EC
  8
0
  6
CONTINUOUS
 62
     3
 10
-145.06281
 20
-31.089762
 30
0.0
 11
-145.0106
 21
-31.110437
 31
0.0
  0
LINE
  5
1ED
  8
0
  6
CONTINUOUS
 62
     3
 10
-144.078
 20
-31.916132
 30
0.0
 11
-119.21221
 21
-31.916132
 31
0.0
  0
LINE
  5
1EE
  8
0
  6
CONTINUOUS
 62
     3
 10
-118.27967
 20
-31.110441
 30
0.0
 11
-118.2274
 21
-31.089767
 31
0.0
  0
LINE
  5
1EF
  8
0
  6
CONTINUOUS
 62
     3
 10
-118.4213
 20
-31.112501
 30
0.0
 11
-118.27967
 21
-31.110443
 31
0.0
  0
LINE
  5
1F0
  8
0
  6
CONTINUOUS
 62
     3
 10
-118.63868
 20
-31.09576
 30
0.0
 11
-118.4213
 21
-31.112499
 31
0.0
  0
LINE
  5
1F1
  8
0
  6
CONTINUOUS
 62
     3
 10
-118.91102
 20
-31.061802
 30
0.0
 11
-118.63868
 21
-31.095762
 31
0.0
  0
LINE
  5
1F2
  8
0
  6
CONTINUOUS
 62
     3
 10
-119.21222
 20
-31.01387
 30
0.0
 11
-118.91102
 21
-31.061804
 31
0.0
  0
LINE
  5
1F3
  8
0
  6
CONTINUOUS
 62
     3
 10
-144.078
 20
-31.013872
 30
0.0
 11
-119.21221
 21
-31.013872
 31
0.0
  0
LINE
  5
1F4
  8
0
  6
CONTINUOUS
 62
     3
 10
-160.42816
 20
26.387106
 30
0.0
 11
-154.73729
 21
28.458405
 31
0.0
  0
LINE
  5
1F5
  8
0
  6
CONTINUOUS
 62
     3
 10
-150.50795
 20
-21.203428
 30
0.0
 11
-150.19945
 21
-21.189306
 31
0.0
  0
LINE
  5
1F6
  8
0
  6
CONTINUOUS
 62
     3
 10
-150.78555
 20
-21.20899
 30
0.0
 11
-150.50795
 21
-21.203428
 31
0.0
  0
LINE
  5
1F7
  8
0
  6
CONTINUOUS
 62
     3
 10
-151.00595
 20
-21.205511
 30
0.0
 11
-150.78555
 21
-21.20899
 31
0.0
  0
LINE
  5
1F8
  8
0
  6
CONTINUOUS
 62
     3
 10
-151.14798
 20
-21.193371
 30
0.0
 11
-151.00597
 21
-21.205511
 31
0.0
  0
LINE
  5
1F9
  8
0
  6
CONTINUOUS
 62
     3
 10
-151.1978
 20
-21.173687
 30
0.0
 11
-151.14798
 21
-21.193371
 31
0.0
  0
LINE
  5
1FA
  8
0
  6
CONTINUOUS
 62
     3
 10
-153.73352
 20
28.18804
 30
0.0
 11
-153.14508
 21
28.170622
 31
0.0
  0
LINE
  5
1FB
  8
0
  6
CONTINUOUS
 62
     3
 10
-153.95441
 20
28.176912
 30
0.0
 11
-153.73352
 21
28.188038
 31
0.0
  0
LINE
  5
1FC
  8
0
  6
CONTINUOUS
 62
     3
 10
-154.09624
 20
28.162918
 30
0.0
 11
-153.95441
 21
28.176914
 31
0.0
  0
LINE
  5
1FD
  8
0
  6
CONTINUOUS
 62
     3
 10
-154.14511
 20
28.1474
 30
0.0
 11
-154.09624
 21
28.162922
 31
0.0
  0
LINE
  5
1FE
  8
0
  6
CONTINUOUS
 62
     3
 10
-160.08615
 20
25.447407
 30
0.0
 11
-154.39528
 21
27.518721
 31
0.0
  0
LINE
  5
1FF
  8
0
  6
CONTINUOUS
 62
     3
 10
-160.54085
 20
20.083866
 30
0.0
 11
-160.54085
 21
19.111452
 31
0.0
  0
LINE
  5
200
  8
0
  6
CONTINUOUS
 62
     3
 10
-160.54085
 20
-3.916137
 30
0.0
 11
-160.54085
 21
-2.943698
 31
0.0
  0
LINE
  5
201
  8
0
  6
CONTINUOUS
 62
     3
 10
-160.81129
 20
11.761835
 30
0.0
 11
-160.54085
 21
19.111452
 31
0.0
  0
LINE
  5
202
  8
0
  6
CONTINUOUS
 62
     3
 10
-160.81129
 20
4.405919
 30
0.0
 11
-160.81129
 21
11.761835
 31
0.0
  0
LINE
  5
203
  8
0
  6
CONTINUOUS
 62
     3
 10
-160.54085
 20
-2.943698
 30
0.0
 11
-160.81129
 21
4.405919
 31
0.0
  0
LINE
  5
204
  8
0
  6
CONTINUOUS
 62
     3
 10
-161.53932
 20
-2.971411
 30
0.0
 11
-161.08231
 21
-9.366927
 31
0.0
  0
LINE
  5
205
  8
0
  6
CONTINUOUS
 62
     3
 10
-145.43806
 20
-23.736464
 30
0.0
 11
-145.22316
 21
-24.503014
 31
0.0
  0
LINE
  5
206
  8
0
  6
CONTINUOUS
 62
     3
 10
-145.80296
 20
-23.022678
 30
0.0
 11
-145.43806
 21
-23.736467
 31
0.0
  0
LINE
  5
207
  8
0
  6
CONTINUOUS
 62
     3
 10
-146.30182
 20
-22.396444
 30
0.0
 11
-145.80295
 21
-23.022682
 31
0.0
  0
LINE
  5
208
  8
0
  6
CONTINUOUS
 62
     3
 10
-146.63594
 20
-22.116117
 30
0.0
 11
-146.30182
 21
-22.396437
 31
0.0
  0
LINE
  5
209
  8
0
  6
CONTINUOUS
 62
     3
 10
-113.09074
 20
-22.116125
 30
0.0
 11
-114.12779
 21
-22.116125
 31
0.0
  0
LINE
  5
20A
  8
0
  6
CONTINUOUS
 62
     3
 10
-150.19945
 20
-22.116125
 30
0.0
 11
-149.16238
 21
-22.116125
 31
0.0
  0
LINE
  5
20B
  8
0
  6
CONTINUOUS
 62
     3
 10
-117.85214
 20
-23.736496
 30
0.0
 11
-118.06702
 21
-24.503016
 31
0.0
  0
LINE
  5
20C
  8
0
  6
CONTINUOUS
 62
     3
 10
-117.48727
 20
-23.022758
 30
0.0
 11
-117.85214
 21
-23.73649
 31
0.0
  0
LINE
  5
20D
  8
0
  6
CONTINUOUS
 62
     3
 10
-116.98841
 20
-22.396465
 30
0.0
 11
-117.48727
 21
-23.022758
 31
0.0
  0
LINE
  5
20E
  8
0
  6
CONTINUOUS
 62
     3
 10
-116.65426
 20
-22.116117
 30
0.0
 11
-116.98841
 21
-22.396465
 31
0.0
  0
LINE
  5
20F
  8
0
  6
CONTINUOUS
 62
     3
 10
-146.15636
 20
-24.611038
 30
0.0
 11
-146.20796
 21
-24.59519
 31
0.0
  0
LINE
  5
210
  8
0
  6
CONTINUOUS
 62
     3
 10
-146.01503
 20
-24.608679
 30
0.0
 11
-146.15636
 21
-24.61104
 31
0.0
  0
LINE
  5
211
  8
0
  6
CONTINUOUS
 62
     3
 10
-145.79755
 20
-24.588333
 30
0.0
 11
-146.01503
 21
-24.608679
 31
0.0
  0
LINE
  5
212
  8
0
  6
CONTINUOUS
 62
     3
 10
-145.52486
 20
-24.551935
 30
0.0
 11
-145.79755
 21
-24.588333
 31
0.0
  0
LINE
  5
213
  8
0
  6
CONTINUOUS
 62
     3
 10
-145.22316
 20
-24.503016
 30
0.0
 11
-145.52486
 21
-24.551937
 31
0.0
  0
LINE
  5
214
  8
0
  6
CONTINUOUS
 62
     3
 10
-157.6451
 20
19.111452
 30
0.0
 11
-157.6451
 21
20.083866
 31
0.0
  0
LINE
  5
215
  8
0
  6
CONTINUOUS
 62
     3
 10
-157.6451
 20
-3.916137
 30
0.0
 11
-157.6451
 21
-2.943698
 31
0.0
  0
LINE
  5
216
  8
0
  6
CONTINUOUS
 62
     3
 10
-160.42816
 20
-10.219351
 30
0.0
 11
-154.73729
 21
-12.290671
 31
0.0
  0
LINE
  5
217
  8
0
  6
CONTINUOUS
 62
     3
 10
-113.09074
 20
-21.189306
 30
0.0
 11
-114.12779
 21
-21.189306
 31
0.0
  0
LINE
  5
218
  8
0
  6
CONTINUOUS
 62
     3
 10
-150.19945
 20
-21.189306
 30
0.0
 11
-149.16238
 21
-21.189306
 31
0.0
  0
LINE
  5
219
  8
0
  6
CONTINUOUS
 62
     3
 10
-160.08615
 20
-9.279678
 30
0.0
 11
-160.42816
 21
-10.219354
 31
0.0
  0
LINE
  5
21A
  8
0
  6
CONTINUOUS
 62
     3
 10
-154.14511
 20
-7.41613
 30
0.0
 11
-154.14511
 21
-11.979647
 31
0.0
  0
LINE
  5
21B
  8
0
  6
CONTINUOUS
 62
     3
 10
-154.14511
 20
23.583858
 30
0.0
 11
-154.14511
 21
28.1474
 31
0.0
  0
LINE
  5
21C
  8
0
  6
CONTINUOUS
 62
     3
 10
-146.20796
 20
-24.59519
 30
0.0
 11
-145.06281
 21
-31.089766
 31
0.0
  0
LINE
  5
21D
  8
0
  6
CONTINUOUS
 62
     3
 10
-160.08617
 20
25.447405
 30
0.0
 11
-160.42818
 21
26.3871
 31
0.0
  0
LINE
  5
21E
  8
0
  6
CONTINUOUS
 62
     3
 10
-160.08615
 20
-9.27968
 30
0.0
 11
-154.39528
 21
-11.350973
 31
0.0
  0
LINE
  5
21F
  8
0
  6
CONTINUOUS
 62
     3
 10
-153.73289
 20
-12.020337
 30
0.0
 11
-153.14508
 21
-12.002893
 31
0.0
  0
LINE
  5
220
  8
0
  6
CONTINUOUS
 62
     3
 10
-153.95413
 20
-12.009212
 30
0.0
 11
-153.73289
 21
-12.020336
 31
0.0
  0
LINE
  5
221
  8
0
  6
CONTINUOUS
 62
     3
 10
-154.09616
 20
-11.995191
 30
0.0
 11
-153.95413
 21
-12.009212
 31
0.0
  0
LINE
  5
222
  8
0
  6
CONTINUOUS
 62
     3
 10
-154.14511
 20
-11.979647
 30
0.0
 11
-154.09616
 21
-11.995192
 31
0.0
  0
LINE
  5
223
  8
0
  6
CONTINUOUS
 62
     3
 10
-151.45567
 20
32.869057
 30
0.0
 11
-151.1978
 21
37.341438
 31
0.0
  0
LINE
  5
224
  8
0
  6
CONTINUOUS
 62
     3
 10
-150.45734
 20
32.873451
 30
0.0
 11
-150.19945
 21
37.357059
 31
0.0
  0
LINE
  5
225
  8
0
  6
CONTINUOUS
 62
     3
 10
-153.14508
 20
-7.454967
 30
0.0
 11
-153.14508
 21
-12.029939
 31
0.0
  0
LINE
  5
226
  8
0
  6
CONTINUOUS
 62
     3
 10
-153.14508
 20
23.622721
 30
0.0
 11
-153.14508
 21
28.197666
 31
0.0
  0
LINE
  5
227
  8
0
  6
CONTINUOUS
 62
     3
 10
-150.45734
 20
-16.705723
 30
0.0
 11
-150.19945
 21
-21.189306
 31
0.0
  0
LINE
  5
228
  8
0
  6
CONTINUOUS
 62
     3
 10
-151.45569
 20
-16.701303
 30
0.0
 11
-151.19781
 21
-21.173685
 31
0.0
  0
LINE
  5
229
  8
0
  6
CONTINUOUS
 62
     3
 10
-145.22316
 20
-24.503016
 30
0.0
 11
-144.078
 21
-31.01387
 31
0.0
  0
LINE
  5
22A
  8
0
  6
CONTINUOUS
 62
     3
 10
-154.73729
 20
-12.29067
 30
0.0
 11
-154.39528
 21
-11.35097
 31
0.0
  0
LINE
  5
22B
  8
0
  6
CONTINUOUS
 62
     3
 10
-150.19945
 20
38.283878
 30
0.0
 11
-150.19945
 21
37.357059
 31
0.0
  0
LINE
  5
22C
  8
0
  6
CONTINUOUS
 62
     3
 10
-150.19945
 20
-22.116125
 30
0.0
 11
-150.19945
 21
-21.189306
 31
0.0
  0
LINE
  5
22D
  8
0
  6
CONTINUOUS
 62
     3
 10
-149.16238
 20
-21.189306
 30
0.0
 11
-149.16238
 21
-22.116125
 31
0.0
  0
LINE
  5
22E
  8
0
  6
CONTINUOUS
 62
     3
 10
-154.73729
 20
28.458397
 30
0.0
 11
-154.39528
 21
27.518724
 31
0.0
  0
LINE
  5
22F
  8
0
  6
CONTINUOUS
 62
     3
 10
-103.20406
 20
-9.279677
 30
0.0
 11
-102.20788
 21
-9.366926
 31
0.0
  0
LINE
  5
230
  8
0
  6
CONTINUOUS
 62
     3
 10
-109.19405
 20
-7.428145
 30
0.0
 11
-109.1451
 21
-7.416131
 31
0.0
  0
LINE
  5
231
  8
0
  6
CONTINUOUS
 62
     3
 10
-109.33608
 20
-7.438965
 30
0.0
 11
-109.19405
 21
-7.428144
 31
0.0
  0
LINE
  5
232
  8
0
  6
CONTINUOUS
 62
     3
 10
-109.55731
 20
-7.44755
 30
0.0
 11
-109.33607
 21
-7.438965
 31
0.0
  0
LINE
  5
233
  8
0
  6
CONTINUOUS
 62
     3
 10
-109.83607
 20
-7.453087
 30
0.0
 11
-109.55731
 21
-7.44755
 31
0.0
  0
LINE
  5
234
  8
0
  6
CONTINUOUS
 62
     3
 10
-110.1451
 20
-7.454967
 30
0.0
 11
-109.83608
 21
-7.453087
 31
0.0
  0
LINE
  5
235
  8
0
  6
CONTINUOUS
 62
     3
 10
-160.08615
 20
-9.279676
 30
0.0
 11
-161.08231
 21
-9.366925
 31
0.0
  0
LINE
  5
236
  8
0
  6
CONTINUOUS
 62
     3
 10
-144.078
 20
-31.916132
 30
0.0
 11
-144.078
 21
-31.013872
 31
0.0
  0
LINE
  5
237
  8
0
  6
CONTINUOUS
 62
     3
 10
-160.8499
 20
-2.959446
 30
0.0
 11
-160.54085
 21
-2.943698
 31
0.0
  0
LINE
  5
238
  8
0
  6
CONTINUOUS
 62
     3
 10
-161.1279
 20
-2.970902
 30
0.0
 11
-160.8499
 21
-2.959446
 31
0.0
  0
LINE
  5
239
  8
0
  6
CONTINUOUS
 62
     3
 10
-161.34837
 20
-2.977023
 30
0.0
 11
-161.1279
 21
-2.970902
 31
0.0
  0
LINE
  5
23A
  8
0
  6
CONTINUOUS
 62
     3
 10
-161.49016
 20
-2.977201
 30
0.0
 11
-161.34837
 21
-2.977023
 31
0.0
  0
LINE
  5
23B
  8
0
  6
CONTINUOUS
 62
     3
 10
-161.53932
 20
-2.971412
 30
0.0
 11
-161.49016
 21
-2.977202
 31
0.0
  0
LINE
  5
23C
  8
0
  6
CONTINUOUS
 62
     3
 10
-102.74935
 20
-3.916137
 30
0.0
 11
-105.6451
 21
-3.916137
 31
0.0
  0
LINE
  5
23D
  8
0
  6
CONTINUOUS
 62
     3
 10
-160.54085
 20
-3.916137
 30
0.0
 11
-157.6451
 21
-3.916137
 31
0.0
  0
LINE
  5
23E
  8
0
  6
CONTINUOUS
 62
     3
 10
-101.80013
 20
-2.977201
 30
0.0
 11
-101.75088
 21
-2.97141
 31
0.0
  0
LINE
  5
23F
  8
0
  6
CONTINUOUS
 62
     3
 10
-101.94212
 20
-2.976998
 30
0.0
 11
-101.80013
 21
-2.977201
 31
0.0
  0
LINE
  5
240
  8
0
  6
CONTINUOUS
 62
     3
 10
-102.16297
 20
-2.970876
 30
0.0
 11
-101.94212
 21
-2.976998
 31
0.0
  0
LINE
  5
241
  8
0
  6
CONTINUOUS
 62
     3
 10
-102.4411
 20
-2.959395
 30
0.0
 11
-102.16297
 21
-2.970876
 31
0.0
  0
LINE
  5
242
  8
0
  6
CONTINUOUS
 62
     3
 10
-102.74935
 20
-2.943698
 30
0.0
 11
-102.4411
 21
-2.959395
 31
0.0
  0
LINE
  5
243
  8
0
  6
CONTINUOUS
 62
     3
 10
-102.74935
 20
-2.943698
 30
0.0
 11
-105.6451
 21
-2.943698
 31
0.0
  0
LINE
  5
244
  8
0
  6
CONTINUOUS
 62
     3
 10
-160.54085
 20
-2.943698
 30
0.0
 11
-157.6451
 21
-2.943698
 31
0.0
  0
LINE
  5
245
  8
0
  6
CONTINUOUS
 62
     3
 10
-153.46136
 20
-12.499357
 30
0.0
 11
-153.14508
 21
-12.002892
 31
0.0
  0
LINE
  5
246
  8
0
  6
CONTINUOUS
 62
     3
 10
-153.58244
 20
-12.671999
 30
0.0
 11
-153.46136
 21
-12.499355
 31
0.0
  0
LINE
  5
247
  8
0
  6
CONTINUOUS
 62
     3
 10
-153.66299
 20
-12.780432
 30
0.0
 11
-153.58244
 21
-12.671999
 31
0.0
  0
LINE
  5
248
  8
0
  6
CONTINUOUS
 62
     3
 10
-153.69548
 20
-12.814571
 30
0.0
 11
-153.66299
 21
-12.780432
 31
0.0
  0
LINE
  5
249
  8
0
  6
CONTINUOUS
 62
     3
 10
-109.97929
 20
28.446257
 30
0.0
 11
-110.1451
 21
28.197668
 31
0.0
  0
LINE
  5
24A
  8
0
  6
CONTINUOUS
 62
     3
 10
-109.82884
 20
28.667112
 30
0.0
 11
-109.97929
 21
28.446259
 31
0.0
  0
LINE
  5
24B
  8
0
  6
CONTINUOUS
 62
     3
 10
-109.70773
 20
28.839754
 30
0.0
 11
-109.82884
 21
28.667109
 31
0.0
  0
LINE
  5
24C
  8
0
  6
CONTINUOUS
 62
     3
 10
-109.62721
 20
28.948158
 30
0.0
 11
-109.70773
 21
28.839752
 31
0.0
  0
LINE
  5
24D
  8
0
  6
CONTINUOUS
 62
     3
 10
-109.59473
 20
28.982296
 30
0.0
 11
-109.62721
 21
28.94816
 31
0.0
  0
LINE
  5
24E
  8
0
  6
CONTINUOUS
 62
     3
 10
-153.5826
 20
28.839958
 30
0.0
 11
-153.14508
 21
28.170622
 31
0.0
  0
LINE
  5
24F
  8
0
  6
CONTINUOUS
 62
     3
 10
-153.66304
 20
28.948214
 30
0.0
 11
-153.5826
 21
28.839958
 31
0.0
  0
LINE
  5
250
  8
0
  6
CONTINUOUS
 62
     3
 10
-153.69548
 20
28.982292
 30
0.0
 11
-153.66304
 21
28.94821
 31
0.0
  0
LINE
  5
251
  8
0
  6
CENTER
 62
     4
 10
-165.33765
 20
8.083864
 30
0.0
 11
-99.114952
 21
8.083864
 31
0.0
  0
LINE
  5
252
  8
0
  6
CONTINUOUS
 62
     3
 10
-109.97887
 20
-12.27911
 30
0.0
 11
-110.1451
 21
-12.029939
 31
0.0
  0
LINE
  5
253
  8
0
  6
CONTINUOUS
 62
     3
 10
-109.82851
 20
-12.499839
 30
0.0
 11
-109.97887
 21
-12.279112
 31
0.0
  0
LINE
  5
254
  8
0
  6
CONTINUOUS
 62
     3
 10
-109.70758
 20
-12.672235
 30
0.0
 11
-109.82851
 21
-12.499846
 31
0.0
  0
LINE
  5
255
  8
0
  6
CONTINUOUS
 62
     3
 10
-109.62717
 20
-12.780482
 30
0.0
 11
-109.70758
 21
-12.672228
 31
0.0
  0
LINE
  5
256
  8
0
  6
CONTINUOUS
 62
     3
 10
-109.59473
 20
-12.814568
 30
0.0
 11
-109.62716
 21
-12.780485
 31
0.0
  0
LINE
  5
257
  8
0
  6
CONTINUOUS
 62
     3
 10
-161.49008
 20
19.14493
 30
0.0
 11
-161.53932
 21
19.139135
 31
0.0
  0
LINE
  5
258
  8
0
  6
CONTINUOUS
 62
     3
 10
-161.3481
 20
19.144751
 30
0.0
 11
-161.49008
 21
19.14493
 31
0.0
  0
LINE
  5
259
  8
0
  6
CONTINUOUS
 62
     3
 10
-161.12724
 20
19.13863
 30
0.0
 11
-161.3481
 21
19.144751
 31
0.0
  0
LINE
  5
25A
  8
0
  6
CONTINUOUS
 62
     3
 10
-160.84911
 20
19.12715
 30
0.0
 11
-161.12724
 21
19.13863
 31
0.0
  0
LINE
  5
25B
  8
0
  6
CONTINUOUS
 62
     3
 10
-160.54085
 20
19.111452
 30
0.0
 11
-160.84911
 21
19.12715
 31
0.0
  0
LINE
  5
25C
  8
0
  6
CONTINUOUS
 62
     3
 10
-108.55293
 20
28.458399
 30
0.0
 11
-108.89494
 21
27.518724
 31
0.0
  0
LINE
  5
25D
  8
0
  6
CONTINUOUS
 62
     3
 10
-119.21221
 20
-31.916132
 30
0.0
 11
-119.21221
 21
-31.013872
 31
0.0
  0
LINE
  5
25E
  8
0
  6
CONTINUOUS
 62
     3
 10
-108.55293
 20
-12.290669
 30
0.0
 11
-108.89494
 21
-11.350969
 31
0.0
  0
LINE
  5
25F
  8
0
  6
CONTINUOUS
 62
     3
 10
-102.74935
 20
19.111452
 30
0.0
 11
-105.6451
 21
19.111452
 31
0.0
  0
LINE
  5
260
  8
0
  6
CONTINUOUS
 62
     3
 10
-160.54085
 20
19.111452
 30
0.0
 11
-157.6451
 21
19.111452
 31
0.0
  0
LINE
  5
261
  8
0
  6
CONTINUOUS
 62
     3
 10
-105.6451
 20
20.083866
 30
0.0
 11
-102.74935
 21
20.083866
 31
0.0
  0
LINE
  5
262
  8
0
  6
CONTINUOUS
 62
     3
 10
-160.54085
 20
20.083866
 30
0.0
 11
-157.6451
 21
20.083866
 31
0.0
  0
LINE
  5
263
  8
0
  6
CONTINUOUS
 62
     3
 10
-114.12779
 20
-21.189306
 30
0.0
 11
-114.12779
 21
-22.116125
 31
0.0
  0
LINE
  5
264
  8
0
  6
CONTINUOUS
 62
     3
 10
-102.44031
 20
19.127174
 30
0.0
 11
-102.74935
 21
19.111452
 31
0.0
  0
LINE
  5
265
  8
0
  6
CONTINUOUS
 62
     3
 10
-102.16231
 20
19.138655
 30
0.0
 11
-102.44031
 21
19.127174
 31
0.0
  0
LINE
  5
266
  8
0
  6
CONTINUOUS
 62
     3
 10
-101.94183
 20
19.144751
 30
0.0
 11
-102.16231
 21
19.138655
 31
0.0
  0
LINE
  5
267
  8
0
  6
CONTINUOUS
 62
     3
 10
-101.80006
 20
19.14493
 30
0.0
 11
-101.94183
 21
19.144751
 31
0.0
  0
LINE
  5
268
  8
0
  6
CONTINUOUS
 62
     3
 10
-101.75087
 20
19.139137
 30
0.0
 11
-101.80006
 21
19.14493
 31
0.0
  0
LINE
  5
269
  8
0
  6
CONTINUOUS
 62
     3
 10
-160.08615
 20
25.447407
 30
0.0
 11
-161.08231
 21
25.534655
 31
0.0
  0
LINE
  5
26A
  8
0
  6
CONTINUOUS
 62
     3
 10
-103.20406
 20
25.447407
 30
0.0
 11
-102.20788
 21
25.534655
 31
0.0
  0
LINE
  5
26B
  8
0
  6
CONTINUOUS
 62
     3
 10
-103.20406
 20
25.447407
 30
0.0
 11
-102.86205
 21
26.387104
 31
0.0
  0
LINE
  5
26C
  8
0
  6
CONTINUOUS
 62
     3
 10
-117.08221
 20
-24.595192
 30
0.0
 11
-118.2274
 21
-31.089769
 31
0.0
  0
LINE
  5
26D
  8
0
  6
CONTINUOUS
 62
     3
 10
-118.06702
 20
-24.503014
 30
0.0
 11
-119.21221
 21
-31.01387
 31
0.0
  0
LINE
  5
26E
  8
0
  6
CONTINUOUS
 62
     3
 10
-111.83453
 20
-16.701303
 30
0.0
 11
-112.09238
 21
-21.173685
 31
0.0
  0
LINE
  5
26F
  8
0
  6
CONTINUOUS
 62
     3
 10
-112.83287
 20
-16.705723
 30
0.0
 11
-113.09074
 21
-21.189306
 31
0.0
  0
LINE
  5
270
  8
0
  6
CONTINUOUS
 62
     3
 10
-113.09074
 20
38.283878
 30
0.0
 11
-113.09074
 21
37.357059
 31
0.0
  0
LINE
  5
271
  8
0
  6
CONTINUOUS
 62
     3
 10
-113.09074
 20
-22.116125
 30
0.0
 11
-113.09074
 21
-21.189306
 31
0.0
  0
LINE
  5
272
  8
0
  6
CONTINUOUS
 62
     3
 10
-112.83287
 20
32.873451
 30
0.0
 11
-113.09074
 21
37.357059
 31
0.0
  0
LINE
  5
273
  8
0
  6
CONTINUOUS
 62
     3
 10
-103.20406
 20
-9.279678
 30
0.0
 11
-102.86205
 21
-10.219351
 31
0.0
  0
LINE
  5
274
  8
0
  6
CONTINUOUS
 62
     3
 10
-109.83529
 20
-12.027449
 30
0.0
 11
-110.1451
 21
-12.029939
 31
0.0
  0
LINE
  5
275
  8
0
  6
CONTINUOUS
 62
     3
 10
-109.55666
 20
-12.020311
 30
0.0
 11
-109.83529
 21
-12.027449
 31
0.0
  0
LINE
  5
276
  8
0
  6
CONTINUOUS
 62
     3
 10
-109.3358
 20
-12.009187
 30
0.0
 11
-109.55666
 21
-12.020312
 31
0.0
  0
LINE
  5
277
  8
0
  6
CONTINUOUS
 62
     3
 10
-109.19397
 20
-11.995167
 30
0.0
 11
-109.3358
 21
-12.009188
 31
0.0
  0
LINE
  5
278
  8
0
  6
CONTINUOUS
 62
     3
 10
-109.1451
 20
-11.979644
 30
0.0
 11
-109.19397
 21
-11.995165
 31
0.0
  0
LINE
  5
279
  8
0
  6
CONTINUOUS
 62
     3
 10
-103.20406
 20
-9.279676
 30
0.0
 11
-108.89494
 21
-11.350996
 31
0.0
  0
LINE
  5
27A
  8
0
  6
CONTINUOUS
 62
     3
 10
-102.86205
 20
-10.219348
 30
0.0
 11
-108.55293
 21
-12.290669
 31
0.0
  0
LINE
  5
27B
  8
0
  6
CONTINUOUS
 62
     3
 10
-110.1451
 20
-7.454967
 30
0.0
 11
-110.1451
 21
-12.029939
 31
0.0
  0
LINE
  5
27C
  8
0
  6
CONTINUOUS
 62
     3
 10
-110.1451
 20
23.622721
 30
0.0
 11
-110.1451
 21
28.197666
 31
0.0
  0
LINE
  5
27D
  8
0
  6
CONTINUOUS
 62
     3
 10
-109.1451
 20
-7.41613
 30
0.0
 11
-109.1451
 21
-11.979647
 31
0.0
  0
LINE
  5
27E
  8
0
  6
CONTINUOUS
 62
     3
 10
-109.1451
 20
23.583858
 30
0.0
 11
-109.1451
 21
28.1474
 31
0.0
  0
LINE
  5
27F
  8
0
  6
CONTINUOUS
 62
     3
 10
-111.83453
 20
32.869057
 30
0.0
 11
-112.09238
 21
37.341438
 31
0.0
  0
LINE
  5
280
  8
0
  6
CONTINUOUS
 62
     3
 10
-109.83608
 20
23.620815
 30
0.0
 11
-110.1451
 21
23.622721
 31
0.0
  0
LINE
  5
281
  8
0
  6
CONTINUOUS
 62
     3
 10
-109.55731
 20
23.615305
 30
0.0
 11
-109.83608
 21
23.620815
 31
0.0
  0
LINE
  5
282
  8
0
  6
CONTINUOUS
 62
     3
 10
-109.33608
 20
23.606691
 30
0.0
 11
-109.55731
 21
23.615305
 31
0.0
  0
LINE
  5
283
  8
0
  6
CONTINUOUS
 62
     3
 10
-109.19405
 20
23.595873
 30
0.0
 11
-109.33608
 21
23.606693
 31
0.0
  0
LINE
  5
284
  8
0
  6
CONTINUOUS
 62
     3
 10
-109.1451
 20
23.583858
 30
0.0
 11
-109.19405
 21
23.595873
 31
0.0
  0
LINE
  5
285
  8
0
  6
CONTINUOUS
 62
     3
 10
-112.2472
 20
-16.727568
 30
0.0
 11
-112.83287
 21
-16.705723
 31
0.0
  0
LINE
  5
286
  8
0
  6
CONTINUOUS
 62
     3
 10
-112.02645
 20
-16.726603
 30
0.0
 11
-112.2472
 21
-16.727568
 31
0.0
  0
LINE
  5
287
  8
0
  6
CONTINUOUS
 62
     3
 10
-111.88426
 20
-16.71756
 30
0.0
 11
-112.02644
 21
-16.726603
 31
0.0
  0
LINE
  5
288
  8
0
  6
CONTINUOUS
 62
     3
 10
-111.83453
 20
-16.701303
 30
0.0
 11
-111.88426
 21
-16.71756
 31
0.0
  0
LINE
  5
289
  8
0
  6
CONTINUOUS
 62
     3
 10
-105.6451
 20
-2.943698
 30
0.0
 11
-105.6451
 21
-3.916137
 31
0.0
  0
LINE
  5
28A
  8
0
  6
CONTINUOUS
 62
     3
 10
-105.6451
 20
20.083866
 30
0.0
 11
-105.6451
 21
19.111452
 31
0.0
  0
LINE
  5
28B
  8
0
  6
CONTINUOUS
 62
     3
 10
-112.78304
 20
-21.203403
 30
0.0
 11
-113.09074
 21
-21.189306
 31
0.0
  0
LINE
  5
28C
  8
0
  6
CONTINUOUS
 62
     3
 10
-112.50529
 20
-21.20899
 30
0.0
 11
-112.78304
 21
-21.203403
 31
0.0
  0
LINE
  5
28D
  8
0
  6
CONTINUOUS
 62
     3
 10
-112.28454
 20
-21.205536
 30
0.0
 11
-112.50529
 21
-21.20899
 31
0.0
  0
LINE
  5
28E
  8
0
  6
CONTINUOUS
 62
     3
 10
-112.1423
 20
-21.193371
 30
0.0
 11
-112.28454
 21
-21.205536
 31
0.0
  0
LINE
  5
28F
  8
0
  6
CONTINUOUS
 62
     3
 10
-112.09238
 20
-21.173685
 30
0.0
 11
-112.1423
 21
-21.193373
 31
0.0
  0
LINE
  5
290
  8
0
  6
CONTINUOUS
 62
     3
 10
-102.47892
 20
11.761835
 30
0.0
 11
-102.74935
 21
19.111452
 31
0.0
  0
LINE
  5
291
  8
0
  6
CONTINUOUS
 62
     3
 10
-102.47892
 20
4.405893
 30
0.0
 11
-102.47892
 21
11.761835
 31
0.0
  0
LINE
  5
292
  8
0
  6
CONTINUOUS
 62
     3
 10
-102.74935
 20
-2.943698
 30
0.0
 11
-102.47892
 21
4.405893
 31
0.0
  0
LINE
  5
293
  8
0
  6
CONTINUOUS
 62
     3
 10
-102.74935
 20
20.083866
 30
0.0
 11
-102.74935
 21
19.111452
 31
0.0
  0
LINE
  5
294
  8
0
  6
CONTINUOUS
 62
     3
 10
-102.74935
 20
-3.916137
 30
0.0
 11
-102.74935
 21
-2.943698
 31
0.0
  0
LINE
  5
295
  8
0
  6
CONTINUOUS
 62
     3
 10
-103.20406
 20
25.447409
 30
0.0
 11
-108.89494
 21
27.518724
 31
0.0
  0
LINE
  5
296
  8
0
  6
CONTINUOUS
 62
     3
 10
-108.55293
 20
28.458397
 30
0.0
 11
-102.86205
 21
26.387104
 31
0.0
  0
LINE
  5
297
  8
0
  6
CONTINUOUS
 62
     3
 10
-109.83608
 20
28.195204
 30
0.0
 11
-110.1451
 21
28.197666
 31
0.0
  0
LINE
  5
298
  8
0
  6
CONTINUOUS
 62
     3
 10
-109.55731
 20
28.188065
 30
0.0
 11
-109.83608
 21
28.195204
 31
0.0
  0
LINE
  5
299
  8
0
  6
CONTINUOUS
 62
     3
 10
-109.33607
 20
28.176941
 30
0.0
 11
-109.55731
 21
28.188066
 31
0.0
  0
LINE
  5
29A
  8
0
  6
CONTINUOUS
 62
     3
 10
-109.19405
 20
28.162918
 30
0.0
 11
-109.33608
 21
28.176941
 31
0.0
  0
LINE
  5
29B
  8
0
  6
CONTINUOUS
 62
     3
 10
-109.1451
 20
28.147402
 30
0.0
 11
-109.19405
 21
28.162922
 31
0.0
  0
LINE
  5
29C
  8
0
  6
CONTINUOUS
 62
     3
 10
-117.76533
 20
-24.551935
 30
0.0
 11
-118.06702
 21
-24.503016
 31
0.0
  0
LINE
  5
29D
  8
0
  6
CONTINUOUS
 62
     3
 10
-117.49263
 20
-24.588335
 30
0.0
 11
-117.76533
 21
-24.551937
 31
0.0
  0
LINE
  5
29E
  8
0
  6
CONTINUOUS
 62
     3
 10
-117.27515
 20
-24.608679
 30
0.0
 11
-117.49263
 21
-24.588333
 31
0.0
  0
LINE
  5
29F
  8
0
  6
CONTINUOUS
 62
     3
 10
-117.13383
 20
-24.61104
 30
0.0
 11
-117.27515
 21
-24.608679
 31
0.0
  0
LINE
  5
2A0
  8
0
  6
CONTINUOUS
 62
     3
 10
-117.08221
 20
-24.595192
 30
0.0
 11
-117.13383
 21
-24.611042
 31
0.0
  0
LINE
  5
2A1
  8
0
  6
CONTINUOUS
 62
     3
 10
-101.75088
 20
19.139137
 30
0.0
 11
-102.20788
 21
25.534655
 31
0.0
  0
LINE
  5
2A2
  8
0
  6
CONTINUOUS
 62
     3
 10
-113.09074
 20
37.357059
 30
0.0
 11
-150.19945
 21
37.357059
 31
0.0
  0
LINE
  5
2A3
  8
0
  6
CONTINUOUS
 62
     3
 10
-150.19945
 20
38.283878
 30
0.0
 11
-113.09074
 21
38.283878
 31
0.0
  0
LINE
  5
2A4
  8
0
  6
CONTINUOUS
 62
     3
 10
-112.78225
 20
37.371155
 30
0.0
 11
-113.09074
 21
37.357059
 31
0.0
  0
LINE
  5
2A5
  8
0
  6
CONTINUOUS
 62
     3
 10
-112.50463
 20
37.37672
 30
0.0
 11
-112.78225
 21
37.371155
 31
0.0
  0
LINE
  5
2A6
  8
0
  6
CONTINUOUS
 62
     3
 10
-112.28426
 20
37.37326
 30
0.0
 11
-112.50463
 21
37.376717
 31
0.0
  0
LINE
  5
2A7
  8
0
  6
CONTINUOUS
 62
     3
 10
-112.14222
 20
37.361099
 30
0.0
 11
-112.28425
 21
37.373264
 31
0.0
  0
LINE
  5
2A8
  8
0
  6
CONTINUOUS
 62
     3
 10
-112.09238
 20
37.341442
 30
0.0
 11
-112.14222
 21
37.361103
 31
0.0
  0
LINE
  5
2A9
  8
0
  6
CENTER
 62
     4
 10
-124.1451
 20
-31.966148
 30
0.0
 11
-124.1451
 21
-22.066135
 31
0.0
  0
LINE
  5
2AA
  8
0
  6
CENTER
 62
     4
 10
-144.09509
 20
-27.016142
 30
0.0
 11
-134.19508
 21
-27.016142
 31
0.0
  0
LINE
  5
2AB
  8
0
  6
CENTER
 62
     4
 10
-157.6451
 20
19.883862
 30
0.0
 11
-157.6451
 21
27.283855
 31
0.0
  0
LINE
  5
2AC
  8
0
  6
CENTER
 62
     4
 10
-139.14508
 20
-31.966148
 30
0.0
 11
-139.14508
 21
-22.066135
 31
0.0
  0
LINE
  5
2AD
  8
0
  6
CONTINUOUS
 62
     3
 10
-42.126556
 20
-31.916142
 30
0.0
 11
-42.126556
 21
8.083864
 31
0.0
  0
LINE
  5
2AE
  8
0
  6
CENTER
 62
     4
 10
113.32858
 20
-13.137887
 30
0.0
 11
104.91265
 21
-21.55382
 31
0.0
  0
LINE
  5
2AF
  8
0
  6
CONTINUOUS
 62
     3
 10
159.74998
 20
-22.116484
 30
0.0
 11
109.34999
 21
-22.116484
 31
0.0
  0
LINE
  5
2B0
  8
0
  6
CONTINUOUS
 62
     3
 10
122.02032
 20
-31.916122
 30
0.0
 11
124.54999
 21
-31.916122
 31
0.0
  0
LINE
  5
2B1
  8
0
  6
CONTINUOUS
 62
     3
 10
119.45316
 20
-22.115788
 30
0.0
 11
121.03551
 21
-31.089785
 31
0.0
  0
LINE
  5
2B2
  8
0
  6
CONTINUOUS
 62
     3
 10
121.03551
 20
-31.089785
 30
0.0
 11
121.08773
 21
-31.110435
 31
0.0
  0
LINE
  5
2B3
  8
0
  6
CENTER
 62
     4
 10
114.15578
 20
28.47773
 30
0.0
 11
104.97138
 21
37.662125
 31
0.0
  0
LINE
  5
2B4
  8
0
  6
CONTINUOUS
 62
     3
 10
104.34999
 20
-17.116484
 30
0.0
 11
104.34999
 21
33.283516
 31
0.0
  0
LINE
  5
2B5
  8
0
  6
CONTINUOUS
 62
     3
 10
134.54999
 20
38.283516
 30
0.0
 11
109.34999
 21
38.283516
 31
0.0
  0
LINE
  5
2B6
  8
0
  6
CONTINUOUS
 62
     3
 10
148.06447
 20
-31.089787
 30
0.0
 11
148.01225
 21
-31.110437
 31
0.0
  0
LINE
  5
2B7
  8
0
  6
CONTINUOUS
 62
     3
 10
149.64682
 20
-22.115789
 30
0.0
 11
148.06447
 21
-31.089785
 31
0.0
  0
LINE
  5
2B8
  8
0
  6
CONTINUOUS
 62
     3
 10
147.07967
 20
-31.916122
 30
0.0
 11
144.54999
 21
-31.916122
 31
0.0
  0
LINE
  5
2B9
  8
0
  6
CONTINUOUS
 62
     3
 10
134.54999
 20
38.283516
 30
0.0
 11
159.74998
 21
38.283516
 31
0.0
  0
LINE
  5
2BA
  8
0
  6
CONTINUOUS
 62
     3
 10
164.74998
 20
-17.116484
 30
0.0
 11
164.74998
 21
33.283516
 31
0.0
  0
LINE
  5
2BB
  8
0
  6
CENTER
 62
     4
 10
134.54999
 20
-25.958363
 30
0.0
 11
134.54999
 21
-25.871855
 31
0.0
  0
LINE
  5
2BC
  8
0
  6
CENTER
 62
     4
 10
155.77139
 20
-13.137884
 30
0.0
 11
164.18733
 21
-21.553825
 31
0.0
  0
LINE
  5
2BD
  8
0
  6
CENTER
 62
     4
 10
154.9442
 20
28.477732
 30
0.0
 11
164.1286
 21
37.662132
 31
0.0
  0
LINE
  5
2BE
  8
0
  6
CENTER
 62
     4
 10
134.54999
 20
-25.371855
 30
0.0
 11
134.54999
 21
-24.975897
 31
0.0
  0
LINE
  5
2BF
  8
0
  6
CENTER
 62
     4
 10
101.31671
 20
8.083851
 30
0.0
 11
168.43597
 21
8.083851
 31
0.0
  0
LINE
  5
2C0
  8
0
  6
CENTER
 62
     4
 10
134.54999
 20
-39.38879
 30
0.0
 11
134.54999
 21
49.710804
 31
0.0
  0
LINE
  5
2C1
  8
0
  6
CONTINUOUS
 62
     3
 10
-36.126541
 20
-23.116137
 30
0.0
 11
-36.126545
 21
-30.916121
 31
0.0
  0
LINE
  5
2C2
  8
0
  6
CONTINUOUS
 62
     3
 10
-38.626667
 20
-31.916142
 30
0.0
 11
-38.626671
 21
-37.371517
 31
0.0
  0
LINE
  5
2C3
  8
0
  6
CONTINUOUS
 62
     3
 10
-45.626667
 20
-31.916136
 30
0.0
 11
-45.626671
 21
-37.371513
 31
0.0
  0
LINE
  5
2C4
  8
0
  6
CONTINUOUS
 62
     3
 10
-58.056664
 20
-22.116137
 30
0.0
 11
-43.826557
 21
-22.116137
 31
0.0
  0
LINE
  5
2C5
  8
0
  6
CONTINUOUS
 62
     3
 10
-42.126556
 20
38.283844
 30
0.0
 11
-42.126556
 21
8.083864
 31
0.0
  0
LINE
  5
2C6
  8
0
  6
CONTINUOUS
 62
     3
 10
-28.426556
 20
38.283844
 30
0.0
 11
-58.056644
 21
38.283844
 31
0.0
  0
LINE
  5
2C7
  8
0
  6
CENTER
 62
     4
 10
134.54999
 20
8.083864
 30
0.0
 11
125.88493
 21
8.083864
 31
0.0
  0
LINE
  5
2C8
  8
0
  6
CONTINUOUS
 62
     3
 10
-136.8951
 20
-67.615288
 30
0.0
 11
-136.8951
 21
-62.740284
 31
0.0
  0
LINE
  5
2C9
  8
0
  6
CONTINUOUS
 62
     3
 10
-126.3951
 20
-67.615288
 30
0.0
 11
-126.3951
 21
-62.740284
 31
0.0
  0
LINE
  5
2CA
  8
0
  6
CONTINUOUS
 62
     3
 10
-129.63281
 20
-72.490288
 30
0.0
 11
-127.1451
 21
-72.490288
 31
0.0
  0
LINE
  5
2CB
  8
0
  6
CONTINUOUS
 62
     3
 10
-132.90912
 20
-72.490288
 30
0.0
 11
-130.38281
 21
-72.490288
 31
0.0
  0
LINE
  5
2CC
  8
0
  6
CONTINUOUS
 62
     3
 10
-130.3701
 20
-72.490288
 30
0.0
 11
-130.3701
 21
-67.615288
 31
0.0
  0
LINE
  5
2CD
  8
0
  6
CONTINUOUS
 62
     3
 10
-132.9201
 20
-72.490288
 30
0.0
 11
-132.9201
 21
-67.615288
 31
0.0
  0
LINE
  5
2CE
  8
0
  6
CONTINUOUS
 62
     3
 10
-133.59511
 20
-72.490288
 30
0.0
 11
-133.59511
 21
-67.615288
 31
0.0
  0
LINE
  5
2CF
  8
0
  6
CONTINUOUS
 62
     3
 10
-129.6951
 20
-72.490288
 30
0.0
 11
-129.6951
 21
-67.615288
 31
0.0
  0
LINE
  5
2D0
  8
0
  6
CONTINUOUS
 62
     3
 10
-127.1451
 20
-72.490288
 30
0.0
 11
-127.1451
 21
-67.615288
 31
0.0
  0
LINE
  5
2D1
  8
0
  6
CONTINUOUS
 62
     3
 10
-136.1451
 20
-72.490288
 30
0.0
 11
-136.1451
 21
-67.615288
 31
0.0
  0
LINE
  5
2D2
  8
0
  6
CONTINUOUS
 62
     3
 10
-136.1451
 20
-72.490288
 30
0.0
 11
-133.65912
 21
-72.490288
 31
0.0
  0
LINE
  5
2D3
  8
0
  6
CONTINUOUS
 62
     3
 10
-126.3951
 20
-67.615288
 30
0.0
 11
-136.8951
 21
-67.615288
 31
0.0
  0
LINE
  5
2D4
  8
0
  6
CONTINUOUS
 62
     3
 10
-138.3201
 20
-62.740284
 30
0.0
 11
-124.9701
 21
-62.740284
 31
0.0
  0
LINE
  5
2D5
  8
0
  6
CONTINUOUS
 62
     3
 10
-138.17543
 20
-58.817833
 30
0.0
 11
-135.98978
 21
-56.632172
 31
0.0
  0
LINE
  5
2D6
  8
0
  6
CONTINUOUS
 62
     3
 10
-125.11477
 20
-58.817829
 30
0.0
 11
-127.30042
 21
-56.632172
 31
0.0
  0
LINE
  5
2D7
  8
0
  6
CONTINUOUS
 62
     3
 10
-127.5201
 20
-56.101845
 30
0.0
 11
-127.5201
 21
-48.029675
 31
0.0
  0
LINE
  5
2D8
  8
0
  6
CONTINUOUS
 62
     3
 10
-135.7701
 20
-48.029675
 30
0.0
 11
-135.7701
 21
-56.101845
 31
0.0
  0
LINE
  5
2D9
  8
0
  6
CONTINUOUS
 62
     3
 10
-124.8951
 20
-62.665283
 30
0.0
 11
-124.8951
 21
-59.348164
 31
0.0
  0
LINE
  5
2DA
  8
0
  6
CONTINUOUS
 62
     3
 10
-138.3951
 20
-62.665283
 30
0.0
 11
-138.3951
 21
-59.348164
 31
0.0
  0
LINE
  5
2DB
  8
0
  6
CONTINUOUS
 62
     3
 10
-128.2701
 20
-47.279675
 30
0.0
 11
-135.0201
 21
-47.279675
 31
0.0
  0
LINE
  5
2DC
  8
0
  6
CONTINUOUS
 62
     3
 10
-35.376671
 20
-56.408752
 30
0.0
 11
-48.876671
 21
-56.408752
 31
0.0
  0
LINE
  5
2DD
  8
0
  6
CONTINUOUS
 62
     3
 10
-35.376671
 20
-59.108807
 30
0.0
 11
-48.876671
 21
-59.108807
 31
0.0
  0
LINE
  5
2DE
  8
0
  6
CONTINUOUS
 62
     3
 10
-35.376671
 20
-47.279675
 30
0.0
 11
-48.876671
 21
-47.279675
 31
0.0
  0
LINE
  5
2DF
  8
0
  6
CONTINUOUS
 62
     3
 10
-35.376671
 20
-62.740284
 30
0.0
 11
-48.876671
 21
-62.740284
 31
0.0
  0
LINE
  5
2E0
  8
0
  6
CONTINUOUS
 62
     3
 10
-35.376671
 20
-62.740284
 30
0.0
 11
-35.376671
 21
-47.279675
 31
0.0
  0
LINE
  5
2E1
  8
0
  6
CONTINUOUS
 62
     3
 10
-48.876671
 20
-62.740284
 30
0.0
 11
-48.876671
 21
-47.279675
 31
0.0
  0
LINE
  5
2E2
  8
0
  6
CONTINUOUS
 62
     3
 10
-47.376671
 20
-67.615288
 30
0.0
 11
-47.376671
 21
-62.740284
 31
0.0
  0
LINE
  5
2E3
  8
0
  6
CONTINUOUS
 62
     3
 10
-36.876671
 20
-67.615288
 30
0.0
 11
-36.876671
 21
-62.740284
 31
0.0
  0
LINE
  5
2E4
  8
0
  6
CONTINUOUS
 62
     3
 10
-38.751671
 20
-47.279675
 30
0.0
 11
-45.501671
 21
-47.279675
 31
0.0
  0
LINE
  5
2E5
  8
0
  6
CONTINUOUS
 62
     3
 10
-40.17667
 20
-72.490288
 30
0.0
 11
-37.799171
 21
-72.490288
 31
0.0
  0
LINE
  5
2E6
  8
0
  6
CONTINUOUS
 62
     3
 10
-37.799171
 20
-72.490288
 30
0.0
 11
-37.799171
 21
-67.615288
 31
0.0
  0
LINE
  5
2E7
  8
0
  6
CONTINUOUS
 62
     3
 10
-40.17667
 20
-72.490288
 30
0.0
 11
-40.17667
 21
-67.615288
 31
0.0
  0
LINE
  5
2E8
  8
0
  6
CONTINUOUS
 62
     3
 10
-40.851669
 20
-72.490288
 30
0.0
 11
-40.851669
 21
-67.615288
 31
0.0
  0
LINE
  5
2E9
  8
0
  6
CONTINUOUS
 62
     3
 10
-43.401669
 20
-72.490288
 30
0.0
 11
-43.401669
 21
-67.615288
 31
0.0
  0
LINE
  5
2EA
  8
0
  6
CONTINUOUS
 62
     3
 10
-44.076672
 20
-72.490288
 30
0.0
 11
-44.076672
 21
-67.615288
 31
0.0
  0
LINE
  5
2EB
  8
0
  6
CONTINUOUS
 62
     3
 10
-46.626671
 20
-72.490288
 30
0.0
 11
-44.140686
 21
-72.490288
 31
0.0
  0
LINE
  5
2EC
  8
0
  6
CONTINUOUS
 62
     3
 10
-43.390686
 20
-72.490288
 30
0.0
 11
-40.864384
 21
-72.490288
 31
0.0
  0
LINE
  5
2ED
  8
0
  6
CONTINUOUS
 62
     3
 10
-46.626671
 20
-72.490288
 30
0.0
 11
-46.626671
 21
-67.615288
 31
0.0
  0
LINE
  5
2EE
  8
0
  6
CONTINUOUS
 62
     3
 10
-36.876671
 20
-67.615288
 30
0.0
 11
-47.376671
 21
-67.615288
 31
0.0
  0
LINE
  5
2EF
  8
0
  6
CONTINUOUS
 62
     3
 10
129.19016
 20
-67.615288
 30
0.0
 11
129.19016
 21
-62.740284
 31
0.0
  0
LINE
  5
2F0
  8
0
  6
CONTINUOUS
 62
     3
 10
139.69016
 20
-67.615288
 30
0.0
 11
139.69016
 21
-62.740284
 31
0.0
  0
LINE
  5
2F1
  8
0
  6
CONTINUOUS
 62
     3
 10
129.94016
 20
-72.490288
 30
0.0
 11
129.94016
 21
-67.615288
 31
0.0
  0
LINE
  5
2F2
  8
0
  6
CONTINUOUS
 62
     3
 10
129.94016
 20
-72.490288
 30
0.0
 11
132.42613
 21
-72.490288
 31
0.0
  0
LINE
  5
2F3
  8
0
  6
CONTINUOUS
 62
     3
 10
132.49016
 20
-72.490288
 30
0.0
 11
132.49016
 21
-67.615288
 31
0.0
  0
LINE
  5
2F4
  8
0
  6
CONTINUOUS
 62
     3
 10
133.16516
 20
-72.490288
 30
0.0
 11
133.16516
 21
-67.615288
 31
0.0
  0
LINE
  5
2F5
  8
0
  6
CONTINUOUS
 62
     3
 10
138.94016
 20
-72.490288
 30
0.0
 11
138.94016
 21
-67.615288
 31
0.0
  0
LINE
  5
2F6
  8
0
  6
CONTINUOUS
 62
     3
 10
127.69016
 20
-62.665283
 30
0.0
 11
127.69016
 21
-59.348164
 31
0.0
  0
LINE
  5
2F7
  8
0
  6
CONTINUOUS
 62
     3
 10
127.90982
 20
-58.817837
 30
0.0
 11
130.09549
 21
-56.632179
 31
0.0
  0
LINE
  5
2F8
  8
0
  6
CONTINUOUS
 62
     3
 10
140.97049
 20
-58.817829
 30
0.0
 11
138.78482
 21
-56.632175
 31
0.0
  0
LINE
  5
2F9
  8
0
  6
CONTINUOUS
 62
     3
 10
141.19016
 20
-62.665283
 30
0.0
 11
141.19016
 21
-59.348164
 31
0.0
  0
LINE
  5
2FA
  8
0
  6
CONTINUOUS
 62
     3
 10
139.69016
 20
-67.615288
 30
0.0
 11
129.19016
 21
-67.615288
 31
0.0
  0
LINE
  5
2FB
  8
0
  6
CONTINUOUS
 62
     3
 10
133.17613
 20
-72.490288
 30
0.0
 11
135.70244
 21
-72.490288
 31
0.0
  0
LINE
  5
2FC
  8
0
  6
CONTINUOUS
 62
     3
 10
135.71515
 20
-72.490288
 30
0.0
 11
135.71515
 21
-67.615288
 31
0.0
  0
LINE
  5
2FD
  8
0
  6
CONTINUOUS
 62
     3
 10
136.39015
 20
-72.490288
 30
0.0
 11
136.39015
 21
-67.615288
 31
0.0
  0
LINE
  5
2FE
  8
0
  6
CONTINUOUS
 62
     3
 10
136.45244
 20
-72.490288
 30
0.0
 11
138.94016
 21
-72.490288
 31
0.0
  0
LINE
  5
2FF
  8
0
  6
CONTINUOUS
 62
     3
 10
138.56516
 20
-56.101845
 30
0.0
 11
138.56516
 21
-48.029675
 31
0.0
  0
LINE
  5
300
  8
0
  6
CONTINUOUS
 62
     3
 10
127.76515
 20
-62.740284
 30
0.0
 11
141.11516
 21
-62.740284
 31
0.0
  0
LINE
  5
301
  8
0
  6
CONTINUOUS
 62
     3
 10
130.31516
 20
-48.029675
 30
0.0
 11
130.31516
 21
-56.101845
 31
0.0
  0
LINE
  5
302
  8
0
  6
CONTINUOUS
 62
     3
 10
137.81516
 20
-47.279675
 30
0.0
 11
131.06516
 21
-47.279675
 31
0.0
  0
LINE
  5
303
  8
0
  6
CONTINUOUS
 62
     3
 10
-151.45567
 20
32.869057
 30
0.0
 11
-150.45734
 21
32.873451
 31
0.0
  0
LINE
  5
304
  8
0
  6
CONTINUOUS
 62
     3
 10
-111.83453
 20
32.869057
 30
0.0
 11
-112.83287
 21
32.873451
 31
0.0
  0
LINE
  5
305
  8
0
  6
CONTINUOUS
 62
     3
 10
-153.14508
 20
-7.454992
 30
0.0
 11
-154.14511
 21
-7.41613
 31
0.0
  0
LINE
  5
306
  8
0
  6
CONTINUOUS
 62
     3
 10
-151.45569
 20
-16.701303
 30
0.0
 11
-150.45734
 21
-16.705723
 31
0.0
  0
LINE
  5
307
  8
0
  6
CENTER
 62
     4
 10
-23.126579
 20
-38.75391
 30
0.0
 11
-23.12657
 21
-19.805658
 31
0.0
  0
LINE
  5
308
  8
0
  6
CONTINUOUS
 62
     3
 10
-27.026571
 20
-24.116137
 30
0.0
 11
-27.026571
 21
-22.11615
 31
0.0
  0
LINE
  5
309
  8
0
  6
CONTINUOUS
 62
     3
 10
-19.226572
 20
-24.116137
 30
0.0
 11
-19.22657
 21
-22.11615
 31
0.0
  0
LINE
  5
30A
  8
0
  6
CONTINUOUS
 62
     3
 10
-19.176577
 20
-34.716137
 30
0.0
 11
-27.076576
 21
-34.716137
 31
0.0
  0
LINE
  5
30B
  8
0
  6
CONTINUOUS
 62
     3
 10
-28.076576
 20
-33.716137
 30
0.0
 11
-28.076572
 21
-24.116137
 31
0.0
  0
LINE
  5
30C
  8
0
  6
CONTINUOUS
 62
     3
 10
-18.176577
 20
-33.716137
 30
0.0
 11
-18.176573
 21
-24.116137
 31
0.0
  0
LINE
  5
30D
  8
0
  6
CONTINUOUS
 62
     3
 10
-18.176577
 20
-33.716137
 30
0.0
 11
-28.076576
 21
-33.716137
 31
0.0
  0
LINE
  5
30E
  8
0
  6
CONTINUOUS
 62
     3
 10
-21.986576
 20
-34.716137
 30
0.0
 11
-21.986576
 21
-37.649746
 31
0.0
  0
LINE
  5
30F
  8
0
  6
CONTINUOUS
 62
     3
 10
-24.266577
 20
-34.716137
 30
0.0
 11
-24.266577
 21
-37.644039
 31
0.0
  0
LINE
  5
310
  8
0
  6
CONTINUOUS
 62
     3
 10
124.54999
 20
-33.716137
 30
0.0
 11
144.54999
 21
-33.716137
 31
0.0
  0
LINE
  5
311
  8
0
  6
CONTINUOUS
 62
     3
 10
125.54999
 20
-34.716137
 30
0.0
 11
143.54999
 21
-34.716137
 31
0.0
  0
LINE
  5
312
  8
0
  6
CONTINUOUS
 62
     3
 10
144.54999
 20
-33.716137
 30
0.0
 11
144.54999
 21
-24.116137
 31
0.0
  0
LINE
  5
313
  8
0
  6
CONTINUOUS
 62
     3
 10
124.54999
 20
-33.716137
 30
0.0
 11
124.54999
 21
-24.116137
 31
0.0
  0
LINE
  5
314
  8
0
  6
CONTINUOUS
 62
     3
 10
143.54999
 20
-24.116137
 30
0.0
 11
143.54999
 21
-22.116484
 31
0.0
  0
LINE
  5
315
  8
0
  6
CONTINUOUS
 62
     3
 10
125.54999
 20
-24.116137
 30
0.0
 11
125.54999
 21
-22.116484
 31
0.0
  0
LINE
  5
316
  8
0
  6
CONTINUOUS
 62
     3
 10
141.68999
 20
-34.716137
 30
0.0
 11
141.68999
 21
-37.649746
 31
0.0
  0
LINE
  5
317
  8
0
  6
CONTINUOUS
 62
     3
 10
139.40999
 20
-34.716137
 30
0.0
 11
139.40999
 21
-37.644039
 31
0.0
  0
LINE
  5
318
  8
0
  6
CONTINUOUS
 62
     3
 10
135.40999
 20
-34.716137
 30
0.0
 11
135.40999
 21
-37.644039
 31
0.0
  0
LINE
  5
319
  8
0
  6
CONTINUOUS
 62
     3
 10
137.68999
 20
-34.716137
 30
0.0
 11
137.68999
 21
-37.649746
 31
0.0
  0
LINE
  5
31A
  8
0
  6
CONTINUOUS
 62
     3
 10
133.68999
 20
-34.716137
 30
0.0
 11
133.68999
 21
-37.649746
 31
0.0
  0
LINE
  5
31B
  8
0
  6
CONTINUOUS
 62
     3
 10
131.40999
 20
-34.716137
 30
0.0
 11
131.40999
 21
-37.644039
 31
0.0
  0
LINE
  5
31C
  8
0
  6
CONTINUOUS
 62
     3
 10
127.40999
 20
-34.716137
 30
0.0
 11
127.40999
 21
-37.644039
 31
0.0
  0
LINE
  5
31D
  8
0
  6
CONTINUOUS
 62
     3
 10
129.68999
 20
-34.716137
 30
0.0
 11
129.68999
 21
-37.649746
 31
0.0
  0
LINE
  5
31E
  8
0
  6
CONTINUOUS
 62
     3
 10
124.54999
 20
-24.116137
 30
0.0
 11
144.54999
 21
-24.116137
 31
0.0
  0
LINE
  5
31F
  8
0
  6
CONTINUOUS
 62
     3
 10
-18.176577
 20
-24.116137
 30
0.0
 11
-28.076576
 21
-24.116137
 31
0.0
  0
ARC
  5
320
  8
0
  6
CONTINUOUS
 62
     4
 10
136.29999
 20
-35.988586
 30
0.0
 40
3.5
 50
240.00001
 51
299.99999
  0
ARC
  5
321
  8
0
  6
CONTINUOUS
 62
     4
 10
132.79999
 20
-35.988586
 30
0.0
 40
3.5
 50
240.00001
 51
299.99999
  0
ARC
  5
322
  8
0
  6
CONTINUOUS
 62
     4
 10
132.79999
 20
-42.050766
 30
0.0
 40
3.5
 50
60.000008
 51
119.99999
  0
ARC
  5
323
  8
0
  6
CONTINUOUS
 62
     4
 10
-23.701576
 20
-36.648109
 30
0.0
 40
1.15
 50
240.57364
 51
300.00002
  0
ARC
  5
324
  8
0
  6
CONTINUOUS
 62
     4
 10
-22.551577
 20
-36.648109
 30
0.0
 40
1.15
 50
240.00006
 51
299.42636
  0
ARC
  5
325
  8
0
  6
CONTINUOUS
 62
     4
 10
-22.551575
 20
-38.639969
 30
0.0
 40
1.15
 50
60.573717
 51
120.00002
  0
CIRCLE
  5
326
  8
0
  6
CONTINUOUS
 62
     3
 10
119.44999
 20
33.583851
 30
0.0
 40
1.5
  0
CIRCLE
  5
327
  8
0
  6
CONTINUOUS
 62
     3
 10
119.44999
 20
33.583851
 30
0.0
 40
1.25
  0
CIRCLE
  5
328
  8
0
  6
CONTINUOUS
 62
     3
 10
149.64999
 20
33.583851
 30
0.0
 40
1.5
  0
CIRCLE
  5
329
  8
0
  6
CONTINUOUS
 62
     3
 10
149.64999
 20
33.583851
 30
0.0
 40
1.25
  0
CIRCLE
  5
32A
  8
0
  6
CONTINUOUS
 62
     3
 10
149.64999
 20
-17.416149
 30
0.0
 40
1.5
  0
CIRCLE
  5
32B
  8
0
  6
CONTINUOUS
 62
     3
 10
149.64999
 20
-17.416149
 30
0.0
 40
1.25
  0
CIRCLE
  5
32C
  8
0
  6
CONTINUOUS
 62
     3
 10
119.44999
 20
-17.416149
 30
0.0
 40
1.25
  0
CIRCLE
  5
32D
  8
0
  6
CONTINUOUS
 62
     3
 10
119.44999
 20
-17.416149
 30
0.0
 40
1.5
  0
ARC
  5
32E
  8
0
  6
CONTINUOUS
 62
     3
 10
-56.815056
 20
21.083858
 30
0.0
 40
0.5
 50
180.00001
 51
270.0
  0
ARC
  5
32F
  8
0
  6
CONTINUOUS
 62
     3
 10
-56.815056
 20
26.083858
 30
0.0
 40
0.5
 50
90.000003
 51
180.00001
  0
ARC
  5
330
  8
0
  6
CONTINUOUS
 62
     3
 10
-56.81506
 20
-4.91613
 30
0.0
 40
0.5
 50
90.000003
 51
180.00001
  0
ARC
  5
331
  8
0
  6
CONTINUOUS
 62
     3
 10
-56.81506
 20
-9.91613
 30
0.0
 40
0.5
 50
180.00001
 51
270.0
  0
CIRCLE
  5
332
  8
0
  6
CONTINUOUS
 62
     3
 10
134.54999
 20
8.083851
 30
0.0
 40
10.0
  0
ARC
  5
333
  8
0
  6
CONTINUOUS
 62
     3
 10
-51.487045
 20
-25.116137
 30
0.0
 40
3.0
 50
3.000025
 51
90.000003
  0
ARC
  5
334
  8
0
  6
CONTINUOUS
 62
     3
 10
-47.177589
 20
-30.916136
 30
0.0
 40
1.0
 50
182.99999
 51
270.0
  0
ARC
  5
335
  8
0
  6
CENTER
 62
     4
 10
-131.6451
 20
8.08353
 30
0.0
 40
35.0
 50
126.47053
 51
144.29428
  0
CIRCLE
  5
336
  8
0
  6
CONTINUOUS
 62
     3
 10
-156.39384
 20
32.832268
 30
0.0
 40
2.9
  0
ARC
  5
337
  8
0
  6
CONTINUOUS
 62
     3
 10
-156.84511
 20
33.283531
 30
0.0
 40
5.0
 50
90.000003
 51
180.00001
  0
ARC
  5
338
  8
0
  6
CONTINUOUS
 62
     3
 10
-106.44511
 20
33.283531
 30
0.0
 40
5.0
 50
0.0
 51
90.000003
  0
ARC
  5
339
  8
0
  6
CENTER
 62
     4
 10
-131.6451
 20
8.08353
 30
0.0
 40
35.0
 50
35.705733
 51
53.529497
  0
CIRCLE
  5
33A
  8
0
  6
CONTINUOUS
 62
     3
 10
-106.89636
 20
32.832268
 30
0.0
 40
2.9
  0
ARC
  5
33B
  8
0
  6
CENTER
 62
     4
 10
-131.6451
 20
8.08353
 30
0.0
 40
35.0
 50
307.15092
 51
323.08192
  0
CIRCLE
  5
33C
  8
0
  6
CONTINUOUS
 62
     3
 10
-106.89636
 20
-16.665209
 30
0.0
 40
2.9
  0
ARC
  5
33D
  8
0
  6
CONTINUOUS
 62
     3
 10
-106.44511
 20
-17.11647
 30
0.0
 40
5.0
 50
270.0
 51
0.0
  0
ARC
  5
33E
  8
0
  6
CONTINUOUS
 62
     3
 10
-156.84511
 20
-17.11647
 30
0.0
 40
5.0
 50
180.00001
 51
270.0
  0
CIRCLE
  5
33F
  8
0
  6
CONTINUOUS
 62
     3
 10
-156.39384
 20
-16.665209
 30
0.0
 40
2.9
  0
ARC
  5
340
  8
0
  6
CENTER
 62
     4
 10
-131.6451
 20
8.08353
 30
0.0
 40
35.0
 50
216.91807
 51
232.84905
  0
ARC
  5
341
  8
0
  6
CONTINUOUS
 62
     4
 10
132.79999
 20
-45.118931
 30
0.0
 40
3.5
 50
59.999974
 51
119.99999
  0
ARC
  5
342
  8
0
  6
CONTINUOUS
 62
     4
 10
136.29999
 20
-39.056755
 30
0.0
 40
3.5
 50
240.00001
 51
299.99999
  0
ARC
  5
343
  8
0
  6
CONTINUOUS
 62
     4
 10
136.29999
 20
-45.118935
 30
0.0
 40
3.5
 50
60.000008
 51
119.99999
  0
ARC
  5
344
  8
0
  6
CONTINUOUS
 62
     4
 10
-133.3951
 20
-44.755379
 30
0.0
 40
3.5
 50
60.000008
 51
119.99999
  0
ARC
  5
345
  8
0
  6
CONTINUOUS
 62
     4
 10
-129.8951
 20
-38.693203
 30
0.0
 40
3.5
 50
240.00001
 51
299.99999
  0
ARC
  5
346
  8
0
  6
CONTINUOUS
 62
     4
 10
-129.8951
 20
-44.755379
 30
0.0
 40
3.5
 50
59.999974
 51
119.99999
  0
ARC
  5
347
  8
0
  6
CONTINUOUS
 62
     4
 10
-129.89511
 20
-34.44043
 30
0.0
 40
3.5
 50
239.99997
 51
300.00003
  0
ARC
  5
348
  8
0
  6
CONTINUOUS
 62
     4
 10
-133.39511
 20
-40.502605
 30
0.0
 40
3.5
 50
60.000008
 51
119.99999
  0
ARC
  5
349
  8
0
  6
CONTINUOUS
 62
     4
 10
-133.39511
 20
-34.440426
 30
0.0
 40
3.5
 50
240.00001
 51
299.99999
  0
ARC
  5
34A
  8
0
  6
CONTINUOUS
 62
     4
 10
-43.876671
 20
-44.755379
 30
0.0
 40
3.5
 50
59.999954
 51
119.99994
  0
ARC
  5
34B
  8
0
  6
CONTINUOUS
 62
     4
 10
-40.376667
 20
-38.693203
 30
0.0
 40
3.5
 50
240.00001
 51
299.99999
  0
ARC
  5
34C
  8
0
  6
CONTINUOUS
 62
     4
 10
-40.376671
 20
-44.755379
 30
0.0
 40
3.5
 50
59.99992
 51
119.99994
  0
ARC
  5
34D
  8
0
  6
CONTINUOUS
 62
     3
 10
-301.4451
 20
8.083864
 30
0.0
 40
199.0
 50
3.45712
 51
5.00565
  0
ARC
  5
34E
  8
0
  6
CONTINUOUS
 62
     3
 10
38.154915
 20
8.083864
 30
0.0
 40
199.00003
 50
174.99435
 51
176.54288
  0
ARC
  5
34F
  8
0
  6
CONTINUOUS
 62
     3
 10
-301.4451
 20
8.083864
 30
0.0
 40
199.0
 50
354.99435
 51
356.54288
  0
ARC
  5
350
  8
0
  6
CONTINUOUS
 62
     3
 10
38.154915
 20
8.083864
 30
0.0
 40
199.00002
 50
183.45712
 51
185.00565
  0
ARC
  5
351
  8
0
  6
CONTINUOUS
 62
     3
 10
-106.84282
 20
33.156864
 30
0.0
 40
5.0
 50
183.29985
 51
250.00002
  0
ARC
  5
352
  8
0
  6
CONTINUOUS
 62
     3
 10
-103.20406
 20
25.447407
 30
0.0
 40
1.000001
 50
5.005304
 51
70.000608
  0
ARC
  5
353
  8
0
  6
CONTINUOUS
 62
     3
 10
-301.4451
 20
8.083864
 30
0.0
 40
200.0
 50
354.99435
 51
5.005649
  0
ARC
  5
354
  8
0
  6
CONTINUOUS
 62
     3
 10
-149.16238
 20
-25.116119
 30
0.0
 40
3.0
 50
9.999682
 51
90.000003
  0
ARC
  5
355
  8
0
  6
CONTINUOUS
 62
     3
 10
-144.078
 20
-30.916134
 30
0.0
 40
0.999999
 50
189.99934
 51
270.0
  0
ARC
  5
356
  8
0
  6
CONTINUOUS
 62
     3
 10
-103.20406
 20
-9.279677
 30
0.0
 40
0.999978
 50
289.99988
 51
354.99464
  0
ARC
  5
357
  8
0
  6
CONTINUOUS
 62
     3
 10
-119.21221
 20
-30.916134
 30
0.0
 40
0.999998
 50
270.0
 51
350.00084
  0
ARC
  5
358
  8
0
  6
CONTINUOUS
 62
     3
 10
-106.84282
 20
-16.989136
 30
0.0
 40
5.000005
 50
110.00005
 51
176.69986
  0
ARC
  5
359
  8
0
  6
CONTINUOUS
 62
     3
 10
-114.12779
 20
-25.116119
 30
0.0
 40
2.999994
 50
90.000003
 51
170.00029
  0
ARC
  5
35A
  8
0
  6
CONTINUOUS
 62
     3
 10
-113.09074
 20
-21.116129
 30
0.0
 40
0.999998
 50
270.0
 51
356.70057
  0
ARC
  5
35B
  8
0
  6
CONTINUOUS
 62
     3
 10
-110.1451
 20
-11.979647
 30
0.0
 40
1.000001
 50
303.39227
 51
0.0
  0
ARC
  5
35C
  8
0
  6
CONTINUOUS
 62
     3
 10
-105.6451
 20
-7.41613
 30
0.0
 40
3.499993
 50
90.000003
 51
180.00001
  0
ARC
  5
35D
  8
0
  6
CONTINUOUS
 62
     3
 10
-102.74935
 20
-2.916139
 30
0.0
 40
0.999998
 50
270.0
 51
356.83162
  0
ARC
  5
35E
  8
0
  6
CONTINUOUS
 62
     3
 10
-102.74935
 20
19.083868
 30
0.0
 40
1.000003
 50
3.168409
 51
90.000003
  0
ARC
  5
35F
  8
0
  6
CONTINUOUS
 62
     3
 10
-105.6451
 20
23.583858
 30
0.0
 40
3.499993
 50
180.00001
 51
270.0
  0
ARC
  5
360
  8
0
  6
CONTINUOUS
 62
     3
 10
-110.1451
 20
28.1474
 30
0.0
 40
0.999998
 50
0.0
 51
56.60703
  0
ARC
  5
361
  8
0
  6
CONTINUOUS
 62
     3
 10
-113.09074
 20
37.283882
 30
0.0
 40
1.000005
 50
3.299516
 51
90.000003
  0
ARC
  5
362
  8
0
  6
CONTINUOUS
 62
     3
 10
-150.19945
 20
37.283882
 30
0.0
 40
0.999998
 50
90.000003
 51
176.70044
  0
ARC
  5
363
  8
0
  6
CONTINUOUS
 62
     3
 10
-156.44739
 20
33.156864
 30
0.0
 40
5.000005
 50
289.99997
 51
356.70015
  0
ARC
  5
364
  8
0
  6
CONTINUOUS
 62
     3
 10
-153.14508
 20
28.1474
 30
0.0
 40
0.999993
 50
123.39455
 51
180.00001
  0
ARC
  5
365
  8
0
  6
CONTINUOUS
 62
     3
 10
-157.6451
 20
23.583858
 30
0.0
 40
3.499993
 50
270.0
 51
0.0
  0
ARC
  5
366
  8
0
  6
CONTINUOUS
 62
     3
 10
38.154915
 20
8.083864
 30
0.0
 40
200.0
 50
174.99435
 51
185.00565
  0
ARC
  5
367
  8
0
  6
CONTINUOUS
 62
     3
 10
-160.54085
 20
19.083868
 30
0.0
 40
0.999998
 50
90.000003
 51
176.8317
  0
ARC
  5
368
  8
0
  6
CONTINUOUS
 62
     3
 10
-160.08615
 20
25.447407
 30
0.0
 40
1.000002
 50
109.99939
 51
174.99458
  0
ARC
  5
369
  8
0
  6
CONTINUOUS
 62
     3
 10
-160.54085
 20
-2.916139
 30
0.0
 40
1.000003
 50
183.16837
 51
270.0
  0
ARC
  5
36A
  8
0
  6
CONTINUOUS
 62
     3
 10
-157.6451
 20
-7.41613
 30
0.0
 40
3.499993
 50
0.0
 51
90.000003
  0
ARC
  5
36B
  8
0
  6
CONTINUOUS
 62
     3
 10
-153.14508
 20
-11.979647
 30
0.0
 40
1.000023
 50
180.00001
 51
236.60647
  0
ARC
  5
36C
  8
0
  6
CONTINUOUS
 62
     3
 10
-156.44739
 20
-16.989136
 30
0.0
 40
5.000001
 50
3.300145
 51
70.000027
  0
ARC
  5
36D
  8
0
  6
CONTINUOUS
 62
     3
 10
-150.19945
 20
-21.116129
 30
0.0
 40
1.000005
 50
183.29952
 51
270.0
  0
ARC
  5
36E
  8
0
  6
CONTINUOUS
 62
     3
 10
-160.08615
 20
-9.279677
 30
0.0
 40
0.999976
 50
185.00551
 51
250.00009
  0
ARC
  5
36F
  8
0
  6
CONTINUOUS
 62
     3
 10
-58.056644
 20
37.283844
 30
0.0
 40
1.0
 50
90.000003
 51
175.80306
  0
ARC
  5
370
  8
0
  6
CENTER
 62
     4
 10
134.54999
 20
8.083517
 30
0.0
 40
35.0
 50
216.91808
 51
232.84908
  0
CIRCLE
  5
371
  8
0
  6
CONTINUOUS
 62
     3
 10
109.80125
 20
-16.66522
 30
0.0
 40
2.9
  0
ARC
  5
372
  8
0
  6
CONTINUOUS
 62
     3
 10
109.34999
 20
-17.116484
 30
0.0
 40
5.0
 50
180.00001
 51
270.0
  0
ARC
  5
373
  8
0
  6
CONTINUOUS
 62
     3
 10
122.02032
 20
-30.916124
 30
0.0
 40
1.000003
 50
190.00066
 51
270.0
  0
ARC
  5
374
  8
0
  6
CONTINUOUS
 62
     3
 10
134.54999
 20
8.083851
 30
0.0
 40
4.0
 50
90.000003
 51
270.0
  0
ARC
  5
375
  8
0
  6
CONTINUOUS
 62
     3
 10
134.54999
 20
8.083851
 30
0.0
 40
20.0
 50
90.000003
 51
270.0
  0
ARC
  5
376
  8
0
  6
CENTER
 62
     4
 10
134.54999
 20
8.083517
 30
0.0
 40
35.0
 50
126.47051
 51
144.29428
  0
CIRCLE
  5
377
  8
0
  6
CONTINUOUS
 62
     3
 10
109.80125
 20
32.832253
 30
0.0
 40
2.9
  0
ARC
  5
378
  8
0
  6
CONTINUOUS
 62
     3
 10
134.54999
 20
8.083517
 30
0.0
 40
25.0
 50
90.000003
 51
270.0
  0
ARC
  5
379
  8
0
  6
CONTINUOUS
 62
     3
 10
109.34999
 20
33.283516
 30
0.0
 40
5.0
 50
90.000003
 51
180.00001
  0
ARC
  5
37A
  8
0
  6
CONTINUOUS
 62
     3
 10
147.07967
 20
-30.916124
 30
0.0
 40
0.999998
 50
270.0
 51
349.99937
  0
ARC
  5
37B
  8
0
  6
CONTINUOUS
 62
     3
 10
339.87344
 20
8.083855
 30
0.0
 40
400.0
 50
180.00001
 51
184.19683
  0
ARC
  5
37C
  8
0
  6
CONTINUOUS
 62
     3
 10
-58.056664
 20
-21.116138
 30
0.0
 40
0.999987
 50
184.19656
 51
270.0
  0
ARC
  5
37D
  8
0
  6
CONTINUOUS
 62
     3
 10
159.74998
 20
33.283516
 30
0.0
 40
5.0
 50
0.0
 51
90.000003
  0
ARC
  5
37E
  8
0
  6
CONTINUOUS
 62
     3
 10
159.74998
 20
-17.116484
 30
0.0
 40
5.0
 50
270.0
 51
0.0
  0
ARC
  5
37F
  8
0
  6
CONTINUOUS
 62
     3
 10
-37.126568
 20
-30.916121
 30
0.0
 40
1.000023
 50
270.0
 51
0.0
  0
ARC
  5
380
  8
0
  6
CONTINUOUS
 62
     3
 10
134.54999
 20
8.083517
 30
0.0
 40
25.0
 50
270.0
 51
90.000003
  0
CIRCLE
  5
381
  8
0
  6
CONTINUOUS
 62
     3
 10
159.29872
 20
32.832253
 30
0.0
 40
2.9
  0
CIRCLE
  5
382
  8
0
  6
CONTINUOUS
 62
     3
 10
159.29872
 20
-16.66522
 30
0.0
 40
2.9
  0
ARC
  5
383
  8
0
  6
CENTER
 62
     4
 10
134.54999
 20
8.083517
 30
0.0
 40
35.0
 50
35.705726
 51
53.52948
  0
ARC
  5
384
  8
0
  6
CENTER
 62
     4
 10
134.54999
 20
8.083517
 30
0.0
 40
35.0
 50
307.15093
 51
323.08192
  0
ARC
  5
385
  8
0
  6
CONTINUOUS
 62
     3
 10
134.54999
 20
8.083851
 30
0.0
 40
20.0
 50
270.0
 51
90.000003
  0
ARC
  5
386
  8
0
  6
CONTINUOUS
 62
     3
 10
339.87347
 20
8.083771
 30
0.0
 40
400.00003
 50
175.80317
 51
184.19728
  0
ARC
  5
387
  8
0
  6
CONTINUOUS
 62
     4
 10
-40.376667
 20
-34.340427
 30
0.0
 40
3.5
 50
240.00001
 51
299.99999
  0
ARC
  5
388
  8
0
  6
CONTINUOUS
 62
     4
 10
-43.876667
 20
-34.340427
 30
0.0
 40
3.5
 50
240.00001
 51
299.99999
  0
ARC
  5
389
  8
0
  6
CONTINUOUS
 62
     4
 10
-43.876671
 20
-40.402603
 30
0.0
 40
3.5
 50
59.999974
 51
120.00003
  0
ARC
  5
38A
  8
0
  6
CONTINUOUS
 62
     3
 10
-35.126545
 20
-23.116137
 30
0.0
 40
0.999998
 50
90.000003
 51
180.00001
  0
CIRCLE
  5
38B
  8
0
  6
CONTINUOUS
 62
     3
 10
134.54999
 20
8.083864
 30
0.0
 40
11.0
  0
ARC
  5
38C
  8
0
  6
CONTINUOUS
 62
     3
 10
134.54999
 20
8.083851
 30
0.0
 40
4.0
 50
270.0
 51
90.000003
  0
ARC
  5
38D
  8
0
  6
CONTINUOUS
 62
     3
 10
-138.3201
 20
-62.665283
 30
0.0
 40
0.075
 50
180.00001
 51
270.0
  0
ARC
  5
38E
  8
0
  6
CONTINUOUS
 62
     3
 10
-124.9701
 20
-62.665283
 30
0.0
 40
0.075
 50
270.0
 51
0.0
  0
ARC
  5
38F
  8
0
  6
CONTINUOUS
 62
     3
 10
-135.0201
 20
-48.029675
 30
0.0
 40
0.75
 50
90.000003
 51
180.00001
  0
ARC
  5
390
  8
0
  6
CONTINUOUS
 62
     3
 10
-136.5201
 20
-56.101845
 30
0.0
 40
0.75
 50
314.99938
 51
0.0
  0
ARC
  5
391
  8
0
  6
CONTINUOUS
 62
     3
 10
-137.6451
 20
-59.348164
 30
0.0
 40
0.75
 50
135.00021
 51
180.00001
  0
ARC
  5
392
  8
0
  6
CONTINUOUS
 62
     3
 10
-125.6451
 20
-59.348164
 30
0.0
 40
0.75
 50
0.0
 51
45.000206
  0
ARC
  5
393
  8
0
  6
CONTINUOUS
 62
     3
 10
-126.7701
 20
-56.101845
 30
0.0
 40
0.75
 50
180.00001
 51
225.0002
  0
ARC
  5
394
  8
0
  6
CONTINUOUS
 62
     3
 10
-128.2701
 20
-48.029675
 30
0.0
 40
0.75
 50
0.0
 51
90.000003
  0
ARC
  5
395
  8
0
  6
CONTINUOUS
 62
     3
 10
-136.1451
 20
-56.257175
 30
0.0
 40
0.375
 50
314.99876
 51
0.0
  0
ARC
  5
396
  8
0
  6
CONTINUOUS
 62
     3
 10
127.76515
 20
-62.665283
 30
0.0
 40
0.075
 50
180.00001
 51
270.0
  0
ARC
  5
397
  8
0
  6
CONTINUOUS
 62
     3
 10
141.11516
 20
-62.665283
 30
0.0
 40
0.075
 50
270.0
 51
0.0
  0
ARC
  5
398
  8
0
  6
CONTINUOUS
 62
     3
 10
129.94016
 20
-56.257175
 30
0.0
 40
0.375
 50
315.00041
 51
0.0
  0
ARC
  5
399
  8
0
  6
CONTINUOUS
 62
     3
 10
129.56516
 20
-56.101845
 30
0.0
 40
0.75
 50
315.00021
 51
0.0
  0
ARC
  5
39A
  8
0
  6
CONTINUOUS
 62
     3
 10
128.44016
 20
-59.348164
 30
0.0
 40
0.75
 50
135.00021
 51
180.00001
  0
ARC
  5
39B
  8
0
  6
CONTINUOUS
 62
     3
 10
140.44016
 20
-59.348164
 30
0.0
 40
0.75
 50
0.0
 51
44.999793
  0
ARC
  5
39C
  8
0
  6
CONTINUOUS
 62
     3
 10
137.81516
 20
-48.029675
 30
0.0
 40
0.75
 50
0.0
 51
90.000003
  0
ARC
  5
39D
  8
0
  6
CONTINUOUS
 62
     3
 10
139.31516
 20
-56.101845
 30
0.0
 40
0.75
 50
180.00001
 51
224.99979
  0
ARC
  5
39E
  8
0
  6
CONTINUOUS
 62
     3
 10
131.06516
 20
-48.029675
 30
0.0
 40
0.75
 50
90.000003
 51
180.00001
  0
ARC
  5
39F
  8
0
  6
CONTINUOUS
 62
     3
 10
-157.64983
 20
23.616188
 30
0.0
 40
4.50474
 50
270.06016
 51
0.083089
  0
ARC
  5
3A0
  8
0
  6
CONTINUOUS
 62
     3
 10
-156.59482
 20
33.261669
 30
0.0
 40
6.149747
 50
290.95677
 51
293.47461
  0
ARC
  5
3A1
  8
0
  6
CONTINUOUS
 62
     3
 10
-106.69539
 20
33.261669
 30
0.0
 40
6.149747
 50
183.61934
 51
235.87841
  0
ARC
  5
3A2
  8
0
  6
CONTINUOUS
 62
     3
 10
-105.64039
 20
23.616188
 30
0.0
 40
4.50474
 50
179.91691
 51
269.94003
  0
ARC
  5
3A3
  8
0
  6
CONTINUOUS
 62
     3
 10
-157.64983
 20
-7.448461
 30
0.0
 40
4.50474
 50
359.91693
 51
89.939835
  0
ARC
  5
3A4
  8
0
  6
CONTINUOUS
 62
     3
 10
-105.64039
 20
-7.448461
 30
0.0
 40
4.50474
 50
90.059972
 51
180.08307
  0
ARC
  5
3A5
  8
0
  6
CONTINUOUS
 62
     3
 10
-106.69539
 20
-17.093941
 30
0.0
 40
6.149747
 50
110.95683
 51
113.47461
  0
ARC
  5
3A6
  8
0
  6
CONTINUOUS
 62
     3
 10
-156.59482
 20
-17.093941
 30
0.0
 40
6.149747
 50
3.619344
 51
55.878095
  0
ARC
  5
3A7
  8
0
  6
CONTINUOUS
 62
     3
 10
-106.69539
 20
-17.093941
 30
0.0
 40
6.149747
 50
124.12159
 51
176.38066
  0
ARC
  5
3A8
  8
0
  6
CONTINUOUS
 62
     3
 10
-156.59482
 20
-17.093941
 30
0.0
 40
6.149747
 50
66.525387
 51
69.043234
  0
ARC
  5
3A9
  8
0
  6
CONTINUOUS
 62
     3
 10
-156.59482
 20
33.261669
 30
0.0
 40
6.149747
 50
304.1219
 51
356.38066
  0
ARC
  5
3AA
  8
0
  6
CONTINUOUS
 62
     3
 10
-106.69539
 20
33.261669
 30
0.0
 40
6.149747
 50
246.52539
 51
249.04317
  0
CIRCLE
  5
3AB
  8
0
  6
CONTINUOUS
 62
     3
 10
-139.14508
 20
-27.016142
 30
0.0
 40
3.64507
  0
CIRCLE
  5
3AC
  8
0
  6
CONTINUOUS
 62
     3
 10
-124.1451
 20
-27.016142
 30
0.0
 40
3.645094
  0
ARC
  5
3AD
  8
0
  6
CONTINUOUS
 62
     4
 10
139.97499
 20
-36.648109
 30
0.0
 40
1.15
 50
240.57355
 51
299.99985
  0
ARC
  5
3AE
  8
0
  6
CONTINUOUS
 62
     4
 10
141.12498
 20
-36.648109
 30
0.0
 40
1.15
 50
240.00015
 51
299.42645
  0
ARC
  5
3AF
  8
0
  6
CONTINUOUS
 62
     4
 10
141.12498
 20
-38.639969
 30
0.0
 40
1.15
 50
60.573553
 51
119.99985
  0
ARC
  5
3B0
  8
0
  6
CONTINUOUS
 62
     4
 10
137.12498
 20
-38.639969
 30
0.0
 40
1.15
 50
60.573553
 51
119.99985
  0
ARC
  5
3B1
  8
0
  6
CONTINUOUS
 62
     4
 10
137.12498
 20
-36.648109
 30
0.0
 40
1.15
 50
240.00015
 51
299.42645
  0
ARC
  5
3B2
  8
0
  6
CONTINUOUS
 62
     4
 10
135.97499
 20
-36.648109
 30
0.0
 40
1.15
 50
240.57355
 51
299.99985
  0
ARC
  5
3B3
  8
0
  6
CONTINUOUS
 62
     4
 10
131.97499
 20
-36.648109
 30
0.0
 40
1.15
 50
240.57355
 51
299.99985
  0
ARC
  5
3B4
  8
0
  6
CONTINUOUS
 62
     4
 10
133.12498
 20
-36.648109
 30
0.0
 40
1.15
 50
240.00015
 51
299.42645
  0
ARC
  5
3B5
  8
0
  6
CONTINUOUS
 62
     4
 10
133.12498
 20
-38.639969
 30
0.0
 40
1.15
 50
60.573553
 51
119.99985
  0
ARC
  5
3B6
  8
0
  6
CONTINUOUS
 62
     4
 10
129.12498
 20
-38.639969
 30
0.0
 40
1.15
 50
60.573553
 51
119.99985
  0
ARC
  5
3B7
  8
0
  6
CONTINUOUS
 62
     4
 10
129.12498
 20
-36.648109
 30
0.0
 40
1.15
 50
240.00015
 51
299.42645
  0
ARC
  5
3B8
  8
0
  6
CONTINUOUS
 62
     4
 10
127.97499
 20
-36.648109
 30
0.0
 40
1.15
 50
240.57355
 51
299.99985
  0
ARC
  5
3B9
  8
0
  6
CONTINUOUS
 62
     3
 10
-27.076576
 20
-33.716137
 30
0.0
 40
1.0
 50
180.00001
 51
270.0
  0
ARC
  5
3BA
  8
0
  6
CONTINUOUS
 62
     3
 10
-19.176577
 20
-33.716137
 30
0.0
 40
1.0
 50
270.0
 51
0.0
  0
ARC
  5
3BB
  8
0
  6
CONTINUOUS
 62
     3
 10
125.54999
 20
-33.716137
 30
0.0
 40
1.0
 50
180.00001
 51
270.0
  0
ARC
  5
3BC
  8
0
  6
CONTINUOUS
 62
     3
 10
143.54999
 20
-33.716137
 30
0.0
 40
1.0
 50
270.0
 51
0.0
  0
TEXT
  5
3BD
  8
0
  6
CONTINUOUS
 62
     3
 10
-173.55265
 20
75.208771
 30
0.0
 40
5.0
  1
HC-UF13
 41
1.052632
  0
INSERT
  5
3BE
  8
0
  6
CONTINUOUS
 62
     3
  2
KOZU0006
 10
-57.324646
 20
23.583858
 30
0.0
  0
INSERT
  5
3BF
  8
0
  6
CONTINUOUS
 62
     3
  2
KOZU0006
 10
-57.32465
 20
-7.41613
 30
0.0
  0
INSERT
  5
3C0
  8
0
  6
CONTINUOUS
 62
     3
  2
KOZU0015
 10
-124.1451
 20
-27.016142
 30
0.0
  0
INSERT
  5
3C1
  8
0
  6
CONTINUOUS
 62
     3
  2
KOZU0015
 10
-139.14508
 20
-27.016142
 30
0.0
  0
INSERT
  5
3C2
  8
0
  6
CONTINUOUS
 62
     3
  2
KOZU0015
 10
-157.6451
 20
-7.41613
 30
0.0
  0
INSERT
  5
3C3
  8
0
  6
CONTINUOUS
 62
     3
  2
KOZU0015
 10
-157.6451
 20
23.583858
 30
0.0
  0
INSERT
  5
3C4
  8
0
  6
CONTINUOUS
 62
     3
  2
KOZU0015
 10
-105.6451
 20
23.583858
 30
0.0
  0
INSERT
  5
3C5
  8
0
  6
CONTINUOUS
 62
     3
  2
KOZU0015
 10
-105.6451
 20
-7.41613
 30
0.0
  0
ENDSEC
  0
EOF
