  0
SECTION
  2
HEADER
  9
$ACADVER
  1
AC1009
  9
$INSBASE
 10
0.0
 20
0.0
 30
0.0
  9
$EXTMIN
 10
-345.750009
 20
-146.911671
 30
0.0
  9
$EXTMAX
 10
341.749991
 20
181.513328
 30
0.0
  9
$LIMMIN
 10
0.0
 20
0.0
  9
$LIMMAX
 10
12.0
 20
9.0
  9
$ORTHOMODE
 70
     1
  9
$REGENMODE
 70
     1
  9
$FILLMODE
 70
     1
  9
$QTEXTMODE
 70
     0
  9
$MIRRTEXT
 70
     1
  9
$DRAGMODE
 70
     2
  9
$LTSCALE
 40
1.0
  9
$OSMODE
 70
    37
  9
$ATTMODE
 70
     1
  9
$TEXTSIZE
 40
2.8
  9
$TRACEWID
 40
0.05
  9
$TEXTSTYLE
  7
STANDARD
  9
$CLAYER
  8
0
  9
$CELTYPE
  6
CENTER
  9
$CECOLOR
 62
   256
  9
$DIMSCALE
 40
1.0
  9
$DIMASZ
 40
1.931852
  9
$DIMEXO
 40
1.0
  9
$DIMDLI
 40
0.38
  9
$DIMRND
 40
0.0
  9
$DIMDLE
 40
0.0
  9
$DIMEXE
 40
2.0
  9
$DIMTP
 40
0.0
  9
$DIMTM
 40
0.0
  9
$DIMTXT
 40
3.2
  9
$DIMCEN
 40
0.09
  9
$DIMTSZ
 40
0.0
  9
$DIMTOL
 70
     0
  9
$DIMLIM
 70
     0
  9
$DIMTIH
 70
     1
  9
$DIMTOH
 70
     1
  9
$DIMSE1
 70
     0
  9
$DIMSE2
 70
     0
  9
$DIMTAD
 70
     1
  9
$DIMZIN
 70
     0
  9
$DIMBLK
  1

  9
$DIMASO
 70
     1
  9
$DIMSHO
 70
     1
  9
$DIMPOST
  1

  9
$DIMAPOST
  1

  9
$DIMALT
 70
     0
  9
$DIMALTD
 70
     2
  9
$DIMALTF
 40
25.4
  9
$DIMLFAC
 40
1.0
  9
$DIMTOFL
 70
     0
  9
$DIMTVP
 40
0.0
  9
$DIMTIX
 70
     0
  9
$DIMSOXD
 70
     0
  9
$DIMSAH
 70
     0
  9
$DIMBLK1
  1

  9
$DIMBLK2
  1

  9
$DIMSTYLE
  2
STANDARD
  9
$DIMCLRD
 70
     0
  9
$DIMCLRE
 70
     0
  9
$DIMCLRT
 70
     0
  9
$DIMTFAC
 40
0.625
  9
$DIMGAP
 40
0.09
  9
$LUNITS
 70
     2
  9
$LUPREC
 70
     3
  9
$SKETCHINC
 40
0.1
  9
$FILLETRAD
 40
0.0
  9
$AUNITS
 70
     0
  9
$AUPREC
 70
     0
  9
$MENU
  1
.
  9
$ELEVATION
 40
0.0
  9
$PELEVATION
 40
0.0
  9
$THICKNESS
 40
0.0
  9
$LIMCHECK
 70
     0
  9
$BLIPMODE
 70
     0
  9
$CHAMFERA
 40
0.0
  9
$CHAMFERB
 40
0.0
  9
$SKPOLY
 70
     0
  9
$TDCREATE
 40
2450836.675702
  9
$TDUPDATE
 40
2450836.675702
  9
$TDINDWG
 40
0.0
  9
$TDUSRTIMER
 40
0.0
  9
$USRTIMER
 70
     1
  9
$ANGBASE
 50
0.0
  9
$ANGDIR
 70
     0
  9
$PDMODE
 70
     0
  9
$PDSIZE
 40
0.0
  9
$PLINEWID
 40
0.0
  9
$COORDS
 70
     1
  9
$SPLFRAME
 70
     0
  9
$SPLINETYPE
 70
     6
  9
$SPLINESEGS
 70
     8
  9
$ATTDIA
 70
     0
  9
$ATTREQ
 70
     1
  9
$HANDLING
 70
     1
  9
$HANDSEED
  5
9EB
  9
$SURFTAB1
 70
     6
  9
$SURFTAB2
 70
     6
  9
$SURFTYPE
 70
     6
  9
$SURFU
 70
     6
  9
$SURFV
 70
     6
  9
$UCSNAME
  2

  9
$UCSORG
 10
0.0
 20
0.0
 30
0.0
  9
$UCSXDIR
 10
1.0
 20
0.0
 30
0.0
  9
$UCSYDIR
 10
0.0
 20
1.0
 30
0.0
  9
$PUCSNAME
  2

  9
$PUCSORG
 10
0.0
 20
0.0
 30
0.0
  9
$PUCSXDIR
 10
1.0
 20
0.0
 30
0.0
  9
$PUCSYDIR
 10
0.0
 20
1.0
 30
0.0
  9
$USERI1
 70
     0
  9
$USERI2
 70
     0
  9
$USERI3
 70
     0
  9
$USERI4
 70
     0
  9
$USERI5
 70
     0
  9
$USERR1
 40
0.0
  9
$USERR2
 40
0.0
  9
$USERR3
 40
0.0
  9
$USERR4
 40
0.0
  9
$USERR5
 40
0.0
  9
$WORLDVIEW
 70
     1
  9
$SHADEDGE
 70
     3
  9
$SHADEDIF
 70
    70
  9
$TILEMODE
 70
     1
  9
$MAXACTVP
 70
    48
  9
$PLIMCHECK
 70
     0
  9
$PEXTMIN
 10
1.000000E+020
 20
1.000000E+020
 30
1.000000E+020
  9
$PEXTMAX
 10
-1.000000E+020
 20
-1.000000E+020
 30
-1.000000E+020
  9
$PLIMMIN
 10
0.0
 20
0.0
  9
$PLIMMAX
 10
12.0
 20
9.0
  9
$UNITMODE
 70
     0
  9
$VISRETAIN
 70
     1
  9
$PLINEGEN
 70
     0
  9
$PSLTSCALE
 70
     1
  0
ENDSEC
  0
SECTION
  2
TABLES
  0
TABLE
  2
VPORT
 70
     2
  0
VPORT
  2
*ACTIVE
 70
     0
 10
0.0
 20
0.0
 11
1.0
 21
1.0
 12
-15.698634
 22
22.495124
 13
0.0
 23
0.0
 14
1.0
 24
1.0
 15
0.0
 25
0.0
 16
0.0
 26
0.0
 36
1.0
 17
0.0
 27
0.0
 37
0.0
 40
438.979994
 41
1.743346
 42
50.0
 43
0.0
 44
0.0
 50
0.0
 51
0.0
 71
     0
 72
   100
 73
     1
 74
     1
 75
     0
 76
     0
 77
     0
 78
     0
  0
ENDTAB
  0
TABLE
  2
LTYPE
 70
     5
  0
LTYPE
  2
CONTINUOUS
 70
     0
  3
Solid line
 72
    65
 73
     0
 40
0.0
  0
LTYPE
  2
DASHED
 70
     0
  3
-- -- -- -- -- -- -- -- -- -- -- -- -- -- --
 72
    65
 73
     2
 40
0.75
 49
0.5
 49
-0.25
  0
LTYPE
  2
DASHDOT
 70
     0
  3
__ . __ . __ . __ . __ . __ . __ . __ . __ . __
 72
    65
 73
     4
 40
1.0
 49
0.5
 49
-0.25
 49
0.0
 49
-0.25
  0
LTYPE
  2
DIVIDE
 70
     0
  3
__ . . __ . . __ . . __ . . __ . . __ . . __
 72
    65
 73
     6
 40
1.25
 49
0.5
 49
-0.25
 49
0.0
 49
-0.25
 49
0.0
 49
-0.25
  0
LTYPE
  2
CENTER
 70
     0
  3
____ _ ____ _ ____ _ ____ _ ____ _ ____ _ ____
 72
    65
 73
     4
 40
17.5
 49
13.0
 49
-1.5
 49
1.5
 49
-1.5
  0
ENDTAB
  0
TABLE
  2
LAYER
 70
    10
  0
LAYER
  2
0
 70
     0
 62
     3
  6
CONTINUOUS
  0
LAYER
  2
1
 70
     0
 62
     3
  6
CONTINUOUS
  0
LAYER
  2
DEFPOINTS
 70
     0
 62
     7
  6
CONTINUOUS
  0
ENDTAB
  0
TABLE
  2
STYLE
 70
     5
  0
STYLE
  2
STANDARD
 70
     0
 40
0.0
 41
1.0
 50
0.0
 71
     0
 42
0.2
  3
txt
  4

  0
STYLE
  2
STANDARD1
 70
     0
 40
0.0
 41
1.0
 50
0.0
 71
     0
 42
2.8
  3
MONOTXT
  4
BIGFONT
  0
STYLE
  2
STANDARD2
 70
     4
 40
0.0
 41
1.0
 50
0.0
 71
     0
 42
2.8
  3
MONOTXT
  4
BIGFONT
  0
STYLE
  2
STANDARD3
 70
     0
 40
0.0
 41
1.0
 50
0.0
 71
     0
 42
2.8
  3
MONOTXT
  4

  0
STYLE
  2
STANDARD4
 70
     4
 40
0.0
 41
1.0
 50
0.0
 71
     0
 42
2.8
  3
MONOTXT
  4

  0
ENDTAB
  0
TABLE
  2
VIEW
 70
     0
  0
ENDTAB
  0
TABLE
  2
UCS
 70
     0
  0
ENDTAB
  0
TABLE
  2
APPID
 70
     1
  0
APPID
  2
ACAD
 70
     0
  0
ENDTAB
  0
TABLE
  2
DIMSTYLE
 70
     1
  0
DIMSTYLE
  2
STANDARD
 70
     0
  3

  4

  5

  6

  7

 40
1.0
 41
0.18
 42
0.0625
 43
0.38
 44
0.18
 45
0.0
 46
0.0
 47
0.0
 48
0.0
140
0.18
141
0.09
142
0.0
143
25.4
144
1.0
145
0.0
146
1.0
147
0.09
 71
     0
 72
     0
 73
     1
 74
     1
 75
     0
 76
     0
 77
     0
 78
     0
170
     0
171
     2
172
     0
173
     0
174
     0
175
     0
176
     0
177
     0
178
     0
  0
ENDTAB
  0
ENDSEC
  0
SECTION
  2
BLOCKS
  0
BLOCK
  8
0
  2
$MODEL_SPACE
 70
     0
 10
0.0
 20
0.0
 30
0.0
  3
$MODEL_SPACE
  1

  0
ENDBLK
  5
9E3
  8
0
  0
BLOCK
 67
     1
  8
0
  2
$PAPER_SPACE
 70
     0
 10
0.0
 20
0.0
 30
0.0
  3
$PAPER_SPACE
  1

  0
ENDBLK
  5
9E1
 67
     1
  8
0
  0
BLOCK
  8
0
  2
*D0
 70
     1
 10
0.0
 20
0.0
 30
0.0
  3
*D0
  1

  0
TEXT
  5
32
  8
0
  6
CONTINUOUS
 62
     4
 10
4.332499
 20
57.249998
 30
0.0
 40
3.2
  1
13
 50
0.000003
 41
0.7
  7
STANDARD1
  0
LINE
  5
33
  8
0
  6
CONTINUOUS
 62
     4
 10
9.750009
 20
45.0
 30
0.0
 11
9.750009
 21
58.25
 31
0.0
  0
LINE
  5
34
  8
0
  6
CONTINUOUS
 62
     4
 10
3.250009
 20
45.0
 30
0.0
 11
3.250009
 21
58.25
 31
0.0
  0
LINE
  5
35
  8
0
  6
CONTINUOUS
 62
     4
 10
9.750009
 20
56.25
 30
0.0
 11
3.250009
 21
56.25
 31
0.0
  0
LINE
  5
36
  8
0
  6
CONTINUOUS
 62
     4
 10
9.750009
 20
56.25
 30
0.0
 11
7.818157
 21
55.732362
 31
0.0
  0
LINE
  5
37
  8
0
  6
CONTINUOUS
 62
     4
 10
9.750009
 20
56.25
 30
0.0
 11
7.818157
 21
56.767638
 31
0.0
  0
LINE
  5
38
  8
0
  6
CONTINUOUS
 62
     4
 10
3.250009
 20
56.25
 30
0.0
 11
5.18186
 21
56.767638
 31
0.0
  0
LINE
  5
39
  8
0
  6
CONTINUOUS
 62
     4
 10
3.250009
 20
56.25
 30
0.0
 11
5.18186
 21
55.732362
 31
0.0
  0
POINT
  5
3B
  8
DEFPOINTS
  6
BYBLOCK
 10
3.250009
 20
44.0
 30
0.0
  0
POINT
  5
3C
  8
DEFPOINTS
  6
BYBLOCK
 10
9.750009
 20
44.0
 30
0.0
  0
POINT
  5
3D
  8
DEFPOINTS
  6
BYBLOCK
 10
9.750009
 20
56.25
 30
0.0
  0
ENDBLK
  5
3E
  8
0
  0
BLOCK
  8
0
  2
*D1
 70
     1
 10
0.0
 20
0.0
 30
0.0
  3
*D1
  1

  0
TEXT
  5
41
  8
0
  6
CONTINUOUS
 62
     4
 10
-2.501516
 20
-65.837885
 30
0.0
 40
3.2
  1
47.5
 50
0.000003
 41
0.7
  7
STANDARD1
  0
LINE
  5
42
  8
0
  6
CONTINUOUS
 62
     4
 10
9.750009
 20
-45.0
 30
0.0
 11
9.750009
 21
-68.837883
 31
0.0
  0
LINE
  5
43
  8
0
  6
CONTINUOUS
 62
     4
 10
-14.0
 20
-52.25
 30
0.0
 11
-14.0
 21
-68.837883
 31
0.0
  0
LINE
  5
44
  8
0
  6
CONTINUOUS
 62
     4
 10
9.750009
 20
-66.837883
 30
0.0
 11
-14.0
 21
-66.837883
 31
0.0
  0
LINE
  5
45
  8
0
  6
CONTINUOUS
 62
     4
 10
9.750009
 20
-66.837883
 30
0.0
 11
7.818157
 21
-67.355521
 31
0.0
  0
LINE
  5
46
  8
0
  6
CONTINUOUS
 62
     4
 10
9.750009
 20
-66.837883
 30
0.0
 11
7.818157
 21
-66.320245
 31
0.0
  0
LINE
  5
47
  8
0
  6
CONTINUOUS
 62
     4
 10
-14.0
 20
-66.837883
 30
0.0
 11
-12.068148
 21
-66.320245
 31
0.0
  0
LINE
  5
48
  8
0
  6
CONTINUOUS
 62
     4
 10
-14.0
 20
-66.837883
 30
0.0
 11
-12.068148
 21
-67.355521
 31
0.0
  0
POINT
  5
49
  8
DEFPOINTS
  6
BYBLOCK
 10
-14.0
 20
-51.25
 30
0.0
  0
POINT
  5
4A
  8
DEFPOINTS
  6
BYBLOCK
 10
9.750009
 20
-44.0
 30
0.0
  0
POINT
  5
4B
  8
DEFPOINTS
  6
BYBLOCK
 10
9.750009
 20
-66.837883
 30
0.0
  0
ENDBLK
  5
4C
  8
0
  0
BLOCK
  8
0
  2
*D2
 70
     1
 10
0.0
 20
0.0
 30
0.0
  3
*D2
  1

  0
TEXT
  5
4F
  8
0
  6
CONTINUOUS
 62
     4
 10
-20.791206
 20
62.303614
 30
0.0
 40
3.2
  1
120
 50
0.000003
 41
0.7
  7
STANDARD1
  0
LINE
  5
50
  8
0
  6
CONTINUOUS
 62
     4
 10
9.750009
 20
45.0
 30
0.0
 11
9.750009
 21
63.303616
 31
0.0
  0
LINE
  5
51
  8
0
  6
CONTINUOUS
 62
     4
 10
-50.249992
 20
16.0
 30
0.0
 11
-50.249992
 21
63.303616
 31
0.0
  0
LINE
  5
52
  8
0
  6
CONTINUOUS
 62
     4
 10
9.750009
 20
61.303616
 30
0.0
 11
-50.249992
 21
61.303616
 31
0.0
  0
LINE
  5
53
  8
0
  6
CONTINUOUS
 62
     4
 10
9.750009
 20
61.303616
 30
0.0
 11
7.818157
 21
60.785977
 31
0.0
  0
LINE
  5
54
  8
0
  6
CONTINUOUS
 62
     4
 10
9.750009
 20
61.303616
 30
0.0
 11
7.818157
 21
61.821254
 31
0.0
  0
LINE
  5
55
  8
0
  6
CONTINUOUS
 62
     4
 10
-50.249992
 20
61.303616
 30
0.0
 11
-48.318141
 21
61.821254
 31
0.0
  0
LINE
  5
56
  8
0
  6
CONTINUOUS
 62
     4
 10
-50.249992
 20
61.303616
 30
0.0
 11
-48.318141
 21
60.785977
 31
0.0
  0
POINT
  5
57
  8
DEFPOINTS
  6
BYBLOCK
 10
-50.249992
 20
15.0
 30
0.0
  0
POINT
  5
58
  8
DEFPOINTS
  6
BYBLOCK
 10
9.750009
 20
44.0
 30
0.0
  0
POINT
  5
59
  8
DEFPOINTS
  6
BYBLOCK
 10
9.750009
 20
61.303616
 30
0.0
  0
ENDBLK
  5
5A
  8
0
  0
BLOCK
  8
0
  2
*D3
 70
     1
 10
0.0
 20
0.0
 30
0.0
  3
*D3
  1

  0
TEXT
  5
5D
  8
0
  6
CONTINUOUS
 62
     4
 10
45.294553
 20
-6.849093
 30
0.0
 40
3.2
  1
ѓУ
 50
90.000005
 41
0.583333
  7
STANDARD1
  0
TEXT
  5
5E
  8
0
  6
CONTINUOUS
 62
     4
 10
45.294553
 20
-4.609094
 30
0.0
 40
3.2
  1
28
 50
90.000005
 41
0.7
  7
STANDARD1
  0
TEXT
  5
5F
  8
0
  6
CONTINUOUS
 62
     4
 10
45.29455
 20
-0.129093
 30
0.0
 40
3.2
  1
h6
 50
90.000005
 41
0.7
  7
STANDARD1
  0
LINE
  5
60
  8
0
  6
CONTINUOUS
 62
     4
 10
38.250008
 20
7.0
 30
0.0
 11
48.306522
 21
7.0
 31
0.0
  0
LINE
  5
61
  8
0
  6
CONTINUOUS
 62
     4
 10
38.250008
 20
-7.0
 30
0.0
 11
48.306522
 21
-7.0
 31
0.0
  0
LINE
  5
62
  8
0
  6
CONTINUOUS
 62
     4
 10
46.306522
 20
7.0
 30
0.0
 11
46.306522
 21
-7.0
 31
0.0
  0
LINE
  5
63
  8
0
  6
CONTINUOUS
 62
     4
 10
46.306522
 20
7.0
 30
0.0
 11
46.82416
 21
5.068148
 31
0.0
  0
LINE
  5
64
  8
0
  6
CONTINUOUS
 62
     4
 10
46.306522
 20
7.0
 30
0.0
 11
45.788884
 21
5.068148
 31
0.0
  0
LINE
  5
65
  8
0
  6
CONTINUOUS
 62
     4
 10
46.306522
 20
-7.0
 30
0.0
 11
45.788884
 21
-5.068148
 31
0.0
  0
LINE
  5
66
  8
0
  6
CONTINUOUS
 62
     4
 10
46.306522
 20
-7.0
 30
0.0
 11
46.82416
 21
-5.068148
 31
0.0
  0
POINT
  5
67
  8
DEFPOINTS
  6
BYBLOCK
 10
37.250008
 20
-7.0
 30
0.0
  0
POINT
  5
68
  8
DEFPOINTS
  6
BYBLOCK
 10
37.250008
 20
7.0
 30
0.0
  0
POINT
  5
69
  8
DEFPOINTS
  6
BYBLOCK
 10
46.306522
 20
7.0
 30
0.0
  0
ENDBLK
  5
6A
  8
0
  0
BLOCK
  8
0
  2
SYM5
 70
     0
 10
0.0
 20
0.0
 30
0.0
  3
SYM5
  1

  0
ARC
  5
6D
  8
0
  6
CONTINUOUS
 62
     2
 10
2.5
 20
6.5
 30
0.0
 40
1.2
 50
359.999983
 51
180.000001
  0
ARC
  5
6E
  8
0
  6
CONTINUOUS
 62
     2
 10
2.5
 20
6.5
 30
0.0
 40
2.5
 50
359.999983
 51
180.000001
  0
LINE
  5
6F
  8
0
  6
CONTINUOUS
 62
     2
 10
0.0
 20
6.5
 30
0.0
 11
1.3
 21
6.5
 31
0.0
  0
LINE
  5
70
  8
0
  6
CONTINUOUS
 62
     2
 10
4.478567
 20
4.97184
 30
0.0
 11
1.6426
 21
1.299999
 31
0.0
  0
LINE
  5
71
  8
0
  6
CONTINUOUS
 62
     2
 10
0.0
 20
1.3
 30
0.0
 11
3.449712
 21
5.766483
 31
0.0
  0
LINE
  5
72
  8
0
  6
CONTINUOUS
 62
     2
 10
5.0
 20
1.299999
 30
0.0
 11
1.6426
 21
1.299999
 31
0.0
  0
LINE
  5
73
  8
0
  6
CONTINUOUS
 62
     2
 10
5.0
 20
0.0
 30
0.0
 11
5.0
 21
1.3
 31
0.0
  0
LINE
  5
74
  8
0
  6
CONTINUOUS
 62
     2
 10
0.0
 20
1.3
 30
0.0
 11
0.0
 21
0.0
 31
0.0
  0
LINE
  5
75
  8
0
  6
CONTINUOUS
 62
     2
 10
0.0
 20
0.0
 30
0.0
 11
5.0
 21
0.0
 31
0.0
  0
ARC
  5
76
  8
0
  6
CONTINUOUS
 62
     2
 10
2.5
 20
6.5
 30
0.0
 40
2.5
 50
322.319086
 51
359.999983
  0
ARC
  5
77
  8
0
  6
CONTINUOUS
 62
     2
 10
2.5
 20
6.5
 30
0.0
 40
1.2
 50
322.31914
 51
359.999983
  0
ENDBLK
  5
78
  8
0
  0
BLOCK
  8
0
  2
SYM6
 70
     0
 10
0.0
 20
0.0
 30
0.0
  3
SYM6
  1

  0
LINE
  5
7B
  8
0
  6
CONTINUOUS
 62
     2
 10
3.150001
 20
0.0
 30
0.0
 11
1.85
 21
0.0
 31
0.0
  0
LINE
  5
7C
  8
0
  6
CONTINUOUS
 62
     2
 10
1.85
 20
9.0
 30
0.0
 11
3.150001
 21
9.0
 31
0.0
  0
LINE
  5
7D
  8
0
  6
CONTINUOUS
 62
     2
 10
1.85
 20
0.0
 30
0.0
 11
1.85
 21
7.7
 31
0.0
  0
LINE
  5
7E
  8
0
  6
CONTINUOUS
 62
     2
 10
3.150001
 20
0.0
 30
0.0
 11
3.150001
 21
9.0
 31
0.0
  0
LINE
  5
7F
  8
0
  6
CONTINUOUS
 62
     2
 10
1.85
 20
7.7
 30
0.0
 11
1.2
 21
7.7
 31
0.0
  0
LINE
  5
80
  8
0
  6
CONTINUOUS
 62
     2
 10
1.2
 20
7.7
 30
0.0
 11
1.85
 21
9.0
 31
0.0
  0
ENDBLK
  5
81
  8
0
  0
BLOCK
  8
0
  2
SYM7
 70
     0
 10
0.0
 20
0.0
 30
0.0
  3
SYM7
  1

  0
ARC
  5
84
  8
0
  6
CONTINUOUS
 62
     2
 10
2.5
 20
6.5
 30
0.0
 40
2.5
 50
61.314554
 51
298.685484
  0
LINE
  5
85
  8
0
  6
CONTINUOUS
 62
     2
 10
1.3
 20
2.5
 30
0.0
 11
0.0
 21
2.5
 31
0.0
  0
LINE
  5
86
  8
0
  6
CONTINUOUS
 62
     2
 10
3.7
 20
4.306828
 30
0.0
 11
3.7
 21
2.5
 31
0.0
  0
LINE
  5
87
  8
0
  6
CONTINUOUS
 62
     2
 10
5.0
 20
6.5
 30
0.0
 11
5.0
 21
2.5
 31
0.0
  0
ARC
  5
88
  8
0
  6
CONTINUOUS
 62
     2
 10
2.5
 20
2.5
 30
0.0
 40
2.5
 50
180.000019
 51
359.999928
  0
ARC
  5
89
  8
0
  6
CONTINUOUS
 62
     2
 10
2.5
 20
2.5
 30
0.0
 40
1.2
 50
180.000019
 51
0.000037
  0
ARC
  5
8A
  8
0
  6
CONTINUOUS
 62
     2
 10
2.5
 20
6.5
 30
0.0
 40
2.5
 50
0.0
 51
61.314554
  0
CIRCLE
  5
8B
  8
0
  6
CONTINUOUS
 62
     2
 10
2.5
 20
6.5
 30
0.0
 40
1.2
  0
ENDBLK
  5
8C
  8
0
  0
BLOCK
  8
0
  2
*D7
 70
     1
 10
0.0
 20
0.0
 30
0.0
  3
*D7
  1

  0
TEXT
  5
8F
  8
0
  6
CONTINUOUS
 62
     4
 10
174.397531
 20
-38.810001
 30
0.0
 40
3.2
  1
144
 50
90.000005
 41
0.7
  7
STANDARD1
  0
LINE
  5
90
  8
0
  6
CONTINUOUS
 62
     4
 10
173.5
 20
0.0
 30
0.0
 11
177.397537
 21
0.0
 31
0.0
  0
LINE
  5
91
  8
0
  6
CONTINUOUS
 62
     4
 10
131.699997
 20
-70.900002
 30
0.0
 11
177.397537
 21
-70.900002
 31
0.0
  0
LINE
  5
92
  8
0
  6
CONTINUOUS
 62
     4
 10
175.397537
 20
0.0
 30
0.0
 11
175.397537
 21
-70.900002
 31
0.0
  0
LINE
  5
93
  8
0
  6
CONTINUOUS
 62
     4
 10
175.397537
 20
0.0
 30
0.0
 11
175.915175
 21
-1.931852
 31
0.0
  0
LINE
  5
94
  8
0
  6
CONTINUOUS
 62
     4
 10
175.397537
 20
0.0
 30
0.0
 11
174.879899
 21
-1.931852
 31
0.0
  0
LINE
  5
95
  8
0
  6
CONTINUOUS
 62
     4
 10
175.397537
 20
-70.900002
 30
0.0
 11
174.879899
 21
-68.96815
 31
0.0
  0
LINE
  5
96
  8
0
  6
CONTINUOUS
 62
     4
 10
175.397537
 20
-70.900002
 30
0.0
 11
175.915175
 21
-68.96815
 31
0.0
  0
POINT
  5
97
  8
DEFPOINTS
  6
BYBLOCK
 10
130.699997
 20
-70.900002
 30
0.0
  0
POINT
  5
98
  8
DEFPOINTS
  6
BYBLOCK
 10
172.5
 20
0.0
 30
0.0
  0
POINT
  5
99
  8
DEFPOINTS
  6
BYBLOCK
 10
175.397537
 20
0.0
 30
0.0
  0
ENDBLK
  5
9A
  8
0
  0
BLOCK
  8
0
  2
*D8
 70
     1
 10
0.0
 20
0.0
 30
0.0
  3
*D8
  1

  0
TEXT
  5
9D
  8
0
  6
CONTINUOUS
 62
     4
 10
22.510008
 20
24.75
 30
0.0
 40
3.2
  1
50
 50
0.000003
 41
0.7
  7
STANDARD1
  0
LINE
  5
9E
  8
0
  6
CONTINUOUS
 62
     4
 10
12.250009
 20
8.5
 30
0.0
 11
12.250009
 21
25.75
 31
0.0
  0
LINE
  5
9F
  8
0
  6
CONTINUOUS
 62
     4
 10
37.250008
 20
8.0
 30
0.0
 11
37.250008
 21
25.75
 31
0.0
  0
LINE
  5
A0
  8
0
  6
CONTINUOUS
 62
     4
 10
12.250009
 20
23.75
 30
0.0
 11
37.250008
 21
23.75
 31
0.0
  0
LINE
  5
A1
  8
0
  6
CONTINUOUS
 62
     4
 10
12.250009
 20
23.75
 30
0.0
 11
14.18186
 21
24.267638
 31
0.0
  0
LINE
  5
A2
  8
0
  6
CONTINUOUS
 62
     4
 10
12.250009
 20
23.75
 30
0.0
 11
14.18186
 21
23.232362
 31
0.0
  0
LINE
  5
A3
  8
0
  6
CONTINUOUS
 62
     4
 10
37.250008
 20
23.75
 30
0.0
 11
35.318156
 21
23.232362
 31
0.0
  0
LINE
  5
A4
  8
0
  6
CONTINUOUS
 62
     4
 10
37.250008
 20
23.75
 30
0.0
 11
35.318156
 21
24.267638
 31
0.0
  0
POINT
  5
A5
  8
DEFPOINTS
  6
BYBLOCK
 10
37.250008
 20
7.0
 30
0.0
  0
POINT
  5
A6
  8
DEFPOINTS
  6
BYBLOCK
 10
12.250009
 20
7.5
 30
0.0
  0
POINT
  5
A7
  8
DEFPOINTS
  6
BYBLOCK
 10
12.250009
 20
23.75
 30
0.0
  0
ENDBLK
  5
A8
  8
0
  0
BLOCK
  8
0
  2
*D9
 70
     1
 10
0.0
 20
0.0
 30
0.0
  3
*D9
  1

  0
TEXT
  5
AB
  8
0
  6
CONTINUOUS
 62
     4
 10
133.815693
 20
-36.098572
 30
0.0
 40
3.2
  1
45%%d%%d
 50
22.499998
 41
0.65625
  7
STANDARD1
  0
LINE
  5
AC
  8
0
  6
CONTINUOUS
 62
     4
 10
153.386276
 20
-30.88627
 30
0.0
 11
148.543137
 21
-26.04314
 31
0.0
  0
ARC
  5
AD
  8
0
  6
CONTINUOUS
 62
     4
 10
122.5
 20
0.0
 30
0.0
 40
38.830563
 50
270.0
 51
314.999998
  0
LINE
  5
AE
  8
0
  6
CONTINUOUS
 62
     4
 10
122.5
 20
-38.830563
 30
0.0
 11
124.431852
 21
-38.312924
 31
0.0
  0
LINE
  5
AF
  8
0
  6
CONTINUOUS
 62
     4
 10
122.5
 20
-38.830563
 30
0.0
 11
124.431852
 21
-39.348201
 31
0.0
  0
LINE
  5
B0
  8
0
  6
CONTINUOUS
 62
     4
 10
149.957352
 20
-27.457354
 30
0.0
 11
148.957352
 21
-29.189404
 31
0.0
  0
LINE
  5
B1
  8
0
  6
CONTINUOUS
 62
     4
 10
149.957352
 20
-27.457354
 30
0.0
 11
148.225301
 21
-28.457354
 31
0.0
  0
POINT
  5
B2
  8
DEFPOINTS
  6
BYBLOCK
 10
0.0
 20
0.0
 30
0.0
  0
POINT
  5
B3
  8
DEFPOINTS
  6
BYBLOCK
 10
122.5
 20
0.0
 30
0.0
  0
POINT
  5
B4
  8
DEFPOINTS
  6
BYBLOCK
 10
122.5
 20
-38.830563
 30
0.0
  0
POINT
  5
B5
  8
DEFPOINTS
  6
BYBLOCK
 10
154.093384
 20
-31.593376
 30
0.0
  0
POINT
  5
B6
  8
DEFPOINTS
  6
BYBLOCK
 10
274.719625
 20
-71.749525
 30
0.0
  0
ENDBLK
  5
B7
  8
0
  0
BLOCK
  8
0
  2
*D10
 70
     1
 10
0.0
 20
0.0
 30
0.0
  3
*D10
  1

  0
TEXT
  5
BA
  8
0
  6
CONTINUOUS
 62
     4
 10
98.902381
 20
55.009942
 30
0.0
 40
3.2
  1
40%%d%%d
 50
19.999999
 41
0.65625
  7
STANDARD1
  0
LINE
  5
BB
  8
0
  6
CONTINUOUS
 62
     4
 10
122.5
 20
55.213619
 30
0.0
 11
122.5
 21
60.763298
 31
0.0
  0
LINE
  5
BC
  8
0
  6
CONTINUOUS
 62
     4
 10
85.588483
 20
43.989433
 30
0.0
 11
83.442108
 21
46.547386
 31
0.0
  0
ARC
  5
BD
  8
0
  6
CONTINUOUS
 62
     4
 10
122.5
 20
0.0
 30
0.0
 40
58.763298
 50
90.0
 51
129.999998
  0
LINE
  5
BE
  8
0
  6
CONTINUOUS
 62
     4
 10
122.5
 20
58.763298
 30
0.0
 11
120.568148
 21
58.24566
 31
0.0
  0
LINE
  5
BF
  8
0
  6
CONTINUOUS
 62
     4
 10
122.5
 20
58.763298
 30
0.0
 11
120.568148
 21
59.280936
 31
0.0
  0
LINE
  5
C0
  8
0
  6
CONTINUOUS
 62
     4
 10
84.727684
 20
45.015297
 30
0.0
 11
85.874837
 21
46.653601
 31
0.0
  0
LINE
  5
C1
  8
0
  6
CONTINUOUS
 62
     4
 10
84.727684
 20
45.015297
 30
0.0
 11
86.5403
 21
45.860533
 31
0.0
  0
POINT
  5
C2
  8
DEFPOINTS
  6
BYBLOCK
 10
0.0
 20
0.0
 30
0.0
  0
POINT
  5
C3
  8
DEFPOINTS
  6
BYBLOCK
 10
122.5
 20
0.0
 30
0.0
  0
POINT
  5
C4
  8
DEFPOINTS
  6
BYBLOCK
 10
122.5
 20
54.213619
 30
0.0
  0
POINT
  5
C5
  8
DEFPOINTS
  6
BYBLOCK
 10
86.23127
 20
43.223389
 30
0.0
  0
POINT
  5
C6
  8
DEFPOINTS
  6
BYBLOCK
 10
204.803539
 20
110.438876
 30
0.0
  0
ENDBLK
  5
C7
  8
0
  0
BLOCK
  8
0
  2
*D11
 70
     1
 10
0.0
 20
0.0
 30
0.0
  3
*D11
  1

  0
TEXT
  5
CA
  8
0
  6
CONTINUOUS
 62
     4
 10
-44.854992
 20
57.249998
 30
0.0
 40
3.2
  1
39.5
 50
0.000003
 41
0.7
  7
STANDARD1
  0
LINE
  5
CB
  8
0
  6
CONTINUOUS
 62
     4
 10
-50.249992
 20
16.0
 30
0.0
 11
-50.249992
 21
58.25
 31
0.0
  0
LINE
  5
CC
  8
0
  6
CONTINUOUS
 62
     4
 10
-30.499992
 20
45.0
 30
0.0
 11
-30.499992
 21
58.25
 31
0.0
  0
LINE
  5
CD
  8
0
  6
CONTINUOUS
 62
     4
 10
-50.249992
 20
56.25
 30
0.0
 11
-30.499992
 21
56.25
 31
0.0
  0
LINE
  5
CE
  8
0
  6
CONTINUOUS
 62
     4
 10
-50.249992
 20
56.25
 30
0.0
 11
-48.318141
 21
56.767638
 31
0.0
  0
LINE
  5
CF
  8
0
  6
CONTINUOUS
 62
     4
 10
-50.249992
 20
56.25
 30
0.0
 11
-48.318141
 21
55.732362
 31
0.0
  0
LINE
  5
D0
  8
0
  6
CONTINUOUS
 62
     4
 10
-30.499992
 20
56.25
 30
0.0
 11
-32.431844
 21
55.732362
 31
0.0
  0
LINE
  5
D1
  8
0
  6
CONTINUOUS
 62
     4
 10
-30.499992
 20
56.25
 30
0.0
 11
-32.431844
 21
56.767638
 31
0.0
  0
POINT
  5
D2
  8
DEFPOINTS
  6
BYBLOCK
 10
-30.499992
 20
44.0
 30
0.0
  0
POINT
  5
D3
  8
DEFPOINTS
  6
BYBLOCK
 10
-50.249992
 20
15.0
 30
0.0
  0
POINT
  5
D4
  8
DEFPOINTS
  6
BYBLOCK
 10
-50.249992
 20
56.25
 30
0.0
  0
ENDBLK
  5
D5
  8
0
  0
BLOCK
  8
0
  2
*D12
 70
     1
 10
0.0
 20
0.0
 30
0.0
  3
*D12
  1

  0
TEXT
  5
D8
  8
0
  6
CONTINUOUS
 62
     4
 10
120.260002
 20
-76.750002
 30
0.0
 40
3.2
  1
44
 50
0.000003
 41
0.7
  7
STANDARD1
  0
LINE
  5
D9
  8
0
  6
CONTINUOUS
 62
     4
 10
111.5
 20
-60.0
 30
0.0
 11
111.5
 21
-79.75
 31
0.0
  0
LINE
  5
DA
  8
0
  6
CONTINUOUS
 62
     4
 10
133.5
 20
-60.0
 30
0.0
 11
133.5
 21
-79.75
 31
0.0
  0
LINE
  5
DB
  8
0
  6
CONTINUOUS
 62
     4
 10
111.5
 20
-77.75
 30
0.0
 11
133.5
 21
-77.75
 31
0.0
  0
LINE
  5
DC
  8
0
  6
CONTINUOUS
 62
     4
 10
111.5
 20
-77.75
 30
0.0
 11
113.431852
 21
-77.232362
 31
0.0
  0
LINE
  5
DD
  8
0
  6
CONTINUOUS
 62
     4
 10
111.5
 20
-77.75
 30
0.0
 11
113.431852
 21
-78.267638
 31
0.0
  0
LINE
  5
DE
  8
0
  6
CONTINUOUS
 62
     4
 10
133.5
 20
-77.75
 30
0.0
 11
131.568148
 21
-78.267638
 31
0.0
  0
LINE
  5
DF
  8
0
  6
CONTINUOUS
 62
     4
 10
133.5
 20
-77.75
 30
0.0
 11
131.568148
 21
-77.232362
 31
0.0
  0
POINT
  5
E0
  8
DEFPOINTS
  6
BYBLOCK
 10
133.5
 20
-59.0
 30
0.0
  0
POINT
  5
E1
  8
DEFPOINTS
  6
BYBLOCK
 10
111.5
 20
-59.0
 30
0.0
  0
POINT
  5
E2
  8
DEFPOINTS
  6
BYBLOCK
 10
111.5
 20
-77.75
 30
0.0
  0
ENDBLK
  5
E3
  8
0
  0
BLOCK
  8
1
  2
*D13
 70
     1
 10
0.0
 20
0.0
 30
0.0
  3
*D13
  1

  0
TEXT
  5
E6
  8
1
  6
CONTINUOUS
 62
     4
 10
98.303555
 20
34.345225
 30
0.0
 40
2.8
  1
ѓУ
 50
306.528856
 41
0.583333
  7
STANDARD1
  0
TEXT
  5
E7
  8
1
  6
CONTINUOUS
 62
     4
 10
99.470204
 20
32.770254
 30
0.0
 40
2.8
  1
215
 50
306.528856
 41
0.7
  7
STANDARD1
  0
LINE
  5
E8
  8
1
  6
CONTINUOUS
 62
     4
 10
154.493469
 20
-43.1912
 30
0.0
 11
90.506516
 21
43.1912
 31
0.0
  0
LINE
  5
E9
  8
1
  6
CONTINUOUS
 62
     4
 10
154.493469
 20
-43.1912
 30
0.0
 11
152.927626
 21
-41.946959
 31
0.0
  0
LINE
  5
EA
  8
1
  6
CONTINUOUS
 62
     4
 10
154.493469
 20
-43.1912
 30
0.0
 11
153.75953
 21
-41.330734
 31
0.0
  0
LINE
  5
EB
  8
1
  6
CONTINUOUS
 62
     4
 10
90.506516
 20
43.1912
 30
0.0
 11
92.072359
 21
41.946959
 31
0.0
  0
LINE
  5
EC
  8
1
  6
CONTINUOUS
 62
     4
 10
90.506516
 20
43.1912
 30
0.0
 11
91.240455
 21
41.330734
 31
0.0
  0
POINT
  5
ED
  8
DEFPOINTS
  6
BYBLOCK
 10
154.493469
 20
-43.1912
 30
0.0
  0
POINT
  5
EE
  8
DEFPOINTS
  6
BYBLOCK
 10
90.506516
 20
43.1912
 30
0.0
  0
ENDBLK
  5
EF
  8
1
  0
BLOCK
  8
1
  2
*D14
 70
     1
 10
0.0
 20
0.0
 30
0.0
  3
*D14
  1

  0
TEXT
  5
F2
  8
1
  6
CONTINUOUS
 62
     4
 10
-49.854992
 20
-51.459127
 30
0.0
 40
3.2
  1
19.5
 50
0.000003
 41
0.7
  7
STANDARD1
  0
LINE
  5
F3
  8
1
  6
CONTINUOUS
 62
     4
 10
-50.249992
 20
-30.0
 30
0.0
 11
-50.249992
 21
-54.459126
 31
0.0
  0
LINE
  5
F4
  8
1
  6
CONTINUOUS
 62
     4
 10
-40.499996
 20
-28.270405
 30
0.0
 11
-40.499996
 21
-54.459126
 31
0.0
  0
LINE
  5
F5
  8
1
  6
CONTINUOUS
 62
     4
 10
-50.249992
 20
-52.459126
 30
0.0
 11
-40.499996
 21
-52.459126
 31
0.0
  0
LINE
  5
F6
  8
1
  6
CONTINUOUS
 62
     4
 10
-50.249992
 20
-52.459126
 30
0.0
 11
-48.318141
 21
-51.941487
 31
0.0
  0
LINE
  5
F7
  8
1
  6
CONTINUOUS
 62
     4
 10
-50.249992
 20
-52.459126
 30
0.0
 11
-48.318141
 21
-52.976764
 31
0.0
  0
LINE
  5
F8
  8
1
  6
CONTINUOUS
 62
     4
 10
-40.499996
 20
-52.459126
 30
0.0
 11
-42.431848
 21
-52.976764
 31
0.0
  0
LINE
  5
F9
  8
1
  6
CONTINUOUS
 62
     4
 10
-40.499996
 20
-52.459126
 30
0.0
 11
-42.431848
 21
-51.941487
 31
0.0
  0
POINT
  5
FA
  8
DEFPOINTS
  6
BYBLOCK
 10
-40.499996
 20
-27.270405
 30
0.0
  0
POINT
  5
FB
  8
DEFPOINTS
  6
BYBLOCK
 10
-50.249992
 20
-29.0
 30
0.0
  0
POINT
  5
FC
  8
DEFPOINTS
  6
BYBLOCK
 10
-50.249992
 20
-52.459126
 30
0.0
  0
ENDBLK
  5
FD
  8
1
  0
BLOCK
  8
1
  2
*D15
 70
     1
 10
0.0
 20
0.0
 30
0.0
  3
*D15
  1

  0
TEXT
  5
100
  8
1
  6
CONTINUOUS
 62
     4
 10
-60.475153
 20
-24.516409
 30
0.0
 40
3.2
  1
81.5
 50
90.000005
 41
0.7
  7
STANDARD1
  0
LINE
  5
101
  8
1
  6
CONTINUOUS
 62
     4
 10
-56.591747
 20
0.0
 30
0.0
 11
-61.475155
 21
0.0
 31
0.0
  0
LINE
  5
102
  8
1
  6
CONTINUOUS
 62
     4
 10
-48.399986
 20
-40.549999
 30
0.0
 11
-61.475155
 21
-40.549999
 31
0.0
  0
LINE
  5
103
  8
1
  6
CONTINUOUS
 62
     4
 10
-59.475155
 20
0.0
 30
0.0
 11
-59.475155
 21
-40.549999
 31
0.0
  0
LINE
  5
104
  8
1
  6
CONTINUOUS
 62
     4
 10
-59.475155
 20
0.0
 30
0.0
 11
-58.957517
 21
-1.931852
 31
0.0
  0
LINE
  5
105
  8
1
  6
CONTINUOUS
 62
     4
 10
-59.475155
 20
0.0
 30
0.0
 11
-59.992793
 21
-1.931852
 31
0.0
  0
LINE
  5
106
  8
1
  6
CONTINUOUS
 62
     4
 10
-59.475155
 20
-40.549999
 30
0.0
 11
-59.992793
 21
-38.618148
 31
0.0
  0
LINE
  5
107
  8
1
  6
CONTINUOUS
 62
     4
 10
-59.475155
 20
-40.549999
 30
0.0
 11
-58.957517
 21
-38.618148
 31
0.0
  0
POINT
  5
108
  8
DEFPOINTS
  6
BYBLOCK
 10
-47.399986
 20
-40.549999
 30
0.0
  0
POINT
  5
109
  8
DEFPOINTS
  6
BYBLOCK
 10
-55.591747
 20
0.0
 30
0.0
  0
POINT
  5
10A
  8
DEFPOINTS
  6
BYBLOCK
 10
-59.475155
 20
0.0
 30
0.0
  0
ENDBLK
  5
10B
  8
1
  0
BLOCK
  8
1
  2
*D16
 70
     1
 10
0.0
 20
0.0
 30
0.0
  3
*D16
  1

  0
TEXT
  5
10E
  8
1
  6
CONTINUOUS
 62
     4
 10
56.399168
 20
-11.17
 30
0.0
 40
3.2
  1
ѓУ
 50
90.000005
 41
0.583333
  7
STANDARD1
  0
TEXT
  5
10F
  8
1
  6
CONTINUOUS
 62
     4
 10
56.399168
 20
-8.93
 30
0.0
 40
3.2
  1
114.3
 50
90.000005
 41
0.7
  7
STANDARD1
  0
TEXT
  5
110
  8
1
  6
CONTINUOUS
 62
     4
 10
54.549168
 20
2.77
 30
0.0
 40
2.0
  1
Ѓ@0
 50
90.000005
 41
0.636364
  7
STANDARD1
  0
TEXT
  5
111
  8
1
  6
CONTINUOUS
 62
     4
 10
57.049168
 20
2.77
 30
0.0
 40
2.0
  1
-0.025
 50
90.000005
 41
0.7
  7
STANDARD1
  0
LINE
  5
112
  8
1
  6
CONTINUOUS
 62
     4
 10
12.250009
 20
28.575001
 30
0.0
 11
60.049168
 21
28.575001
 31
0.0
  0
LINE
  5
113
  8
1
  6
CONTINUOUS
 62
     4
 10
12.250009
 20
-28.575001
 30
0.0
 11
60.049168
 21
-28.575001
 31
0.0
  0
LINE
  5
114
  8
1
  6
CONTINUOUS
 62
     4
 10
58.049168
 20
28.575001
 30
0.0
 11
58.049168
 21
-28.575001
 31
0.0
  0
LINE
  5
115
  8
1
  6
CONTINUOUS
 62
     4
 10
58.049168
 20
28.575001
 30
0.0
 11
58.566806
 21
26.643149
 31
0.0
  0
LINE
  5
116
  8
1
  6
CONTINUOUS
 62
     4
 10
58.049168
 20
28.575001
 30
0.0
 11
57.53153
 21
26.643149
 31
0.0
  0
LINE
  5
117
  8
1
  6
CONTINUOUS
 62
     4
 10
58.049168
 20
-28.575001
 30
0.0
 11
57.53153
 21
-26.643149
 31
0.0
  0
LINE
  5
118
  8
1
  6
CONTINUOUS
 62
     4
 10
58.049168
 20
-28.575001
 30
0.0
 11
58.566806
 21
-26.643149
 31
0.0
  0
POINT
  5
119
  8
DEFPOINTS
  6
BYBLOCK
 10
11.250009
 20
-28.575001
 30
0.0
  0
POINT
  5
11A
  8
DEFPOINTS
  6
BYBLOCK
 10
11.250009
 20
28.575001
 30
0.0
  0
POINT
  5
11B
  8
DEFPOINTS
  6
BYBLOCK
 10
58.049168
 20
28.575001
 30
0.0
  0
ENDBLK
  5
11C
  8
1
  0
BLOCK
  8
1
  2
*D17
 70
     1
 10
0.0
 20
0.0
 30
0.0
  3
*D17
  1

  0
TEXT
  5
11F
  8
1
  6
CONTINUOUS
 62
     4
 10
21.260008
 20
62.303618
 30
0.0
 40
3.2
  1
55
 50
0.000003
 41
0.7
  7
STANDARD1
  0
LINE
  5
120
  8
1
  6
CONTINUOUS
 62
     4
 10
37.250008
 20
9.75
 30
0.0
 11
37.250008
 21
63.303616
 31
0.0
  0
LINE
  5
121
  8
1
  6
CONTINUOUS
 62
     4
 10
9.750009
 20
45.0
 30
0.0
 11
9.750009
 21
63.303616
 31
0.0
  0
LINE
  5
122
  8
1
  6
CONTINUOUS
 62
     4
 10
37.250008
 20
61.303616
 30
0.0
 11
9.750009
 21
61.303616
 31
0.0
  0
LINE
  5
123
  8
1
  6
CONTINUOUS
 62
     4
 10
37.250008
 20
61.303616
 30
0.0
 11
35.318156
 21
60.785977
 31
0.0
  0
LINE
  5
124
  8
1
  6
CONTINUOUS
 62
     4
 10
37.250008
 20
61.303616
 30
0.0
 11
35.318156
 21
61.821254
 31
0.0
  0
LINE
  5
125
  8
1
  6
CONTINUOUS
 62
     4
 10
9.750009
 20
61.303616
 30
0.0
 11
11.68186
 21
61.821254
 31
0.0
  0
LINE
  5
126
  8
1
  6
CONTINUOUS
 62
     4
 10
9.750009
 20
61.303616
 30
0.0
 11
11.68186
 21
60.785977
 31
0.0
  0
POINT
  5
127
  8
DEFPOINTS
  6
BYBLOCK
 10
9.750009
 20
44.0
 30
0.0
  0
POINT
  5
128
  8
DEFPOINTS
  6
BYBLOCK
 10
37.250008
 20
8.75
 30
0.0
  0
POINT
  5
129
  8
DEFPOINTS
  6
BYBLOCK
 10
37.250008
 20
61.303616
 30
0.0
  0
ENDBLK
  5
12A
  8
1
  0
BLOCK
  8
1
  2
SYM19
 70
     0
 10
0.0
 20
0.0
 30
0.0
  3
SYM19
  1

  0
ARC
  5
12D
  8
1
  6
CONTINUOUS
 62
     2
 10
2.5
 20
2.5
 30
0.0
 40
2.5
 50
180.000019
 51
110.051433
  0
ARC
  5
12E
  8
1
  6
CONTINUOUS
 62
     2
 10
2.5
 20
2.5
 30
0.0
 40
1.2
 50
183.559312
 51
90.0
  0
LINE
  5
12F
  8
1
  6
CONTINUOUS
 62
     2
 10
0.168649
 20
3.699999
 30
0.0
 11
2.5
 21
3.699999
 31
0.0
  0
LINE
  5
130
  8
1
  6
CONTINUOUS
 62
     2
 10
2.043599
 20
7.699999
 30
0.0
 11
1.64284
 21
4.848463
 31
0.0
  0
LINE
  5
131
  8
1
  6
CONTINUOUS
 62
     2
 10
0.168649
 20
3.699999
 30
0.0
 11
0.913518
 21
8.999999
 31
0.0
  0
LINE
  5
132
  8
1
  6
CONTINUOUS
 62
     2
 10
5.0
 20
7.7
 30
0.0
 11
5.0
 21
9.0
 31
0.0
  0
LINE
  5
133
  8
1
  6
CONTINUOUS
 62
     2
 10
2.043599
 20
7.699998
 30
0.0
 11
5.0
 21
7.699998
 31
0.0
  0
LINE
  5
134
  8
1
  6
CONTINUOUS
 62
     2
 10
0.913518
 20
8.999999
 30
0.0
 11
5.0
 21
8.999999
 31
0.0
  0
LINE
  5
135
  8
1
  6
CONTINUOUS
 62
     2
 10
0.0
 20
2.5
 30
0.0
 11
1.3
 21
2.5
 31
0.0
  0
ENDBLK
  5
136
  8
1
  0
BLOCK
  8
1
  2
*X19
 70
     1
 10
0.0
 20
0.0
 30
0.0
  3
*X19
  1

  0
LINE
  5
139
  8
1
  6
CONTINUOUS
 62
     4
 10
34.398879
 20
-106.698022
 30
0.0
 11
35.998813
 21
-106.698022
 31
0.0
  0
LINE
  5
13A
  8
1
  6
CONTINUOUS
 62
     4
 10
34.342212
 20
-106.598022
 30
0.0
 11
35.938813
 21
-106.598022
 31
0.0
  0
LINE
  5
13B
  8
1
  6
CONTINUOUS
 62
     4
 10
34.285546
 20
-106.498022
 30
0.0
 11
35.878813
 21
-106.498022
 31
0.0
  0
LINE
  5
13C
  8
1
  6
CONTINUOUS
 62
     4
 10
34.228879
 20
-106.398022
 30
0.0
 11
35.818813
 21
-106.398022
 31
0.0
  0
LINE
  5
13D
  8
1
  6
CONTINUOUS
 62
     4
 10
34.172212
 20
-106.298022
 30
0.0
 11
35.758813
 21
-106.298022
 31
0.0
  0
LINE
  5
13E
  8
1
  6
CONTINUOUS
 62
     4
 10
34.115546
 20
-106.198022
 30
0.0
 11
35.698813
 21
-106.198022
 31
0.0
  0
LINE
  5
13F
  8
1
  6
CONTINUOUS
 62
     4
 10
34.058879
 20
-106.098022
 30
0.0
 11
35.638813
 21
-106.098022
 31
0.0
  0
LINE
  5
140
  8
1
  6
CONTINUOUS
 62
     4
 10
34.002212
 20
-105.998022
 30
0.0
 11
35.578813
 21
-105.998022
 31
0.0
  0
LINE
  5
141
  8
1
  6
CONTINUOUS
 62
     4
 10
33.945546
 20
-105.898022
 30
0.0
 11
35.518813
 21
-105.898022
 31
0.0
  0
LINE
  5
142
  8
1
  6
CONTINUOUS
 62
     4
 10
33.888879
 20
-105.798022
 30
0.0
 11
35.458813
 21
-105.798022
 31
0.0
  0
LINE
  5
143
  8
1
  6
CONTINUOUS
 62
     4
 10
33.832212
 20
-105.698022
 30
0.0
 11
35.398813
 21
-105.698022
 31
0.0
  0
LINE
  5
144
  8
1
  6
CONTINUOUS
 62
     4
 10
33.775546
 20
-105.598022
 30
0.0
 11
35.338813
 21
-105.598022
 31
0.0
  0
LINE
  5
145
  8
1
  6
CONTINUOUS
 62
     4
 10
33.718879
 20
-105.498022
 30
0.0
 11
35.278813
 21
-105.498022
 31
0.0
  0
LINE
  5
146
  8
1
  6
CONTINUOUS
 62
     4
 10
33.662212
 20
-105.398022
 30
0.0
 11
35.218813
 21
-105.398022
 31
0.0
  0
LINE
  5
147
  8
1
  6
CONTINUOUS
 62
     4
 10
33.605546
 20
-105.298022
 30
0.0
 11
35.158813
 21
-105.298022
 31
0.0
  0
ENDBLK
  5
148
  8
1
  0
BLOCK
  8
1
  2
*X20
 70
     1
 10
0.0
 20
0.0
 30
0.0
  3
*X20
  1

  0
LINE
  5
14B
  8
1
  6
CONTINUOUS
 62
     4
 10
33.541412
 20
-102.297647
 30
0.0
 11
33.652078
 21
-102.297647
 31
0.0
  0
LINE
  5
14C
  8
1
  6
CONTINUOUS
 62
     4
 10
33.481412
 20
-102.397647
 30
0.0
 11
33.705412
 21
-102.397647
 31
0.0
  0
LINE
  5
14D
  8
1
  6
CONTINUOUS
 62
     4
 10
33.421412
 20
-102.497647
 30
0.0
 11
33.758745
 21
-102.497647
 31
0.0
  0
LINE
  5
14E
  8
1
  6
CONTINUOUS
 62
     4
 10
33.361412
 20
-102.597647
 30
0.0
 11
33.812078
 21
-102.597647
 31
0.0
  0
LINE
  5
14F
  8
1
  6
CONTINUOUS
 62
     4
 10
33.301412
 20
-102.697647
 30
0.0
 11
33.865412
 21
-102.697647
 31
0.0
  0
LINE
  5
150
  8
1
  6
CONTINUOUS
 62
     4
 10
33.241412
 20
-102.797647
 30
0.0
 11
33.918745
 21
-102.797647
 31
0.0
  0
LINE
  5
151
  8
1
  6
CONTINUOUS
 62
     4
 10
33.181412
 20
-102.897647
 30
0.0
 11
33.972078
 21
-102.897647
 31
0.0
  0
LINE
  5
152
  8
1
  6
CONTINUOUS
 62
     4
 10
33.121412
 20
-102.997647
 30
0.0
 11
34.025412
 21
-102.997647
 31
0.0
  0
LINE
  5
153
  8
1
  6
CONTINUOUS
 62
     4
 10
33.061412
 20
-103.097647
 30
0.0
 11
34.078745
 21
-103.097647
 31
0.0
  0
LINE
  5
154
  8
1
  6
CONTINUOUS
 62
     4
 10
33.001412
 20
-103.197647
 30
0.0
 11
34.132078
 21
-103.197647
 31
0.0
  0
LINE
  5
155
  8
1
  6
CONTINUOUS
 62
     4
 10
32.941412
 20
-103.297647
 30
0.0
 11
34.185412
 21
-103.297647
 31
0.0
  0
LINE
  5
156
  8
1
  6
CONTINUOUS
 62
     4
 10
32.881412
 20
-103.397647
 30
0.0
 11
34.238745
 21
-103.397647
 31
0.0
  0
LINE
  5
157
  8
1
  6
CONTINUOUS
 62
     4
 10
32.821412
 20
-103.497647
 30
0.0
 11
34.292078
 21
-103.497647
 31
0.0
  0
LINE
  5
158
  8
1
  6
CONTINUOUS
 62
     4
 10
32.761412
 20
-103.597647
 30
0.0
 11
34.345412
 21
-103.597647
 31
0.0
  0
LINE
  5
159
  8
1
  6
CONTINUOUS
 62
     4
 10
32.701412
 20
-103.697647
 30
0.0
 11
34.398745
 21
-103.697647
 31
0.0
  0
LINE
  5
15A
  8
1
  6
CONTINUOUS
 62
     4
 10
32.755333
 20
-103.797647
 30
0.0
 11
34.344667
 21
-103.797647
 31
0.0
  0
LINE
  5
15B
  8
1
  6
CONTINUOUS
 62
     4
 10
32.812
 20
-103.897647
 30
0.0
 11
34.288
 21
-103.897647
 31
0.0
  0
LINE
  5
15C
  8
1
  6
CONTINUOUS
 62
     4
 10
32.868667
 20
-103.997647
 30
0.0
 11
34.231333
 21
-103.997647
 31
0.0
  0
LINE
  5
15D
  8
1
  6
CONTINUOUS
 62
     4
 10
32.925333
 20
-104.097647
 30
0.0
 11
34.174667
 21
-104.097647
 31
0.0
  0
LINE
  5
15E
  8
1
  6
CONTINUOUS
 62
     4
 10
32.982
 20
-104.197647
 30
0.0
 11
34.118
 21
-104.197647
 31
0.0
  0
LINE
  5
15F
  8
1
  6
CONTINUOUS
 62
     4
 10
33.038667
 20
-104.297647
 30
0.0
 11
34.061333
 21
-104.297647
 31
0.0
  0
LINE
  5
160
  8
1
  6
CONTINUOUS
 62
     4
 10
33.095333
 20
-104.397647
 30
0.0
 11
34.004667
 21
-104.397647
 31
0.0
  0
LINE
  5
161
  8
1
  6
CONTINUOUS
 62
     4
 10
33.152
 20
-104.497647
 30
0.0
 11
33.948
 21
-104.497647
 31
0.0
  0
LINE
  5
162
  8
1
  6
CONTINUOUS
 62
     4
 10
33.208667
 20
-104.597647
 30
0.0
 11
33.891333
 21
-104.597647
 31
0.0
  0
LINE
  5
163
  8
1
  6
CONTINUOUS
 62
     4
 10
33.265333
 20
-104.697647
 30
0.0
 11
33.834667
 21
-104.697647
 31
0.0
  0
LINE
  5
164
  8
1
  6
CONTINUOUS
 62
     4
 10
33.322
 20
-104.797647
 30
0.0
 11
33.778
 21
-104.797647
 31
0.0
  0
LINE
  5
165
  8
1
  6
CONTINUOUS
 62
     4
 10
33.378667
 20
-104.897647
 30
0.0
 11
33.721333
 21
-104.897647
 31
0.0
  0
LINE
  5
166
  8
1
  6
CONTINUOUS
 62
     4
 10
33.435333
 20
-104.997647
 30
0.0
 11
33.664667
 21
-104.997647
 31
0.0
  0
LINE
  5
167
  8
1
  6
CONTINUOUS
 62
     4
 10
33.492
 20
-105.097647
 30
0.0
 11
33.608
 21
-105.097647
 31
0.0
  0
LINE
  5
168
  8
1
  6
CONTINUOUS
 62
     4
 10
33.548667
 20
-105.197647
 30
0.0
 11
33.551333
 21
-105.197647
 31
0.0
  0
ENDBLK
  5
169
  8
1
  0
BLOCK
  8
1
  2
*X21
 70
     1
 10
0.0
 20
0.0
 30
0.0
  3
*X21
  1

  0
LINE
  5
16C
  8
1
  6
CONTINUOUS
 62
     4
 10
31.001217
 20
-106.697972
 30
0.0
 11
32.701149
 21
-106.697972
 31
0.0
  0
LINE
  5
16D
  8
1
  6
CONTINUOUS
 62
     4
 10
31.061217
 20
-106.597972
 30
0.0
 11
32.757816
 21
-106.597972
 31
0.0
  0
LINE
  5
16E
  8
1
  6
CONTINUOUS
 62
     4
 10
31.121217
 20
-106.497972
 30
0.0
 11
32.814483
 21
-106.497972
 31
0.0
  0
LINE
  5
16F
  8
1
  6
CONTINUOUS
 62
     4
 10
31.181217
 20
-106.397972
 30
0.0
 11
32.871149
 21
-106.397972
 31
0.0
  0
LINE
  5
170
  8
1
  6
CONTINUOUS
 62
     4
 10
31.241217
 20
-106.297972
 30
0.0
 11
32.927816
 21
-106.297972
 31
0.0
  0
LINE
  5
171
  8
1
  6
CONTINUOUS
 62
     4
 10
31.301217
 20
-106.197972
 30
0.0
 11
32.984483
 21
-106.197972
 31
0.0
  0
LINE
  5
172
  8
1
  6
CONTINUOUS
 62
     4
 10
31.361217
 20
-106.097972
 30
0.0
 11
33.041149
 21
-106.097972
 31
0.0
  0
LINE
  5
173
  8
1
  6
CONTINUOUS
 62
     4
 10
31.421217
 20
-105.997972
 30
0.0
 11
33.097816
 21
-105.997972
 31
0.0
  0
LINE
  5
174
  8
1
  6
CONTINUOUS
 62
     4
 10
31.481217
 20
-105.897972
 30
0.0
 11
33.154483
 21
-105.897972
 31
0.0
  0
LINE
  5
175
  8
1
  6
CONTINUOUS
 62
     4
 10
31.541217
 20
-105.797972
 30
0.0
 11
33.211149
 21
-105.797972
 31
0.0
  0
LINE
  5
176
  8
1
  6
CONTINUOUS
 62
     4
 10
31.601217
 20
-105.697972
 30
0.0
 11
33.267816
 21
-105.697972
 31
0.0
  0
LINE
  5
177
  8
1
  6
CONTINUOUS
 62
     4
 10
31.661217
 20
-105.597972
 30
0.0
 11
33.324483
 21
-105.597972
 31
0.0
  0
LINE
  5
178
  8
1
  6
CONTINUOUS
 62
     4
 10
31.721217
 20
-105.497972
 30
0.0
 11
33.381149
 21
-105.497972
 31
0.0
  0
LINE
  5
179
  8
1
  6
CONTINUOUS
 62
     4
 10
31.781217
 20
-105.397972
 30
0.0
 11
33.437816
 21
-105.397972
 31
0.0
  0
LINE
  5
17A
  8
1
  6
CONTINUOUS
 62
     4
 10
31.841217
 20
-105.297972
 30
0.0
 11
33.494483
 21
-105.297972
 31
0.0
  0
ENDBLK
  5
17B
  8
1
  0
BLOCK
  8
1
  2
*D22
 70
     1
 10
0.0
 20
0.0
 30
0.0
  3
*D22
  1

  0
TEXT
  5
17E
  8
1
  6
CONTINUOUS
 62
     4
 10
146.531178
 20
-17.734655
 30
0.0
 40
3.2
  1
ѓУ
 50
322.079766
 41
0.583333
  7
STANDARD1
  0
TEXT
  5
17F
  8
1
  6
CONTINUOUS
 62
     4
 10
148.298238
 20
-19.111278
 30
0.0
 40
3.2
  1
230
 50
322.079766
 41
0.7
  7
STANDARD1
  0
LINE
  5
180
  8
1
  6
CONTINUOUS
 62
     4
 10
77.140144
 20
35.337425
 30
0.0
 11
167.859863
 21
-35.337425
 31
0.0
  0
LINE
  5
181
  8
1
  6
CONTINUOUS
 62
     4
 10
77.140144
 20
35.337425
 30
0.0
 11
78.98224
 21
34.558527
 31
0.0
  0
LINE
  5
182
  8
1
  6
CONTINUOUS
 62
     4
 10
77.140144
 20
35.337425
 30
0.0
 11
78.345997
 21
33.741831
 31
0.0
  0
LINE
  5
183
  8
1
  6
CONTINUOUS
 62
     4
 10
167.859863
 20
-35.337425
 30
0.0
 11
166.017767
 21
-34.558527
 31
0.0
  0
LINE
  5
184
  8
1
  6
CONTINUOUS
 62
     4
 10
167.859863
 20
-35.337425
 30
0.0
 11
166.654011
 21
-33.741831
 31
0.0
  0
POINT
  5
185
  8
DEFPOINTS
  6
BYBLOCK
 10
77.140144
 20
35.337425
 30
0.0
  0
POINT
  5
186
  8
DEFPOINTS
  6
BYBLOCK
 10
167.859863
 20
-35.337425
 30
0.0
  0
ENDBLK
  5
187
  8
1
  0
BLOCK
  8
1
  2
*D23
 70
     1
 10
0.0
 20
0.0
 30
0.0
  3
*D23
  1

  0
TEXT
  5
18A
  8
1
  6
CONTINUOUS
 62
     4
 10
145.993489
 20
17.484011
 30
0.0
 40
3.2
  1
ѓУ
 50
34.400804
 41
0.583333
  7
STANDARD1
  0
TEXT
  5
18B
  8
1
  6
CONTINUOUS
 62
     4
 10
147.841725
 20
18.749562
 30
0.0
 40
3.2
  1
200
 50
34.400804
 41
0.7
  7
STANDARD1
  0
LINE
  5
18C
  8
1
  6
CONTINUOUS
 62
     4
 10
81.24472
 20
-28.248928
 30
0.0
 11
163.75528
 21
28.248928
 31
0.0
  0
LINE
  5
18D
  8
1
  6
CONTINUOUS
 62
     4
 10
81.24472
 20
-28.248928
 30
0.0
 11
82.546248
 21
-26.730367
 31
0.0
  0
LINE
  5
18E
  8
1
  6
CONTINUOUS
 62
     4
 10
81.24472
 20
-28.248928
 30
0.0
 11
83.131156
 21
-27.584579
 31
0.0
  0
LINE
  5
18F
  8
1
  6
CONTINUOUS
 62
     4
 10
163.75528
 20
28.248928
 30
0.0
 11
162.453752
 21
26.730367
 31
0.0
  0
LINE
  5
190
  8
1
  6
CONTINUOUS
 62
     4
 10
163.75528
 20
28.248928
 30
0.0
 11
161.868844
 21
27.584579
 31
0.0
  0
POINT
  5
191
  8
DEFPOINTS
  6
BYBLOCK
 10
81.24472
 20
-28.248928
 30
0.0
  0
POINT
  5
192
  8
DEFPOINTS
  6
BYBLOCK
 10
163.75528
 20
28.248928
 30
0.0
  0
ENDBLK
  5
193
  8
1
  0
BLOCK
  8
1
  2
*D24
 70
     1
 10
0.0
 20
0.0
 30
0.0
  3
*D24
  1

  0
TEXT
  5
196
  8
1
  6
CONTINUOUS
 62
     4
 10
17.084416
 20
57.249998
 30
0.0
 40
3.2
  1
3
 50
0.000003
 41
0.7
  7
STANDARD1
  0
LINE
  5
197
  8
1
  6
CONTINUOUS
 62
     4
 10
9.750006
 20
45.0
 30
0.0
 11
9.750006
 21
58.25
 31
0.0
  0
LINE
  5
198
  8
1
  6
CONTINUOUS
 62
     4
 10
11.250006
 20
29.575001
 30
0.0
 11
11.250006
 21
58.25
 31
0.0
  0
LINE
  5
199
  8
1
  6
CONTINUOUS
 62
     4
 10
4.750006
 20
56.25
 30
0.0
 11
20.924416
 21
56.25
 31
0.0
  0
LINE
  5
19A
  8
1
  6
CONTINUOUS
 62
     4
 10
9.750006
 20
56.25
 30
0.0
 11
7.818154
 21
56.767638
 31
0.0
  0
LINE
  5
19B
  8
1
  6
CONTINUOUS
 62
     4
 10
9.750006
 20
56.25
 30
0.0
 11
7.818154
 21
55.732362
 31
0.0
  0
LINE
  5
19C
  8
1
  6
CONTINUOUS
 62
     4
 10
11.250006
 20
56.25
 30
0.0
 11
13.181857
 21
55.732362
 31
0.0
  0
LINE
  5
19D
  8
1
  6
CONTINUOUS
 62
     4
 10
11.250006
 20
56.25
 30
0.0
 11
13.181857
 21
56.767638
 31
0.0
  0
POINT
  5
19E
  8
DEFPOINTS
  6
BYBLOCK
 10
11.250006
 20
28.575001
 30
0.0
  0
POINT
  5
19F
  8
DEFPOINTS
  6
BYBLOCK
 10
9.750006
 20
44.0
 30
0.0
  0
POINT
  5
1A0
  8
DEFPOINTS
  6
BYBLOCK
 10
9.750006
 20
56.25
 30
0.0
  0
ENDBLK
  5
1A1
  8
1
  0
BLOCK
  8
1
  2
*D25
 70
     1
 10
0.0
 20
0.0
 30
0.0
  3
*D25
  1

  0
TEXT
  5
1A4
  8
1
  6
CONTINUOUS
 62
     4
 10
117.931976
 20
65.319441
 30
0.0
 40
3.2
  1
Ѓ ‚P‚V‚U
 50
0.000003
 41
0.583333
  7
STANDARD1
  0
LINE
  5
1A5
  8
1
  6
CONTINUOUS
 62
     4
 10
78.5
 20
38.016888
 30
0.0
 11
78.5
 21
66.319443
 31
0.0
  0
LINE
  5
1A6
  8
1
  6
CONTINUOUS
 62
     4
 10
166.5
 20
38.016888
 30
0.0
 11
166.5
 21
66.319443
 31
0.0
  0
LINE
  5
1A7
  8
1
  6
CONTINUOUS
 62
     4
 10
78.5
 20
64.319443
 30
0.0
 11
166.5
 21
64.319443
 31
0.0
  0
LINE
  5
1A8
  8
1
  6
CONTINUOUS
 62
     4
 10
78.5
 20
64.319443
 30
0.0
 11
80.431852
 21
64.837081
 31
0.0
  0
LINE
  5
1A9
  8
1
  6
CONTINUOUS
 62
     4
 10
78.5
 20
64.319443
 30
0.0
 11
80.431852
 21
63.801805
 31
0.0
  0
LINE
  5
1AA
  8
1
  6
CONTINUOUS
 62
     4
 10
166.5
 20
64.319443
 30
0.0
 11
164.568148
 21
63.801805
 31
0.0
  0
LINE
  5
1AB
  8
1
  6
CONTINUOUS
 62
     4
 10
166.5
 20
64.319443
 30
0.0
 11
164.568148
 21
64.837081
 31
0.0
  0
POINT
  5
1AC
  8
DEFPOINTS
  6
BYBLOCK
 10
166.5
 20
37.016888
 30
0.0
  0
POINT
  5
1AD
  8
DEFPOINTS
  6
BYBLOCK
 10
78.5
 20
37.016888
 30
0.0
  0
POINT
  5
1AE
  8
DEFPOINTS
  6
BYBLOCK
 10
78.5
 20
64.319443
 30
0.0
  0
ENDBLK
  5
1AF
  8
1
  0
BLOCK
  8
1
  2
SYM27
 70
     0
 10
0.0
 20
0.0
 30
0.0
  3
SYM27
  1

  0
LINE
  5
1B2
  8
1
  6
CONTINUOUS
 62
     2
 10
3.419239
 20
4.5
 30
0.0
 11
5.459619
 21
6.540381
 31
0.0
  0
LINE
  5
1B3
  8
1
  6
CONTINUOUS
 62
     2
 10
1.580761
 20
4.5
 30
0.0
 11
-0.459619
 21
6.540381
 31
0.0
  0
LINE
  5
1B4
  8
1
  6
CONTINUOUS
 62
     2
 10
1.85
 20
6.069239
 30
0.0
 11
0.459619
 21
7.459619
 31
0.0
  0
LINE
  5
1B5
  8
1
  6
CONTINUOUS
 62
     2
 10
3.15
 20
6.069239
 30
0.0
 11
3.15
 21
9.0
 31
0.0
  0
LINE
  5
1B6
  8
1
  6
CONTINUOUS
 62
     2
 10
1.85
 20
6.069239
 30
0.0
 11
1.85
 21
9.0
 31
0.0
  0
LINE
  5
1B7
  8
1
  6
CONTINUOUS
 62
     2
 10
3.15
 20
6.069239
 30
0.0
 11
4.540381
 21
7.459619
 31
0.0
  0
LINE
  5
1B8
  8
1
  6
CONTINUOUS
 62
     2
 10
5.459619
 20
2.459619
 30
0.0
 11
4.540381
 21
1.540381
 31
0.0
  0
LINE
  5
1B9
  8
1
  6
CONTINUOUS
 62
     2
 10
-0.459619
 20
6.540381
 30
0.0
 11
0.459619
 21
7.459619
 31
0.0
  0
LINE
  5
1BA
  8
1
  6
CONTINUOUS
 62
     2
 10
0.459619
 20
1.540381
 30
0.0
 11
-0.459619
 21
2.459619
 31
0.0
  0
LINE
  5
1BB
  8
1
  6
CONTINUOUS
 62
     2
 10
5.459619
 20
6.540381
 30
0.0
 11
4.540381
 21
7.459619
 31
0.0
  0
LINE
  5
1BC
  8
1
  6
CONTINUOUS
 62
     2
 10
1.85
 20
0.0
 30
0.0
 11
1.85
 21
2.930761
 31
0.0
  0
LINE
  5
1BD
  8
1
  6
CONTINUOUS
 62
     2
 10
3.15
 20
0.0
 30
0.0
 11
3.15
 21
2.930761
 31
0.0
  0
LINE
  5
1BE
  8
1
  6
CONTINUOUS
 62
     2
 10
0.459619
 20
1.540381
 30
0.0
 11
1.85
 21
2.930761
 31
0.0
  0
LINE
  5
1BF
  8
1
  6
CONTINUOUS
 62
     2
 10
-0.459619
 20
2.459619
 30
0.0
 11
1.580761
 21
4.5
 31
0.0
  0
LINE
  5
1C0
  8
1
  6
CONTINUOUS
 62
     2
 10
4.540381
 20
1.540381
 30
0.0
 11
3.15
 21
2.930761
 31
0.0
  0
LINE
  5
1C1
  8
1
  6
CONTINUOUS
 62
     2
 10
5.459619
 20
2.459619
 30
0.0
 11
3.419239
 21
4.5
 31
0.0
  0
LINE
  5
1C2
  8
1
  6
CONTINUOUS
 62
     2
 10
1.85
 20
9.0
 30
0.0
 11
3.15
 21
9.0
 31
0.0
  0
LINE
  5
1C3
  8
1
  6
CONTINUOUS
 62
     2
 10
1.85
 20
0.0
 30
0.0
 11
3.15
 21
0.0
 31
0.0
  0
ENDBLK
  5
1C4
  8
1
  0
BLOCK
  8
1
  2
SYM28
 70
     0
 10
0.0
 20
0.0
 30
0.0
  3
SYM28
  1

  0
LINE
  5
1C7
  8
1
  6
CONTINUOUS
 62
     2
 10
1.300001
 20
1.300002
 30
0.0
 11
5.0
 21
7.700008
 31
0.0
  0
LINE
  5
1C8
  8
1
  6
CONTINUOUS
 62
     2
 10
0.0
 20
1.3
 30
0.0
 11
3.7
 21
7.699999
 31
0.0
  0
LINE
  5
1C9
  8
1
  6
CONTINUOUS
 62
     2
 10
5.0
 20
9.0
 30
0.0
 11
5.0
 21
7.7
 31
0.0
  0
LINE
  5
1CA
  8
1
  6
CONTINUOUS
 62
     2
 10
0.0
 20
9.0
 30
0.0
 11
0.0
 21
7.7
 31
0.0
  0
LINE
  5
1CB
  8
1
  6
CONTINUOUS
 62
     2
 10
1.3
 20
1.3
 30
0.0
 11
5.0
 21
1.3
 31
0.0
  0
LINE
  5
1CC
  8
1
  6
CONTINUOUS
 62
     2
 10
5.0
 20
9.0
 30
0.0
 11
0.0
 21
9.0
 31
0.0
  0
LINE
  5
1CD
  8
1
  6
CONTINUOUS
 62
     2
 10
5.0
 20
0.0
 30
0.0
 11
0.0
 21
0.0
 31
0.0
  0
LINE
  5
1CE
  8
1
  6
CONTINUOUS
 62
     2
 10
0.0
 20
0.0
 30
0.0
 11
0.0
 21
1.3
 31
0.0
  0
LINE
  5
1CF
  8
1
  6
CONTINUOUS
 62
     2
 10
5.0
 20
0.0
 30
0.0
 11
5.0
 21
1.3
 31
0.0
  0
LINE
  5
1D0
  8
1
  6
CONTINUOUS
 62
     2
 10
3.7
 20
7.7
 30
0.0
 11
0.0
 21
7.7
 31
0.0
  0
ENDBLK
  5
1D1
  8
1
  0
BLOCK
  8
1
  2
SYM29
 70
     0
 10
0.0
 20
0.0
 30
0.0
  3
SYM29
  1

  0
ARC
  5
1D4
  8
1
  6
CONTINUOUS
 62
     2
 10
2.5
 20
6.5
 30
0.0
 40
2.5
 50
0.0
 51
180.000019
  0
ARC
  5
1D5
  8
1
  6
CONTINUOUS
 62
     2
 10
2.5
 20
2.5
 30
0.0
 40
2.5
 50
53.130061
 51
118.685465
  0
ARC
  5
1D6
  8
1
  6
CONTINUOUS
 62
     2
 10
2.5
 20
2.5
 30
0.0
 40
2.5
 50
180.000019
 51
53.130003
  0
LINE
  5
1D7
  8
1
  6
CONTINUOUS
 62
     2
 10
3.7
 20
6.5
 30
0.0
 11
5.0
 21
6.5
 31
0.0
  0
LINE
  5
1D8
  8
1
  6
CONTINUOUS
 62
     2
 10
0.0
 20
2.5
 30
0.0
 11
0.0
 21
6.5
 31
0.0
  0
ARC
  5
1D9
  8
1
  6
CONTINUOUS
 62
     2
 10
2.5
 20
6.5
 30
0.0
 40
1.2
 50
0.0
 51
180.000019
  0
CIRCLE
  5
1DA
  8
1
  6
CONTINUOUS
 62
     2
 10
2.5
 20
2.5
 30
0.0
 40
1.2
  0
LINE
  5
1DB
  8
1
  6
CONTINUOUS
 62
     2
 10
1.3
 20
6.5
 30
0.0
 11
1.3
 21
4.693172
 31
0.0
  0
ENDBLK
  5
1DC
  8
1
  0
BLOCK
  8
0
  2
*D29
 70
     1
 10
0.0
 20
0.0
 30
0.0
  3
*D29
  1

  0
LINE
  5
61C
  8
0
  6
BYBLOCK
 62
     0
 10
16.250009
 20
89.053616
 30
0.0
 11
16.250009
 21
129.860854
 31
0.0
  0
LINE
  5
61D
  8
0
  6
BYBLOCK
 62
     0
 10
71.250007
 20
18.553616
 30
0.0
 11
71.250007
 21
129.860854
 31
0.0
  0
LINE
  5
61E
  8
0
  6
BYBLOCK
 62
     0
 10
18.18186
 20
127.860854
 30
0.0
 11
69.318155
 21
127.860854
 31
0.0
  0
SOLID
  5
61F
  8
0
  6
BYBLOCK
 62
     0
 10
18.18186
 20
128.18283
 30
0.0
 11
18.18186
 21
127.538879
 31
0.0
 12
16.250009
 22
127.860854
 32
0.0
 13
16.250009
 23
127.860854
 33
0.0
  0
SOLID
  5
620
  8
0
  6
BYBLOCK
 62
     0
 10
69.318155
 20
128.18283
 30
0.0
 11
69.318155
 21
127.538879
 31
0.0
 12
71.250007
 22
127.860854
 32
0.0
 13
71.250007
 23
127.860854
 33
0.0
  0
TEXT
  5
621
  8
0
  6
BYBLOCK
 62
     0
 10
34.950006
 20
127.950854
 30
0.0
 40
3.2
  1
110.0000
  0
POINT
  5
622
  8
DEFPOINTS
  6
BYBLOCK
 62
     0
 10
16.250009
 20
88.053616
 30
0.0
  0
POINT
  5
623
  8
DEFPOINTS
  6
BYBLOCK
 62
     0
 10
71.250007
 20
17.553616
 30
0.0
  0
POINT
  5
624
  8
DEFPOINTS
  6
BYBLOCK
 62
     0
 10
71.250007
 20
127.860854
 30
0.0
  0
ENDBLK
  5
625
  8
0
  0
BLOCK
  8
0
  2
*D30
 70
     1
 10
0.0
 20
0.0
 30
0.0
  3
*D30
  1

  0
LINE
  5
627
  8
0
  6
BYBLOCK
 62
     0
 10
20.250009
 20
-57.096386
 30
0.0
 11
114.848327
 21
-57.096386
 31
0.0
  0
LINE
  5
628
  8
0
  6
BYBLOCK
 62
     0
 10
20.250009
 20
57.203617
 30
0.0
 11
114.848327
 21
57.203617
 31
0.0
  0
LINE
  5
629
  8
0
  6
BYBLOCK
 62
     0
 10
112.848327
 20
-55.164534
 30
0.0
 11
112.848327
 21
-1.636384
 31
0.0
  0
LINE
  5
62A
  8
0
  6
BYBLOCK
 62
     0
 10
112.848327
 20
55.271765
 30
0.0
 11
112.848327
 21
1.743616
 31
0.0
  0
SOLID
  5
62B
  8
0
  6
BYBLOCK
 62
     0
 10
112.526351
 20
-55.164534
 30
0.0
 11
113.170302
 21
-55.164534
 31
0.0
 12
112.848327
 22
-57.096386
 32
0.0
 13
112.848327
 23
-57.096386
 33
0.0
  0
SOLID
  5
62C
  8
0
  6
BYBLOCK
 62
     0
 10
112.526351
 20
55.271765
 30
0.0
 11
113.170302
 21
55.271765
 31
0.0
 12
112.848327
 22
57.203617
 32
0.0
 13
112.848327
 23
57.203617
 33
0.0
  0
TEXT
  5
62D
  8
0
  6
BYBLOCK
 62
     0
 10
102.448327
 20
-1.546384
 30
0.0
 40
3.2
  1
228.6000
  0
POINT
  5
62E
  8
DEFPOINTS
  6
BYBLOCK
 62
     0
 10
19.250009
 20
-57.096386
 30
0.0
  0
POINT
  5
62F
  8
DEFPOINTS
  6
BYBLOCK
 62
     0
 10
19.250009
 20
57.203617
 30
0.0
  0
POINT
  5
630
  8
DEFPOINTS
  6
BYBLOCK
 62
     0
 10
112.848327
 20
57.203617
 30
0.0
  0
ENDBLK
  5
631
  8
0
  0
BLOCK
  8
0
  2
*D31
 70
     1
 10
0.0
 20
0.0
 30
0.0
  3
*D31
  1

  0
LINE
  5
633
  8
0
  6
BYBLOCK
 62
     0
 10
71.250007
 20
15.053616
 30
0.0
 11
71.250007
 21
54.753616
 31
0.0
  0
LINE
  5
634
  8
0
  6
BYBLOCK
 62
     0
 10
21.250009
 20
16.053616
 30
0.0
 11
21.250009
 21
54.753616
 31
0.0
  0
LINE
  5
635
  8
0
  6
BYBLOCK
 62
     0
 10
69.318155
 20
52.753616
 30
0.0
 11
23.18186
 21
52.753616
 31
0.0
  0
SOLID
  5
636
  8
0
  6
BYBLOCK
 62
     0
 10
69.318155
 20
53.075591
 30
0.0
 11
69.318155
 21
52.43164
 31
0.0
 12
71.250007
 22
52.753616
 32
0.0
 13
71.250007
 23
52.753616
 33
0.0
  0
SOLID
  5
637
  8
0
  6
BYBLOCK
 62
     0
 10
23.18186
 20
53.075591
 30
0.0
 11
23.18186
 21
52.43164
 31
0.0
 12
21.250009
 22
52.753616
 32
0.0
 13
21.250009
 23
52.753616
 33
0.0
  0
TEXT
  5
638
  8
0
  6
BYBLOCK
 62
     0
 10
37.18334
 20
52.843616
 30
0.0
 40
3.2
  1
100.0000
  0
POINT
  5
639
  8
DEFPOINTS
  6
BYBLOCK
 62
     0
 10
71.250007
 20
14.053616
 30
0.0
  0
POINT
  5
63A
  8
DEFPOINTS
  6
BYBLOCK
 62
     0
 10
21.250009
 20
15.053616
 30
0.0
  0
POINT
  5
63B
  8
DEFPOINTS
  6
BYBLOCK
 62
     0
 10
21.250009
 20
52.753616
 30
0.0
  0
ENDBLK
  5
63C
  8
0
  0
BLOCK
  8
0
  2
*D32
 70
     1
 10
0.0
 20
0.0
 30
0.0
  3
*D32
  1

  0
LINE
  5
63E
  8
0
  6
BYBLOCK
 62
     0
 10
-84.250001
 20
-55.487194
 30
0.0
 11
-84.250001
 21
-101.664635
 31
0.0
  0
LINE
  5
63F
  8
0
  6
BYBLOCK
 62
     0
 10
-103.749993
 20
-58.946384
 30
0.0
 11
-103.749993
 21
-101.664635
 31
0.0
  0
LINE
  5
640
  8
0
  6
BYBLOCK
 62
     0
 10
-86.181853
 20
-99.664635
 30
0.0
 11
-101.818142
 21
-99.664635
 31
0.0
  0
SOLID
  5
641
  8
0
  6
BYBLOCK
 62
     0
 10
-86.181853
 20
-99.34266
 30
0.0
 11
-86.181853
 21
-99.986611
 31
0.0
 12
-84.250001
 22
-99.664635
 32
0.0
 13
-84.250001
 23
-99.664635
 33
0.0
  0
SOLID
  5
642
  8
0
  6
BYBLOCK
 62
     0
 10
-101.818142
 20
-99.34266
 30
0.0
 11
-101.818142
 21
-99.986611
 31
0.0
 12
-103.749993
 22
-99.664635
 32
0.0
 13
-103.749993
 23
-99.664635
 33
0.0
  0
TEXT
  5
643
  8
0
  6
BYBLOCK
 62
     0
 10
-102.533331
 20
-99.574635
 30
0.0
 40
3.2
  1
39.0000
  0
POINT
  5
644
  8
DEFPOINTS
  6
BYBLOCK
 62
     0
 10
-84.250001
 20
-54.487194
 30
0.0
  0
POINT
  5
645
  8
DEFPOINTS
  6
BYBLOCK
 62
     0
 10
-103.749993
 20
-57.946384
 30
0.0
  0
POINT
  5
646
  8
DEFPOINTS
  6
BYBLOCK
 62
     0
 10
-103.749993
 20
-99.664635
 30
0.0
  0
ENDBLK
  5
647
  8
0
  0
BLOCK
  8
0
  2
*D33
 70
     1
 10
0.0
 20
0.0
 30
0.0
  3
*D33
  1

  0
LINE
  5
649
  8
0
  6
BYBLOCK
 62
     0
 10
-99.049981
 20
-81.046383
 30
0.0
 11
-129.400319
 21
-81.046383
 31
0.0
  0
LINE
  5
64A
  8
0
  6
BYBLOCK
 62
     0
 10
-115.433503
 20
0.053616
 30
0.0
 11
-129.400319
 21
0.053616
 31
0.0
  0
LINE
  5
64B
  8
0
  6
BYBLOCK
 62
     0
 10
-127.400319
 20
-79.114531
 30
0.0
 11
-127.400319
 21
-41.709202
 31
0.0
  0
LINE
  5
64C
  8
0
  6
BYBLOCK
 62
     0
 10
-127.400319
 20
-1.878236
 30
0.0
 11
-127.400319
 21
-38.329202
 31
0.0
  0
SOLID
  5
64D
  8
0
  6
BYBLOCK
 62
     0
 10
-127.722294
 20
-79.114531
 30
0.0
 11
-127.078344
 21
-79.114531
 31
0.0
 12
-127.400319
 22
-81.046383
 32
0.0
 13
-127.400319
 23
-81.046383
 33
0.0
  0
SOLID
  5
64E
  8
0
  6
BYBLOCK
 62
     0
 10
-127.722294
 20
-1.878236
 30
0.0
 11
-127.078344
 21
-1.878236
 31
0.0
 12
-127.400319
 22
0.053616
 32
0.0
 13
-127.400319
 23
0.053616
 33
0.0
  0
TEXT
  5
64F
  8
0
  6
BYBLOCK
 62
     0
 10
-137.266986
 20
-41.619202
 30
0.0
 40
3.2
  1
162.2000
  0
POINT
  5
650
  8
DEFPOINTS
  6
BYBLOCK
 62
     0
 10
-98.049981
 20
-81.046383
 30
0.0
  0
POINT
  5
651
  8
DEFPOINTS
  6
BYBLOCK
 62
     0
 10
-114.433503
 20
0.053616
 30
0.0
  0
POINT
  5
652
  8
DEFPOINTS
  6
BYBLOCK
 62
     0
 10
-127.400319
 20
0.053616
 30
0.0
  0
ENDBLK
  5
653
  8
0
  0
BLOCK
  8
0
  2
*D34
 70
     1
 10
0.0
 20
0.0
 30
0.0
  3
*D34
  1

  0
LINE
  5
655
  8
0
  6
BYBLOCK
 62
     0
 10
-31.250009
 20
-103.446384
 30
0.0
 11
-31.250009
 21
-130.42215
 31
0.0
  0
LINE
  5
656
  8
0
  6
BYBLOCK
 62
     0
 10
16.250009
 20
-88.946384
 30
0.0
 11
16.250009
 21
-130.42215
 31
0.0
  0
LINE
  5
657
  8
0
  6
BYBLOCK
 62
     0
 10
-29.318157
 20
-128.42215
 30
0.0
 11
14.318157
 21
-128.42215
 31
0.0
  0
SOLID
  5
658
  8
0
  6
BYBLOCK
 62
     0
 10
-29.318157
 20
-128.100175
 30
0.0
 11
-29.318157
 21
-128.744125
 31
0.0
 12
-31.250009
 22
-128.42215
 32
0.0
 13
-31.250009
 23
-128.42215
 33
0.0
  0
SOLID
  5
659
  8
0
  6
BYBLOCK
 62
     0
 10
14.318157
 20
-128.100175
 30
0.0
 11
14.318157
 21
-128.744125
 31
0.0
 12
16.250009
 22
-128.42215
 32
0.0
 13
16.250009
 23
-128.42215
 33
0.0
  0
TEXT
  5
65A
  8
0
  6
BYBLOCK
 62
     0
 10
-13.927028
 20
-128.33215
 30
0.0
 40
3.2
  1
95.0000
  0
POINT
  5
65B
  8
DEFPOINTS
  6
BYBLOCK
 62
     0
 10
-31.250009
 20
-102.446384
 30
0.0
  0
POINT
  5
65C
  8
DEFPOINTS
  6
BYBLOCK
 62
     0
 10
16.250009
 20
-87.946384
 30
0.0
  0
POINT
  5
65D
  8
DEFPOINTS
  6
BYBLOCK
 62
     0
 10
16.250009
 20
-128.42215
 30
0.0
  0
ENDBLK
  5
65E
  8
0
  0
BLOCK
  8
0
  2
*D35
 70
     1
 10
0.0
 20
0.0
 30
0.0
  3
*D35
  1

  0
LINE
  5
660
  8
0
  6
BYBLOCK
 62
     0
 10
-64.249993
 20
89.053616
 30
0.0
 11
-64.249993
 21
119.753616
 31
0.0
  0
LINE
  5
661
  8
0
  6
BYBLOCK
 62
     0
 10
-103.749993
 20
31.053616
 30
0.0
 11
-103.749993
 21
119.753616
 31
0.0
  0
LINE
  5
662
  8
0
  6
BYBLOCK
 62
     0
 10
-66.181845
 20
117.753616
 30
0.0
 11
-101.818142
 21
117.753616
 31
0.0
  0
SOLID
  5
663
  8
0
  6
BYBLOCK
 62
     0
 10
-66.181845
 20
118.075591
 30
0.0
 11
-66.181845
 21
117.43164
 31
0.0
 12
-64.249993
 22
117.753616
 32
0.0
 13
-64.249993
 23
117.753616
 33
0.0
  0
SOLID
  5
664
  8
0
  6
BYBLOCK
 62
     0
 10
-101.818142
 20
118.075591
 30
0.0
 11
-101.818142
 21
117.43164
 31
0.0
 12
-103.749993
 22
117.753616
 32
0.0
 13
-103.749993
 23
117.753616
 33
0.0
  0
TEXT
  5
665
  8
0
  6
BYBLOCK
 62
     0
 10
-92.533327
 20
117.843616
 30
0.0
 40
3.2
  1
79.0000
  0
POINT
  5
666
  8
DEFPOINTS
  6
BYBLOCK
 62
     0
 10
-64.249993
 20
88.053616
 30
0.0
  0
POINT
  5
667
  8
DEFPOINTS
  6
BYBLOCK
 62
     0
 10
-103.749993
 20
30.053616
 30
0.0
  0
POINT
  5
668
  8
DEFPOINTS
  6
BYBLOCK
 62
     0
 10
-103.749993
 20
117.753616
 30
0.0
  0
ENDBLK
  5
669
  8
0
  0
BLOCK
  8
0
  2
*D36
 70
     1
 10
0.0
 20
0.0
 30
0.0
  3
*D36
  1

  0
LINE
  5
66B
  8
0
  6
BYBLOCK
 62
     0
 10
-103.749993
 20
31.053616
 30
0.0
 11
-103.749993
 21
129.860847
 31
0.0
  0
LINE
  5
66C
  8
0
  6
BYBLOCK
 62
     0
 10
16.250009
 20
89.053616
 30
0.0
 11
16.250009
 21
129.860847
 31
0.0
  0
LINE
  5
66D
  8
0
  6
BYBLOCK
 62
     0
 10
-101.818142
 20
127.860847
 30
0.0
 11
14.318157
 21
127.860847
 31
0.0
  0
SOLID
  5
66E
  8
0
  6
BYBLOCK
 62
     0
 10
-101.818142
 20
128.182822
 30
0.0
 11
-101.818142
 21
127.538872
 31
0.0
 12
-103.749993
 22
127.860847
 32
0.0
 13
-103.749993
 23
127.860847
 33
0.0
  0
SOLID
  5
66F
  8
0
  6
BYBLOCK
 62
     0
 10
14.318157
 20
128.182822
 30
0.0
 11
14.318157
 21
127.538872
 31
0.0
 12
16.250009
 22
127.860847
 32
0.0
 13
16.250009
 23
127.860847
 33
0.0
  0
TEXT
  5
670
  8
0
  6
BYBLOCK
 62
     0
 10
-47.979088
 20
127.950847
 30
0.0
 40
3.2
  1
240.0000
  0
POINT
  5
671
  8
DEFPOINTS
  6
BYBLOCK
 62
     0
 10
-103.749993
 20
30.053616
 30
0.0
  0
POINT
  5
672
  8
DEFPOINTS
  6
BYBLOCK
 62
     0
 10
16.250009
 20
88.053616
 30
0.0
  0
POINT
  5
673
  8
DEFPOINTS
  6
BYBLOCK
 62
     0
 10
16.250009
 20
127.860847
 30
0.0
  0
ENDBLK
  5
674
  8
0
  0
BLOCK
  8
0
  2
*D37
 70
     1
 10
0.0
 20
0.0
 30
0.0
  3
*D37
  1

  0
LINE
  5
676
  8
0
  6
BYBLOCK
 62
     0
 10
19.250003
 20
58.203617
 30
0.0
 11
19.250003
 21
119.753616
 31
0.0
  0
LINE
  5
677
  8
0
  6
BYBLOCK
 62
     0
 10
16.250003
 20
89.053616
 30
0.0
 11
16.250003
 21
119.753616
 31
0.0
  0
LINE
  5
678
  8
0
  6
BYBLOCK
 62
     0
 10
14.318151
 20
117.753616
 30
0.0
 11
12.3863
 21
117.753616
 31
0.0
  0
LINE
  5
679
  8
0
  6
BYBLOCK
 62
     0
 10
21.181855
 20
117.753616
 30
0.0
 11
48.04741
 21
117.753616
 31
0.0
  0
SOLID
  5
67A
  8
0
  6
BYBLOCK
 62
     0
 10
14.318151
 20
118.075591
 30
0.0
 11
14.318151
 21
117.43164
 31
0.0
 12
16.250003
 22
117.753616
 32
0.0
 13
16.250003
 23
117.753616
 33
0.0
  0
SOLID
  5
67B
  8
0
  6
BYBLOCK
 62
     0
 10
21.181855
 20
118.075591
 30
0.0
 11
21.181855
 21
117.43164
 31
0.0
 12
19.250003
 22
117.753616
 32
0.0
 13
19.250003
 23
117.753616
 33
0.0
  0
TEXT
  5
67C
  8
0
  6
BYBLOCK
 62
     0
 10
34.090743
 20
117.843616
 30
0.0
 40
3.2
  1
6.0000
  0
POINT
  5
67D
  8
DEFPOINTS
  6
BYBLOCK
 62
     0
 10
19.250003
 20
57.203617
 30
0.0
  0
POINT
  5
67E
  8
DEFPOINTS
  6
BYBLOCK
 62
     0
 10
16.250003
 20
88.053616
 30
0.0
  0
POINT
  5
67F
  8
DEFPOINTS
  6
BYBLOCK
 62
     0
 10
16.250003
 20
117.753616
 30
0.0
  0
ENDBLK
  5
680
  8
0
  0
BLOCK
  8
0
  2
*D38
 70
     1
 10
0.0
 20
0.0
 30
0.0
  3
*D38
  1

  0
LINE
  5
682
  8
0
  6
BYBLOCK
 62
     0
 10
3.250009
 20
89.053616
 30
0.0
 11
3.250009
 21
119.753616
 31
0.0
  0
LINE
  5
683
  8
0
  6
BYBLOCK
 62
     0
 10
16.250009
 20
89.053616
 30
0.0
 11
16.250009
 21
119.753616
 31
0.0
  0
LINE
  5
684
  8
0
  6
BYBLOCK
 62
     0
 10
5.18186
 20
117.753616
 30
0.0
 11
14.318157
 21
117.753616
 31
0.0
  0
SOLID
  5
685
  8
0
  6
BYBLOCK
 62
     0
 10
5.18186
 20
118.075591
 30
0.0
 11
5.18186
 21
117.431641
 31
0.0
 12
3.250009
 22
117.753616
 32
0.0
 13
3.250009
 23
117.753616
 33
0.0
  0
SOLID
  5
686
  8
0
  6
BYBLOCK
 62
     0
 10
14.318157
 20
118.075591
 30
0.0
 11
14.318157
 21
117.431641
 31
0.0
 12
16.250009
 22
117.753616
 32
0.0
 13
16.250009
 23
117.753616
 33
0.0
  0
TEXT
  5
687
  8
0
  6
BYBLOCK
 62
     0
 10
1.216675
 20
117.843616
 30
0.0
 40
3.2
  1
26.0000
  0
POINT
  5
688
  8
DEFPOINTS
  6
BYBLOCK
 62
     0
 10
3.250009
 20
88.053616
 30
0.0
  0
POINT
  5
689
  8
DEFPOINTS
  6
BYBLOCK
 62
     0
 10
16.250009
 20
88.053616
 30
0.0
  0
POINT
  5
68A
  8
DEFPOINTS
  6
BYBLOCK
 62
     0
 10
16.250009
 20
117.753616
 30
0.0
  0
ENDBLK
  5
68B
  8
0
  0
BLOCK
  8
0
  2
*D39
 70
     1
 10
0.0
 20
0.0
 30
0.0
  3
*D39
  1

  0
LINE
  5
68D
  8
0
  6
BYBLOCK
 62
     0
 10
288.913208
 20
42.724183
 30
0.0
 11
304.066911
 21
42.724183
 31
0.0
  0
LINE
  5
68E
  8
0
  6
BYBLOCK
 62
     0
 10
304.066911
 20
42.724183
 30
0.0
 11
322.666569
 21
55.460017
 31
0.0
  0
TEXT
  5
68F
  8
0
  6
BYBLOCK
 62
     0
 10
266.423207
 20
41.124183
 30
0.0
 40
3.2
  1
%%c400.0000
  0
SOLID
  5
690
  8
0
  6
BYBLOCK
 62
     0
 10
322.48466
 20
55.725681
 30
0.0
 11
322.848478
 21
55.194353
 31
0.0
 12
324.260551
 22
56.551472
 32
0.0
 13
324.260551
 23
56.551472
 33
0.0
  0
POINT
  5
691
  8
DEFPOINTS
  6
BYBLOCK
 62
     0
 10
324.260551
 20
56.551472
 30
0.0
  0
POINT
  5
692
  8
DEFPOINTS
  6
BYBLOCK
 62
     0
 10
159.239432
 20
-56.444241
 30
0.0
  0
ENDBLK
  5
693
  8
0
  0
BLOCK
  8
0
  2
*D40
 70
     1
 10
0.0
 20
0.0
 30
0.0
  3
*D40
  1

  0
LINE
  5
695
  8
0
  6
BYBLOCK
 62
     0
 10
306.527428
 20
-38.397812
 30
0.0
 11
291.107058
 21
-38.397812
 31
0.0
  0
LINE
  5
696
  8
0
  6
BYBLOCK
 62
     0
 10
291.107058
 20
-38.397812
 30
0.0
 11
330.945744
 21
-69.433989
 31
0.0
  0
TEXT
  5
697
  8
0
  6
BYBLOCK
 62
     0
 10
306.617428
 20
-39.997812
 30
0.0
 40
3.2
  1
%%c460.0000
  0
SOLID
  5
698
  8
0
  6
BYBLOCK
 62
     0
 10
331.143618
 20
-69.179993
 30
0.0
 11
330.74787
 21
-69.687984
 31
0.0
 12
332.469718
 22
-70.621235
 32
0.0
 13
332.469718
 23
-70.621235
 33
0.0
  0
POINT
  5
699
  8
DEFPOINTS
  6
BYBLOCK
 62
     0
 10
332.469718
 20
-70.621235
 30
0.0
  0
POINT
  5
69A
  8
DEFPOINTS
  6
BYBLOCK
 62
     0
 10
151.03028
 20
70.728466
 30
0.0
  0
ENDBLK
  5
69B
  8
0
  0
BLOCK
  8
0
  2
*D41
 70
     1
 10
0.0
 20
0.0
 30
0.0
  3
*D41
  1

  0
LINE
  5
69D
  8
0
  6
BYBLOCK
 62
     0
 10
209.187241
 20
64.110817
 30
0.0
 11
194.300204
 21
64.110817
 31
0.0
  0
LINE
  5
69E
  8
0
  6
BYBLOCK
 62
     0
 10
194.300204
 20
64.110817
 30
0.0
 11
178.912914
 21
84.883663
 31
0.0
  0
TEXT
  5
69F
  8
0
  6
BYBLOCK
 62
     0
 10
209.277241
 20
62.510817
 30
0.0
 40
3.2
  1
%%c430.0000
  0
SOLID
  5
6A0
  8
0
  6
BYBLOCK
 62
     0
 10
179.171639
 20
85.075311
 30
0.0
 11
178.654188
 21
84.692014
 31
0.0
 12
177.763022
 22
86.436016
 32
0.0
 13
177.763022
 23
86.436016
 33
0.0
  0
POINT
  5
6A1
  8
DEFPOINTS
  6
BYBLOCK
 62
     0
 10
177.763022
 20
86.436016
 30
0.0
  0
POINT
  5
6A2
  8
DEFPOINTS
  6
BYBLOCK
 62
     0
 10
305.73693
 20
-86.328785
 30
0.0
  0
ENDBLK
  5
6A3
  8
0
  0
BLOCK
  8
0
  2
*D42
 70
     1
 10
0.0
 20
0.0
 30
0.0
  3
*D42
  1

  0
LINE
  5
6A5
  8
0
  6
BYBLOCK
 62
     0
 10
72.250007
 20
-13.946384
 30
0.0
 11
86.139094
 21
-13.946384
 31
0.0
  0
LINE
  5
6A6
  8
0
  6
BYBLOCK
 62
     0
 10
72.250007
 20
14.053616
 30
0.0
 11
86.139094
 21
14.053616
 31
0.0
  0
LINE
  5
6A7
  8
0
  6
BYBLOCK
 62
     0
 10
84.139094
 20
-12.014533
 30
0.0
 11
84.139094
 21
-4.134572
 31
0.0
  0
LINE
  5
6A8
  8
0
  6
BYBLOCK
 62
     0
 10
84.139094
 20
12.121764
 30
0.0
 11
84.139094
 21
-0.754571
 31
0.0
  0
SOLID
  5
6A9
  8
0
  6
BYBLOCK
 62
     0
 10
83.817119
 20
-12.014533
 30
0.0
 11
84.461069
 21
-12.014533
 31
0.0
 12
84.139094
 22
-13.946384
 32
0.0
 13
84.139094
 23
-13.946384
 33
0.0
  0
SOLID
  5
6AA
  8
0
  6
BYBLOCK
 62
     0
 10
83.817119
 20
12.121764
 30
0.0
 11
84.461069
 21
12.121764
 31
0.0
 12
84.139094
 22
14.053616
 32
0.0
 13
84.139094
 23
14.053616
 33
0.0
  0
TEXT
  5
6AB
  8
0
  6
BYBLOCK
 62
     0
 10
75.605761
 20
-4.044572
 30
0.0
 40
3.2
  1
56.0000
  0
POINT
  5
6AC
  8
DEFPOINTS
  6
BYBLOCK
 62
     0
 10
71.250007
 20
-13.946384
 30
0.0
  0
POINT
  5
6AD
  8
DEFPOINTS
  6
BYBLOCK
 62
     0
 10
71.250007
 20
14.053616
 30
0.0
  0
POINT
  5
6AE
  8
DEFPOINTS
  6
BYBLOCK
 62
     0
 10
84.139094
 20
14.053616
 30
0.0
  0
ENDBLK
  5
6AF
  8
0
  0
BLOCK
  8
0
  2
*D43
 70
     1
 10
0.0
 20
0.0
 30
0.0
  3
*D43
  1

  0
LINE
  5
6B1
  8
0
  6
BYBLOCK
 62
     0
 10
259.149985
 20
-141.746387
 30
0.0
 11
344.345066
 21
-141.746387
 31
0.0
  0
LINE
  5
6B2
  8
0
  6
BYBLOCK
 62
     0
 10
342.749991
 20
0.053616
 30
0.0
 11
344.345066
 21
0.053616
 31
0.0
  0
LINE
  5
6B3
  8
0
  6
BYBLOCK
 62
     0
 10
342.345066
 20
-139.814536
 30
0.0
 11
342.345066
 21
-72.536386
 31
0.0
  0
LINE
  5
6B4
  8
0
  6
BYBLOCK
 62
     0
 10
342.345066
 20
-1.878236
 30
0.0
 11
342.345066
 21
-69.156386
 31
0.0
  0
SOLID
  5
6B5
  8
0
  6
BYBLOCK
 62
     0
 10
342.023091
 20
-139.814536
 30
0.0
 11
342.667041
 21
-139.814536
 31
0.0
 12
342.345066
 22
-141.746387
 32
0.0
 13
342.345066
 23
-141.746387
 33
0.0
  0
SOLID
  5
6B6
  8
0
  6
BYBLOCK
 62
     0
 10
342.023091
 20
-1.878236
 30
0.0
 11
342.667041
 21
-1.878236
 31
0.0
 12
342.345066
 22
0.053616
 32
0.0
 13
342.345066
 23
0.053616
 33
0.0
  0
TEXT
  5
6B7
  8
0
  6
BYBLOCK
 62
     0
 10
331.945066
 20
-72.446386
 30
0.0
 40
3.2
  1
283.6000
  0
POINT
  5
6B8
  8
DEFPOINTS
  6
BYBLOCK
 62
     0
 10
258.149985
 20
-141.746387
 30
0.0
  0
POINT
  5
6B9
  8
DEFPOINTS
  6
BYBLOCK
 62
     0
 10
341.749991
 20
0.053616
 30
0.0
  0
POINT
  5
6BA
  8
DEFPOINTS
  6
BYBLOCK
 62
     0
 10
342.345066
 20
0.053616
 30
0.0
  0
ENDBLK
  5
6BB
  8
0
  0
BLOCK
  8
0
  2
*D44
 70
     1
 10
0.0
 20
0.0
 30
0.0
  3
*D44
  1

  0
LINE
  5
6BD
  8
0
  6
BYBLOCK
 62
     0
 10
263.749991
 20
-118.946384
 30
0.0
 11
263.749991
 21
-152.246384
 31
0.0
  0
LINE
  5
6BE
  8
0
  6
BYBLOCK
 62
     0
 10
219.749991
 20
-118.946384
 30
0.0
 11
219.749991
 21
-152.246384
 31
0.0
  0
LINE
  5
6BF
  8
0
  6
BYBLOCK
 62
     0
 10
261.81814
 20
-150.246384
 30
0.0
 11
221.681843
 21
-150.246384
 31
0.0
  0
SOLID
  5
6C0
  8
0
  6
BYBLOCK
 62
     0
 10
261.81814
 20
-149.924409
 30
0.0
 11
261.81814
 21
-150.56836
 31
0.0
 12
263.749991
 22
-150.246384
 32
0.0
 13
263.749991
 23
-150.246384
 33
0.0
  0
SOLID
  5
6C1
  8
0
  6
BYBLOCK
 62
     0
 10
221.681843
 20
-149.924409
 30
0.0
 11
221.681843
 21
-150.56836
 31
0.0
 12
219.749991
 22
-150.246384
 32
0.0
 13
219.749991
 23
-150.246384
 33
0.0
  0
TEXT
  5
6C2
  8
0
  6
BYBLOCK
 62
     0
 10
233.216658
 20
-150.156384
 30
0.0
 40
3.2
  1
88.0000
  0
POINT
  5
6C3
  8
DEFPOINTS
  6
BYBLOCK
 62
     0
 10
263.749991
 20
-117.946384
 30
0.0
  0
POINT
  5
6C4
  8
DEFPOINTS
  6
BYBLOCK
 62
     0
 10
219.749991
 20
-117.946384
 30
0.0
  0
POINT
  5
6C5
  8
DEFPOINTS
  6
BYBLOCK
 62
     0
 10
219.749991
 20
-150.246384
 30
0.0
  0
ENDBLK
  5
6C6
  8
0
  0
BLOCK
  8
0
  2
*D45
 70
     1
 10
0.0
 20
0.0
 30
0.0
  3
*D45
  1

  0
LINE
  5
6C8
  8
0
  6
BYBLOCK
 62
     0
 10
329.749991
 20
75.087391
 30
0.0
 11
329.749991
 21
135.892502
 31
0.0
  0
LINE
  5
6C9
  8
0
  6
BYBLOCK
 62
     0
 10
153.749991
 20
75.087391
 30
0.0
 11
153.749991
 21
135.892502
 31
0.0
  0
LINE
  5
6CA
  8
0
  6
BYBLOCK
 62
     0
 10
327.81814
 20
133.892502
 30
0.0
 11
155.681843
 21
133.892502
 31
0.0
  0
SOLID
  5
6CB
  8
0
  6
BYBLOCK
 62
     0
 10
327.81814
 20
134.214477
 30
0.0
 11
327.81814
 21
133.570526
 31
0.0
 12
329.749991
 22
133.892502
 32
0.0
 13
329.749991
 23
133.892502
 33
0.0
  0
SOLID
  5
6CC
  8
0
  6
BYBLOCK
 62
     0
 10
155.681843
 20
134.214477
 30
0.0
 11
155.681843
 21
133.570526
 31
0.0
 12
153.749991
 22
133.892502
 32
0.0
 13
153.749991
 23
133.892502
 33
0.0
  0
TEXT
  5
6CD
  8
0
  6
BYBLOCK
 62
     0
 10
231.440611
 20
133.982502
 30
0.0
 40
3.2
  1
352.0000
  0
POINT
  5
6CE
  8
DEFPOINTS
  6
BYBLOCK
 62
     0
 10
329.749991
 20
74.087391
 30
0.0
  0
POINT
  5
6CF
  8
DEFPOINTS
  6
BYBLOCK
 62
     0
 10
153.749991
 20
74.087391
 30
0.0
  0
POINT
  5
6D0
  8
DEFPOINTS
  6
BYBLOCK
 62
     0
 10
153.749991
 20
133.892502
 30
0.0
  0
ENDBLK
  5
6D1
  8
0
  0
BLOCK
  8
0
  2
*D46
 70
     1
 10
0.0
 20
0.0
 30
0.0
  3
*D46
  1

  0
LINE
  5
6D4
  8
0
  6
BYBLOCK
 62
     0
 10
153.749991
 20
73.087392
 30
0.0
 11
153.749991
 21
46.301177
 31
0.0
  0
LINE
  5
6D5
  8
0
  6
BYBLOCK
 62
     0
 10
329.749991
 20
73.087392
 30
0.0
 11
329.749991
 21
46.301177
 31
0.0
  0
LINE
  5
6D6
  8
0
  6
BYBLOCK
 62
     0
 10
155.681843
 20
48.301177
 30
0.0
 11
327.81814
 21
48.301177
 31
0.0
  0
SOLID
  5
6D7
  8
0
  6
BYBLOCK
 62
     0
 10
155.681843
 20
48.623152
 30
0.0
 11
155.681843
 21
47.979201
 31
0.0
 12
153.749991
 22
48.301177
 32
0.0
 13
153.749991
 23
48.301177
 33
0.0
  0
SOLID
  5
6D8
  8
0
  6
BYBLOCK
 62
     0
 10
327.81814
 20
48.623152
 30
0.0
 11
327.81814
 21
47.979201
 31
0.0
 12
329.749991
 22
48.301177
 32
0.0
 13
329.749991
 23
48.301177
 33
0.0
  0
TEXT
  5
6D9
  8
0
  6
BYBLOCK
 62
     0
 10
232.149991
 20
48.391177
 30
0.0
 40
3.2
  1
176.0000
  0
POINT
  5
6DA
  8
DEFPOINTS
  6
BYBLOCK
 62
     0
 10
153.749991
 20
74.087392
 30
0.0
  0
POINT
  5
6DB
  8
DEFPOINTS
  6
BYBLOCK
 62
     0
 10
329.749991
 20
74.087392
 30
0.0
  0
POINT
  5
6DC
  8
DEFPOINTS
  6
BYBLOCK
 62
     0
 10
329.749991
 20
48.301177
 30
0.0
  0
ENDBLK
  5
6DD
  8
0
  0
BLOCK
  8
0
  2
*D47
 70
     1
 10
0.0
 20
0.0
 30
0.0
  3
*D47
  1

  0
LINE
  5
6E1
  8
0
  6
BYBLOCK
 62
     0
 10
316.783768
 20
88.053616
 30
0.0
 11
390.112691
 21
88.053616
 31
0.0
  0
LINE
  5
6E2
  8
0
  6
BYBLOCK
 62
     0
 10
316.783768
 20
-87.946384
 30
0.0
 11
390.112691
 21
-87.946384
 31
0.0
  0
LINE
  5
6E3
  8
0
  6
BYBLOCK
 62
     0
 10
388.112691
 20
86.121764
 30
0.0
 11
388.112691
 21
1.743616
 31
0.0
  0
LINE
  5
6E4
  8
0
  6
BYBLOCK
 62
     0
 10
388.112691
 20
-86.014533
 30
0.0
 11
388.112691
 21
-1.636384
 31
0.0
  0
SOLID
  5
6E5
  8
0
  6
BYBLOCK
 62
     0
 10
387.790715
 20
86.121764
 30
0.0
 11
388.434666
 21
86.121764
 31
0.0
 12
388.112691
 22
88.053616
 32
0.0
 13
388.112691
 23
88.053616
 33
0.0
  0
SOLID
  5
6E6
  8
0
  6
BYBLOCK
 62
     0
 10
387.790715
 20
-86.014533
 30
0.0
 11
388.434666
 21
-86.014533
 31
0.0
 12
388.112691
 22
-87.946384
 32
0.0
 13
388.112691
 23
-87.946384
 33
0.0
  0
TEXT
  5
6E7
  8
0
  6
BYBLOCK
 62
     0
 10
378.51269
 20
-1.546384
 30
0.0
 40
3.2
  1
176.0000
  0
POINT
  5
6E8
  8
DEFPOINTS
  6
BYBLOCK
 62
     0
 10
315.783768
 20
88.053616
 30
0.0
  0
POINT
  5
6E9
  8
DEFPOINTS
  6
BYBLOCK
 62
     0
 10
315.783768
 20
-87.946384
 30
0.0
  0
POINT
  5
6EA
  8
DEFPOINTS
  6
BYBLOCK
 62
     0
 10
388.112691
 20
-87.946384
 30
0.0
  0
ENDBLK
  5
6EB
  8
0
  0
BLOCK
  8
0
  2
*D48
 70
     1
 10
0.0
 20
0.0
 30
0.0
  3
*D48
  1

  0
LINE
  5
6EF
  8
0
  6
BYBLOCK
 62
     0
 10
263.749991
 20
-86.946384
 30
0.0
 11
263.749991
 21
-72.895795
 31
0.0
  0
LINE
  5
6F0
  8
0
  6
BYBLOCK
 62
     0
 10
219.749991
 20
-86.946384
 30
0.0
 11
219.749991
 21
-72.895795
 31
0.0
  0
LINE
  5
6F1
  8
0
  6
BYBLOCK
 62
     0
 10
261.81814
 20
-74.895795
 30
0.0
 11
221.681843
 21
-74.895795
 31
0.0
  0
SOLID
  5
6F2
  8
0
  6
BYBLOCK
 62
     0
 10
261.81814
 20
-74.573819
 30
0.0
 11
261.81814
 21
-75.21777
 31
0.0
 12
263.749991
 22
-74.895795
 32
0.0
 13
263.749991
 23
-74.895795
 33
0.0
  0
SOLID
  5
6F3
  8
0
  6
BYBLOCK
 62
     0
 10
221.681843
 20
-74.573819
 30
0.0
 11
221.681843
 21
-75.21777
 31
0.0
 12
219.749991
 22
-74.895795
 32
0.0
 13
219.749991
 23
-74.895795
 33
0.0
  0
TEXT
  5
6F4
  8
0
  6
BYBLOCK
 62
     0
 10
233.216658
 20
-74.805795
 30
0.0
 40
3.2
  1
44.0000
  0
POINT
  5
6F5
  8
DEFPOINTS
  6
BYBLOCK
 62
     0
 10
263.749991
 20
-87.946384
 30
0.0
  0
POINT
  5
6F6
  8
DEFPOINTS
  6
BYBLOCK
 62
     0
 10
219.749991
 20
-87.946384
 30
0.0
  0
POINT
  5
6F7
  8
DEFPOINTS
  6
BYBLOCK
 62
     0
 10
219.749991
 20
-74.895795
 30
0.0
  0
ENDBLK
  5
6F8
  8
0
  0
BLOCK
  8
0
  2
*D49
 70
     1
 10
0.0
 20
0.0
 30
0.0
  3
*D49
  1

  0
LINE
  5
6FC
  8
0
  6
BYBLOCK
 62
     0
 10
219.749991
 20
-86.946384
 30
0.0
 11
219.749991
 21
-66.554774
 31
0.0
  0
LINE
  5
6FD
  8
0
  6
BYBLOCK
 62
     0
 10
263.749991
 20
-86.946384
 30
0.0
 11
263.749991
 21
-66.554774
 31
0.0
  0
LINE
  5
6FE
  8
0
  6
BYBLOCK
 62
     0
 10
221.681843
 20
-68.554774
 30
0.0
 11
261.81814
 21
-68.554774
 31
0.0
  0
SOLID
  5
6FF
  8
0
  6
BYBLOCK
 62
     0
 10
221.681843
 20
-68.232799
 30
0.0
 11
221.681843
 21
-68.876749
 31
0.0
 12
219.749991
 22
-68.554774
 32
0.0
 13
219.749991
 23
-68.554774
 33
0.0
  0
SOLID
  5
700
  8
0
  6
BYBLOCK
 62
     0
 10
261.81814
 20
-68.232799
 30
0.0
 11
261.81814
 21
-68.876749
 31
0.0
 12
263.749991
 22
-68.554774
 32
0.0
 13
263.749991
 23
-68.554774
 33
0.0
  0
TEXT
  5
701
  8
0
  6
BYBLOCK
 62
     0
 10
233.216658
 20
-68.464774
 30
0.0
 40
3.2
  1
44.0000
  0
POINT
  5
702
  8
DEFPOINTS
  6
BYBLOCK
 62
     0
 10
219.749991
 20
-87.946384
 30
0.0
  0
POINT
  5
703
  8
DEFPOINTS
  6
BYBLOCK
 62
     0
 10
263.749991
 20
-87.946384
 30
0.0
  0
POINT
  5
704
  8
DEFPOINTS
  6
BYBLOCK
 62
     0
 10
263.749991
 20
-68.554774
 30
0.0
  0
ENDBLK
  5
705
  8
0
  0
BLOCK
  8
0
  2
*D50
 70
     1
 10
0.0
 20
0.0
 30
0.0
  3
*D50
  1

  0
LINE
  5
709
  8
0
  6
BYBLOCK
 62
     0
 10
242.749991
 20
0.053616
 30
0.0
 11
397.365227
 21
0.053616
 31
0.0
  0
LINE
  5
70A
  8
0
  6
BYBLOCK
 62
     0
 10
242.749991
 20
-141.746384
 30
0.0
 11
397.365227
 21
-141.746384
 31
0.0
  0
LINE
  5
70B
  8
0
  6
BYBLOCK
 62
     0
 10
395.365227
 20
-1.878236
 30
0.0
 11
395.365227
 21
-69.156384
 31
0.0
  0
LINE
  5
70C
  8
0
  6
BYBLOCK
 62
     0
 10
395.365227
 20
-139.814533
 30
0.0
 11
395.365227
 21
-72.536384
 31
0.0
  0
SOLID
  5
70D
  8
0
  6
BYBLOCK
 62
     0
 10
395.043251
 20
-1.878236
 30
0.0
 11
395.687202
 21
-1.878236
 31
0.0
 12
395.365227
 22
0.053616
 32
0.0
 13
395.365227
 23
0.053616
 33
0.0
  0
SOLID
  5
70E
  8
0
  6
BYBLOCK
 62
     0
 10
395.043251
 20
-139.814533
 30
0.0
 11
395.687202
 21
-139.814533
 31
0.0
 12
395.365227
 22
-141.746384
 32
0.0
 13
395.365227
 23
-141.746384
 33
0.0
  0
TEXT
  5
70F
  8
0
  6
BYBLOCK
 62
     0
 10
386.031893
 20
-72.446384
 30
0.0
 40
3.2
  1
141.8000
  0
POINT
  5
710
  8
DEFPOINTS
  6
BYBLOCK
 62
     0
 10
241.749991
 20
0.053616
 30
0.0
  0
POINT
  5
711
  8
DEFPOINTS
  6
BYBLOCK
 62
     0
 10
241.749991
 20
-141.746384
 30
0.0
  0
POINT
  5
712
  8
DEFPOINTS
  6
BYBLOCK
 62
     0
 10
395.365227
 20
-141.746384
 30
0.0
  0
ENDBLK
  5
713
  8
0
  0
BLOCK
  8
0
  2
*D51
 70
     1
 10
0.0
 20
0.0
 30
0.0
  3
*D51
  1

  0
LINE
  5
717
  8
0
  6
BYBLOCK
 62
     0
 10
386.981543
 20
22.031235
 30
0.0
 11
267.873615
 21
22.031235
 31
0.0
  0
LINE
  5
718
  8
0
  6
BYBLOCK
 62
     0
 10
267.873615
 20
22.031235
 30
0.0
 11
328.271705
 21
72.84372
 31
0.0
  0
TEXT
  5
719
  8
0
  6
BYBLOCK
 62
     0
 10
387.071543
 20
20.431235
 30
0.0
 40
3.2
  1
%%c230.0000
  0
SOLID
  5
71A
  8
0
  6
BYBLOCK
 62
     0
 10
328.064426
 20
73.090101
 30
0.0
 11
328.478984
 21
72.597339
 31
0.0
 12
329.749991
 22
74.087392
 32
0.0
 13
329.749991
 23
74.087392
 33
0.0
  0
POINT
  5
71B
  8
DEFPOINTS
  6
BYBLOCK
 62
     0
 10
329.749991
 20
74.087392
 30
0.0
  0
POINT
  5
71C
  8
DEFPOINTS
  6
BYBLOCK
 62
     0
 10
153.749991
 20
-73.98016
 30
0.0
  0
ENDBLK
  5
71D
  8
0
  0
BLOCK
  8
0
  2
*D52
 70
     1
 10
0.0
 20
0.0
 30
0.0
  3
*D52
  1

  0
LINE
  5
721
  8
0
  6
BYBLOCK
 62
     0
 10
123.916543
 20
82.72386
 30
0.0
 11
141.07321
 21
82.72386
 31
0.0
  0
LINE
  5
722
  8
0
  6
BYBLOCK
 62
     0
 10
141.07321
 20
82.72386
 30
0.0
 11
167.718726
 21
82.453443
 31
0.0
  0
TEXT
  5
723
  8
0
  6
BYBLOCK
 62
     0
 10
123.916543
 20
82.81386
 30
0.0
 40
3.2
  1
%%c6.0000
  0
SOLID
  5
724
  8
0
  6
BYBLOCK
 62
     0
 10
167.721993
 20
82.775401
 30
0.0
 11
167.715458
 21
82.131484
 31
0.0
 12
169.650478
 22
82.433838
 32
0.0
 13
169.650478
 23
82.433838
 33
0.0
  0
LINE
  5
725
  8
0
  6
BYBLOCK
 62
     0
 10
172.560323
 20
82.403393
 30
0.0
 11
172.740323
 21
82.403393
 31
0.0
  0
LINE
  5
726
  8
0
  6
BYBLOCK
 62
     0
 10
172.650323
 20
82.313393
 30
0.0
 11
172.650323
 21
82.493393
 31
0.0
  0
POINT
  5
727
  8
DEFPOINTS
  6
BYBLOCK
 62
     0
 10
169.650478
 20
82.433838
 30
0.0
  0
POINT
  5
728
  8
DEFPOINTS
  6
BYBLOCK
 62
     0
 10
175.650169
 20
82.372949
 30
0.0
  0
ENDBLK
  5
729
  8
0
  0
BLOCK
  8
0
  2
*D53
 70
     1
 10
0.0
 20
0.0
 30
0.0
  3
*D53
  1

  0
LINE
  5
72D
  8
0
  6
BYBLOCK
 62
     0
 10
365.490604
 20
-107.959687
 30
0.0
 11
341.062682
 21
-107.959687
 31
0.0
  0
LINE
  5
72E
  8
0
  6
BYBLOCK
 62
     0
 10
341.062682
 20
-107.959687
 30
0.0
 11
315.817485
 21
-80.502803
 31
0.0
  0
TEXT
  5
72F
  8
0
  6
BYBLOCK
 62
     0
 10
365.580604
 20
-109.559687
 30
0.0
 40
3.2
  1
%%c215.0000
  0
SOLID
  5
730
  8
0
  6
BYBLOCK
 62
     0
 10
316.054502
 20
-80.284878
 30
0.0
 11
315.580468
 21
-80.720727
 31
0.0
 12
314.509937
 22
-79.080703
 32
0.0
 13
314.509937
 23
-79.080703
 33
0.0
  0
LINE
  5
731
  8
0
  6
BYBLOCK
 62
     0
 10
241.659991
 20
0.053616
 30
0.0
 11
241.839991
 21
0.053616
 31
0.0
  0
LINE
  5
732
  8
0
  6
BYBLOCK
 62
     0
 10
241.749991
 20
-0.036384
 30
0.0
 11
241.749991
 21
0.143616
 31
0.0
  0
POINT
  5
733
  8
DEFPOINTS
  6
BYBLOCK
 62
     0
 10
314.509937
 20
-79.080703
 30
0.0
  0
POINT
  5
734
  8
DEFPOINTS
  6
BYBLOCK
 62
     0
 10
168.990046
 20
79.187934
 30
0.0
  0
ENDBLK
  5
735
  8
0
  0
BLOCK
  8
0
  2
*D54
 70
     1
 10
0.0
 20
0.0
 30
0.0
  3
*D54
  1

  0
LINE
  5
739
  8
0
  6
BYBLOCK
 62
     0
 10
362.770903
 20
36.072066
 30
0.0
 11
289.938016
 21
36.072066
 31
0.0
  0
LINE
  5
73A
  8
0
  6
BYBLOCK
 62
     0
 10
289.938016
 20
36.072066
 30
0.0
 11
320.300308
 21
58.766557
 31
0.0
  0
TEXT
  5
73B
  8
0
  6
BYBLOCK
 62
     0
 10
362.860903
 20
34.472066
 30
0.0
 40
3.2
  1
%%c200.0000
  0
SOLID
  5
73C
  8
0
  6
BYBLOCK
 62
     0
 10
320.107543
 20
59.024452
 30
0.0
 11
320.493073
 21
58.508663
 31
0.0
 12
321.847676
 22
59.923148
 32
0.0
 13
321.847676
 23
59.923148
 33
0.0
  0
POINT
  5
73D
  8
DEFPOINTS
  6
BYBLOCK
 62
     0
 10
321.847676
 20
59.923148
 30
0.0
  0
POINT
  5
73E
  8
DEFPOINTS
  6
BYBLOCK
 62
     0
 10
161.652307
 20
-59.815917
 30
0.0
  0
ENDBLK
  5
73F
  8
0
  0
BLOCK
  8
0
  2
*D55
 70
     1
 10
0.0
 20
0.0
 30
0.0
  3
*D55
  1

  0
LINE
  5
743
  8
0
  6
BYBLOCK
 62
     0
 10
388.444837
 20
-83.954395
 30
0.0
 11
368.621503
 21
-83.954395
 31
0.0
  0
LINE
  5
744
  8
0
  6
BYBLOCK
 62
     0
 10
368.621503
 20
-83.954395
 30
0.0
 11
320.90894
 21
-72.65738
 31
0.0
  0
TEXT
  5
745
  8
0
  6
BYBLOCK
 62
     0
 10
368.711503
 20
-83.864395
 30
0.0
 40
3.2
  1
%%c13.5000
  0
SOLID
  5
746
  8
0
  6
BYBLOCK
 62
     0
 10
320.983124
 20
-72.344067
 30
0.0
 11
320.834757
 21
-72.970692
 31
0.0
 12
319.029064
 22
-72.212277
 32
0.0
 13
319.029064
 23
-72.212277
 33
0.0
  0
LINE
  5
747
  8
0
  6
BYBLOCK
 62
     0
 10
312.37067
 20
-70.657063
 30
0.0
 11
312.55067
 21
-70.657063
 31
0.0
  0
LINE
  5
748
  8
0
  6
BYBLOCK
 62
     0
 10
312.46067
 20
-70.747063
 30
0.0
 11
312.46067
 21
-70.567063
 31
0.0
  0
POINT
  5
749
  8
DEFPOINTS
  6
BYBLOCK
 62
     0
 10
319.029064
 20
-72.212277
 30
0.0
  0
POINT
  5
74A
  8
DEFPOINTS
  6
BYBLOCK
 62
     0
 10
305.892275
 20
-69.101848
 30
0.0
  0
ENDBLK
  5
74B
  8
0
  0
BLOCK
  8
0
  2
*D56
 70
     1
 10
0.0
 20
0.0
 30
0.0
  3
*D56
  1

  0
LINE
  5
74F
  8
0
  6
BYBLOCK
 62
     0
 10
71.250009
 20
15.053616
 30
0.0
 11
71.250009
 21
103.497143
 31
0.0
  0
LINE
  5
750
  8
0
  6
BYBLOCK
 62
     0
 10
16.250009
 20
89.053616
 30
0.0
 11
16.250009
 21
103.497143
 31
0.0
  0
LINE
  5
751
  8
0
  6
BYBLOCK
 62
     0
 10
69.318157
 20
101.497143
 30
0.0
 11
18.18186
 21
101.497143
 31
0.0
  0
SOLID
  5
752
  8
0
  6
BYBLOCK
 62
     0
 10
69.318157
 20
101.819119
 30
0.0
 11
69.318157
 21
101.175168
 31
0.0
 12
71.250009
 22
101.497143
 32
0.0
 13
71.250009
 23
101.497143
 33
0.0
  0
SOLID
  5
753
  8
0
  6
BYBLOCK
 62
     0
 10
18.18186
 20
101.819119
 30
0.0
 11
18.18186
 21
101.175168
 31
0.0
 12
16.250009
 22
101.497143
 32
0.0
 13
16.250009
 23
101.497143
 33
0.0
  0
TEXT
  5
754
  8
0
  6
BYBLOCK
 62
     0
 10
35.216675
 20
101.587143
 30
0.0
 40
3.2
  1
55.0000
  0
POINT
  5
755
  8
DEFPOINTS
  6
BYBLOCK
 62
     0
 10
71.250009
 20
14.053616
 30
0.0
  0
POINT
  5
756
  8
DEFPOINTS
  6
BYBLOCK
 62
     0
 10
16.250009
 20
88.053616
 30
0.0
  0
POINT
  5
757
  8
DEFPOINTS
  6
BYBLOCK
 62
     0
 10
16.250009
 20
101.497143
 30
0.0
  0
ENDBLK
  5
758
  8
0
  0
BLOCK
  8
0
  2
*D57
 70
     1
 10
0.0
 20
0.0
 30
0.0
  3
*D57
  1

  0
LINE
  5
75C
  8
0
  6
BYBLOCK
 62
     0
 10
71.250009
 20
15.053616
 30
0.0
 11
71.250009
 21
88.852788
 31
0.0
  0
LINE
  5
75D
  8
0
  6
BYBLOCK
 62
     0
 10
21.250009
 20
16.053616
 30
0.0
 11
21.250009
 21
88.852788
 31
0.0
  0
LINE
  5
75E
  8
0
  6
BYBLOCK
 62
     0
 10
69.318157
 20
86.852788
 30
0.0
 11
23.18186
 21
86.852788
 31
0.0
  0
SOLID
  5
75F
  8
0
  6
BYBLOCK
 62
     0
 10
69.318157
 20
87.174764
 30
0.0
 11
69.318157
 21
86.530813
 31
0.0
 12
71.250009
 22
86.852788
 32
0.0
 13
71.250009
 23
86.852788
 33
0.0
  0
SOLID
  5
760
  8
0
  6
BYBLOCK
 62
     0
 10
23.18186
 20
87.174764
 30
0.0
 11
23.18186
 21
86.530813
 31
0.0
 12
21.250009
 22
86.852788
 32
0.0
 13
21.250009
 23
86.852788
 33
0.0
  0
TEXT
  5
761
  8
0
  6
BYBLOCK
 62
     0
 10
37.983342
 20
86.942788
 30
0.0
 40
3.2
  1
50.0000
  0
POINT
  5
762
  8
DEFPOINTS
  6
BYBLOCK
 62
     0
 10
71.250009
 20
14.053616
 30
0.0
  0
POINT
  5
763
  8
DEFPOINTS
  6
BYBLOCK
 62
     0
 10
21.250009
 20
15.053616
 30
0.0
  0
POINT
  5
764
  8
DEFPOINTS
  6
BYBLOCK
 62
     0
 10
21.250009
 20
86.852788
 30
0.0
  0
ENDBLK
  5
765
  8
0
  0
BLOCK
  8
0
  2
*D58
 70
     1
 10
0.0
 20
0.0
 30
0.0
  3
*D58
  1

  0
LINE
  5
769
  8
0
  6
BYBLOCK
 62
     0
 10
72.250009
 20
14.053616
 30
0.0
 11
109.358384
 21
14.053616
 31
0.0
  0
LINE
  5
76A
  8
0
  6
BYBLOCK
 62
     0
 10
72.250009
 20
-13.946384
 30
0.0
 11
109.358384
 21
-13.946384
 31
0.0
  0
LINE
  5
76B
  8
0
  6
BYBLOCK
 62
     0
 10
107.358384
 20
12.121764
 30
0.0
 11
107.358384
 21
1.743616
 31
0.0
  0
LINE
  5
76C
  8
0
  6
BYBLOCK
 62
     0
 10
107.358384
 20
-12.014533
 30
0.0
 11
107.358384
 21
-1.636384
 31
0.0
  0
SOLID
  5
76D
  8
0
  6
BYBLOCK
 62
     0
 10
107.036409
 20
12.121764
 30
0.0
 11
107.68036
 21
12.121764
 31
0.0
 12
107.358384
 22
14.053616
 32
0.0
 13
107.358384
 23
14.053616
 33
0.0
  0
SOLID
  5
76E
  8
0
  6
BYBLOCK
 62
     0
 10
107.036409
 20
-12.014533
 30
0.0
 11
107.68036
 21
-12.014533
 31
0.0
 12
107.358384
 22
-13.946384
 32
0.0
 13
107.358384
 23
-13.946384
 33
0.0
  0
TEXT
  5
76F
  8
0
  6
BYBLOCK
 62
     0
 10
98.825051
 20
-1.546384
 30
0.0
 40
3.2
  1
28.0000
  0
POINT
  5
770
  8
DEFPOINTS
  6
BYBLOCK
 62
     0
 10
71.250009
 20
14.053616
 30
0.0
  0
POINT
  5
771
  8
DEFPOINTS
  6
BYBLOCK
 62
     0
 10
71.250009
 20
-13.946384
 30
0.0
  0
POINT
  5
772
  8
DEFPOINTS
  6
BYBLOCK
 62
     0
 10
107.358384
 20
-13.946384
 30
0.0
  0
ENDBLK
  5
773
  8
0
  0
BLOCK
  8
0
  2
*D59
 70
     1
 10
0.0
 20
0.0
 30
0.0
  3
*D59
  1

  0
LINE
  5
777
  8
0
  6
BYBLOCK
 62
     0
 10
72.250009
 20
14.053616
 30
0.0
 11
103.029751
 21
14.053616
 31
0.0
  0
LINE
  5
778
  8
0
  6
BYBLOCK
 62
     0
 10
72.250009
 20
-13.946384
 30
0.0
 11
103.029751
 21
-13.946384
 31
0.0
  0
LINE
  5
779
  8
0
  6
BYBLOCK
 62
     0
 10
101.029751
 20
12.121764
 30
0.0
 11
101.029751
 21
1.743616
 31
0.0
  0
LINE
  5
77A
  8
0
  6
BYBLOCK
 62
     0
 10
101.029751
 20
-12.014533
 30
0.0
 11
101.029751
 21
-1.636384
 31
0.0
  0
SOLID
  5
77B
  8
0
  6
BYBLOCK
 62
     0
 10
100.707776
 20
12.121764
 30
0.0
 11
101.351727
 21
12.121764
 31
0.0
 12
101.029751
 22
14.053616
 32
0.0
 13
101.029751
 23
14.053616
 33
0.0
  0
SOLID
  5
77C
  8
0
  6
BYBLOCK
 62
     0
 10
100.707776
 20
-12.014533
 30
0.0
 11
101.351727
 21
-12.014533
 31
0.0
 12
101.029751
 22
-13.946384
 32
0.0
 13
101.029751
 23
-13.946384
 33
0.0
  0
TEXT
  5
77D
  8
0
  6
BYBLOCK
 62
     0
 10
92.496418
 20
-1.546384
 30
0.0
 40
3.2
  1
28.0000
  0
POINT
  5
77E
  8
DEFPOINTS
  6
BYBLOCK
 62
     0
 10
71.250009
 20
14.053616
 30
0.0
  0
POINT
  5
77F
  8
DEFPOINTS
  6
BYBLOCK
 62
     0
 10
71.250009
 20
-13.946384
 30
0.0
  0
POINT
  5
780
  8
DEFPOINTS
  6
BYBLOCK
 62
     0
 10
101.029751
 20
-13.946384
 30
0.0
  0
ENDBLK
  5
781
  8
0
  0
BLOCK
  8
0
  2
*D60
 70
     1
 10
0.0
 20
0.0
 30
0.0
  3
*D60
  1

  0
LINE
  5
785
  8
0
  6
BYBLOCK
 62
     0
 10
19.250009
 20
58.203616
 30
0.0
 11
19.250009
 21
114.813236
 31
0.0
  0
LINE
  5
786
  8
0
  6
BYBLOCK
 62
     0
 10
16.250009
 20
58.203616
 30
0.0
 11
16.250009
 21
114.813236
 31
0.0
  0
LINE
  5
787
  8
0
  6
BYBLOCK
 62
     0
 10
21.18186
 20
112.813236
 30
0.0
 11
23.113712
 21
112.813236
 31
0.0
  0
LINE
  5
788
  8
0
  6
BYBLOCK
 62
     0
 10
14.318157
 20
112.813236
 30
0.0
 11
-1.660362
 21
112.813236
 31
0.0
  0
SOLID
  5
789
  8
0
  6
BYBLOCK
 62
     0
 10
21.18186
 20
113.135211
 30
0.0
 11
21.18186
 21
112.49126
 31
0.0
 12
19.250009
 22
112.813236
 32
0.0
 13
19.250009
 23
112.813236
 33
0.0
  0
SOLID
  5
78A
  8
0
  6
BYBLOCK
 62
     0
 10
14.318157
 20
113.135211
 30
0.0
 11
14.318157
 21
112.49126
 31
0.0
 12
16.250009
 22
112.813236
 32
0.0
 13
16.250009
 23
112.813236
 33
0.0
  0
TEXT
  5
78B
  8
0
  6
BYBLOCK
 62
     0
 10
-1.570362
 20
112.903236
 30
0.0
 40
3.2
  1
3.0000
  0
POINT
  5
78C
  8
DEFPOINTS
  6
BYBLOCK
 62
     0
 10
19.250009
 20
57.203616
 30
0.0
  0
POINT
  5
78D
  8
DEFPOINTS
  6
BYBLOCK
 62
     0
 10
16.250009
 20
57.203616
 30
0.0
  0
POINT
  5
78E
  8
DEFPOINTS
  6
BYBLOCK
 62
     0
 10
16.250009
 20
112.813236
 30
0.0
  0
ENDBLK
  5
78F
  8
0
  0
BLOCK
  8
0
  2
*D61
 70
     1
 10
0.0
 20
0.0
 30
0.0
  3
*D61
  1

  0
LINE
  5
793
  8
0
  6
BYBLOCK
 62
     0
 10
16.250009
 20
89.053616
 30
0.0
 11
16.250009
 21
115.478888
 31
0.0
  0
LINE
  5
794
  8
0
  6
BYBLOCK
 62
     0
 10
3.250009
 20
89.053616
 30
0.0
 11
3.250009
 21
115.478888
 31
0.0
  0
LINE
  5
795
  8
0
  6
BYBLOCK
 62
     0
 10
14.318157
 20
113.478888
 30
0.0
 11
5.18186
 21
113.478888
 31
0.0
  0
LINE
  5
796
  8
0
  6
BYBLOCK
 62
     0
 10
3.250009
 20
113.478888
 30
0.0
 11
-14.861843
 21
113.478888
 31
0.0
  0
SOLID
  5
797
  8
0
  6
BYBLOCK
 62
     0
 10
14.318157
 20
113.800863
 30
0.0
 11
14.318157
 21
113.156913
 31
0.0
 12
16.250009
 22
113.478888
 32
0.0
 13
16.250009
 23
113.478888
 33
0.0
  0
SOLID
  5
798
  8
0
  6
BYBLOCK
 62
     0
 10
5.18186
 20
113.800863
 30
0.0
 11
5.18186
 21
113.156913
 31
0.0
 12
3.250009
 22
113.478888
 32
0.0
 13
3.250009
 23
113.478888
 33
0.0
  0
TEXT
  5
799
  8
0
  6
BYBLOCK
 62
     0
 10
-14.771843
 20
113.568888
 30
0.0
 40
3.2
  1
13.0000
  0
POINT
  5
79A
  8
DEFPOINTS
  6
BYBLOCK
 62
     0
 10
16.250009
 20
88.053616
 30
0.0
  0
POINT
  5
79B
  8
DEFPOINTS
  6
BYBLOCK
 62
     0
 10
3.250009
 20
88.053616
 30
0.0
  0
POINT
  5
79C
  8
DEFPOINTS
  6
BYBLOCK
 62
     0
 10
3.250009
 20
113.478888
 30
0.0
  0
ENDBLK
  5
79D
  8
0
  0
BLOCK
  8
0
  2
*D62
 70
     1
 10
0.0
 20
0.0
 30
0.0
  3
*D62
  1

  0
LINE
  5
7A1
  8
0
  6
BYBLOCK
 62
     0
 10
16.250009
 20
89.053616
 30
0.0
 11
16.250009
 21
120.804108
 31
0.0
  0
LINE
  5
7A2
  8
0
  6
BYBLOCK
 62
     0
 10
-103.749991
 20
1.053616
 30
0.0
 11
-103.749991
 21
120.804108
 31
0.0
  0
LINE
  5
7A3
  8
0
  6
BYBLOCK
 62
     0
 10
14.318157
 20
118.804108
 30
0.0
 11
-101.81814
 21
118.804108
 31
0.0
  0
SOLID
  5
7A4
  8
0
  6
BYBLOCK
 62
     0
 10
14.318157
 20
119.126083
 30
0.0
 11
14.318157
 21
118.482133
 31
0.0
 12
16.250009
 22
118.804108
 32
0.0
 13
16.250009
 23
118.804108
 33
0.0
  0
SOLID
  5
7A5
  8
0
  6
BYBLOCK
 62
     0
 10
-101.81814
 20
119.126083
 30
0.0
 11
-101.81814
 21
118.482133
 31
0.0
 12
-103.749991
 22
118.804108
 32
0.0
 13
-103.749991
 23
118.804108
 33
0.0
  0
TEXT
  5
7A6
  8
0
  6
BYBLOCK
 62
     0
 10
-53.083325
 20
118.894108
 30
0.0
 40
3.2
  1
120.0000
  0
POINT
  5
7A7
  8
DEFPOINTS
  6
BYBLOCK
 62
     0
 10
16.250009
 20
88.053616
 30
0.0
  0
POINT
  5
7A8
  8
DEFPOINTS
  6
BYBLOCK
 62
     0
 10
-103.749991
 20
0.053616
 30
0.0
  0
POINT
  5
7A9
  8
DEFPOINTS
  6
BYBLOCK
 62
     0
 10
-103.749991
 20
118.804108
 30
0.0
  0
ENDBLK
  5
7AA
  8
0
  0
BLOCK
  8
0
  2
*D63
 70
     1
 10
0.0
 20
0.0
 30
0.0
  3
*D63
  1

  0
LINE
  5
7AE
  8
0
  6
BYBLOCK
 62
     0
 10
16.250009
 20
89.053616
 30
0.0
 11
16.250009
 21
120.471282
 31
0.0
  0
LINE
  5
7AF
  8
0
  6
BYBLOCK
 62
     0
 10
-103.749991
 20
1.053616
 30
0.0
 11
-103.749991
 21
120.471282
 31
0.0
  0
LINE
  5
7B0
  8
0
  6
BYBLOCK
 62
     0
 10
14.318157
 20
118.471282
 30
0.0
 11
-101.81814
 21
118.471282
 31
0.0
  0
SOLID
  5
7B1
  8
0
  6
BYBLOCK
 62
     0
 10
14.318157
 20
118.793257
 30
0.0
 11
14.318157
 21
118.149307
 31
0.0
 12
16.250009
 22
118.471282
 32
0.0
 13
16.250009
 23
118.471282
 33
0.0
  0
SOLID
  5
7B2
  8
0
  6
BYBLOCK
 62
     0
 10
-101.81814
 20
118.793257
 30
0.0
 11
-101.81814
 21
118.149307
 31
0.0
 12
-103.749991
 22
118.471282
 32
0.0
 13
-103.749991
 23
118.471282
 33
0.0
  0
TEXT
  5
7B3
  8
0
  6
BYBLOCK
 62
     0
 10
-53.083325
 20
118.561282
 30
0.0
 40
3.2
  1
120.0000
  0
POINT
  5
7B4
  8
DEFPOINTS
  6
BYBLOCK
 62
     0
 10
16.250009
 20
88.053616
 30
0.0
  0
POINT
  5
7B5
  8
DEFPOINTS
  6
BYBLOCK
 62
     0
 10
-103.749991
 20
0.053616
 30
0.0
  0
POINT
  5
7B6
  8
DEFPOINTS
  6
BYBLOCK
 62
     0
 10
-103.749991
 20
118.471282
 30
0.0
  0
ENDBLK
  5
7B7
  8
0
  0
BLOCK
  8
0
  2
*D64
 70
     1
 10
0.0
 20
0.0
 30
0.0
  3
*D64
  1

  0
LINE
  5
7BB
  8
0
  6
BYBLOCK
 62
     0
 10
-64.249991
 20
87.99494
 30
0.0
 11
-64.249991
 21
124.13237
 31
0.0
  0
LINE
  5
7BC
  8
0
  6
BYBLOCK
 62
     0
 10
-103.749991
 20
1.053616
 30
0.0
 11
-103.749991
 21
124.13237
 31
0.0
  0
LINE
  5
7BD
  8
0
  6
BYBLOCK
 62
     0
 10
-66.181843
 20
122.13237
 30
0.0
 11
-101.81814
 21
122.13237
 31
0.0
  0
SOLID
  5
7BE
  8
0
  6
BYBLOCK
 62
     0
 10
-66.181843
 20
122.454346
 30
0.0
 11
-66.181843
 21
121.810395
 31
0.0
 12
-64.249991
 22
122.13237
 32
0.0
 13
-64.249991
 23
122.13237
 33
0.0
  0
SOLID
  5
7BF
  8
0
  6
BYBLOCK
 62
     0
 10
-101.81814
 20
122.454346
 30
0.0
 11
-101.81814
 21
121.810395
 31
0.0
 12
-103.749991
 22
122.13237
 32
0.0
 13
-103.749991
 23
122.13237
 33
0.0
  0
TEXT
  5
7C0
  8
0
  6
BYBLOCK
 62
     0
 10
-92.799992
 20
122.22237
 30
0.0
 40
3.2
  1
39.5000
  0
POINT
  5
7C1
  8
DEFPOINTS
  6
BYBLOCK
 62
     0
 10
-64.249991
 20
86.99494
 30
0.0
  0
POINT
  5
7C2
  8
DEFPOINTS
  6
BYBLOCK
 62
     0
 10
-103.749991
 20
0.053616
 30
0.0
  0
POINT
  5
7C3
  8
DEFPOINTS
  6
BYBLOCK
 62
     0
 10
-103.749991
 20
122.13237
 30
0.0
  0
ENDBLK
  5
7C4
  8
0
  0
BLOCK
  8
0
  2
*D65
 70
     1
 10
0.0
 20
0.0
 30
0.0
  3
*D65
  1

  0
LINE
  5
7C8
  8
0
  6
BYBLOCK
 62
     0
 10
16.250009
 20
-88.946384
 30
0.0
 11
16.250009
 21
-109.214237
 31
0.0
  0
LINE
  5
7C9
  8
0
  6
BYBLOCK
 62
     0
 10
-31.250009
 20
-103.446384
 30
0.0
 11
-31.250009
 21
-109.214237
 31
0.0
  0
LINE
  5
7CA
  8
0
  6
BYBLOCK
 62
     0
 10
14.318157
 20
-107.214237
 30
0.0
 11
-29.318157
 21
-107.214237
 31
0.0
  0
SOLID
  5
7CB
  8
0
  6
BYBLOCK
 62
     0
 10
14.318157
 20
-106.892261
 30
0.0
 11
14.318157
 21
-107.536212
 31
0.0
 12
16.250009
 22
-107.214237
 32
0.0
 13
16.250009
 23
-107.214237
 33
0.0
  0
SOLID
  5
7CC
  8
0
  6
BYBLOCK
 62
     0
 10
-29.318157
 20
-106.892261
 30
0.0
 11
-29.318157
 21
-107.536212
 31
0.0
 12
-31.250009
 22
-107.214237
 32
0.0
 13
-31.250009
 23
-107.214237
 33
0.0
  0
TEXT
  5
7CD
  8
0
  6
BYBLOCK
 62
     0
 10
-16.3
 20
-107.124237
 30
0.0
 40
3.2
  1
47.5000
  0
POINT
  5
7CE
  8
DEFPOINTS
  6
BYBLOCK
 62
     0
 10
16.250009
 20
-87.946384
 30
0.0
  0
POINT
  5
7CF
  8
DEFPOINTS
  6
BYBLOCK
 62
     0
 10
-31.250009
 20
-102.446384
 30
0.0
  0
POINT
  5
7D0
  8
DEFPOINTS
  6
BYBLOCK
 62
     0
 10
-31.250009
 20
-107.214237
 30
0.0
  0
ENDBLK
  5
7D1
  8
0
  0
BLOCK
  8
0
  2
*D66
 70
     1
 10
0.0
 20
0.0
 30
0.0
  3
*D66
  1

  0
LINE
  5
7D5
  8
0
  6
BYBLOCK
 62
     0
 10
-84.249991
 20
-88.789136
 30
0.0
 11
-84.249991
 21
-126.410259
 31
0.0
  0
LINE
  5
7D6
  8
0
  6
BYBLOCK
 62
     0
 10
-103.749991
 20
-0.946384
 30
0.0
 11
-103.749991
 21
-126.410259
 31
0.0
  0
LINE
  5
7D7
  8
0
  6
BYBLOCK
 62
     0
 10
-86.181843
 20
-124.410259
 30
0.0
 11
-101.81814
 21
-124.410259
 31
0.0
  0
SOLID
  5
7D8
  8
0
  6
BYBLOCK
 62
     0
 10
-86.181843
 20
-124.088284
 30
0.0
 11
-86.181843
 21
-124.732235
 31
0.0
 12
-84.249991
 22
-124.410259
 32
0.0
 13
-84.249991
 23
-124.410259
 33
0.0
  0
SOLID
  5
7D9
  8
0
  6
BYBLOCK
 62
     0
 10
-101.81814
 20
-124.088284
 30
0.0
 11
-101.81814
 21
-124.732235
 31
0.0
 12
-103.749991
 22
-124.410259
 32
0.0
 13
-103.749991
 23
-124.410259
 33
0.0
  0
TEXT
  5
7DA
  8
0
  6
BYBLOCK
 62
     0
 10
-102.266658
 20
-124.320259
 30
0.0
 40
3.2
  1
19.5000
  0
POINT
  5
7DB
  8
DEFPOINTS
  6
BYBLOCK
 62
     0
 10
-84.249991
 20
-87.789136
 30
0.0
  0
POINT
  5
7DC
  8
DEFPOINTS
  6
BYBLOCK
 62
     0
 10
-103.749991
 20
0.053616
 30
0.0
  0
POINT
  5
7DD
  8
DEFPOINTS
  6
BYBLOCK
 62
     0
 10
-103.749991
 20
-124.410259
 30
0.0
  0
ENDBLK
  5
7DE
  8
0
  0
BLOCK
  8
0
  2
*D67
 70
     1
 10
0.0
 20
0.0
 30
0.0
  3
*D67
  1

  0
LINE
  5
7E2
  8
0
  6
BYBLOCK
 62
     0
 10
-114.58204
 20
0.053616
 30
0.0
 11
-130.909787
 21
0.053616
 31
0.0
  0
LINE
  5
7E3
  8
0
  6
BYBLOCK
 62
     0
 10
-85.249991
 20
-81.046384
 30
0.0
 11
-130.909787
 21
-81.046384
 31
0.0
  0
LINE
  5
7E4
  8
0
  6
BYBLOCK
 62
     0
 10
-128.909787
 20
-1.878236
 30
0.0
 11
-128.909787
 21
-38.806384
 31
0.0
  0
LINE
  5
7E5
  8
0
  6
BYBLOCK
 62
     0
 10
-128.909787
 20
-79.114533
 30
0.0
 11
-128.909787
 21
-42.186384
 31
0.0
  0
SOLID
  5
7E6
  8
0
  6
BYBLOCK
 62
     0
 10
-129.231762
 20
-1.878236
 30
0.0
 11
-128.587812
 21
-1.878236
 31
0.0
 12
-128.909787
 22
0.053616
 32
0.0
 13
-128.909787
 23
0.053616
 33
0.0
  0
SOLID
  5
7E7
  8
0
  6
BYBLOCK
 62
     0
 10
-129.231762
 20
-79.114533
 30
0.0
 11
-128.587812
 21
-79.114533
 31
0.0
 12
-128.909787
 22
-81.046384
 32
0.0
 13
-128.909787
 23
-81.046384
 33
0.0
  0
TEXT
  5
7E8
  8
0
  6
BYBLOCK
 62
     0
 10
-136.64312
 20
-42.096384
 30
0.0
 40
3.2
  1
81.1000
  0
POINT
  5
7E9
  8
DEFPOINTS
  6
BYBLOCK
 62
     0
 10
-113.58204
 20
0.053616
 30
0.0
  0
POINT
  5
7EA
  8
DEFPOINTS
  6
BYBLOCK
 62
     0
 10
-84.249991
 20
-81.046384
 30
0.0
  0
POINT
  5
7EB
  8
DEFPOINTS
  6
BYBLOCK
 62
     0
 10
-128.909787
 20
-81.046384
 30
0.0
  0
ENDBLK
  5
7EC
  8
0
  0
BLOCK
  8
0
  2
*D68
 70
     1
 10
0.0
 20
0.0
 30
0.0
  3
*D68
  1

  0
LINE
  5
7F1
  8
0
  6
BYBLOCK
 62
     0
 10
240.749991
 20
0.053616
 30
0.0
 11
80.494311
 21
0.053616
 31
0.0
  0
LINE
  5
7F2
  8
0
  6
BYBLOCK
 62
     0
 10
240.749991
 20
-141.746384
 30
0.0
 11
80.494311
 21
-141.746384
 31
0.0
  0
LINE
  5
7F3
  8
0
  6
BYBLOCK
 62
     0
 10
82.494311
 20
-1.878236
 30
0.0
 11
82.494311
 21
-69.156384
 31
0.0
  0
LINE
  5
7F4
  8
0
  6
BYBLOCK
 62
     0
 10
82.494311
 20
-139.814533
 30
0.0
 11
82.494311
 21
-72.536384
 31
0.0
  0
SOLID
  5
7F5
  8
0
  6
BYBLOCK
 62
     0
 10
82.172336
 20
-1.878236
 30
0.0
 11
82.816286
 21
-1.878236
 31
0.0
 12
82.494311
 22
0.053616
 32
0.0
 13
82.494311
 23
0.053616
 33
0.0
  0
SOLID
  5
7F6
  8
0
  6
BYBLOCK
 62
     0
 10
82.172336
 20
-139.814533
 30
0.0
 11
82.816286
 21
-139.814533
 31
0.0
 12
82.494311
 22
-141.746384
 32
0.0
 13
82.494311
 23
-141.746384
 33
0.0
  0
TEXT
  5
7F7
  8
0
  6
BYBLOCK
 62
     0
 10
73.160977
 20
-72.446384
 30
0.0
 40
3.2
  1
141.8000
  0
POINT
  5
7F8
  8
DEFPOINTS
  6
BYBLOCK
 62
     0
 10
241.749991
 20
0.053616
 30
0.0
  0
POINT
  5
7F9
  8
DEFPOINTS
  6
BYBLOCK
 62
     0
 10
241.749991
 20
-141.746384
 30
0.0
  0
POINT
  5
7FA
  8
DEFPOINTS
  6
BYBLOCK
 62
     0
 10
82.494311
 20
-141.746384
 30
0.0
  0
ENDBLK
  5
7FB
  8
0
  0
BLOCK
  8
0
  2
*D69
 70
     1
 10
0.0
 20
0.0
 30
0.0
  3
*D69
  1

  0
LINE
  5
7FF
  8
0
  6
BYBLOCK
 62
     0
 10
-31.250009
 20
-103.446384
 30
0.0
 11
-31.250009
 21
-110.1964
 31
0.0
  0
LINE
  5
800
  8
0
  6
BYBLOCK
 62
     0
 10
16.250009
 20
-88.946384
 30
0.0
 11
16.250009
 21
-110.1964
 31
0.0
  0
LINE
  5
801
  8
0
  6
BYBLOCK
 62
     0
 10
-29.318157
 20
-108.1964
 30
0.0
 11
14.318157
 21
-108.1964
 31
0.0
  0
SOLID
  5
802
  8
0
  6
BYBLOCK
 62
     0
 10
-29.318157
 20
-107.874425
 30
0.0
 11
-29.318157
 21
-108.518376
 31
0.0
 12
-31.250009
 22
-108.1964
 32
0.0
 13
-31.250009
 23
-108.1964
 33
0.0
  0
SOLID
  5
803
  8
0
  6
BYBLOCK
 62
     0
 10
14.318157
 20
-107.874425
 30
0.0
 11
14.318157
 21
-108.518376
 31
0.0
 12
16.250009
 22
-108.1964
 32
0.0
 13
16.250009
 23
-108.1964
 33
0.0
  0
TEXT
  5
804
  8
0
  6
BYBLOCK
 62
     0
 10
-16.3
 20
-108.1064
 30
0.0
 40
3.2
  1
47.5000
  0
POINT
  5
805
  8
DEFPOINTS
  6
BYBLOCK
 62
     0
 10
-31.250009
 20
-102.446384
 30
0.0
  0
POINT
  5
806
  8
DEFPOINTS
  6
BYBLOCK
 62
     0
 10
16.250009
 20
-87.946384
 30
0.0
  0
POINT
  5
807
  8
DEFPOINTS
  6
BYBLOCK
 62
     0
 10
16.250009
 20
-108.1964
 30
0.0
  0
ENDBLK
  5
808
  8
0
  0
BLOCK
  8
0
  2
*D70
 70
     1
 10
0.0
 20
0.0
 30
0.0
  3
*D70
  1

  0
LINE
  5
80C
  8
0
  6
BYBLOCK
 62
     0
 10
-114.58204
 20
0.053616
 30
0.0
 11
-140.884403
 21
0.053616
 31
0.0
  0
LINE
  5
80D
  8
0
  6
BYBLOCK
 62
     0
 10
-85.249991
 20
-81.046384
 30
0.0
 11
-140.884403
 21
-81.046384
 31
0.0
  0
LINE
  5
80E
  8
0
  6
BYBLOCK
 62
     0
 10
-138.884403
 20
-1.878236
 30
0.0
 11
-138.884403
 21
-38.806384
 31
0.0
  0
LINE
  5
80F
  8
0
  6
BYBLOCK
 62
     0
 10
-138.884403
 20
-79.114533
 30
0.0
 11
-138.884403
 21
-42.186384
 31
0.0
  0
SOLID
  5
810
  8
0
  6
BYBLOCK
 62
     0
 10
-139.206378
 20
-1.878236
 30
0.0
 11
-138.562427
 21
-1.878236
 31
0.0
 12
-138.884403
 22
0.053616
 32
0.0
 13
-138.884403
 23
0.053616
 33
0.0
  0
SOLID
  5
811
  8
0
  6
BYBLOCK
 62
     0
 10
-139.206378
 20
-79.114533
 30
0.0
 11
-138.562427
 21
-79.114533
 31
0.0
 12
-138.884403
 22
-81.046384
 32
0.0
 13
-138.884403
 23
-81.046384
 33
0.0
  0
TEXT
  5
812
  8
0
  6
BYBLOCK
 62
     0
 10
-146.617736
 20
-42.096384
 30
0.0
 40
3.2
  1
81.1000
  0
POINT
  5
813
  8
DEFPOINTS
  6
BYBLOCK
 62
     0
 10
-113.58204
 20
0.053616
 30
0.0
  0
POINT
  5
814
  8
DEFPOINTS
  6
BYBLOCK
 62
     0
 10
-84.249991
 20
-81.046384
 30
0.0
  0
POINT
  5
815
  8
DEFPOINTS
  6
BYBLOCK
 62
     0
 10
-138.884403
 20
-81.046384
 30
0.0
  0
ENDBLK
  5
816
  8
0
  0
BLOCK
  8
0
  2
*D71
 70
     1
 10
0.0
 20
0.0
 30
0.0
  3
*D71
  1

  0
LINE
  5
81A
  8
0
  6
BYBLOCK
 62
     0
 10
-64.249991
 20
89.053616
 30
0.0
 11
-64.249991
 21
103.454727
 31
0.0
  0
LINE
  5
81B
  8
0
  6
BYBLOCK
 62
     0
 10
-103.749991
 20
1.053616
 30
0.0
 11
-103.749991
 21
103.454727
 31
0.0
  0
LINE
  5
81C
  8
0
  6
BYBLOCK
 62
     0
 10
-66.181843
 20
101.454727
 30
0.0
 11
-101.81814
 21
101.454727
 31
0.0
  0
SOLID
  5
81D
  8
0
  6
BYBLOCK
 62
     0
 10
-66.181843
 20
101.776703
 30
0.0
 11
-66.181843
 21
101.132752
 31
0.0
 12
-64.249991
 22
101.454727
 32
0.0
 13
-64.249991
 23
101.454727
 33
0.0
  0
SOLID
  5
81E
  8
0
  6
BYBLOCK
 62
     0
 10
-101.81814
 20
101.776703
 30
0.0
 11
-101.81814
 21
101.132752
 31
0.0
 12
-103.749991
 22
101.454727
 32
0.0
 13
-103.749991
 23
101.454727
 33
0.0
  0
TEXT
  5
81F
  8
0
  6
BYBLOCK
 62
     0
 10
-92.799992
 20
101.544727
 30
0.0
 40
3.2
  1
39.5000
  0
POINT
  5
820
  8
DEFPOINTS
  6
BYBLOCK
 62
     0
 10
-64.249991
 20
88.053616
 30
0.0
  0
POINT
  5
821
  8
DEFPOINTS
  6
BYBLOCK
 62
     0
 10
-103.749991
 20
0.053616
 30
0.0
  0
POINT
  5
822
  8
DEFPOINTS
  6
BYBLOCK
 62
     0
 10
-103.749991
 20
101.454727
 30
0.0
  0
ENDBLK
  5
823
  8
0
  0
BLOCK
  8
0
  2
*D72
 70
     1
 10
0.0
 20
0.0
 30
0.0
  3
*D72
  1

  0
LINE
  5
827
  8
0
  6
BYBLOCK
 62
     0
 10
16.250009
 20
89.053616
 30
0.0
 11
16.250009
 21
100.378086
 31
0.0
  0
LINE
  5
828
  8
0
  6
BYBLOCK
 62
     0
 10
-103.749991
 20
1.053616
 30
0.0
 11
-103.749991
 21
100.378086
 31
0.0
  0
LINE
  5
829
  8
0
  6
BYBLOCK
 62
     0
 10
14.318157
 20
98.378086
 30
0.0
 11
-101.81814
 21
98.378086
 31
0.0
  0
SOLID
  5
82A
  8
0
  6
BYBLOCK
 62
     0
 10
14.318157
 20
98.700061
 30
0.0
 11
14.318157
 21
98.056111
 31
0.0
 12
16.250009
 22
98.378086
 32
0.0
 13
16.250009
 23
98.378086
 33
0.0
  0
SOLID
  5
82B
  8
0
  6
BYBLOCK
 62
     0
 10
-101.81814
 20
98.700061
 30
0.0
 11
-101.81814
 21
98.056111
 31
0.0
 12
-103.749991
 22
98.378086
 32
0.0
 13
-103.749991
 23
98.378086
 33
0.0
  0
TEXT
  5
82C
  8
0
  6
BYBLOCK
 62
     0
 10
-53.083325
 20
98.468086
 30
0.0
 40
3.2
  1
120.0000
  0
POINT
  5
82D
  8
DEFPOINTS
  6
BYBLOCK
 62
     0
 10
16.250009
 20
88.053616
 30
0.0
  0
POINT
  5
82E
  8
DEFPOINTS
  6
BYBLOCK
 62
     0
 10
-103.749991
 20
0.053616
 30
0.0
  0
POINT
  5
82F
  8
DEFPOINTS
  6
BYBLOCK
 62
     0
 10
-103.749991
 20
98.378086
 30
0.0
  0
ENDBLK
  5
830
  8
0
  0
BLOCK
  8
0
  2
*D73
 70
     1
 10
0.0
 20
0.0
 30
0.0
  3
*D73
  1

  0
LINE
  5
834
  8
0
  6
BYBLOCK
 62
     0
 10
16.250009
 20
89.053616
 30
0.0
 11
16.250009
 21
100.378086
 31
0.0
  0
LINE
  5
835
  8
0
  6
BYBLOCK
 62
     0
 10
3.250009
 20
89.053616
 30
0.0
 11
3.250009
 21
100.378086
 31
0.0
  0
LINE
  5
836
  8
0
  6
BYBLOCK
 62
     0
 10
14.318157
 20
98.378086
 30
0.0
 11
5.18186
 21
98.378086
 31
0.0
  0
LINE
  5
837
  8
0
  6
BYBLOCK
 62
     0
 10
3.250009
 20
98.378086
 30
0.0
 11
-14.861843
 21
98.378086
 31
0.0
  0
SOLID
  5
838
  8
0
  6
BYBLOCK
 62
     0
 10
14.318157
 20
98.700061
 30
0.0
 11
14.318157
 21
98.056111
 31
0.0
 12
16.250009
 22
98.378086
 32
0.0
 13
16.250009
 23
98.378086
 33
0.0
  0
SOLID
  5
839
  8
0
  6
BYBLOCK
 62
     0
 10
5.18186
 20
98.700061
 30
0.0
 11
5.18186
 21
98.056111
 31
0.0
 12
3.250009
 22
98.378086
 32
0.0
 13
3.250009
 23
98.378086
 33
0.0
  0
TEXT
  5
83A
  8
0
  6
BYBLOCK
 62
     0
 10
-14.771843
 20
98.468086
 30
0.0
 40
3.2
  1
13.0000
  0
POINT
  5
83B
  8
DEFPOINTS
  6
BYBLOCK
 62
     0
 10
16.250009
 20
88.053616
 30
0.0
  0
POINT
  5
83C
  8
DEFPOINTS
  6
BYBLOCK
 62
     0
 10
3.250009
 20
88.053616
 30
0.0
  0
POINT
  5
83D
  8
DEFPOINTS
  6
BYBLOCK
 62
     0
 10
3.250009
 20
98.378086
 30
0.0
  0
ENDBLK
  5
83E
  8
0
  0
BLOCK
  8
0
  2
*D74
 70
     1
 10
0.0
 20
0.0
 30
0.0
  3
*D74
  1

  0
LINE
  5
842
  8
0
  6
BYBLOCK
 62
     0
 10
19.250009
 20
58.203616
 30
0.0
 11
19.250009
 21
97.740965
 31
0.0
  0
LINE
  5
843
  8
0
  6
BYBLOCK
 62
     0
 10
16.250009
 20
58.203616
 30
0.0
 11
16.250009
 21
97.740965
 31
0.0
  0
LINE
  5
844
  8
0
  6
BYBLOCK
 62
     0
 10
21.18186
 20
95.740965
 30
0.0
 11
23.113712
 21
95.740965
 31
0.0
  0
LINE
  5
845
  8
0
  6
BYBLOCK
 62
     0
 10
14.318157
 20
95.740965
 30
0.0
 11
-1.660362
 21
95.740965
 31
0.0
  0
SOLID
  5
846
  8
0
  6
BYBLOCK
 62
     0
 10
21.18186
 20
96.06294
 30
0.0
 11
21.18186
 21
95.41899
 31
0.0
 12
19.250009
 22
95.740965
 32
0.0
 13
19.250009
 23
95.740965
 33
0.0
  0
SOLID
  5
847
  8
0
  6
BYBLOCK
 62
     0
 10
14.318157
 20
96.06294
 30
0.0
 11
14.318157
 21
95.41899
 31
0.0
 12
16.250009
 22
95.740965
 32
0.0
 13
16.250009
 23
95.740965
 33
0.0
  0
TEXT
  5
848
  8
0
  6
BYBLOCK
 62
     0
 10
-1.570362
 20
95.830965
 30
0.0
 40
3.2
  1
3.0000
  0
POINT
  5
849
  8
DEFPOINTS
  6
BYBLOCK
 62
     0
 10
19.250009
 20
57.203616
 30
0.0
  0
POINT
  5
84A
  8
DEFPOINTS
  6
BYBLOCK
 62
     0
 10
16.250009
 20
57.203616
 30
0.0
  0
POINT
  5
84B
  8
DEFPOINTS
  6
BYBLOCK
 62
     0
 10
16.250009
 20
95.740965
 30
0.0
  0
ENDBLK
  5
84C
  8
0
  0
BLOCK
  8
0
  2
*D75
 70
     1
 10
0.0
 20
0.0
 30
0.0
  3
*D75
  1

  0
LINE
  5
850
  8
0
  6
BYBLOCK
 62
     0
 10
71.250009
 20
15.053616
 30
0.0
 11
71.250009
 21
45.877583
 31
0.0
  0
LINE
  5
851
  8
0
  6
BYBLOCK
 62
     0
 10
21.250009
 20
15.053616
 30
0.0
 11
21.250009
 21
45.877583
 31
0.0
  0
LINE
  5
852
  8
0
  6
BYBLOCK
 62
     0
 10
69.318157
 20
43.877583
 30
0.0
 11
23.18186
 21
43.877583
 31
0.0
  0
SOLID
  5
853
  8
0
  6
BYBLOCK
 62
     0
 10
69.318157
 20
44.199558
 30
0.0
 11
69.318157
 21
43.555608
 31
0.0
 12
71.250009
 22
43.877583
 32
0.0
 13
71.250009
 23
43.877583
 33
0.0
  0
SOLID
  5
854
  8
0
  6
BYBLOCK
 62
     0
 10
23.18186
 20
44.199558
 30
0.0
 11
23.18186
 21
43.555608
 31
0.0
 12
21.250009
 22
43.877583
 32
0.0
 13
21.250009
 23
43.877583
 33
0.0
  0
TEXT
  5
855
  8
0
  6
BYBLOCK
 62
     0
 10
37.983342
 20
43.967583
 30
0.0
 40
3.2
  1
50.0000
  0
POINT
  5
856
  8
DEFPOINTS
  6
BYBLOCK
 62
     0
 10
71.250009
 20
14.053616
 30
0.0
  0
POINT
  5
857
  8
DEFPOINTS
  6
BYBLOCK
 62
     0
 10
21.250009
 20
14.053616
 30
0.0
  0
POINT
  5
858
  8
DEFPOINTS
  6
BYBLOCK
 62
     0
 10
21.250009
 20
43.877583
 30
0.0
  0
ENDBLK
  5
859
  8
0
  0
BLOCK
  8
0
  2
*D76
 70
     1
 10
0.0
 20
0.0
 30
0.0
  3
*D76
  1

  0
LINE
  5
85D
  8
0
  6
BYBLOCK
 62
     0
 10
16.250009
 20
89.053616
 30
0.0
 11
16.250009
 21
98.180485
 31
0.0
  0
LINE
  5
85E
  8
0
  6
BYBLOCK
 62
     0
 10
71.250009
 20
15.053616
 30
0.0
 11
71.250009
 21
98.180485
 31
0.0
  0
LINE
  5
85F
  8
0
  6
BYBLOCK
 62
     0
 10
18.18186
 20
96.180485
 30
0.0
 11
69.318157
 21
96.180485
 31
0.0
  0
SOLID
  5
860
  8
0
  6
BYBLOCK
 62
     0
 10
18.18186
 20
96.50246
 30
0.0
 11
18.18186
 21
95.85851
 31
0.0
 12
16.250009
 22
96.180485
 32
0.0
 13
16.250009
 23
96.180485
 33
0.0
  0
SOLID
  5
861
  8
0
  6
BYBLOCK
 62
     0
 10
69.318157
 20
96.50246
 30
0.0
 11
69.318157
 21
95.85851
 31
0.0
 12
71.250009
 22
96.180485
 32
0.0
 13
71.250009
 23
96.180485
 33
0.0
  0
TEXT
  5
862
  8
0
  6
BYBLOCK
 62
     0
 10
35.216675
 20
96.270485
 30
0.0
 40
3.2
  1
55.0000
  0
POINT
  5
863
  8
DEFPOINTS
  6
BYBLOCK
 62
     0
 10
16.250009
 20
88.053616
 30
0.0
  0
POINT
  5
864
  8
DEFPOINTS
  6
BYBLOCK
 62
     0
 10
71.250009
 20
14.053616
 30
0.0
  0
POINT
  5
865
  8
DEFPOINTS
  6
BYBLOCK
 62
     0
 10
71.250009
 20
96.180485
 30
0.0
  0
ENDBLK
  5
866
  8
0
  0
BLOCK
  8
0
  2
*D77
 70
     1
 10
0.0
 20
0.0
 30
0.0
  3
*D77
  1

  0
LINE
  5
86A
  8
0
  6
BYBLOCK
 62
     0
 10
20.250009
 20
57.203616
 30
0.0
 11
98.002508
 21
57.203616
 31
0.0
  0
LINE
  5
86B
  8
0
  6
BYBLOCK
 62
     0
 10
20.250009
 20
-57.096384
 30
0.0
 11
98.002508
 21
-57.096384
 31
0.0
  0
LINE
  5
86C
  8
0
  6
BYBLOCK
 62
     0
 10
96.002508
 20
55.271764
 30
0.0
 11
96.002508
 21
1.743616
 31
0.0
  0
LINE
  5
86D
  8
0
  6
BYBLOCK
 62
     0
 10
96.002508
 20
-55.164533
 30
0.0
 11
96.002508
 21
-1.636384
 31
0.0
  0
SOLID
  5
86E
  8
0
  6
BYBLOCK
 62
     0
 10
95.680533
 20
55.271764
 30
0.0
 11
96.324484
 21
55.271764
 31
0.0
 12
96.002508
 22
57.203616
 32
0.0
 13
96.002508
 23
57.203616
 33
0.0
  0
SOLID
  5
86F
  8
0
  6
BYBLOCK
 62
     0
 10
95.680533
 20
-55.164533
 30
0.0
 11
96.324484
 21
-55.164533
 31
0.0
 12
96.002508
 22
-57.096384
 32
0.0
 13
96.002508
 23
-57.096384
 33
0.0
  0
TEXT
  5
870
  8
0
  6
BYBLOCK
 62
     0
 10
86.669175
 20
-1.546384
 30
0.0
 40
3.2
  1
114.3000
  0
POINT
  5
871
  8
DEFPOINTS
  6
BYBLOCK
 62
     0
 10
19.250009
 20
57.203616
 30
0.0
  0
POINT
  5
872
  8
DEFPOINTS
  6
BYBLOCK
 62
     0
 10
19.250009
 20
-57.096384
 30
0.0
  0
POINT
  5
873
  8
DEFPOINTS
  6
BYBLOCK
 62
     0
 10
96.002508
 20
-57.096384
 30
0.0
  0
ENDBLK
  5
874
  8
0
  0
BLOCK
  8
0
  2
*D78
 70
     1
 10
0.0
 20
0.0
 30
0.0
  3
*D78
  1

  0
LINE
  5
878
  8
0
  6
BYBLOCK
 62
     0
 10
72.250009
 20
14.053616
 30
0.0
 11
105.920045
 21
14.053616
 31
0.0
  0
LINE
  5
879
  8
0
  6
BYBLOCK
 62
     0
 10
72.250009
 20
-13.946384
 30
0.0
 11
105.920045
 21
-13.946384
 31
0.0
  0
LINE
  5
87A
  8
0
  6
BYBLOCK
 62
     0
 10
103.920045
 20
12.121764
 30
0.0
 11
103.920045
 21
1.743616
 31
0.0
  0
LINE
  5
87B
  8
0
  6
BYBLOCK
 62
     0
 10
103.920045
 20
-12.014533
 30
0.0
 11
103.920045
 21
-1.636384
 31
0.0
  0
SOLID
  5
87C
  8
0
  6
BYBLOCK
 62
     0
 10
103.59807
 20
12.121764
 30
0.0
 11
104.24202
 21
12.121764
 31
0.0
 12
103.920045
 22
14.053616
 32
0.0
 13
103.920045
 23
14.053616
 33
0.0
  0
SOLID
  5
87D
  8
0
  6
BYBLOCK
 62
     0
 10
103.59807
 20
-12.014533
 30
0.0
 11
104.24202
 21
-12.014533
 31
0.0
 12
103.920045
 22
-13.946384
 32
0.0
 13
103.920045
 23
-13.946384
 33
0.0
  0
TEXT
  5
87E
  8
0
  6
BYBLOCK
 62
     0
 10
95.386711
 20
-1.546384
 30
0.0
 40
3.2
  1
28.0000
  0
POINT
  5
87F
  8
DEFPOINTS
  6
BYBLOCK
 62
     0
 10
71.250009
 20
14.053616
 30
0.0
  0
POINT
  5
880
  8
DEFPOINTS
  6
BYBLOCK
 62
     0
 10
71.250009
 20
-13.946384
 30
0.0
  0
POINT
  5
881
  8
DEFPOINTS
  6
BYBLOCK
 62
     0
 10
103.920045
 20
-13.946384
 30
0.0
  0
ENDBLK
  5
882
  8
0
  0
BLOCK
  8
0
  2
*D79
 70
     1
 10
0.0
 20
0.0
 30
0.0
  3
*D79
  1

  0
LINE
  5
887
  8
0
  6
BYBLOCK
 62
     0
 10
-114.58204
 20
0.053616
 30
0.0
 11
-132.405141
 21
0.053616
 31
0.0
  0
LINE
  5
888
  8
0
  6
BYBLOCK
 62
     0
 10
-85.249991
 20
-81.446384
 30
0.0
 11
-132.405141
 21
-81.446384
 31
0.0
  0
LINE
  5
889
  8
0
  6
BYBLOCK
 62
     0
 10
-130.405141
 20
-1.878236
 30
0.0
 11
-130.405141
 21
-39.006384
 31
0.0
  0
LINE
  5
88A
  8
0
  6
BYBLOCK
 62
     0
 10
-130.405141
 20
-79.514533
 30
0.0
 11
-130.405141
 21
-42.386384
 31
0.0
  0
SOLID
  5
88B
  8
0
  6
BYBLOCK
 62
     0
 10
-130.727117
 20
-1.878236
 30
0.0
 11
-130.083166
 21
-1.878236
 31
0.0
 12
-130.405141
 22
0.053616
 32
0.0
 13
-130.405141
 23
0.053616
 33
0.0
  0
SOLID
  5
88C
  8
0
  6
BYBLOCK
 62
     0
 10
-130.727117
 20
-79.514533
 30
0.0
 11
-130.083166
 21
-79.514533
 31
0.0
 12
-130.405141
 22
-81.446384
 32
0.0
 13
-130.405141
 23
-81.446384
 33
0.0
  0
TEXT
  5
88D
  8
0
  6
BYBLOCK
 62
     0
 10
-138.671808
 20
-42.296384
 30
0.0
 40
3.2
  1
81.5000
  0
POINT
  5
88E
  8
DEFPOINTS
  6
BYBLOCK
 62
     0
 10
-113.58204
 20
0.053616
 30
0.0
  0
POINT
  5
88F
  8
DEFPOINTS
  6
BYBLOCK
 62
     0
 10
-84.249991
 20
-81.446384
 30
0.0
  0
POINT
  5
890
  8
DEFPOINTS
  6
BYBLOCK
 62
     0
 10
-130.405141
 20
-81.446384
 30
0.0
  0
ENDBLK
  5
891
  8
0
  0
BLOCK
  8
0
  2
*D80
 70
     1
 10
0.0
 20
0.0
 30
0.0
  3
*D80
  1

  0
LINE
  5
895
  8
0
  6
BYBLOCK
 62
     0
 10
330.749991
 20
0.053616
 30
0.0
 11
359.882831
 21
0.053616
 31
0.0
  0
LINE
  5
896
  8
0
  6
BYBLOCK
 62
     0
 10
259.149991
 20
-141.746384
 30
0.0
 11
359.882831
 21
-141.746384
 31
0.0
  0
LINE
  5
897
  8
0
  6
BYBLOCK
 62
     0
 10
357.882831
 20
-1.878236
 30
0.0
 11
357.882831
 21
-69.156384
 31
0.0
  0
LINE
  5
898
  8
0
  6
BYBLOCK
 62
     0
 10
357.882831
 20
-139.814533
 30
0.0
 11
357.882831
 21
-72.536384
 31
0.0
  0
SOLID
  5
899
  8
0
  6
BYBLOCK
 62
     0
 10
357.560856
 20
-1.878236
 30
0.0
 11
358.204807
 21
-1.878236
 31
0.0
 12
357.882831
 22
0.053616
 32
0.0
 13
357.882831
 23
0.053616
 33
0.0
  0
SOLID
  5
89A
  8
0
  6
BYBLOCK
 62
     0
 10
357.560856
 20
-139.814533
 30
0.0
 11
358.204807
 21
-139.814533
 31
0.0
 12
357.882831
 22
-141.746384
 32
0.0
 13
357.882831
 23
-141.746384
 33
0.0
  0
TEXT
  5
89B
  8
0
  6
BYBLOCK
 62
     0
 10
348.549498
 20
-72.446384
 30
0.0
 40
3.2
  1
141.8000
  0
POINT
  5
89C
  8
DEFPOINTS
  6
BYBLOCK
 62
     0
 10
329.749991
 20
0.053616
 30
0.0
  0
POINT
  5
89D
  8
DEFPOINTS
  6
BYBLOCK
 62
     0
 10
258.149991
 20
-141.746384
 30
0.0
  0
POINT
  5
89E
  8
DEFPOINTS
  6
BYBLOCK
 62
     0
 10
357.882831
 20
-141.746384
 30
0.0
  0
ENDBLK
  5
89F
  8
0
  0
BLOCK
  8
0
  2
*D81
 70
     1
 10
0.0
 20
0.0
 30
0.0
  3
*D81
  1

  0
LINE
  5
8A3
  8
0
  6
BYBLOCK
 62
     0
 10
342.749991
 20
0.053616
 30
0.0
 11
351.366138
 21
0.053616
 31
0.0
  0
LINE
  5
8A4
  8
0
  6
BYBLOCK
 62
     0
 10
242.749991
 20
-141.746384
 30
0.0
 11
351.366138
 21
-141.746384
 31
0.0
  0
LINE
  5
8A5
  8
0
  6
BYBLOCK
 62
     0
 10
349.366138
 20
-1.878236
 30
0.0
 11
349.366138
 21
-69.156384
 31
0.0
  0
LINE
  5
8A6
  8
0
  6
BYBLOCK
 62
     0
 10
349.366138
 20
-139.814533
 30
0.0
 11
349.366138
 21
-72.536384
 31
0.0
  0
SOLID
  5
8A7
  8
0
  6
BYBLOCK
 62
     0
 10
349.044163
 20
-1.878236
 30
0.0
 11
349.688113
 21
-1.878236
 31
0.0
 12
349.366138
 22
0.053616
 32
0.0
 13
349.366138
 23
0.053616
 33
0.0
  0
SOLID
  5
8A8
  8
0
  6
BYBLOCK
 62
     0
 10
349.044163
 20
-139.814533
 30
0.0
 11
349.688113
 21
-139.814533
 31
0.0
 12
349.366138
 22
-141.746384
 32
0.0
 13
349.366138
 23
-141.746384
 33
0.0
  0
TEXT
  5
8A9
  8
0
  6
BYBLOCK
 62
     0
 10
340.032804
 20
-72.446384
 30
0.0
 40
3.2
  1
141.8000
  0
POINT
  5
8AA
  8
DEFPOINTS
  6
BYBLOCK
 62
     0
 10
341.749991
 20
0.053616
 30
0.0
  0
POINT
  5
8AB
  8
DEFPOINTS
  6
BYBLOCK
 62
     0
 10
241.749991
 20
-141.746384
 30
0.0
  0
POINT
  5
8AC
  8
DEFPOINTS
  6
BYBLOCK
 62
     0
 10
349.366138
 20
-141.746384
 30
0.0
  0
ENDBLK
  5
8AD
  8
0
  0
BLOCK
  8
0
  2
*D82
 70
     1
 10
0.0
 20
0.0
 30
0.0
  3
*D82
  1

  0
LINE
  5
8B2
  8
0
  6
BYBLOCK
 62
     0
 10
341.749991
 20
-0.946384
 30
0.0
 11
341.749991
 21
-145.946384
 31
0.0
  0
LINE
  5
8B3
  8
0
  6
BYBLOCK
 62
     0
 10
341.749991
 20
-0.946384
 30
0.0
 11
341.749991
 21
-145.946384
 31
0.0
  0
LINE
  5
8B4
  8
0
  6
BYBLOCK
 62
     0
 10
339.81814
 20
-143.946384
 30
0.0
 11
337.886288
 21
-143.946384
 31
0.0
  0
LINE
  5
8B5
  8
0
  6
BYBLOCK
 62
     0
 10
343.681843
 20
-143.946384
 30
0.0
 11
359.127028
 21
-143.946384
 31
0.0
  0
SOLID
  5
8B6
  8
0
  6
BYBLOCK
 62
     0
 10
339.81814
 20
-143.624409
 30
0.0
 11
339.81814
 21
-144.26836
 31
0.0
 12
341.749991
 22
-143.946384
 32
0.0
 13
341.749991
 23
-143.946384
 33
0.0
  0
SOLID
  5
8B7
  8
0
  6
BYBLOCK
 62
     0
 10
343.681843
 20
-143.624409
 30
0.0
 11
343.681843
 21
-144.26836
 31
0.0
 12
341.749991
 22
-143.946384
 32
0.0
 13
341.749991
 23
-143.946384
 33
0.0
  0
TEXT
  5
8B8
  8
0
  6
BYBLOCK
 62
     0
 10
345.703695
 20
-143.856384
 30
0.0
 40
3.2
  1
0.0000
  0
POINT
  5
8B9
  8
DEFPOINTS
  6
BYBLOCK
 62
     0
 10
341.749991
 20
0.053616
 30
0.0
  0
POINT
  5
8BA
  8
DEFPOINTS
  6
BYBLOCK
 62
     0
 10
341.749991
 20
0.053616
 30
0.0
  0
POINT
  5
8BB
  8
DEFPOINTS
  6
BYBLOCK
 62
     0
 10
341.749991
 20
-143.946384
 30
0.0
  0
ENDBLK
  5
8BC
  8
0
  0
BLOCK
  8
0
  2
*D83
 70
     1
 10
0.0
 20
0.0
 30
0.0
  3
*D83
  1

  0
LINE
  5
8C0
  8
0
  6
BYBLOCK
 62
     0
 10
330.749991
 20
0.053616
 30
0.0
 11
379.233434
 21
0.053616
 31
0.0
  0
LINE
  5
8C1
  8
0
  6
BYBLOCK
 62
     0
 10
242.749991
 20
-143.946384
 30
0.0
 11
379.233434
 21
-143.946384
 31
0.0
  0
LINE
  5
8C2
  8
0
  6
BYBLOCK
 62
     0
 10
377.233434
 20
-1.878236
 30
0.0
 11
377.233434
 21
-70.256384
 31
0.0
  0
LINE
  5
8C3
  8
0
  6
BYBLOCK
 62
     0
 10
377.233434
 20
-142.014533
 30
0.0
 11
377.233434
 21
-73.636384
 31
0.0
  0
SOLID
  5
8C4
  8
0
  6
BYBLOCK
 62
     0
 10
376.911459
 20
-1.878236
 30
0.0
 11
377.55541
 21
-1.878236
 31
0.0
 12
377.233434
 22
0.053616
 32
0.0
 13
377.233434
 23
0.053616
 33
0.0
  0
SOLID
  5
8C5
  8
0
  6
BYBLOCK
 62
     0
 10
376.911459
 20
-142.014533
 30
0.0
 11
377.55541
 21
-142.014533
 31
0.0
 12
377.233434
 22
-143.946384
 32
0.0
 13
377.233434
 23
-143.946384
 33
0.0
  0
TEXT
  5
8C6
  8
0
  6
BYBLOCK
 62
     0
 10
367.633434
 20
-73.546384
 30
0.0
 40
3.2
  1
144.0000
  0
POINT
  5
8C7
  8
DEFPOINTS
  6
BYBLOCK
 62
     0
 10
329.749991
 20
0.053616
 30
0.0
  0
POINT
  5
8C8
  8
DEFPOINTS
  6
BYBLOCK
 62
     0
 10
241.749991
 20
-143.946384
 30
0.0
  0
POINT
  5
8C9
  8
DEFPOINTS
  6
BYBLOCK
 62
     0
 10
377.233434
 20
-143.946384
 30
0.0
  0
ENDBLK
  5
8CA
  8
0
  0
BLOCK
  8
0
  2
A$C18A6108F
 70
     0
 10
0.0
 20
0.0
 30
0.0
  3
A$C18A6108F
  1

  0
LINE
  5
959
  8
0
  6
CENTER
 62
     6
 10
0.0
 20
0.0
 30
0.0
 11
201.57297
 21
0.0
 31
0.0
  0
ENDBLK
  5
95B
  8
0
  0
ENDSEC
  0
SECTION
  2
ENTITIES
  0
CIRCLE
  5
1DE
  8
0
  6
CONTINUOUS
 62
     3
 10
241.749991
 20
0.053616
 30
0.0
 40
44.75
  0
CIRCLE
  5
1DF
  8
0
  6
CONTINUOUS
 62
     3
 10
241.749991
 20
0.053616
 30
0.0
 40
57.15
  0
LINE
  5
1E3
  8
0
  6
CONTINUOUS
 62
     3
 10
21.250009
 20
-13.946384
 30
0.0
 11
71.250009
 21
-13.946384
 31
0.0
  0
LINE
  5
1E4
  8
0
  6
CONTINUOUS
 62
     3
 10
21.250009
 20
14.053616
 30
0.0
 11
71.250009
 21
14.053616
 31
0.0
  0
LINE
  5
1E5
  8
0
  6
CONTINUOUS
 62
     3
 10
1.250009
 20
-87.946384
 30
0.0
 11
16.250009
 21
-87.946384
 31
0.0
  0
LINE
  5
1E6
  8
0
  6
CONTINUOUS
 62
     3
 10
1.250009
 20
-57.446384
 30
0.0
 11
3.250009
 21
-57.446384
 31
0.0
  0
LINE
  5
1E7
  8
0
  6
CONTINUOUS
 62
     3
 10
1.250009
 20
88.053616
 30
0.0
 11
16.250009
 21
88.053616
 31
0.0
  0
CIRCLE
  5
1EB
  8
0
  6
CONTINUOUS
 62
     3
 10
241.749991
 20
0.053616
 30
0.0
 40
13.0
  0
CIRCLE
  5
1EC
  8
0
  6
CONTINUOUS
 62
     3
 10
162.508667
 20
45.803616
 30
0.0
 40
3.35
  0
CIRCLE
  5
1ED
  8
0
  6
CONTINUOUS
 62
     3
 10
195.999991
 20
-79.187709
 30
0.0
 40
3.35
  0
CIRCLE
  5
1EE
  8
0
  6
CONTINUOUS
 62
     3
 10
320.991316
 20
-45.696384
 30
0.0
 40
3.35
  0
CIRCLE
  5
1EF
  8
0
  6
CONTINUOUS
 62
     3
 10
287.499991
 20
79.29494
 30
0.0
 40
3.35
  0
CIRCLE
  5
1F0
  8
0
  6
CONTINUOUS
 62
     4
 10
162.508667
 20
45.803616
 30
0.0
 40
4.0
  0
CIRCLE
  5
1F1
  8
0
  6
CONTINUOUS
 62
     4
 10
195.999991
 20
-79.187709
 30
0.0
 40
4.0
  0
CIRCLE
  5
1F2
  8
0
  6
CONTINUOUS
 62
     4
 10
320.991316
 20
-45.696384
 30
0.0
 40
4.0
  0
CIRCLE
  5
1F3
  8
0
  6
CONTINUOUS
 62
     4
 10
287.499991
 20
79.29494
 30
0.0
 40
4.0
  0
CIRCLE
  5
1F6
  8
0
  6
CONTINUOUS
 62
     3
 10
241.749991
 20
0.053616
 30
0.0
 40
15.0
  0
LINE
  5
1F7
  8
0
  6
CONTINUOUS
 62
     3
 10
19.250009
 20
-14.946384
 30
0.0
 11
21.250009
 21
-14.946384
 31
0.0
  0
LINE
  5
1F8
  8
0
  6
CONTINUOUS
 62
     3
 10
19.250009
 20
15.053616
 30
0.0
 11
21.250009
 21
15.053616
 31
0.0
  0
CIRCLE
  5
1F9
  8
0
  6
CONTINUOUS
 62
     3
 10
241.749991
 20
0.053616
 30
0.0
 40
22.5
  0
ARC
  5
1FA
  8
0
  6
CENTER
 62
     4
 10
241.749991
 20
0.053616
 30
0.0
 40
35.0
 50
261.227773
 51
278.701648
  0
CIRCLE
  5
1FB
  8
0
  6
CONTINUOUS
 62
     3
 10
241.74512
 20
-34.940434
 30
0.0
 40
4.0625
  0
CIRCLE
  5
1FC
  8
0
  6
CONTINUOUS
 62
     3
 10
241.74512
 20
-34.940434
 30
0.0
 40
4.8125
  0
LINE
  5
1FD
  8
0
  6
CONTINUOUS
 62
     3
 10
243.618389
 20
-33.859924
 30
0.0
 11
241.743389
 21
-32.777392
 31
0.0
  0
LINE
  5
1FE
  8
0
  6
CONTINUOUS
 62
     3
 10
243.618389
 20
-36.024987
 30
0.0
 11
243.618389
 21
-33.859924
 31
0.0
  0
LINE
  5
1FF
  8
0
  6
CONTINUOUS
 62
     3
 10
239.868389
 20
-33.859924
 30
0.0
 11
239.868389
 21
-36.024987
 31
0.0
  0
LINE
  5
200
  8
0
  6
CONTINUOUS
 62
     3
 10
239.868389
 20
-36.024987
 30
0.0
 11
241.743389
 21
-37.107519
 31
0.0
  0
LINE
  5
201
  8
0
  6
CONTINUOUS
 62
     3
 10
241.743389
 20
-32.777392
 30
0.0
 11
239.868389
 21
-33.859924
 31
0.0
  0
LINE
  5
202
  8
0
  6
CONTINUOUS
 62
     3
 10
241.743389
 20
-37.107519
 30
0.0
 11
243.618389
 21
-36.024987
 31
0.0
  0
LINE
  5
203
  8
0
  6
CENTER
 62
     4
 10
274.58534
 20
13.181123
 30
0.0
 11
269.376941
 21
22.202336
 31
0.0
  0
LINE
  5
204
  8
0
  6
CENTER
 62
     4
 10
267.688388
 20
15.029156
 30
0.0
 11
276.709601
 21
20.237556
 31
0.0
  0
CIRCLE
  5
205
  8
0
  6
CONTINUOUS
 62
     3
 10
272.056009
 20
17.559566
 30
0.0
 40
4.0625
  0
CIRCLE
  5
206
  8
0
  6
CONTINUOUS
 62
     3
 10
272.056009
 20
17.559566
 30
0.0
 40
4.8125
  0
LINE
  5
207
  8
0
  6
CONTINUOUS
 62
     3
 10
273.929278
 20
18.640076
 30
0.0
 11
272.054278
 21
19.722608
 31
0.0
  0
LINE
  5
208
  8
0
  6
CONTINUOUS
 62
     3
 10
273.929278
 20
16.475013
 30
0.0
 11
273.929278
 21
18.640076
 31
0.0
  0
LINE
  5
209
  8
0
  6
CONTINUOUS
 62
     3
 10
270.179278
 20
18.640076
 30
0.0
 11
270.179278
 21
16.475013
 31
0.0
  0
LINE
  5
20A
  8
0
  6
CONTINUOUS
 62
     3
 10
270.179278
 20
16.475013
 30
0.0
 11
272.054278
 21
15.392481
 31
0.0
  0
LINE
  5
20B
  8
0
  6
CONTINUOUS
 62
     3
 10
272.054278
 20
19.722608
 30
0.0
 11
270.179278
 21
18.640076
 31
0.0
  0
LINE
  5
20C
  8
0
  6
CONTINUOUS
 62
     3
 10
272.054278
 20
15.392481
 30
0.0
 11
273.929278
 21
16.475013
 31
0.0
  0
ARC
  5
20D
  8
0
  6
CENTER
 62
     4
 10
241.749991
 20
0.053616
 30
0.0
 40
35.0
 50
141.003103
 51
158.882106
  0
LINE
  5
20E
  8
0
  6
CENTER
 62
     4
 10
215.589136
 20
15.157593
 30
0.0
 11
207.043022
 21
20.091694
 31
0.0
  0
CIRCLE
  5
20F
  8
0
  6
CONTINUOUS
 62
     3
 10
211.434231
 20
17.559566
 30
0.0
 40
4.0625
  0
CIRCLE
  5
210
  8
0
  6
CONTINUOUS
 62
     3
 10
211.434231
 20
17.559566
 30
0.0
 40
4.8125
  0
LINE
  5
211
  8
0
  6
CONTINUOUS
 62
     3
 10
213.3075
 20
18.640076
 30
0.0
 11
211.4325
 21
19.722608
 31
0.0
  0
LINE
  5
212
  8
0
  6
CONTINUOUS
 62
     3
 10
213.3075
 20
16.475013
 30
0.0
 11
213.3075
 21
18.640076
 31
0.0
  0
LINE
  5
213
  8
0
  6
CONTINUOUS
 62
     3
 10
209.5575
 20
18.640076
 30
0.0
 11
209.5575
 21
16.475013
 31
0.0
  0
LINE
  5
214
  8
0
  6
CONTINUOUS
 62
     3
 10
209.5575
 20
16.475013
 30
0.0
 11
211.4325
 21
15.392481
 31
0.0
  0
LINE
  5
215
  8
0
  6
CONTINUOUS
 62
     3
 10
211.4325
 20
19.722608
 30
0.0
 11
209.5575
 21
18.640076
 31
0.0
  0
LINE
  5
216
  8
0
  6
CONTINUOUS
 62
     3
 10
211.4325
 20
15.392481
 30
0.0
 11
213.3075
 21
16.475013
 31
0.0
  0
LINE
  5
217
  8
0
  6
CONTINUOUS
 62
     3
 10
3.250009
 20
-87.946384
 30
0.0
 11
3.250009
 21
88.053616
 31
0.0
  0
LINE
  5
218
  8
0
  6
CONTINUOUS
 62
     3
 10
-64.249991
 20
57.553616
 30
0.0
 11
3.250009
 21
57.553616
 31
0.0
  0
LINE
  5
225
  8
0
  6
DASHDOT
 62
     4
 10
-313.995621
 20
-78.298955
 30
0.0
 11
-320.78747
 21
-86.393164
 31
0.0
  0
LINE
  5
226
  8
0
  6
CENTER
 62
     4
 10
-313.995615
 20
-78.298955
 30
0.0
 11
-320.787464
 21
-86.393164
 31
0.0
  0
LINE
  5
227
  8
0
  6
DASHDOT
 62
     4
 10
-182.504396
 20
78.406186
 30
0.0
 11
-175.712547
 21
86.500396
 31
0.0
  0
LINE
  5
228
  8
0
  6
CENTER
 62
     4
 10
-182.50439
 20
78.406186
 30
0.0
 11
-175.712541
 21
86.500395
 31
0.0
  0
LINE
  5
229
  8
0
  6
DASHDOT
 62
     4
 10
307.495604
 20
-78.298955
 30
0.0
 11
314.287453
 21
-86.393164
 31
0.0
  0
LINE
  5
22A
  8
0
  6
CENTER
 62
     4
 10
307.495598
 20
-78.298955
 30
0.0
 11
314.287447
 21
-86.393164
 31
0.0
  0
LINE
  5
22B
  8
0
  6
DASHDOT
 62
     4
 10
176.004379
 20
78.406186
 30
0.0
 11
169.21253
 21
86.500396
 31
0.0
  0
LINE
  5
22C
  8
0
  6
CENTER
 62
     4
 10
176.004373
 20
78.406186
 30
0.0
 11
169.212524
 21
86.500395
 31
0.0
  0
ARC
  5
22E
  8
0
  6
CONTINUOUS
 62
     3
 10
-10.250009
 20
-117.946384
 30
0.0
 40
1.0
 50
270.0
 51
0.0
  0
LINE
  5
22F
  8
0
  6
CONTINUOUS
 62
     3
 10
-9.250009
 20
-117.946384
 30
0.0
 11
-9.250009
 21
-87.946384
 31
0.0
  0
LINE
  5
230
  8
0
  6
CONTINUOUS
 62
     3
 10
-53.250009
 20
-117.946384
 30
0.0
 11
-53.250009
 21
-87.946384
 31
0.0
  0
ARC
  5
231
  8
0
  6
CONTINUOUS
 62
     3
 10
-52.250009
 20
-117.946384
 30
0.0
 40
1.0
 50
180.0
 51
270.0
  0
LINE
  5
232
  8
0
  6
CONTINUOUS
 62
     3
 10
1.250009
 20
-87.946384
 30
0.0
 11
1.250009
 21
88.053616
 31
0.0
  0
LINE
  5
233
  8
0
  6
CONTINUOUS
 62
     3
 10
-263.050009
 20
-64.755733
 30
0.0
 11
-233.450009
 21
-64.755733
 31
0.0
  0
LINE
  5
234
  8
0
  6
CONTINUOUS
 62
     3
 10
-273.250009
 20
-86.446283
 30
0.0
 11
-273.250009
 21
-87.946283
 31
0.0
  0
LINE
  5
235
  8
0
  6
CONTINUOUS
 62
     3
 10
-223.250009
 20
-86.446283
 30
0.0
 11
-223.250009
 21
-87.946283
 31
0.0
  0
LINE
  5
236
  8
0
  6
CONTINUOUS
 62
     3
 10
-230.850009
 20
-125.746283
 30
0.0
 11
-230.850009
 21
-122.746283
 31
0.0
  0
LINE
  5
237
  8
0
  6
CONTINUOUS
 62
     3
 10
-265.650009
 20
-125.746283
 30
0.0
 11
-230.850009
 21
-125.746283
 31
0.0
  0
LINE
  5
238
  8
0
  6
CONTINUOUS
 62
     3
 10
-264.650009
 20
-141.746283
 30
0.0
 11
-264.650009
 21
-125.746283
 31
0.0
  0
LINE
  5
239
  8
0
  6
CONTINUOUS
 62
     3
 10
-231.850009
 20
-141.746283
 30
0.0
 11
-231.850009
 21
-125.746283
 31
0.0
  0
LINE
  5
23A
  8
0
  6
CONTINUOUS
 62
     3
 10
-265.650009
 20
-140.746283
 30
0.0
 11
-230.850009
 21
-140.746283
 31
0.0
  0
LINE
  5
23B
  8
0
  6
CONTINUOUS
 62
     3
 10
-231.850009
 20
-141.746283
 30
0.0
 11
-230.850009
 21
-140.746283
 31
0.0
  0
LINE
  5
23C
  8
0
  6
CONTINUOUS
 62
     3
 10
-265.650009
 20
-140.746283
 30
0.0
 11
-264.650009
 21
-141.746283
 31
0.0
  0
LINE
  5
23D
  8
0
  6
CONTINUOUS
 62
     3
 10
-230.850009
 20
-140.746283
 30
0.0
 11
-230.850009
 21
-125.746283
 31
0.0
  0
LINE
  5
23E
  8
0
  6
CONTINUOUS
 62
     3
 10
-265.650009
 20
-140.746283
 30
0.0
 11
-265.650009
 21
-122.746283
 31
0.0
  0
LINE
  5
23F
  8
0
  6
CONTINUOUS
 62
     3
 10
-264.650009
 20
-141.746283
 30
0.0
 11
-231.850009
 21
-141.746283
 31
0.0
  0
LINE
  5
240
  8
0
  6
CENTER
 62
     4
 10
-248.250009
 20
-141.102379
 30
0.0
 11
-248.250009
 21
-98.56719
 31
0.0
  0
LINE
  5
241
  8
0
  6
CONTINUOUS
 62
     3
 10
-227.750009
 20
-122.746283
 30
0.0
 11
-227.750009
 21
-118.946283
 31
0.0
  0
LINE
  5
242
  8
0
  6
CONTINUOUS
 62
     3
 10
-268.750009
 20
-122.746283
 30
0.0
 11
-268.750009
 21
-118.946283
 31
0.0
  0
LINE
  5
243
  8
0
  6
CONTINUOUS
 62
     3
 10
-268.750009
 20
-122.746283
 30
0.0
 11
-227.750009
 21
-122.746283
 31
0.0
  0
LINE
  5
244
  8
0
  6
CONTINUOUS
 62
     3
 10
-268.750009
 20
-119.946283
 30
0.0
 11
-227.750009
 21
-119.946283
 31
0.0
  0
LINE
  5
245
  8
0
  6
CONTINUOUS
 62
     3
 10
-270.250009
 20
-117.946283
 30
0.0
 11
-270.250009
 21
-87.946283
 31
0.0
  0
ARC
  5
246
  8
0
  6
CONTINUOUS
 62
     3
 10
-269.250009
 20
-117.946283
 30
0.0
 40
1.0
 50
180.0
 51
270.0
  0
LINE
  5
247
  8
0
  6
CONTINUOUS
 62
     3
 10
-226.250009
 20
-117.946283
 30
0.0
 11
-226.250009
 21
-87.946283
 31
0.0
  0
ARC
  5
248
  8
0
  6
CONTINUOUS
 62
     3
 10
-227.250009
 20
-117.946283
 30
0.0
 40
1.0
 50
270.0
 51
0.0
  0
LINE
  5
249
  8
0
  6
CONTINUOUS
 62
     3
 10
-269.250009
 20
-118.946283
 30
0.0
 11
-227.250009
 21
-118.946283
 31
0.0
  0
LINE
  5
24A
  8
0
  6
CONTINUOUS
 62
     3
 10
263.749991
 20
-120.146384
 30
0.0
 11
263.749991
 21
-87.946384
 31
0.0
  0
ARC
  5
24B
  8
0
  6
CONTINUOUS
 62
     3
 10
262.749991
 20
-120.146384
 30
0.0
 40
1.0
 50
270.0
 51
0.0
  0
ARC
  5
24C
  8
0
  6
CONTINUOUS
 62
     3
 10
220.749991
 20
-120.146384
 30
0.0
 40
1.0
 50
180.0
 51
270.0
  0
LINE
  5
24D
  8
0
  6
CONTINUOUS
 62
     3
 10
219.749991
 20
-120.146384
 30
0.0
 11
219.749991
 21
-87.946384
 31
0.0
  0
LINE
  5
24E
  8
0
  6
CONTINUOUS
 62
     3
 10
-77.249991
 20
42.553616
 30
0.0
 11
-71.749991
 21
42.553616
 31
0.0
  0
LINE
  5
250
  8
0
  6
CONTINUOUS
 62
     3
 10
-76.249991
 20
-38.380812
 30
0.0
 11
-76.249991
 21
-34.605609
 31
0.0
  0
LINE
  5
251
  8
0
  6
CONTINUOUS
 62
     3
 10
-103.299991
 20
-62.146384
 30
0.0
 11
-103.299991
 21
-57.946384
 31
0.0
  0
LINE
  5
252
  8
0
  6
CONTINUOUS
 62
     3
 10
-98.049991
 20
-81.446384
 30
0.0
 11
-98.049991
 21
-65.146384
 31
0.0
  0
LINE
  5
253
  8
0
  6
CONTINUOUS
 62
     3
 10
-99.049991
 20
-80.446384
 30
0.0
 11
-71.749991
 21
-80.446384
 31
0.0
  0
LINE
  5
254
  8
0
  6
CONTINUOUS
 62
     3
 10
-99.049991
 20
-80.446384
 30
0.0
 11
-98.049991
 21
-81.446384
 31
0.0
  0
LINE
  5
255
  8
0
  6
CONTINUOUS
 62
     3
 10
-99.049991
 20
-80.446384
 30
0.0
 11
-99.049991
 21
-62.146384
 31
0.0
  0
LINE
  5
256
  8
0
  6
CENTER
 62
     4
 10
-84.249991
 20
-88.189136
 30
0.0
 11
-84.249991
 21
-54.887194
 31
0.0
  0
LINE
  5
257
  8
0
  6
CONTINUOUS
 62
     3
 10
-103.749991
 20
-33.431354
 30
0.0
 11
-102.249991
 21
-34.293772
 31
0.0
  0
LINE
  5
258
  8
0
  6
CONTINUOUS
 62
     3
 10
-102.249991
 20
-34.293772
 30
0.0
 11
-77.249991
 21
-34.293772
 31
0.0
  0
LINE
  5
259
  8
0
  6
CENTER
 62
     4
 10
-78.049489
 20
-35.130812
 30
0.0
 11
-70.238565
 21
-35.130812
 31
0.0
  0
LINE
  5
25A
  8
0
  6
CONTINUOUS
 62
     3
 10
-72.249991
 20
-38.980812
 30
0.0
 11
-72.249991
 21
-34.605609
 31
0.0
  0
LINE
  5
25B
  8
0
  6
CONTINUOUS
 62
     3
 10
-72.249991
 20
-38.380812
 30
0.0
 11
-76.249991
 21
-38.380812
 31
0.0
  0
LINE
  5
25C
  8
0
  6
CONTINUOUS
 62
     3
 10
-72.249991
 20
-38.980812
 30
0.0
 11
-71.249991
 21
-38.980812
 31
0.0
  0
LINE
  5
25D
  8
0
  6
DASHDOT
 62
     4
 10
-76.265995
 20
-79.187709
 30
0.0
 11
-62.398916
 21
-79.187709
 31
0.0
  0
LINE
  5
25E
  8
0
  6
CONTINUOUS
 62
     3
 10
-70.449991
 20
-71.687709
 30
0.0
 11
-70.449991
 21
-65.146384
 31
0.0
  0
LINE
  5
25F
  8
0
  6
CONTINUOUS
 62
     3
 10
-69.449991
 20
-71.687709
 30
0.0
 11
-69.449991
 21
-62.146384
 31
0.0
  0
LINE
  5
260
  8
0
  6
CONTINUOUS
 62
     3
 10
-71.249991
 20
-42.446384
 30
0.0
 11
-64.249991
 21
-42.446384
 31
0.0
  0
LINE
  5
261
  8
0
  6
CONTINUOUS
 62
     3
 10
-103.749991
 20
-57.946384
 30
0.0
 11
-64.749991
 21
-57.946384
 31
0.0
  0
LINE
  5
262
  8
0
  6
CONTINUOUS
 62
     3
 10
-99.049991
 20
-65.146384
 30
0.0
 11
-69.449991
 21
-65.146384
 31
0.0
  0
LINE
  5
263
  8
0
  6
CONTINUOUS
 62
     3
 10
-103.299991
 20
-58.946384
 30
0.0
 11
-64.749991
 21
-58.946384
 31
0.0
  0
LINE
  5
264
  8
0
  6
CONTINUOUS
 62
     3
 10
-103.299991
 20
-62.146384
 30
0.0
 11
-65.199991
 21
-62.146384
 31
0.0
  0
LINE
  5
265
  8
0
  6
CONTINUOUS
 62
     3
 10
-77.249991
 20
-42.446384
 30
0.0
 11
-71.249991
 21
-42.446384
 31
0.0
  0
LINE
  5
266
  8
0
  6
CONTINUOUS
 62
     3
 10
-77.249991
 20
-27.449854
 30
0.0
 11
-64.249991
 21
-27.449854
 31
0.0
  0
LINE
  5
267
  8
0
  6
CONTINUOUS
 62
     3
 10
-77.249991
 20
-34.605609
 30
0.0
 11
-71.249991
 21
-34.605609
 31
0.0
  0
LINE
  5
268
  8
0
  6
CONTINUOUS
 62
     3
 10
-77.249991
 20
-40.96957
 30
0.0
 11
-71.249991
 21
-40.96957
 31
0.0
  0
LINE
  5
269
  8
0
  6
CENTER
 62
     4
 10
-79.119958
 20
29.666968
 30
0.0
 11
-69.680572
 21
29.666968
 31
0.0
  0
LINE
  5
26A
  8
0
  6
CONTINUOUS
 62
     3
 10
-76.249991
 20
29.034001
 30
0.0
 11
-76.249991
 21
32.916968
 31
0.0
  0
LINE
  5
26B
  8
0
  6
CONTINUOUS
 62
     3
 10
-72.249991
 20
29.034001
 30
0.0
 11
-72.249991
 21
33.516968
 31
0.0
  0
LINE
  5
26C
  8
0
  6
CONTINUOUS
 62
     3
 10
-76.249991
 20
32.916968
 30
0.0
 11
-72.249991
 21
32.916968
 31
0.0
  0
LINE
  5
26D
  8
0
  6
CONTINUOUS
 62
     3
 10
-71.249991
 20
33.516968
 30
0.0
 11
-72.249991
 21
33.516968
 31
0.0
  0
LINE
  5
26E
  8
0
  6
CONTINUOUS
 62
     3
 10
-71.249991
 20
-42.446384
 30
0.0
 11
-71.249991
 21
38.303616
 31
0.0
  0
LINE
  5
26F
  8
0
  6
CONTINUOUS
 62
     3
 10
-103.749991
 20
-57.946384
 30
0.0
 11
-103.749991
 21
30.053616
 31
0.0
  0
LINE
  5
270
  8
0
  6
CONTINUOUS
 62
     3
 10
-77.249991
 20
40.053616
 30
0.0
 11
-77.249991
 21
42.553616
 31
0.0
  0
LINE
  5
271
  8
0
  6
CONTINUOUS
 62
     3
 10
-77.249991
 20
-42.446384
 30
0.0
 11
-77.249991
 21
42.553616
 31
0.0
  0
ARC
  5
272
  8
0
  6
CONTINUOUS
 62
     3
 10
-73.749991
 20
30.053616
 30
0.0
 40
30.0
 50
163.606197
 51
180.0
  0
LINE
  5
273
  8
0
  6
CONTINUOUS
 62
     3
 10
-101.605882
 20
39.2379
 30
0.0
 11
-77.249991
 21
40.088426
 31
0.0
  0
ARC
  5
274
  8
0
  6
CONTINUOUS
 62
     3
 10
-101.570982
 20
38.238509
 30
0.0
 40
1.0
 50
92.0
 51
163.606197
  0
LINE
  5
275
  8
0
  6
CONTINUOUS
 62
     3
 10
-102.249991
 20
-57.946384
 30
0.0
 11
-102.249991
 21
30.053616
 31
0.0
  0
LINE
  5
276
  8
0
  6
CONTINUOUS
 62
     3
 10
-102.249991
 20
-57.946384
 30
0.0
 11
-102.249991
 21
38.972638
 31
0.0
  0
LINE
  5
277
  8
0
  6
CONTINUOUS
 62
     3
 10
-77.249991
 20
27.557288
 30
0.0
 11
-64.249991
 21
27.557288
 31
0.0
  0
LINE
  5
278
  8
0
  6
CONTINUOUS
 62
     3
 10
-77.249991
 20
29.034001
 30
0.0
 11
-71.249991
 21
29.034001
 31
0.0
  0
LINE
  5
279
  8
0
  6
CONTINUOUS
 62
     3
 10
-77.249991
 20
35.397962
 30
0.0
 11
-71.249991
 21
35.397962
 31
0.0
  0
ARC
  5
27B
  8
0
  6
CONTINUOUS
 62
     3
 10
163.749991
 20
-22.946283
 30
0.0
 40
500.0
 50
180.000012
 51
183.799492
  0
ARC
  5
27C
  8
0
  6
CONTINUOUS
 62
     3
 10
-660.250009
 20
-22.946283
 30
0.0
 40
500.0
 50
356.200508
 51
359.999988
  0
ARC
  5
27D
  8
0
  6
CONTINUOUS
 62
     3
 10
-660.250009
 20
23.053717
 30
0.0
 40
500.0
 50
359.999988
 51
3.799492
  0
LINE
  5
27E
  8
0
  6
CONTINUOUS
 62
     3
 10
-267.300009
 20
-61.755733
 30
0.0
 11
-267.300009
 21
-57.955733
 31
0.0
  0
LINE
  5
27F
  8
0
  6
CONTINUOUS
 62
     3
 10
-229.200009
 20
-61.755733
 30
0.0
 11
-229.200009
 21
-57.955733
 31
0.0
  0
LINE
  5
280
  8
0
  6
CONTINUOUS
 62
     3
 10
-267.250009
 20
-61.755733
 30
0.0
 11
-229.250009
 21
-61.755733
 31
0.0
  0
LINE
  5
281
  8
0
  6
CONTINUOUS
 62
     3
 10
-267.250009
 20
-58.955733
 30
0.0
 11
-229.250009
 21
-58.955733
 31
0.0
  0
LINE
  5
282
  8
0
  6
CONTINUOUS
 62
     3
 10
-268.750009
 20
-57.955733
 30
0.0
 11
-227.750009
 21
-57.955733
 31
0.0
  0
LINE
  5
283
  8
0
  6
CONTINUOUS
 62
     3
 10
-263.050009
 20
-80.055733
 30
0.0
 11
-263.050009
 21
-61.755733
 31
0.0
  0
LINE
  5
284
  8
0
  6
CONTINUOUS
 62
     3
 10
-233.450009
 20
-80.055733
 30
0.0
 11
-233.450009
 21
-61.755733
 31
0.0
  0
LINE
  5
285
  8
0
  6
CONTINUOUS
 62
     3
 10
-234.450009
 20
-81.055733
 30
0.0
 11
-234.450009
 21
-64.755733
 31
0.0
  0
LINE
  5
286
  8
0
  6
CONTINUOUS
 62
     3
 10
-262.050009
 20
-81.055733
 30
0.0
 11
-262.050009
 21
-64.755733
 31
0.0
  0
LINE
  5
287
  8
0
  6
CONTINUOUS
 62
     3
 10
-262.050009
 20
-81.055733
 30
0.0
 11
-234.450009
 21
-81.055733
 31
0.0
  0
LINE
  5
288
  8
0
  6
CONTINUOUS
 62
     3
 10
-263.050009
 20
-80.055733
 30
0.0
 11
-262.050009
 21
-81.055733
 31
0.0
  0
LINE
  5
289
  8
0
  6
CONTINUOUS
 62
     3
 10
-234.450009
 20
-81.055733
 30
0.0
 11
-233.450009
 21
-80.055733
 31
0.0
  0
LINE
  5
28A
  8
0
  6
CONTINUOUS
 62
     3
 10
-263.050009
 20
-80.055733
 30
0.0
 11
-262.050009
 21
-80.055733
 31
0.0
  0
LINE
  5
28B
  8
0
  6
CONTINUOUS
 62
     3
 10
-262.050009
 20
-80.055733
 30
0.0
 11
-233.450009
 21
-80.055733
 31
0.0
  0
ARC
  5
28C
  8
0
  6
CONTINUOUS
 62
     3
 10
-225.250009
 20
-86.446283
 30
0.0
 40
2.0
 50
0.0
 51
90.0
  0
ARC
  5
28D
  8
0
  6
CONTINUOUS
 62
     3
 10
-271.250009
 20
-86.446283
 30
0.0
 40
2.0
 50
90.0
 51
180.0
  0
LINE
  5
28E
  8
0
  6
CONTINUOUS
 62
     3
 10
-271.250009
 20
-84.446283
 30
0.0
 11
-248.250009
 21
-84.446283
 31
0.0
  0
LINE
  5
28F
  8
0
  6
CONTINUOUS
 62
     3
 10
-248.250009
 20
-84.446283
 30
0.0
 11
-225.250009
 21
-84.446283
 31
0.0
  0
LINE
  5
290
  8
0
  6
DASHDOT
 62
     4
 10
-248.250009
 20
-62.576031
 30
0.0
 11
-248.250009
 21
-76.933518
 31
0.0
  0
LINE
  5
291
  8
0
  6
CENTER
 62
     4
 10
-262.950009
 20
-47.739728
 30
0.0
 11
-262.950009
 21
-42.547726
 31
0.0
  0
LINE
  5
292
  8
0
  6
CENTER
 62
     4
 10
-265.480854
 20
-45.455733
 30
0.0
 11
-260.768318
 21
-45.455733
 31
0.0
  0
LINE
  5
293
  8
0
  6
CENTER
 62
     4
 10
-233.550009
 20
-47.739728
 30
0.0
 11
-233.550009
 21
-42.739512
 31
0.0
  0
LINE
  5
294
  8
0
  6
CENTER
 62
     4
 10
-236.137482
 20
-45.455733
 30
0.0
 11
-231.23316
 21
-45.455733
 31
0.0
  0
LINE
  5
295
  8
0
  6
DASHDOT
 62
     4
 10
-216.476006
 20
-37.822514
 30
0.0
 11
-220.565547
 21
-32.948789
 31
0.0
  0
LINE
  5
296
  8
0
  6
CENTER
 62
     4
 10
-281.000858
 20
-27.436959
 30
0.0
 11
-285.906708
 21
-31.553455
 31
0.0
  0
LINE
  5
297
  8
0
  6
DASHDOT
 62
     4
 10
-275.769239
 20
32.840409
 30
0.0
 11
-279.942546
 21
37.813962
 31
0.0
  0
ARC
  5
298
  8
0
  6
CENTER
 62
     4
 10
-248.250009
 20
0.151499
 30
0.0
 40
46.0
 50
125.462396
 51
134.054062
  0
ARC
  5
299
  8
0
  6
CENTER
 62
     4
 10
-248.250009
 20
0.151499
 30
0.0
 40
46.0
 50
35.51609
 51
44.041327
  0
LINE
  5
29A
  8
0
  6
CENTER
 62
     4
 10
-274.706898
 20
31.583811
 30
0.0
 11
-279.855505
 21
37.719681
 31
0.0
  0
ARC
  5
29B
  8
0
  6
CENTER
 62
     4
 10
-248.34779
 20
0.053717
 30
0.0
 40
46.0
 50
215.462396
 51
224.054062
  0
LINE
  5
29C
  8
0
  6
CENTER
 62
     4
 10
-220.730778
 20
-32.732975
 30
0.0
 11
-216.557471
 21
-37.706529
 31
0.0
  0
LINE
  5
29D
  8
0
  6
DASHDOT
 62
     4
 10
-216.719915
 20
26.510607
 30
0.0
 11
-210.584045
 21
31.659213
 31
0.0
  0
LINE
  5
29E
  8
0
  6
CENTER
 62
     4
 10
-215.463316
 20
27.572947
 30
0.0
 11
-210.489763
 21
31.746254
 31
0.0
  0
LINE
  5
29F
  8
0
  6
CONTINUOUS
 62
     3
 10
-221.440806
 20
42.563166
 30
0.0
 11
-221.421907
 21
42.544267
 31
0.0
  0
ARC
  5
2A0
  8
0
  6
CONTINUOUS
 62
     3
 10
-277.866359
 20
35.349109
 30
0.0
 40
4.5
 50
225.0
 51
45.0
  0
LINE
  5
2A1
  8
0
  6
CONTINUOUS
 62
     3
 10
-274.684379
 20
38.53109
 30
0.0
 11
-277.230293
 21
41.077004
 31
0.0
  0
LINE
  5
2A2
  8
0
  6
CONTINUOUS
 62
     3
 10
-281.04834
 20
32.167129
 30
0.0
 11
-283.594254
 21
34.713043
 31
0.0
  0
LINE
  5
2A3
  8
0
  6
CONTINUOUS
 62
     3
 10
-280.36342
 20
-32.744614
 30
0.0
 11
-282.909334
 21
-35.290528
 31
0.0
  0
LINE
  5
2A4
  8
0
  6
CONTINUOUS
 62
     3
 10
-286.727381
 20
-26.380653
 30
0.0
 11
-289.273296
 21
-28.926567
 31
0.0
  0
ARC
  5
2A5
  8
0
  6
CONTINUOUS
 62
     3
 10
-283.545401
 20
-29.562634
 30
0.0
 40
4.5
 50
315.0
 51
135.0
  0
LINE
  5
2A6
  8
0
  6
CONTINUOUS
 62
     3
 10
-215.451677
 20
-32.059695
 30
0.0
 11
-212.905763
 21
-34.605609
 31
0.0
  0
LINE
  5
2A7
  8
0
  6
CONTINUOUS
 62
     3
 10
-221.815638
 20
-38.423656
 30
0.0
 11
-219.269724
 21
-40.96957
 31
0.0
  0
ARC
  5
2A8
  8
0
  6
CONTINUOUS
 62
     3
 10
-218.633658
 20
-35.241675
 30
0.0
 40
4.5
 50
45.0
 51
225.0
  0
LINE
  5
2A9
  8
0
  6
CONTINUOUS
 62
     3
 10
-216.136597
 20
32.852048
 30
0.0
 11
-213.590683
 21
35.397962
 31
0.0
  0
LINE
  5
2AA
  8
0
  6
CONTINUOUS
 62
     3
 10
-209.772636
 20
26.488087
 30
0.0
 11
-207.226722
 21
29.034001
 31
0.0
  0
ARC
  5
2AB
  8
0
  6
CONTINUOUS
 62
     3
 10
-212.954616
 20
29.670067
 30
0.0
 40
4.5
 50
135.0
 51
315.0
  0
LINE
  5
2AC
  8
0
  6
CONTINUOUS
 62
     3
 10
-275.763029
 20
42.544267
 30
0.0
 11
-220.736988
 21
42.544267
 31
0.0
  0
LINE
  5
2AD
  8
0
  6
CONTINUOUS
 62
     3
 10
-290.750009
 20
27.557288
 30
0.0
 11
-275.763029
 21
42.544267
 31
0.0
  0
LINE
  5
2AE
  8
0
  6
CONTINUOUS
 62
     3
 10
-205.750009
 20
-27.449854
 30
0.0
 11
-205.750009
 21
27.557288
 31
0.0
  0
LINE
  5
2AF
  8
0
  6
CONTINUOUS
 62
     3
 10
-220.755887
 20
-42.455733
 30
0.0
 11
-205.750009
 21
-27.449854
 31
0.0
  0
LINE
  5
2B0
  8
0
  6
CONTINUOUS
 62
     3
 10
-220.736988
 20
42.544267
 30
0.0
 11
-205.750009
 21
27.557288
 31
0.0
  0
LINE
  5
2B1
  8
0
  6
CONTINUOUS
 62
     3
 10
-290.750009
 20
-27.449854
 30
0.0
 11
-282.909334
 21
-35.290528
 31
0.0
  0
LINE
  5
2B2
  8
0
  6
CONTINUOUS
 62
     3
 10
-282.909334
 20
-35.290528
 30
0.0
 11
-275.74413
 21
-42.455733
 31
0.0
  0
LINE
  5
2B3
  8
0
  6
CONTINUOUS
 62
     3
 10
-290.750009
 20
-27.449854
 30
0.0
 11
-290.750009
 21
27.557288
 31
0.0
  0
LINE
  5
2B4
  8
0
  6
CONTINUOUS
 62
     3
 10
-227.750009
 20
-57.955733
 30
0.0
 11
-227.750009
 21
-42.455733
 31
0.0
  0
LINE
  5
2B5
  8
0
  6
CONTINUOUS
 62
     3
 10
-229.250009
 20
-57.955733
 30
0.0
 11
-229.250009
 21
-42.455733
 31
0.0
  0
LINE
  5
2B6
  8
0
  6
CONTINUOUS
 62
     3
 10
-267.250009
 20
-57.955733
 30
0.0
 11
-267.250009
 21
-42.455733
 31
0.0
  0
LINE
  5
2B7
  8
0
  6
CONTINUOUS
 62
     3
 10
-268.750009
 20
-57.955733
 30
0.0
 11
-268.750009
 21
-42.455733
 31
0.0
  0
LINE
  5
2B8
  8
0
  6
CONTINUOUS
 62
     3
 10
-268.750009
 20
-42.455733
 30
0.0
 11
-268.750009
 21
-34.293772
 31
0.0
  0
LINE
  5
2B9
  8
0
  6
CONTINUOUS
 62
     3
 10
-227.750009
 20
-42.455733
 30
0.0
 11
-227.750009
 21
-34.293772
 31
0.0
  0
ARC
  5
2BA
  8
0
  6
CONTINUOUS
 62
     3
 10
-248.250009
 20
0.053717
 30
0.0
 40
40.0
 50
300.830497
 51
239.169503
  0
ARC
  5
2BB
  8
0
  6
CONTINUOUS
 62
     3
 10
-248.250009
 20
0.053717
 30
0.0
 40
38.5
 50
299.571315
 51
240.428685
  0
LINE
  5
2BC
  8
0
  6
CONTINUOUS
 62
     3
 10
-229.250009
 20
-42.455733
 30
0.0
 11
-229.250009
 21
-33.431354
 31
0.0
  0
LINE
  5
2BD
  8
0
  6
CONTINUOUS
 62
     3
 10
-267.250009
 20
-42.455733
 30
0.0
 11
-267.250009
 21
-33.431354
 31
0.0
  0
LINE
  5
2BE
  8
0
  6
CONTINUOUS
 62
     3
 10
-229.250009
 20
-57.955733
 30
0.0
 11
-229.250009
 21
-42.455733
 31
0.0
  0
LINE
  5
2BF
  8
0
  6
CONTINUOUS
 62
     3
 10
-267.250009
 20
-57.955733
 30
0.0
 11
-267.250009
 21
-42.455733
 31
0.0
  0
LINE
  5
2C0
  8
0
  6
CONTINUOUS
 62
     3
 10
-227.750009
 20
-42.455733
 30
0.0
 11
-220.755887
 21
-42.455733
 31
0.0
  0
LINE
  5
2C1
  8
0
  6
CONTINUOUS
 62
     3
 10
-275.74413
 20
-42.455733
 30
0.0
 11
-268.750009
 21
-42.455733
 31
0.0
  0
ARC
  5
2C2
  8
0
  6
CENTER
 62
     4
 10
-248.250009
 20
0.151499
 30
0.0
 40
46.0
 50
305.697212
 51
314.103517
  0
CIRCLE
  5
2C3
  8
0
  6
CONTINUOUS
 62
     3
 10
-262.950009
 20
-45.455733
 30
0.0
 40
2.0
  0
CIRCLE
  5
2C4
  8
0
  6
CONTINUOUS
 62
     3
 10
-233.550009
 20
-45.455733
 30
0.0
 40
2.0
  0
LINE
  5
2C6
  8
0
  6
CONTINUOUS
 62
     3
 10
-217.06158
 20
-34.682524
 30
0.0
 11
-218.286325
 21
-33.457779
 31
0.0
  0
LINE
  5
2C7
  8
0
  6
CONTINUOUS
 62
     3
 10
-218.286325
 20
-33.457779
 30
0.0
 11
-219.959358
 21
-33.906067
 31
0.0
  0
LINE
  5
2C8
  8
0
  6
CONTINUOUS
 62
     3
 10
-219.959358
 20
-33.906067
 30
0.0
 11
-220.407645
 21
-35.579099
 31
0.0
  0
LINE
  5
2C9
  8
0
  6
CONTINUOUS
 62
     3
 10
-220.407645
 20
-35.579099
 30
0.0
 11
-219.1829
 21
-36.803844
 31
0.0
  0
LINE
  5
2CA
  8
0
  6
CONTINUOUS
 62
     3
 10
-219.1829
 20
-36.803844
 30
0.0
 11
-217.509868
 21
-36.355556
 31
0.0
  0
CIRCLE
  5
2CB
  8
0
  6
CONTINUOUS
 62
     3
 10
-218.734613
 20
-35.130812
 30
0.0
 40
3.25
  0
CIRCLE
  5
2CC
  8
0
  6
CONTINUOUS
 62
     3
 10
-218.734613
 20
-35.130812
 30
0.0
 40
3.85
  0
LINE
  5
2CD
  8
0
  6
CONTINUOUS
 62
     3
 10
-217.509868
 20
-36.355556
 30
0.0
 11
-217.06158
 21
-34.682524
 31
0.0
  0
LINE
  5
2CE
  8
0
  6
CONTINUOUS
 62
     3
 10
-281.867707
 20
-29.119884
 30
0.0
 11
-283.092452
 21
-27.895139
 31
0.0
  0
LINE
  5
2CF
  8
0
  6
CONTINUOUS
 62
     3
 10
-283.092452
 20
-27.895139
 30
0.0
 11
-284.765485
 21
-28.343427
 31
0.0
  0
LINE
  5
2D0
  8
0
  6
CONTINUOUS
 62
     3
 10
-284.765485
 20
-28.343427
 30
0.0
 11
-285.213772
 21
-30.01646
 31
0.0
  0
LINE
  5
2D1
  8
0
  6
CONTINUOUS
 62
     3
 10
-285.213772
 20
-30.01646
 30
0.0
 11
-283.989027
 21
-31.241205
 31
0.0
  0
LINE
  5
2D2
  8
0
  6
CONTINUOUS
 62
     3
 10
-283.989027
 20
-31.241205
 30
0.0
 11
-282.315995
 21
-30.792917
 31
0.0
  0
CIRCLE
  5
2D3
  8
0
  6
CONTINUOUS
 62
     3
 10
-283.54074
 20
-29.568172
 30
0.0
 40
3.25
  0
CIRCLE
  5
2D4
  8
0
  6
CONTINUOUS
 62
     3
 10
-283.54074
 20
-29.568172
 30
0.0
 40
3.85
  0
LINE
  5
2D5
  8
0
  6
CONTINUOUS
 62
     3
 10
-282.315995
 20
-30.792917
 30
0.0
 11
-281.867707
 21
-29.119884
 31
0.0
  0
LINE
  5
2D6
  8
0
  6
CONTINUOUS
 62
     3
 10
-276.197974
 20
35.793486
 30
0.0
 11
-277.422719
 21
37.018231
 31
0.0
  0
LINE
  5
2D7
  8
0
  6
CONTINUOUS
 62
     3
 10
-277.422719
 20
37.018231
 30
0.0
 11
-279.095751
 21
36.569943
 31
0.0
  0
LINE
  5
2D8
  8
0
  6
CONTINUOUS
 62
     3
 10
-279.095751
 20
36.569943
 30
0.0
 11
-279.544039
 21
34.89691
 31
0.0
  0
LINE
  5
2D9
  8
0
  6
CONTINUOUS
 62
     3
 10
-279.544039
 20
34.89691
 30
0.0
 11
-278.319294
 21
33.672166
 31
0.0
  0
LINE
  5
2DA
  8
0
  6
CONTINUOUS
 62
     3
 10
-278.319294
 20
33.672166
 30
0.0
 11
-276.646262
 21
34.120453
 31
0.0
  0
CIRCLE
  5
2DB
  8
0
  6
CONTINUOUS
 62
     3
 10
-277.871006
 20
35.345198
 30
0.0
 40
3.25
  0
CIRCLE
  5
2DC
  8
0
  6
CONTINUOUS
 62
     3
 10
-277.871006
 20
35.345198
 30
0.0
 40
3.85
  0
LINE
  5
2DD
  8
0
  6
CONTINUOUS
 62
     3
 10
-276.646262
 20
34.120453
 30
0.0
 11
-276.197974
 21
35.793486
 31
0.0
  0
LINE
  5
2DE
  8
0
  6
CONTINUOUS
 62
     3
 10
-211.294727
 20
30.115256
 30
0.0
 11
-212.519472
 21
31.340001
 31
0.0
  0
LINE
  5
2DF
  8
0
  6
CONTINUOUS
 62
     3
 10
-212.519472
 20
31.340001
 30
0.0
 11
-214.192505
 21
30.891713
 31
0.0
  0
LINE
  5
2E0
  8
0
  6
CONTINUOUS
 62
     3
 10
-214.192505
 20
30.891713
 30
0.0
 11
-214.640792
 21
29.21868
 31
0.0
  0
LINE
  5
2E1
  8
0
  6
CONTINUOUS
 62
     3
 10
-214.640792
 20
29.21868
 30
0.0
 11
-213.416048
 21
27.993935
 31
0.0
  0
LINE
  5
2E2
  8
0
  6
CONTINUOUS
 62
     3
 10
-213.416048
 20
27.993935
 30
0.0
 11
-211.743015
 21
28.442223
 31
0.0
  0
CIRCLE
  5
2E3
  8
0
  6
CONTINUOUS
 62
     3
 10
-212.96776
 20
29.666968
 30
0.0
 40
3.25
  0
CIRCLE
  5
2E4
  8
0
  6
CONTINUOUS
 62
     3
 10
-212.96776
 20
29.666968
 30
0.0
 40
3.85
  0
LINE
  5
2E5
  8
0
  6
CONTINUOUS
 62
     3
 10
-211.743015
 20
28.442223
 30
0.0
 11
-211.294727
 21
30.115256
 31
0.0
  0
LINE
  5
30B
  8
0
  6
CENTER
 62
     4
 10
241.749991
 20
-146.911671
 30
0.0
 11
241.749991
 21
108.480857
 31
0.0
  0
LINE
  5
30C
  8
0
  6
CENTER
 62
     4
 10
-113.58204
 20
0.053616
 30
0.0
 11
81.249991
 21
0.053616
 31
0.0
  0
LINE
  5
30D
  8
0
  6
CENTER
 62
     4
 10
312.181561
 20
-40.61007
 30
0.0
 11
330.381271
 21
-51.117677
 31
0.0
  0
ARC
  5
30E
  8
0
  6
CENTER
 62
     4
 10
241.749991
 20
0.053616
 30
0.0
 40
91.5
 50
322.757486
 51
337.442206
  0
LINE
  5
30F
  8
0
  6
CENTER
 62
     4
 10
201.086306
 20
-70.377954
 30
0.0
 11
190.578699
 21
-88.577664
 31
0.0
  0
ARC
  5
310
  8
0
  6
CENTER
 62
     4
 10
241.749991
 20
0.053616
 30
0.0
 40
91.5
 50
232.757486
 51
247.442206
  0
LINE
  5
311
  8
0
  6
CENTER
 62
     4
 10
171.318422
 20
40.717301
 30
0.0
 11
153.118712
 21
51.224909
 31
0.0
  0
ARC
  5
312
  8
0
  6
CENTER
 62
     4
 10
241.749991
 20
0.053616
 30
0.0
 40
91.5
 50
142.757486
 51
157.442206
  0
LINE
  5
313
  8
0
  6
CENTER
 62
     4
 10
282.413677
 20
70.485185
 30
0.0
 11
292.921284
 21
88.684895
 31
0.0
  0
ARC
  5
314
  8
0
  6
CENTER
 62
     4
 10
241.749991
 20
0.053616
 30
0.0
 40
91.5
 50
52.757486
 51
67.442206
  0
LINE
  5
315
  8
0
  6
CENTER
 62
     4
 10
-74.619618
 20
-79.187709
 30
0.0
 11
-60.20548
 21
-79.187709
 31
0.0
  0
LINE
  5
316
  8
0
  6
CONTINUOUS
 62
     3
 10
-64.249991
 20
-86.987709
 30
0.0
 11
-66.249991
 21
-86.987709
 31
0.0
  0
LINE
  5
317
  8
0
  6
CONTINUOUS
 62
     3
 10
-66.249991
 20
-71.387709
 30
0.0
 11
-64.249991
 21
-71.387709
 31
0.0
  0
LINE
  5
318
  8
0
  6
CONTINUOUS
 62
     3
 10
-71.749991
 20
-86.687709
 30
0.0
 11
-66.249991
 21
-86.687709
 31
0.0
  0
LINE
  5
319
  8
0
  6
CONTINUOUS
 62
     3
 10
-71.749991
 20
-71.687709
 30
0.0
 11
-66.249991
 21
-71.687709
 31
0.0
  0
LINE
  5
31A
  8
0
  6
CONTINUOUS
 62
     3
 10
-71.749991
 20
-86.687709
 30
0.0
 11
-71.749991
 21
-71.687709
 31
0.0
  0
LINE
  5
31B
  8
0
  6
CONTINUOUS
 62
     3
 10
-66.249991
 20
-86.987709
 30
0.0
 11
-66.249991
 21
-71.387709
 31
0.0
  0
LINE
  5
31C
  8
0
  6
CENTER
 62
     4
 10
-74.17793
 20
45.803616
 30
0.0
 11
-61.110515
 21
45.803616
 31
0.0
  0
LINE
  5
31D
  8
0
  6
CENTER
 62
     4
 10
-74.17793
 20
79.29494
 30
0.0
 11
-60.507819
 21
79.29494
 31
0.0
  0
LINE
  5
31E
  8
0
  6
CONTINUOUS
 62
     3
 10
-66.249991
 20
38.303616
 30
0.0
 11
-71.749991
 21
38.303616
 31
0.0
  0
LINE
  5
31F
  8
0
  6
CONTINUOUS
 62
     3
 10
-71.749991
 20
53.303616
 30
0.0
 11
-66.249991
 21
53.303616
 31
0.0
  0
LINE
  5
320
  8
0
  6
CONTINUOUS
 62
     3
 10
-71.749991
 20
38.303616
 30
0.0
 11
-71.749991
 21
53.303616
 31
0.0
  0
LINE
  5
321
  8
0
  6
CONTINUOUS
 62
     3
 10
-66.249991
 20
71.79494
 30
0.0
 11
-71.749991
 21
71.79494
 31
0.0
  0
LINE
  5
322
  8
0
  6
CONTINUOUS
 62
     3
 10
-66.249991
 20
86.79494
 30
0.0
 11
-71.749991
 21
86.79494
 31
0.0
  0
LINE
  5
323
  8
0
  6
CONTINUOUS
 62
     3
 10
-71.749991
 20
71.79494
 30
0.0
 11
-71.749991
 21
86.79494
 31
0.0
  0
LINE
  5
324
  8
0
  6
CONTINUOUS
 62
     3
 10
-66.249991
 20
71.59494
 30
0.0
 11
-66.249991
 21
86.99494
 31
0.0
  0
LINE
  5
325
  8
0
  6
CONTINUOUS
 62
     3
 10
-64.249991
 20
38.103616
 30
0.0
 11
-66.249991
 21
38.103616
 31
0.0
  0
LINE
  5
326
  8
0
  6
CONTINUOUS
 62
     3
 10
-64.249991
 20
53.503616
 30
0.0
 11
-66.249991
 21
53.503616
 31
0.0
  0
LINE
  5
327
  8
0
  6
CONTINUOUS
 62
     3
 10
-64.249991
 20
71.59494
 30
0.0
 11
-66.249991
 21
71.59494
 31
0.0
  0
LINE
  5
328
  8
0
  6
CONTINUOUS
 62
     3
 10
-64.249991
 20
86.99494
 30
0.0
 11
-66.249991
 21
86.99494
 31
0.0
  0
LINE
  5
329
  8
0
  6
CONTINUOUS
 62
     3
 10
-66.249991
 20
38.103616
 30
0.0
 11
-66.249991
 21
53.503616
 31
0.0
  0
LINE
  5
32A
  8
0
  6
CENTER
 62
     4
 10
-207.663101
 20
-70.244971
 30
0.0
 11
-197.463625
 21
-87.910982
 31
0.0
  0
LINE
  5
32B
  8
0
  6
CONTINUOUS
 62
     3
 10
-200.767958
 20
-76.187709
 30
0.0
 11
-204.232059
 21
-76.187709
 31
0.0
  0
LINE
  5
32C
  8
0
  6
CONTINUOUS
 62
     3
 10
-204.232059
 20
-82.187709
 30
0.0
 11
-200.767958
 21
-82.187709
 31
0.0
  0
LINE
  5
32D
  8
0
  6
CONTINUOUS
 62
     3
 10
-204.232059
 20
-76.187709
 30
0.0
 11
-205.96411
 21
-79.187709
 31
0.0
  0
LINE
  5
32E
  8
0
  6
CONTINUOUS
 62
     3
 10
-200.767958
 20
-82.187709
 30
0.0
 11
-199.035907
 21
-79.187709
 31
0.0
  0
ARC
  5
32F
  8
0
  6
CENTER
 62
     4
 10
-248.250009
 20
0.053616
 30
0.0
 40
91.5
 50
293.673266
 51
306.025206
  0
LINE
  5
330
  8
0
  6
CONTINUOUS
 62
     3
 10
-205.96411
 20
-79.187709
 30
0.0
 11
-204.232059
 21
-82.187709
 31
0.0
  0
CIRCLE
  5
331
  8
0
  6
CONTINUOUS
 62
     3
 10
-202.500009
 20
-79.187709
 30
0.0
 40
7.7
  0
CIRCLE
  5
332
  8
0
  6
CONTINUOUS
 62
     3
 10
-202.500009
 20
-79.187709
 30
0.0
 40
6.5
  0
LINE
  5
333
  8
0
  6
CONTINUOUS
 62
     3
 10
-199.035907
 20
-79.187709
 30
0.0
 11
-200.767958
 21
-76.187709
 31
0.0
  0
LINE
  5
334
  8
0
  6
CENTER
 62
     4
 10
-318.548595
 20
-40.533292
 30
0.0
 11
-336.214606
 21
-50.732768
 31
0.0
  0
LINE
  5
335
  8
0
  6
CONTINUOUS
 62
     3
 10
-324.491333
 20
-47.428435
 30
0.0
 11
-324.491333
 21
-43.964334
 31
0.0
  0
LINE
  5
336
  8
0
  6
CONTINUOUS
 62
     3
 10
-330.491333
 20
-43.964334
 30
0.0
 11
-330.491333
 21
-47.428435
 31
0.0
  0
LINE
  5
337
  8
0
  6
CONTINUOUS
 62
     3
 10
-324.491333
 20
-43.964334
 30
0.0
 11
-327.491333
 21
-42.232283
 31
0.0
  0
LINE
  5
338
  8
0
  6
CONTINUOUS
 62
     3
 10
-330.491333
 20
-47.428435
 30
0.0
 11
-327.491333
 21
-49.160486
 31
0.0
  0
ARC
  5
339
  8
0
  6
CENTER
 62
     4
 10
-248.250009
 20
0.053616
 30
0.0
 40
91.5
 50
203.673266
 51
216.025206
  0
LINE
  5
33A
  8
0
  6
CONTINUOUS
 62
     3
 10
-327.491333
 20
-42.232283
 30
0.0
 11
-330.491333
 21
-43.964334
 31
0.0
  0
CIRCLE
  5
33B
  8
0
  6
CONTINUOUS
 62
     3
 10
-327.491333
 20
-45.696384
 30
0.0
 40
7.7
  0
CIRCLE
  5
33C
  8
0
  6
CONTINUOUS
 62
     3
 10
-327.491333
 20
-45.696384
 30
0.0
 40
6.5
  0
LINE
  5
33D
  8
0
  6
CONTINUOUS
 62
     3
 10
-327.491333
 20
-49.160486
 30
0.0
 11
-324.491333
 21
-47.428435
 31
0.0
  0
LINE
  5
33E
  8
0
  6
CENTER
 62
     4
 10
-288.836916
 20
70.352202
 30
0.0
 11
-299.036392
 21
88.018213
 31
0.0
  0
LINE
  5
33F
  8
0
  6
CONTINUOUS
 62
     3
 10
-295.732059
 20
76.29494
 30
0.0
 11
-292.267958
 21
76.29494
 31
0.0
  0
LINE
  5
340
  8
0
  6
CONTINUOUS
 62
     3
 10
-292.267958
 20
82.29494
 30
0.0
 11
-295.732059
 21
82.29494
 31
0.0
  0
LINE
  5
341
  8
0
  6
CONTINUOUS
 62
     3
 10
-292.267958
 20
76.29494
 30
0.0
 11
-290.535907
 21
79.29494
 31
0.0
  0
LINE
  5
342
  8
0
  6
CONTINUOUS
 62
     3
 10
-295.732059
 20
82.29494
 30
0.0
 11
-297.46411
 21
79.29494
 31
0.0
  0
ARC
  5
343
  8
0
  6
CENTER
 62
     4
 10
-248.250009
 20
0.053616
 30
0.0
 40
91.5
 50
113.673266
 51
126.025206
  0
LINE
  5
344
  8
0
  6
CONTINUOUS
 62
     3
 10
-290.535907
 20
79.29494
 30
0.0
 11
-292.267958
 21
82.29494
 31
0.0
  0
CIRCLE
  5
345
  8
0
  6
CONTINUOUS
 62
     3
 10
-294.000009
 20
79.29494
 30
0.0
 40
7.7
  0
CIRCLE
  5
346
  8
0
  6
CONTINUOUS
 62
     3
 10
-294.000009
 20
79.29494
 30
0.0
 40
6.5
  0
LINE
  5
347
  8
0
  6
CONTINUOUS
 62
     3
 10
-297.46411
 20
79.29494
 30
0.0
 11
-295.732059
 21
76.29494
 31
0.0
  0
ARC
  5
348
  8
0
  6
CENTER
 62
     4
 10
-248.250009
 20
0.053616
 30
0.0
 40
91.5
 50
23.673266
 51
36.025206
  0
LINE
  5
349
  8
0
  6
CENTER
 62
     4
 10
-177.951422
 20
40.640523
 30
0.0
 11
-160.285411
 21
50.839999
 31
0.0
  0
LINE
  5
34A
  8
0
  6
CONTINUOUS
 62
     3
 10
-172.008684
 20
47.535666
 30
0.0
 11
-172.008684
 21
44.071565
 31
0.0
  0
LINE
  5
34B
  8
0
  6
CONTINUOUS
 62
     3
 10
-166.008684
 20
44.071565
 30
0.0
 11
-166.008684
 21
47.535666
 31
0.0
  0
LINE
  5
34C
  8
0
  6
CONTINUOUS
 62
     3
 10
-172.008684
 20
44.071565
 30
0.0
 11
-169.008684
 21
42.339514
 31
0.0
  0
LINE
  5
34D
  8
0
  6
CONTINUOUS
 62
     3
 10
-166.008684
 20
47.535666
 30
0.0
 11
-169.008684
 21
49.267717
 31
0.0
  0
LINE
  5
34E
  8
0
  6
CONTINUOUS
 62
     3
 10
-169.008684
 20
42.339514
 30
0.0
 11
-166.008684
 21
44.071565
 31
0.0
  0
LINE
  5
34F
  8
0
  6
CONTINUOUS
 62
     3
 10
-169.008684
 20
49.267717
 30
0.0
 11
-172.008684
 21
47.535666
 31
0.0
  0
CIRCLE
  5
350
  8
0
  6
CONTINUOUS
 62
     3
 10
-169.008684
 20
45.803616
 30
0.0
 40
7.7
  0
CIRCLE
  5
351
  8
0
  6
CONTINUOUS
 62
     3
 10
-169.008684
 20
45.803616
 30
0.0
 40
6.5
  0
LINE
  5
352
  8
0
  6
CONTINUOUS
 62
     3
 10
-336.250009
 20
0.053616
 30
0.0
 11
-336.250009
 21
74.087392
 31
0.0
  0
ARC
  5
353
  8
0
  6
CONTINUOUS
 62
     3
 10
-333.155432
 20
56.053717
 30
0.0
 40
2.0
 50
90.0
 51
176.200508
  0
LINE
  5
354
  8
0
  6
CONTINUOUS
 62
     3
 10
-333.155432
 20
58.053717
 30
0.0
 11
-321.250009
 21
58.053717
 31
0.0
  0
LINE
  5
355
  8
0
  6
CONTINUOUS
 62
     3
 10
-175.250009
 20
-57.946283
 30
0.0
 11
-163.344585
 21
-57.946283
 31
0.0
  0
ARC
  5
356
  8
0
  6
CONTINUOUS
 62
     3
 10
-163.344585
 20
-55.946283
 30
0.0
 40
2.0
 50
270.0
 51
356.200508
  0
LINE
  5
357
  8
0
  6
CONTINUOUS
 62
     3
 10
-160.250009
 20
-73.98016
 30
0.0
 11
-160.250009
 21
0.053616
 31
0.0
  0
LINE
  5
358
  8
0
  6
CONTINUOUS
 62
     3
 10
-248.250009
 20
-87.946283
 30
0.0
 11
-174.216112
 21
-87.946283
 31
0.0
  0
ARC
  5
359
  8
0
  6
CONTINUOUS
 62
     3
 10
-248.250009
 20
0.053616
 30
0.0
 40
115.0
 50
310.073742
 51
319.926336
  0
CIRCLE
  5
35A
  8
0
  6
CONTINUOUS
 62
     3
 10
-177.53928
 20
-70.657012
 30
0.0
 40
6.75
  0
LINE
  5
35B
  8
0
  6
CONTINUOUS
 62
     3
 10
-190.250009
 20
-85.946283
 30
0.0
 11
-190.250009
 21
-72.946283
 31
0.0
  0
ARC
  5
35C
  8
0
  6
CONTINUOUS
 62
     3
 10
-175.250009
 20
-72.946283
 30
0.0
 40
15.0
 50
90.0
 51
180.0
  0
ARC
  5
35D
  8
0
  6
CENTER
 62
     4
 10
-248.250009
 20
0.053616
 30
0.0
 40
100.0
 50
308.555244
 51
321.258031
  0
LINE
  5
35E
  8
0
  6
CENTER
 62
     4
 10
-169.785664
 20
-78.410628
 30
0.0
 11
-184.676419
 21
-63.519872
 31
0.0
  0
ARC
  5
35F
  8
0
  6
CONTINUOUS
 62
     3
 10
-192.250009
 20
-85.946283
 30
0.0
 40
2.0
 50
270.0
 51
0.0
  0
LINE
  5
360
  8
0
  6
CONTINUOUS
 62
     3
 10
-322.283905
 20
-87.946283
 30
0.0
 11
-248.250009
 21
-87.946283
 31
0.0
  0
LINE
  5
361
  8
0
  6
CONTINUOUS
 62
     3
 10
-336.250009
 20
-73.98016
 30
0.0
 11
-336.250009
 21
0.053616
 31
0.0
  0
ARC
  5
362
  8
0
  6
CONTINUOUS
 62
     3
 10
-248.250009
 20
0.053616
 30
0.0
 40
115.0
 50
220.073664
 51
229.926258
  0
CIRCLE
  5
363
  8
0
  6
CONTINUOUS
 62
     3
 10
-318.960737
 20
-70.657012
 30
0.0
 40
6.75
  0
LINE
  5
364
  8
0
  6
CONTINUOUS
 62
     3
 10
-306.250009
 20
-85.946283
 30
0.0
 11
-306.250009
 21
-72.946283
 31
0.0
  0
LINE
  5
365
  8
0
  6
CONTINUOUS
 62
     3
 10
-333.155432
 20
-57.946283
 30
0.0
 11
-321.250009
 21
-57.946283
 31
0.0
  0
ARC
  5
366
  8
0
  6
CONTINUOUS
 62
     3
 10
-321.250009
 20
-72.946283
 30
0.0
 40
15.0
 50
0.0
 51
90.0
  0
LINE
  5
367
  8
0
  6
CENTER
 62
     4
 10
-311.840647
 20
-63.536922
 30
0.0
 11
-326.292389
 21
-77.988664
 31
0.0
  0
ARC
  5
368
  8
0
  6
CENTER
 62
     4
 10
-248.250009
 20
0.053616
 30
0.0
 40
100.0
 50
218.717492
 51
232.017258
  0
ARC
  5
369
  8
0
  6
CONTINUOUS
 62
     3
 10
-304.250009
 20
-85.946283
 30
0.0
 40
2.0
 50
180.0
 51
270.0
  0
ARC
  5
36A
  8
0
  6
CONTINUOUS
 62
     3
 10
-333.155432
 20
-55.946283
 30
0.0
 40
2.0
 50
183.799492
 51
270.0
  0
LINE
  5
36B
  8
0
  6
CENTER
 62
     4
 10
-345.750009
 20
0.053616
 30
0.0
 11
-150.750009
 21
0.053616
 31
0.0
  0
ARC
  5
36C
  8
0
  6
CONTINUOUS
 62
     3
 10
163.749991
 20
23.053717
 30
0.0
 40
500.0
 50
176.200508
 51
180.000012
  0
LINE
  5
36D
  8
0
  6
CONTINUOUS
 62
     3
 10
-160.250009
 20
0.053616
 30
0.0
 11
-160.250009
 21
74.087392
 31
0.0
  0
ARC
  5
36E
  8
0
  6
CONTINUOUS
 62
     3
 10
-248.250009
 20
0.053616
 30
0.0
 40
115.0
 50
40.073664
 51
49.926414
  0
CIRCLE
  5
36F
  8
0
  6
CONTINUOUS
 62
     3
 10
-177.539381
 20
70.764344
 30
0.0
 40
6.75
  0
LINE
  5
370
  8
0
  6
CONTINUOUS
 62
     3
 10
-190.250009
 20
73.053717
 30
0.0
 11
-190.250009
 21
86.053717
 31
0.0
  0
LINE
  5
371
  8
0
  6
CONTINUOUS
 62
     3
 10
-175.250009
 20
58.053717
 30
0.0
 11
-163.344585
 21
58.053717
 31
0.0
  0
ARC
  5
372
  8
0
  6
CONTINUOUS
 62
     3
 10
-175.250009
 20
73.053717
 30
0.0
 40
15.0
 50
180.0
 51
270.0
  0
ARC
  5
373
  8
0
  6
CENTER
 62
     4
 10
-248.250009
 20
0.053616
 30
0.0
 40
100.0
 50
38.639201
 51
51.857287
  0
LINE
  5
374
  8
0
  6
CENTER
 62
     4
 10
-169.610058
 20
78.693667
 30
0.0
 11
-184.802588
 21
63.501138
 31
0.0
  0
ARC
  5
375
  8
0
  6
CONTINUOUS
 62
     3
 10
-192.250009
 20
86.053717
 30
0.0
 40
2.0
 50
0.0
 51
90.0
  0
ARC
  5
376
  8
0
  6
CONTINUOUS
 62
     3
 10
-163.344585
 20
56.053717
 30
0.0
 40
2.0
 50
3.799492
 51
90.0
  0
LINE
  5
377
  8
0
  6
CONTINUOUS
 62
     3
 10
-322.283664
 20
88.053717
 30
0.0
 11
-248.250009
 21
88.053717
 31
0.0
  0
LINE
  5
378
  8
0
  6
CONTINUOUS
 62
     3
 10
-248.250009
 20
88.053717
 30
0.0
 11
-174.216353
 21
88.053717
 31
0.0
  0
ARC
  5
379
  8
0
  6
CONTINUOUS
 62
     3
 10
-248.250009
 20
0.053616
 30
0.0
 40
115.0
 50
130.073586
 51
139.926336
  0
ARC
  5
37A
  8
0
  6
CENTER
 62
     4
 10
-248.250009
 20
0.053616
 30
0.0
 40
100.0
 50
128.769752
 51
141.283878
  0
CIRCLE
  5
37B
  8
0
  6
CONTINUOUS
 62
     3
 10
-318.960636
 20
70.764344
 30
0.0
 40
6.75
  0
LINE
  5
37C
  8
0
  6
CONTINUOUS
 62
     3
 10
-306.250009
 20
73.053717
 30
0.0
 11
-306.250009
 21
86.053717
 31
0.0
  0
ARC
  5
37D
  8
0
  6
CONTINUOUS
 62
     3
 10
-321.250009
 20
73.053717
 30
0.0
 40
15.0
 50
270.0
 51
0.0
  0
LINE
  5
37E
  8
0
  6
CENTER
 62
     4
 10
-311.845661
 20
63.649369
 30
0.0
 11
-326.757607
 21
78.561315
 31
0.0
  0
ARC
  5
37F
  8
0
  6
CONTINUOUS
 62
     3
 10
-304.250009
 20
86.053717
 30
0.0
 40
2.0
 50
90.0
 51
180.0
  0
LINE
  5
380
  8
0
  6
CENTER
 62
     4
 10
-248.250009
 20
-106.887492
 30
0.0
 11
-248.250009
 21
92.37695
 31
0.0
  0
LINE
  5
381
  8
0
  6
CONTINUOUS
 62
     3
 10
-54.249991
 20
-36.946384
 30
0.0
 11
1.250009
 21
-36.946384
 31
0.0
  0
LINE
  5
382
  8
0
  6
CONTINUOUS
 62
     3
 10
-54.249991
 20
-32.946384
 30
0.0
 11
1.250009
 21
-32.946384
 31
0.0
  0
LINE
  5
383
  8
0
  6
CONTINUOUS
 62
     3
 10
-54.249991
 20
-28.946384
 30
0.0
 11
1.250009
 21
-28.946384
 31
0.0
  0
LINE
  5
384
  8
0
  6
CONTINUOUS
 62
     3
 10
-54.249991
 20
-24.946384
 30
0.0
 11
1.250009
 21
-24.946384
 31
0.0
  0
LINE
  5
385
  8
0
  6
CONTINUOUS
 62
     3
 10
-54.249991
 20
37.053616
 30
0.0
 11
1.250009
 21
37.053616
 31
0.0
  0
LINE
  5
386
  8
0
  6
CONTINUOUS
 62
     3
 10
-54.249991
 20
33.053616
 30
0.0
 11
1.250009
 21
33.053616
 31
0.0
  0
LINE
  5
387
  8
0
  6
CONTINUOUS
 62
     3
 10
-54.249991
 20
29.053616
 30
0.0
 11
1.250009
 21
29.053616
 31
0.0
  0
LINE
  5
388
  8
0
  6
CONTINUOUS
 62
     3
 10
-54.249991
 20
25.053616
 30
0.0
 11
1.250009
 21
25.053616
 31
0.0
  0
LINE
  5
389
  8
0
  6
CONTINUOUS
 62
     3
 10
-64.249991
 20
-57.446384
 30
0.0
 11
3.250009
 21
-57.446384
 31
0.0
  0
LINE
  5
38A
  8
0
  6
CENTER
 62
     4
 10
144.249991
 20
0.053616
 30
0.0
 11
341.749991
 21
0.053616
 31
0.0
  0
LINE
  5
38B
  8
0
  6
CONTINUOUS
 62
     3
 10
21.250009
 20
-14.946384
 30
0.0
 11
21.250009
 21
15.053616
 31
0.0
  0
ARC
  5
38C
  8
0
  6
CENTER
 62
     4
 10
241.749991
 20
0.053616
 30
0.0
 40
100.0
 50
309.41697
 51
321.155669
  0
LINE
  5
38D
  8
0
  6
CENTER
 62
     4
 10
319.806662
 20
-78.003054
 30
0.0
 11
304.936745
 21
-63.133138
 31
0.0
  0
ARC
  5
38E
  8
0
  6
CENTER
 62
     4
 10
241.749991
 20
0.053616
 30
0.0
 40
100.0
 50
216.009771
 51
230.873372
  0
LINE
  5
38F
  8
0
  6
CENTER
 62
     4
 10
179.312035
 20
-62.384341
 30
0.0
 11
164.052364
 21
-77.644012
 31
0.0
  0
ARC
  5
390
  8
0
  6
CENTER
 62
     4
 10
241.749991
 20
0.053616
 30
0.0
 40
100.0
 50
129.677732
 51
140.1781
  0
LINE
  5
391
  8
0
  6
CENTER
 62
     4
 10
177.756093
 20
64.047514
 30
0.0
 11
164.406677
 21
77.39693
 31
0.0
  0
LINE
  5
392
  8
0
  6
CENTER
 62
     4
 10
318.951204
 20
77.254828
 30
0.0
 11
305.793666
 21
64.09729
 31
0.0
  0
CIRCLE
  5
393
  8
0
  6
CONTINUOUS
 62
     3
 10
171.039313
 20
-70.657063
 30
0.0
 40
6.75
  0
CIRCLE
  5
394
  8
0
  6
CONTINUOUS
 62
     3
 10
312.46067
 20
-70.657063
 30
0.0
 40
6.75
  0
CIRCLE
  5
395
  8
0
  6
CONTINUOUS
 62
     3
 10
171.039313
 20
70.764294
 30
0.0
 40
6.75
  0
CIRCLE
  5
396
  8
0
  6
CONTINUOUS
 62
     3
 10
312.46067
 20
70.764294
 30
0.0
 40
6.75
  0
ARC
  5
397
  8
0
  6
CENTER
 62
     4
 10
241.749991
 20
0.053616
 30
0.0
 40
100.0
 50
36.776514
 51
50.357613
  0
ARC
  5
398
  8
0
  6
CONTINUOUS
 62
     3
 10
241.749991
 20
0.053616
 30
0.0
 40
115.0
 50
130.073664
 51
139.926336
  0
ARC
  5
399
  8
0
  6
CONTINUOUS
 62
     3
 10
241.749991
 20
0.053616
 30
0.0
 40
115.0
 50
220.073664
 51
229.926336
  0
ARC
  5
39A
  8
0
  6
CONTINUOUS
 62
     3
 10
241.749991
 20
0.053616
 30
0.0
 40
115.0
 50
310.073664
 51
319.926336
  0
ARC
  5
39B
  8
0
  6
CONTINUOUS
 62
     3
 10
241.749991
 20
0.053616
 30
0.0
 40
115.0
 50
40.073664
 51
49.926336
  0
LINE
  5
39C
  8
0
  6
CONTINUOUS
 62
     3
 10
241.749991
 20
-87.946384
 30
0.0
 11
315.783768
 21
-87.946384
 31
0.0
  0
LINE
  5
39D
  8
0
  6
CONTINUOUS
 62
     3
 10
241.749991
 20
88.053616
 30
0.0
 11
315.555995
 21
88.053616
 31
0.0
  0
LINE
  5
39E
  8
0
  6
CONTINUOUS
 62
     3
 10
153.749991
 20
0.053616
 30
0.0
 11
153.749991
 21
74.087392
 31
0.0
  0
LINE
  5
39F
  8
0
  6
CONTINUOUS
 62
     3
 10
329.749991
 20
0.053616
 30
0.0
 11
329.749991
 21
74.087392
 31
0.0
  0
LINE
  5
3A0
  8
0
  6
CONTINUOUS
 62
     3
 10
9.250009
 20
-73.752388
 30
0.0
 11
16.250009
 21
-73.752388
 31
0.0
  0
LINE
  5
3A1
  8
0
  6
CONTINUOUS
 62
     3
 10
9.250009
 20
73.859619
 30
0.0
 11
16.250009
 21
73.859619
 31
0.0
  0
LINE
  5
3A2
  8
0
  6
CONTINUOUS
 62
     3
 10
71.250009
 20
-13.946384
 30
0.0
 11
71.250009
 21
14.053616
 31
0.0
  0
LINE
  5
3A3
  8
0
  6
CONTINUOUS
 62
     3
 10
19.250009
 20
-57.096384
 30
0.0
 11
19.250009
 21
57.203616
 31
0.0
  0
LINE
  5
3A4
  8
0
  6
CONTINUOUS
 62
     3
 10
16.250009
 20
-57.096384
 30
0.0
 11
19.250009
 21
-57.096384
 31
0.0
  0
LINE
  5
3A5
  8
0
  6
CONTINUOUS
 62
     3
 10
16.250009
 20
57.203616
 30
0.0
 11
19.250009
 21
57.203616
 31
0.0
  0
LINE
  5
3A6
  8
0
  6
CONTINUOUS
 62
     3
 10
-54.249991
 20
-87.946384
 30
0.0
 11
-54.249991
 21
88.053616
 31
0.0
  0
LINE
  5
3A7
  8
0
  6
CONTINUOUS
 62
     3
 10
16.250009
 20
-87.946384
 30
0.0
 11
16.250009
 21
88.053616
 31
0.0
  0
LINE
  5
3A8
  8
0
  6
CONTINUOUS
 62
     3
 10
-64.249991
 20
-87.946384
 30
0.0
 11
-64.249991
 21
88.053616
 31
0.0
  0
LINE
  5
3A9
  8
0
  6
CONTINUOUS
 62
     3
 10
16.250009
 20
23.053616
 30
0.0
 11
16.250009
 21
88.053616
 31
0.0
  0
LINE
  5
3AC
  8
0
  6
CONTINUOUS
 62
     3
 10
3.250009
 20
-73.752388
 30
0.0
 11
16.250009
 21
-73.752388
 31
0.0
  0
LINE
  5
3AD
  8
0
  6
CONTINUOUS
 62
     3
 10
3.250009
 20
73.859619
 30
0.0
 11
16.250009
 21
73.859619
 31
0.0
  0
LINE
  5
3AF
  8
0
  6
CONTINUOUS
 62
     3
 10
-51.750009
 20
-119.946384
 30
0.0
 11
-10.750009
 21
-119.946384
 31
0.0
  0
LINE
  5
3B0
  8
0
  6
CONTINUOUS
 62
     3
 10
-51.750009
 20
-122.746384
 30
0.0
 11
-10.750009
 21
-122.746384
 31
0.0
  0
LINE
  5
3B1
  8
0
  6
CONTINUOUS
 62
     3
 10
-51.750009
 20
-122.746384
 30
0.0
 11
-51.750009
 21
-118.946384
 31
0.0
  0
LINE
  5
3B2
  8
0
  6
CONTINUOUS
 62
     3
 10
-10.750009
 20
-122.746384
 30
0.0
 11
-10.750009
 21
-118.946384
 31
0.0
  0
LINE
  5
3B3
  8
0
  6
CONTINUOUS
 62
     3
 10
225.349991
 20
-143.946384
 30
0.0
 11
224.349991
 21
-142.946384
 31
0.0
  0
LINE
  5
3B4
  8
0
  6
CONTINUOUS
 62
     3
 10
258.149991
 20
-143.946384
 30
0.0
 11
259.149991
 21
-142.946384
 31
0.0
  0
LINE
  5
3B5
  8
0
  6
CONTINUOUS
 62
     3
 10
259.149991
 20
-142.946384
 30
0.0
 11
259.149991
 21
-124.946384
 31
0.0
  0
LINE
  5
3B6
  8
0
  6
CONTINUOUS
 62
     3
 10
224.349991
 20
-142.946384
 30
0.0
 11
224.349991
 21
-124.946384
 31
0.0
  0
LINE
  5
3B7
  8
0
  6
CONTINUOUS
 62
     3
 10
225.349991
 20
-143.946384
 30
0.0
 11
225.349991
 21
-127.946384
 31
0.0
  0
LINE
  5
3B8
  8
0
  6
CONTINUOUS
 62
     3
 10
258.149991
 20
-143.946384
 30
0.0
 11
258.149991
 21
-127.946384
 31
0.0
  0
LINE
  5
3B9
  8
0
  6
CONTINUOUS
 62
     3
 10
224.349991
 20
-142.946384
 30
0.0
 11
259.149991
 21
-142.946384
 31
0.0
  0
LINE
  5
3BB
  8
0
  6
CONTINUOUS
 62
     3
 10
224.349991
 20
-127.946384
 30
0.0
 11
259.149991
 21
-127.946384
 31
0.0
  0
LINE
  5
3BC
  8
0
  6
CONTINUOUS
 62
     3
 10
221.249991
 20
-124.946384
 30
0.0
 11
262.249991
 21
-124.946384
 31
0.0
  0
LINE
  5
3BD
  8
0
  6
CONTINUOUS
 62
     3
 10
221.249991
 20
-122.146384
 30
0.0
 11
262.249991
 21
-122.146384
 31
0.0
  0
LINE
  5
3BE
  8
0
  6
CONTINUOUS
 62
     3
 10
220.749991
 20
-121.146384
 30
0.0
 11
262.749991
 21
-121.146384
 31
0.0
  0
LINE
  5
3BF
  8
0
  6
CONTINUOUS
 62
     3
 10
221.249991
 20
-124.946384
 30
0.0
 11
221.249991
 21
-121.146384
 31
0.0
  0
LINE
  5
3C0
  8
0
  6
CONTINUOUS
 62
     3
 10
262.249991
 20
-124.946384
 30
0.0
 11
262.249991
 21
-121.146384
 31
0.0
  0
LINE
  5
3C1
  8
0
  6
CONTINUOUS
 62
     3
 10
221.249991
 20
-121.146384
 30
0.0
 11
262.249991
 21
-121.146384
 31
0.0
  0
LINE
  5
3C2
  8
0
  6
CONTINUOUS
 62
     3
 10
167.716215
 20
88.053616
 30
0.0
 11
241.749991
 21
88.053616
 31
0.0
  0
LINE
  5
3C3
  8
0
  6
CONTINUOUS
 62
     3
 10
153.749991
 20
-73.98016
 30
0.0
 11
153.749991
 21
0.053616
 31
0.0
  0
LINE
  5
3C4
  8
0
  6
CONTINUOUS
 62
     3
 10
167.716215
 20
-87.946384
 30
0.0
 11
241.749991
 21
-87.946384
 31
0.0
  0
LINE
  5
3C5
  8
0
  6
CONTINUOUS
 62
     3
 10
329.749991
 20
-73.98016
 30
0.0
 11
329.749991
 21
0.053616
 31
0.0
  0
LINE
  5
3C6
  8
0
  6
CENTER
 62
     4
 10
-31.250009
 20
-145.527866
 30
0.0
 11
-31.250009
 21
-102.446384
 31
0.0
  0
LINE
  5
3C7
  8
0
  6
CONTINUOUS
 62
     3
 10
-47.650009
 20
-141.746384
 30
0.0
 11
-14.850009
 21
-141.746384
 31
0.0
  0
LINE
  5
3C8
  8
0
  6
CONTINUOUS
 62
     3
 10
-48.650009
 20
-140.746384
 30
0.0
 11
-48.650009
 21
-122.746384
 31
0.0
  0
LINE
  5
3C9
  8
0
  6
CONTINUOUS
 62
     3
 10
-13.850009
 20
-140.746384
 30
0.0
 11
-13.850009
 21
-125.746384
 31
0.0
  0
LINE
  5
3CA
  8
0
  6
CONTINUOUS
 62
     3
 10
-48.650009
 20
-140.746384
 30
0.0
 11
-47.650009
 21
-141.746384
 31
0.0
  0
LINE
  5
3CB
  8
0
  6
CONTINUOUS
 62
     3
 10
-14.850009
 20
-141.746384
 30
0.0
 11
-13.850009
 21
-140.746384
 31
0.0
  0
LINE
  5
3CC
  8
0
  6
CONTINUOUS
 62
     3
 10
-48.650009
 20
-140.746384
 30
0.0
 11
-13.850009
 21
-140.746384
 31
0.0
  0
LINE
  5
3CD
  8
0
  6
CONTINUOUS
 62
     3
 10
-14.850009
 20
-141.746384
 30
0.0
 11
-14.850009
 21
-125.746384
 31
0.0
  0
LINE
  5
3CE
  8
0
  6
CONTINUOUS
 62
     3
 10
-47.650009
 20
-141.746384
 30
0.0
 11
-47.650009
 21
-125.746384
 31
0.0
  0
LINE
  5
3CF
  8
0
  6
CONTINUOUS
 62
     3
 10
-48.650009
 20
-125.746384
 30
0.0
 11
-13.850009
 21
-125.746384
 31
0.0
  0
LINE
  5
3D0
  8
0
  6
CONTINUOUS
 62
     3
 10
-13.850009
 20
-125.746384
 30
0.0
 11
-13.850009
 21
-122.746384
 31
0.0
  0
LINE
  5
3D1
  8
0
  6
CONTINUOUS
 62
     3
 10
-52.250009
 20
-118.946384
 30
0.0
 11
-10.250009
 21
-118.946384
 31
0.0
  0
LINE
  5
3D2
  8
0
  6
CONTINUOUS
 62
     3
 10
-64.249991
 20
-87.946384
 30
0.0
 11
3.250009
 21
-87.946384
 31
0.0
  0
LINE
  5
3D3
  8
0
  6
CONTINUOUS
 62
     3
 10
-64.249991
 20
88.053616
 30
0.0
 11
3.250009
 21
88.053616
 31
0.0
  0
LINE
  5
3D4
  8
0
  6
CONTINUOUS
 62
     3
 10
16.250009
 20
-87.946384
 30
0.0
 11
16.250009
 21
-22.946384
 31
0.0
  0
TEXT
  5
3FC
  8
1
  6
CONTINUOUS
 62
     4
 10
-172.5
 20
91.5
 30
0.0
 40
5.0
  1
Ѓ@
 50
0.000003
 41
0.666667
  7
STANDARD1
  0
TEXT
  5
419
  8
1
  6
CONTINUOUS
 62
     4
 10
48.461361
 20
131.513916
 30
0.0
 40
3.2
  1
Ѓ@
 50
0.000003
 41
0.713542
  7
STANDARD1
  0
POINT
  5
518
  8
0
  6
CONTINUOUS
 62
     3
 10
6.249991
 20
0.053616
 30
0.0
  0
TEXT
  5
538
  8
1
  6
CONTINUOUS
 62
     4
 10
-11.432953
 20
-93.904388
 30
0.0
 40
3.2
  1
 
 50
0.000003
 41
0.57625
  7
STANDARD1
  0
ARC
  5
53A
  8
0
  6
DASHDOT
 62
     4
 10
-248.250009
 20
0.053616
 30
0.0
 40
107.5
 50
227.403056
 51
233.205981
  0
CIRCLE
  5
53B
  8
0
  6
CONTINUOUS
 62
     4
 10
-317.349677
 20
-82.296162
 30
0.0
 40
2.5
  0
CIRCLE
  5
53C
  8
0
  6
CONTINUOUS
 62
     3
 10
-317.349671
 20
-82.296162
 30
0.0
 40
3.0
  0
ARC
  5
53D
  8
0
  6
CENTER
 62
     4
 10
-248.250002
 20
0.053616
 30
0.0
 40
107.5
 50
227.403056
 51
233.205981
  0
CIRCLE
  5
53E
  8
0
  6
CONTINUOUS
 62
     4
 10
-317.349671
 20
-82.296162
 30
0.0
 40
2.5
  0
CIRCLE
  5
53F
  8
0
  6
CONTINUOUS
 62
     3
 10
-317.349677
 20
-82.296162
 30
0.0
 40
3.0
  0
CIRCLE
  5
540
  8
0
  6
CONTINUOUS
 62
     3
 10
-179.15034
 20
82.403393
 30
0.0
 40
3.0
  0
ARC
  5
541
  8
0
  6
DASHDOT
 62
     4
 10
-248.250009
 20
0.053616
 30
0.0
 40
107.5
 50
47.403056
 51
53.205981
  0
CIRCLE
  5
542
  8
0
  6
CONTINUOUS
 62
     4
 10
-179.15034
 20
82.403393
 30
0.0
 40
2.5
  0
CIRCLE
  5
543
  8
0
  6
CONTINUOUS
 62
     4
 10
-179.150334
 20
82.403393
 30
0.0
 40
2.5
  0
CIRCLE
  5
544
  8
0
  6
CONTINUOUS
 62
     3
 10
-179.150334
 20
82.403393
 30
0.0
 40
3.0
  0
ARC
  5
545
  8
0
  6
CENTER
 62
     4
 10
-248.250002
 20
0.053616
 30
0.0
 40
107.5
 50
47.403056
 51
53.205981
  0
ARC
  5
546
  8
0
  6
DASHDOT
 62
     4
 10
241.749991
 20
0.053616
 30
0.0
 40
107.5
 50
306.794019
 51
312.596944
  0
CIRCLE
  5
547
  8
0
  6
CONTINUOUS
 62
     4
 10
310.84966
 20
-82.296162
 30
0.0
 40
2.5
  0
CIRCLE
  5
548
  8
0
  6
CONTINUOUS
 62
     3
 10
310.849654
 20
-82.296162
 30
0.0
 40
3.0
  0
ARC
  5
549
  8
0
  6
CENTER
 62
     4
 10
241.749985
 20
0.053616
 30
0.0
 40
107.5
 50
306.794019
 51
312.596944
  0
CIRCLE
  5
54A
  8
0
  6
CONTINUOUS
 62
     4
 10
310.849654
 20
-82.296162
 30
0.0
 40
2.5
  0
CIRCLE
  5
54B
  8
0
  6
CONTINUOUS
 62
     3
 10
310.84966
 20
-82.296162
 30
0.0
 40
3.0
  0
CIRCLE
  5
54C
  8
0
  6
CONTINUOUS
 62
     3
 10
172.650323
 20
82.403393
 30
0.0
 40
3.0
  0
ARC
  5
54D
  8
0
  6
DASHDOT
 62
     4
 10
241.749991
 20
0.053616
 30
0.0
 40
107.5
 50
126.794019
 51
132.596944
  0
CIRCLE
  5
54E
  8
0
  6
CONTINUOUS
 62
     4
 10
172.650323
 20
82.403393
 30
0.0
 40
2.5
  0
CIRCLE
  5
54F
  8
0
  6
CONTINUOUS
 62
     4
 10
172.650317
 20
82.403393
 30
0.0
 40
2.5
  0
CIRCLE
  5
550
  8
0
  6
CONTINUOUS
 62
     3
 10
172.650317
 20
82.403393
 30
0.0
 40
3.0
  0
ARC
  5
551
  8
0
  6
CENTER
 62
     4
 10
241.749985
 20
0.053616
 30
0.0
 40
107.5
 50
126.794019
 51
132.596944
  0
TEXT
  5
7EE
  8
0
  6
CONTINUOUS
 62
     0
 10
-342.466254
 20
171.513328
 30
0.0
 40
10.0
  1
HC-UF152
  7
STANDARD1
  0
LINE
  5
884
  8
0
  6
CONTINUOUS
 62
     3
 10
-98.049991
 20
-81.446384
 30
0.0
 11
-71.749991
 21
-81.446384
 31
0.0
  0
LINE
  5
8AF
  8
0
  6
CONTINUOUS
 62
     3
 10
225.349991
 20
-143.946384
 30
0.0
 11
258.149991
 21
-143.946384
 31
0.0
  0
ENDSEC
  0
EOF
