  0
SECTION
  2
HEADER
  9
$ACADVER
  1
AC1009
  9
$INSBASE
 10
0.0
 20
0.0
 30
0.0
  9
$EXTMIN
 10
55.610253963429727
 20
110.1141150506181
 30
-0.0000000000112498
  9
$EXTMAX
 10
399.24481992859842
 20
231.52298109232521
 30
0.0000000000002956
  9
$LIMMIN
 10
0.0
 20
0.0
  9
$LIMMAX
 10
12.0
 20
9.0
  9
$ORTHOMODE
 70
     0
  9
$REGENMODE
 70
     1
  9
$FILLMODE
 70
     1
  9
$QTEXTMODE
 70
     0
  9
$MIRRTEXT
 70
     1
  9
$DRAGMODE
 70
     2
  9
$LTSCALE
 40
0.5
  9
$OSMODE
 70
    37
  9
$ATTMODE
 70
     1
  9
$TEXTSIZE
 40
0.2
  9
$TRACEWID
 40
0.05
  9
$TEXTSTYLE
  7
STANDARD
  9
$CLAYER
  8
0
  9
$CELTYPE
  6
BYLAYER
  9
$CECOLOR
 62
   256
  9
$DIMSCALE
 40
1.0
  9
$DIMASZ
 40
0.18
  9
$DIMEXO
 40
0.0625
  9
$DIMDLI
 40
0.38
  9
$DIMRND
 40
0.0
  9
$DIMDLE
 40
0.0
  9
$DIMEXE
 40
0.18
  9
$DIMTP
 40
0.0
  9
$DIMTM
 40
0.0
  9
$DIMTXT
 40
0.18
  9
$DIMCEN
 40
0.09
  9
$DIMTSZ
 40
0.0
  9
$DIMTOL
 70
     0
  9
$DIMLIM
 70
     0
  9
$DIMTIH
 70
     1
  9
$DIMTOH
 70
     1
  9
$DIMSE1
 70
     0
  9
$DIMSE2
 70
     0
  9
$DIMTAD
 70
     0
  9
$DIMZIN
 70
     0
  9
$DIMBLK
  1

  9
$DIMASO
 70
     1
  9
$DIMSHO
 70
     1
  9
$DIMPOST
  1

  9
$DIMAPOST
  1

  9
$DIMALT
 70
     0
  9
$DIMALTD
 70
     2
  9
$DIMALTF
 40
25.399999999999999
  9
$DIMLFAC
 40
1.0
  9
$DIMTOFL
 70
     0
  9
$DIMTVP
 40
0.0
  9
$DIMTIX
 70
     0
  9
$DIMSOXD
 70
     0
  9
$DIMSAH
 70
     0
  9
$DIMBLK1
  1

  9
$DIMBLK2
  1

  9
$DIMSTYLE
  2
STANDARD
  9
$DIMCLRD
 70
     0
  9
$DIMCLRE
 70
     0
  9
$DIMCLRT
 70
     0
  9
$DIMTFAC
 40
1.0
  9
$DIMGAP
 40
0.09
  9
$LUNITS
 70
     2
  9
$LUPREC
 70
     4
  9
$SKETCHINC
 40
0.1
  9
$FILLETRAD
 40
0.0
  9
$AUNITS
 70
     0
  9
$AUPREC
 70
     0
  9
$MENU
  1
.
  9
$ELEVATION
 40
0.0
  9
$PELEVATION
 40
0.0
  9
$THICKNESS
 40
0.0
  9
$LIMCHECK
 70
     0
  9
$BLIPMODE
 70
     0
  9
$CHAMFERA
 40
0.0
  9
$CHAMFERB
 40
0.0
  9
$SKPOLY
 70
     0
  9
$TDCREATE
 40
2451614.5580200232
  9
$TDUPDATE
 40
2453362.5666410411
  9
$TDINDWG
 40
0.1738958102
  9
$TDUSRTIMER
 40
0.1738947685
  9
$USRTIMER
 70
     1
  9
$ANGBASE
 50
0.0
  9
$ANGDIR
 70
     0
  9
$PDMODE
 70
     0
  9
$PDSIZE
 40
0.0
  9
$PLINEWID
 40
0.0
  9
$COORDS
 70
     1
  9
$SPLFRAME
 70
     0
  9
$SPLINETYPE
 70
     6
  9
$SPLINESEGS
 70
     8
  9
$ATTDIA
 70
     0
  9
$ATTREQ
 70
     1
  9
$HANDLING
 70
 22529
  9
$HANDSEED
  5
11987
  9
$SURFTAB1
 70
     6
  9
$SURFTAB2
 70
     6
  9
$SURFTYPE
 70
     6
  9
$SURFU
 70
     6
  9
$SURFV
 70
     6
  9
$UCSNAME
  2

  9
$UCSORG
 10
0.0
 20
0.0
 30
0.0
  9
$UCSXDIR
 10
1.0
 20
0.0
 30
0.0
  9
$UCSYDIR
 10
0.0
 20
1.0
 30
0.0
  9
$PUCSNAME
  2

  9
$PUCSORG
 10
0.0
 20
0.0
 30
0.0
  9
$PUCSXDIR
 10
1.0
 20
0.0
 30
0.0
  9
$PUCSYDIR
 10
0.0
 20
1.0
 30
0.0
  9
$USERI1
 70
     0
  9
$USERI2
 70
     0
  9
$USERI3
 70
     0
  9
$USERI4
 70
     0
  9
$USERI5
 70
     0
  9
$USERR1
 40
0.0
  9
$USERR2
 40
0.0
  9
$USERR3
 40
0.0
  9
$USERR4
 40
0.0
  9
$USERR5
 40
0.0
  9
$WORLDVIEW
 70
     1
  9
$SHADEDGE
 70
     3
  9
$SHADEDIF
 70
    70
  9
$TILEMODE
 70
     1
  9
$MAXACTVP
 70
    48
  9
$PLIMCHECK
 70
     0
  9
$PEXTMIN
 10
1.0000000000000000E+020
 20
1.0000000000000000E+020
 30
1.0000000000000000E+020
  9
$PEXTMAX
 10
-1.0000000000000000E+020
 20
-1.0000000000000000E+020
 30
-1.0000000000000000E+020
  9
$PLIMMIN
 10
0.0
 20
0.0
  9
$PLIMMAX
 10
12.0
 20
9.0
  9
$UNITMODE
 70
     0
  9
$VISRETAIN
 70
     1
  9
$PLINEGEN
 70
     0
  9
$PSLTSCALE
 70
     1
  0
ENDSEC
  0
SECTION
  2
TABLES
  0
TABLE
  2
VPORT
 70
     2
  0
VPORT
  2
*ACTIVE
 70
     0
 10
0.0
 20
0.0
 11
1.0
 21
1.0
 12
227.42753694601399
 22
170.8185480714717
 13
0.0
 23
0.0
 14
1.0
 24
1.0
 15
0.0
 25
0.0
 16
0.0
 26
0.0
 36
1.0
 17
0.0
 27
0.0
 37
0.0
 40
223.04432368311791
 41
1.548223350253807
 42
50.0
 43
0.0
 44
0.0
 50
0.0
 51
0.0
 71
     0
 72
   100
 73
     1
 74
     1
 75
     0
 76
     0
 77
     0
 78
     0
  0
ENDTAB
  0
TABLE
  2
LTYPE
 70
     3
  0
LTYPE
  2
CONTINUOUS
 70
     0
  3
Solid line
 72
    65
 73
     0
 40
0.0
  0
LTYPE
  2
CENTER
 70
     0
  3
____ _ ____ _ ____ _ ____ _ ____ _ ____ _ ____
 72
    65
 73
     4
 40
17.5
 49
13.0
 49
-1.5
 49
1.5
 49
-1.5
  0
LTYPE
  2
HIDDEN
 70
     0
  3
Hidden __ __ __ __ __ __ __ __ __ __ __ __ __ _
 72
    65
 73
     2
 40
9.5249999999999986
 49
6.349999999999997
 49
-3.174999999999998
  0
ENDTAB
  0
TABLE
  2
LAYER
 70
     4
  0
LAYER
  2
0
 70
     0
 62
     7
  6
CONTINUOUS
  0
LAYER
  2
CENTER
 70
     0
 62
     1
  6
CENTER
  0
LAYER
  2
1
 70
     0
 62
     7
  6
CONTINUOUS
  0
LAYER
  2
HIDDEN
 70
     0
 62
     6
  6
HIDDEN
  0
ENDTAB
  0
TABLE
  2
STYLE
 70
     1
  0
STYLE
  2
STANDARD
 70
     0
 40
0.0
 41
1.0
 50
0.0
 71
     0
 42
0.2
  3
txt
  4

  0
ENDTAB
  0
TABLE
  2
VIEW
 70
     0
  0
ENDTAB
  0
TABLE
  2
UCS
 70
     0
  0
ENDTAB
  0
TABLE
  2
APPID
 70
     2
  0
APPID
  2
ACAD
 70
     0
  0
APPID
  2
DCO15
 70
     0
  0
ENDTAB
  0
TABLE
  2
DIMSTYLE
 70
     1
  0
DIMSTYLE
  2
STANDARD
 70
     0
  3

  4

  5

  6

  7

 40
1.0
 41
0.18
 42
0.0625
 43
0.38
 44
0.18
 45
0.0
 46
0.0
 47
0.0
 48
0.0
140
0.18
141
0.09
142
0.0
143
25.399999999999999
144
1.0
145
0.0
146
1.0
147
0.09
 71
     0
 72
     0
 73
     1
 74
     1
 75
     0
 76
     0
 77
     0
 78
     0
170
     0
171
     2
172
     0
173
     0
174
     0
175
     0
176
     0
177
     0
178
     0
  0
ENDTAB
  0
ENDSEC
  0
SECTION
  2
BLOCKS
  0
BLOCK
  8
0
  2
$MODEL_SPACE
 70
     0
 10
0.0
 20
0.0
 30
0.0
  3
$MODEL_SPACE
  1

  0
ENDBLK
  5
118E6
  8
0
  0
BLOCK
 67
     1
  8
0
  2
$PAPER_SPACE
 70
     0
 10
0.0
 20
0.0
 30
0.0
  3
$PAPER_SPACE
  1

  0
ENDBLK
  5
118E4
 67
     1
  8
0
  0
BLOCK
  8
0
  2
A$C3C4259C2
 70
     0
 10
0.0
 20
0.0
 30
0.0
  3
A$C3C4259C2
  1

  0
POLYLINE
  5
10DCC
  8
HIDDEN
 66
     1
 10
0.0
 20
0.0
 30
0.0
 70
     8
  0
VERTEX
  5
10DCD
  8
0
 10
0.0000000000000001
 20
4.1600000000000001
 30
0.0
 70
    32
  0
VERTEX
  5
10DCE
  8
0
 10
-0.0164102
 20
4.1596900000000003
 30
0.0
 70
    32
  0
VERTEX
  5
10DCF
  8
0
 10
-0.0328105
 20
4.1587500000000004
 30
0.0
 70
    32
  0
VERTEX
  5
10DD0
  8
0
 10
-0.049191
 20
4.1571800000000003
 30
0.0
 70
    32
  0
VERTEX
  5
10DD1
  8
0
 10
-0.0655419
 20
4.1549899999999971
 30
0.0
 70
    32
  0
VERTEX
  5
10DD2
  8
0
 10
-0.0818533
 20
4.1521800000000004
 30
0.0
 70
    32
  0
VERTEX
  5
10DD3
  8
0
 10
-0.0981154
 20
4.1487400000000001
 30
0.0
 70
    32
  0
VERTEX
  5
10DD4
  8
0
 10
-0.114318
 20
4.1446899999999971
 30
0.0
 70
    32
  0
VERTEX
  5
10DD5
  8
0
 10
-0.130453
 20
4.140019999999998
 30
0.0
 70
    32
  0
VERTEX
  5
10DD6
  8
0
 10
-0.146508
 20
4.1347300000000002
 30
0.0
 70
    32
  0
VERTEX
  5
10DD7
  8
0
 10
-0.162475
 20
4.128829999999998
 30
0.0
 70
    32
  0
VERTEX
  5
10DD8
  8
0
 10
-0.178345
 20
4.1223299999999981
 30
0.0
 70
    32
  0
VERTEX
  5
10DD9
  8
0
 10
-0.194107
 20
4.1152199999999981
 30
0.0
 70
    32
  0
VERTEX
  5
10DDA
  8
0
 10
-0.209752
 20
4.1075099999999951
 30
0.0
 70
    32
  0
VERTEX
  5
10DDB
  8
0
 10
-0.225271
 20
4.0992100000000002
 30
0.0
 70
    32
  0
VERTEX
  5
10DDC
  8
0
 10
-0.240654
 20
4.090309999999997
 30
0.0
 70
    32
  0
VERTEX
  5
10DDD
  8
0
 10
-0.255892
 20
4.0808299999999971
 30
0.0
 70
    32
  0
VERTEX
  5
10DDE
  8
0
 10
-0.270976
 20
4.0707800000000001
 30
0.0
 70
    32
  0
VERTEX
  5
10DDF
  8
0
 10
-0.2858969999999999
 20
4.0601500000000001
 30
0.0
 70
    32
  0
VERTEX
  5
10DE0
  8
0
 10
-0.300645
 20
4.0489499999999961
 30
0.0
 70
    32
  0
VERTEX
  5
10DE1
  8
0
 10
-0.315212
 20
4.0372000000000003
 30
0.0
 70
    32
  0
VERTEX
  5
10DE2
  8
0
 10
-0.32959
 20
4.0248900000000001
 30
0.0
 70
    32
  0
VERTEX
  5
10DE3
  8
0
 10
-0.343769
 20
4.0120399999999981
 30
0.0
 70
    32
  0
VERTEX
  5
10DE4
  8
0
 10
-0.3577409999999999
 20
3.9986499999999991
 30
0.0
 70
    32
  0
VERTEX
  5
10DE5
  8
0
 10
-0.371497
 20
3.9847299999999981
 30
0.0
 70
    32
  0
VERTEX
  5
10DE6
  8
0
 10
-0.38503
 20
3.9702899999999981
 30
0.0
 70
    32
  0
VERTEX
  5
10DE7
  8
0
 10
-0.398331
 20
3.9553399999999992
 30
0.0
 70
    32
  0
VERTEX
  5
10DE8
  8
0
 10
-0.4113920000000002
 20
3.93988
 30
0.0
 70
    32
  0
VERTEX
  5
10DE9
  8
0
 10
-0.424205
 20
3.9239299999999981
 30
0.0
 70
    32
  0
VERTEX
  5
10DEA
  8
0
 10
-0.436762
 20
3.9075000000000002
 30
0.0
 70
    32
  0
VERTEX
  5
10DEB
  8
0
 10
-0.4490560000000002
 20
3.8905899999999991
 30
0.0
 70
    32
  0
VERTEX
  5
10DEC
  8
0
 10
-0.4610800000000002
 20
3.8732199999999981
 30
0.0
 70
    32
  0
VERTEX
  5
10DED
  8
0
 10
-0.4728260000000001
 20
3.8553899999999981
 30
0.0
 70
    32
  0
VERTEX
  5
10DEE
  8
0
 10
-0.484288
 20
3.8371199999999992
 30
0.0
 70
    32
  0
VERTEX
  5
10DEF
  8
0
 10
-0.495457
 20
3.818419999999997
 30
0.0
 70
    32
  0
VERTEX
  5
10DF0
  8
0
 10
-0.5063290000000003
 20
3.7993000000000001
 30
0.0
 70
    32
  0
VERTEX
  5
10DF1
  8
0
 10
-0.516895
 20
3.7797699999999992
 30
0.0
 70
    32
  0
VERTEX
  5
10DF2
  8
0
 10
-0.52715
 20
3.7598400000000001
 30
0.0
 70
    32
  0
VERTEX
  5
10DF3
  8
0
 10
-0.537087
 20
3.7395299999999989
 30
0.0
 70
    32
  0
VERTEX
  5
10DF4
  8
0
 10
-0.5467010000000001
 20
3.7188400000000001
 30
0.0
 70
    32
  0
VERTEX
  5
10DF5
  8
0
 10
-0.5559850000000001
 20
3.697789999999999
 30
0.0
 70
    32
  0
VERTEX
  5
10DF6
  8
0
 10
-0.5649350000000001
 20
3.6764000000000001
 30
0.0
 70
    32
  0
VERTEX
  5
10DF7
  8
0
 10
-0.5735440000000001
 20
3.6546699999999981
 30
0.0
 70
    32
  0
VERTEX
  5
10DF8
  8
0
 10
-0.5818080000000001
 20
3.632609999999997
 30
0.0
 70
    32
  0
VERTEX
  5
10DF9
  8
0
 10
-0.5897210000000001
 20
3.6102500000000002
 30
0.0
 70
    32
  0
VERTEX
  5
10DFA
  8
0
 10
-0.597279
 20
3.5876000000000001
 30
0.0
 70
    32
  0
VERTEX
  5
10DFB
  8
0
 10
-0.6044770000000002
 20
3.5646599999999991
 30
0.0
 70
    32
  0
VERTEX
  5
10DFC
  8
0
 10
-0.611312
 20
3.5414500000000002
 30
0.0
 70
    32
  0
VERTEX
  5
10DFD
  8
0
 10
-0.6177780000000001
 20
3.5179900000000002
 30
0.0
 70
    32
  0
VERTEX
  5
10DFE
  8
0
 10
-0.623871
 20
3.494289999999999
 30
0.0
 70
    32
  0
VERTEX
  5
10DFF
  8
0
 10
-0.6295890000000001
 20
3.4703699999999991
 30
0.0
 70
    32
  0
VERTEX
  5
10E00
  8
0
 10
-0.6349280000000001
 20
3.446229999999999
 30
0.0
 70
    32
  0
VERTEX
  5
10E01
  8
0
 10
-0.6398850000000002
 20
3.4218999999999991
 30
0.0
 70
    32
  0
VERTEX
  5
10E02
  8
0
 10
-0.644456
 20
3.3973800000000001
 30
0.0
 70
    32
  0
VERTEX
  5
10E03
  8
0
 10
-0.6486380000000001
 20
3.3727
 30
0.0
 70
    32
  0
VERTEX
  5
10E04
  8
0
 10
-0.6524300000000001
 20
3.347869999999999
 30
0.0
 70
    32
  0
VERTEX
  5
10E05
  8
0
 10
-0.655829
 20
3.3228900000000001
 30
0.0
 70
    32
  0
VERTEX
  5
10E06
  8
0
 10
-0.658833
 20
3.2978000000000001
 30
0.0
 70
    32
  0
VERTEX
  5
10E07
  8
0
 10
-0.6614399999999999
 20
3.2726000000000002
 30
0.0
 70
    32
  0
VERTEX
  5
10E08
  8
0
 10
-0.6636490000000002
 20
3.247309999999997
 30
0.0
 70
    32
  0
VERTEX
  5
10E09
  8
0
 10
-0.6654580000000001
 20
3.22194
 30
0.0
 70
    32
  0
VERTEX
  5
10E0A
  8
0
 10
-0.666866
 20
3.1965099999999991
 30
0.0
 70
    32
  0
VERTEX
  5
10E0B
  8
0
 10
-0.6678720000000001
 20
3.17103
 30
0.0
 70
    32
  0
VERTEX
  5
10E0C
  8
0
 10
-0.6684760000000001
 20
3.1455199999999981
 30
0.0
 70
    32
  0
VERTEX
  5
10E0D
  8
0
 10
-0.668678
 20
3.1200000000000001
 30
0.0
 70
    32
  0
VERTEX
  5
10E0E
  8
0
 10
-0.6684760000000001
 20
3.094479999999999
 30
0.0
 70
    32
  0
VERTEX
  5
10E0F
  8
0
 10
-0.6678720000000001
 20
3.0689700000000002
 30
0.0
 70
    32
  0
VERTEX
  5
10E10
  8
0
 10
-0.666866
 20
3.043489999999998
 30
0.0
 70
    32
  0
VERTEX
  5
10E11
  8
0
 10
-0.6654580000000001
 20
3.018059999999998
 30
0.0
 70
    32
  0
VERTEX
  5
10E12
  8
0
 10
-0.6636490000000002
 20
2.9926899999999992
 30
0.0
 70
    32
  0
VERTEX
  5
10E13
  8
0
 10
-0.6614399999999999
 20
2.9673999999999991
 30
0.0
 70
    32
  0
VERTEX
  5
10E14
  8
0
 10
-0.658833
 20
2.9422000000000001
 30
0.0
 70
    32
  0
VERTEX
  5
10E15
  8
0
 10
-0.655829
 20
2.9171099999999992
 30
0.0
 70
    32
  0
VERTEX
  5
10E16
  8
0
 10
-0.6524300000000001
 20
2.8921299999999981
 30
0.0
 70
    32
  0
VERTEX
  5
10E17
  8
0
 10
-0.6486380000000001
 20
2.8673000000000002
 30
0.0
 70
    32
  0
VERTEX
  5
10E18
  8
0
 10
-0.644456
 20
2.8426200000000001
 30
0.0
 70
    32
  0
VERTEX
  5
10E19
  8
0
 10
-0.6398850000000002
 20
2.8180999999999949
 30
0.0
 70
    32
  0
VERTEX
  5
10E1A
  8
0
 10
-0.6349280000000001
 20
2.7937699999999981
 30
0.0
 70
    32
  0
VERTEX
  5
10E1B
  8
0
 10
-0.6295890000000001
 20
2.769629999999998
 30
0.0
 70
    32
  0
VERTEX
  5
10E1C
  8
0
 10
-0.623871
 20
2.7457099999999981
 30
0.0
 70
    32
  0
VERTEX
  5
10E1D
  8
0
 10
-0.6177780000000001
 20
2.72201
 30
0.0
 70
    32
  0
VERTEX
  5
10E1E
  8
0
 10
-0.611312
 20
2.69855
 30
0.0
 70
    32
  0
VERTEX
  5
10E1F
  8
0
 10
-0.6044770000000002
 20
2.6753399999999981
 30
0.0
 70
    32
  0
VERTEX
  5
10E20
  8
0
 10
-0.597279
 20
2.6524000000000001
 30
0.0
 70
    32
  0
VERTEX
  5
10E21
  8
0
 10
-0.5897210000000001
 20
2.62975
 30
0.0
 70
    32
  0
VERTEX
  5
10E22
  8
0
 10
-0.5818080000000001
 20
2.6073900000000001
 30
0.0
 70
    32
  0
VERTEX
  5
10E23
  8
0
 10
-0.5735440000000001
 20
2.585329999999999
 30
0.0
 70
    32
  0
VERTEX
  5
10E24
  8
0
 10
-0.5649350000000001
 20
2.5636000000000001
 30
0.0
 70
    32
  0
VERTEX
  5
10E25
  8
0
 10
-0.5559850000000001
 20
2.5422099999999981
 30
0.0
 70
    32
  0
VERTEX
  5
10E26
  8
0
 10
-0.5467010000000001
 20
2.5211600000000001
 30
0.0
 70
    32
  0
VERTEX
  5
10E27
  8
0
 10
-0.537087
 20
2.5004699999999991
 30
0.0
 70
    32
  0
VERTEX
  5
10E28
  8
0
 10
-0.52715
 20
2.480159999999997
 30
0.0
 70
    32
  0
VERTEX
  5
10E29
  8
0
 10
-0.516895
 20
2.4602300000000001
 30
0.0
 70
    32
  0
VERTEX
  5
10E2A
  8
0
 10
-0.5063290000000003
 20
2.4407000000000001
 30
0.0
 70
    32
  0
VERTEX
  5
10E2B
  8
0
 10
-0.495457
 20
2.4215800000000001
 30
0.0
 70
    32
  0
VERTEX
  5
10E2C
  8
0
 10
-0.484288
 20
2.4028800000000001
 30
0.0
 70
    32
  0
VERTEX
  5
10E2D
  8
0
 10
-0.4728260000000001
 20
2.384609999999999
 30
0.0
 70
    32
  0
VERTEX
  5
10E2E
  8
0
 10
-0.4610800000000002
 20
2.3667799999999981
 30
0.0
 70
    32
  0
VERTEX
  5
10E2F
  8
0
 10
-0.4490560000000002
 20
2.3494099999999949
 30
0.0
 70
    32
  0
VERTEX
  5
10E30
  8
0
 10
-0.436762
 20
2.3325
 30
0.0
 70
    32
  0
VERTEX
  5
10E31
  8
0
 10
-0.424205
 20
2.3160699999999981
 30
0.0
 70
    32
  0
VERTEX
  5
10E32
  8
0
 10
-0.4113920000000002
 20
2.3001200000000002
 30
0.0
 70
    32
  0
VERTEX
  5
10E33
  8
0
 10
-0.398331
 20
2.284659999999997
 30
0.0
 70
    32
  0
VERTEX
  5
10E34
  8
0
 10
-0.38503
 20
2.269709999999999
 30
0.0
 70
    32
  0
VERTEX
  5
10E35
  8
0
 10
-0.371497
 20
2.2552699999999981
 30
0.0
 70
    32
  0
VERTEX
  5
10E36
  8
0
 10
-0.3577409999999999
 20
2.2413500000000002
 30
0.0
 70
    32
  0
VERTEX
  5
10E37
  8
0
 10
-0.343769
 20
2.2279599999999991
 30
0.0
 70
    32
  0
VERTEX
  5
10E38
  8
0
 10
-0.32959
 20
2.215109999999997
 30
0.0
 70
    32
  0
VERTEX
  5
10E39
  8
0
 10
-0.315212
 20
2.2027999999999981
 30
0.0
 70
    32
  0
VERTEX
  5
10E3A
  8
0
 10
-0.300645
 20
2.1910500000000002
 30
0.0
 70
    32
  0
VERTEX
  5
10E3B
  8
0
 10
-0.2858969999999999
 20
2.1798500000000001
 30
0.0
 70
    32
  0
VERTEX
  5
10E3C
  8
0
 10
-0.270976
 20
2.1692200000000001
 30
0.0
 70
    32
  0
VERTEX
  5
10E3D
  8
0
 10
-0.255892
 20
2.15917
 30
0.0
 70
    32
  0
VERTEX
  5
10E3E
  8
0
 10
-0.240654
 20
2.1496900000000001
 30
0.0
 70
    32
  0
VERTEX
  5
10E3F
  8
0
 10
-0.225271
 20
2.1407899999999991
 30
0.0
 70
    32
  0
VERTEX
  5
10E40
  8
0
 10
-0.209752
 20
2.1324900000000002
 30
0.0
 70
    32
  0
VERTEX
  5
10E41
  8
0
 10
-0.194107
 20
2.124779999999999
 30
0.0
 70
    32
  0
VERTEX
  5
10E42
  8
0
 10
-0.178345
 20
2.1176699999999991
 30
0.0
 70
    32
  0
VERTEX
  5
10E43
  8
0
 10
-0.162475
 20
2.1111699999999991
 30
0.0
 70
    32
  0
VERTEX
  5
10E44
  8
0
 10
-0.146508
 20
2.1052699999999991
 30
0.0
 70
    32
  0
VERTEX
  5
10E45
  8
0
 10
-0.130453
 20
2.0999799999999991
 30
0.0
 70
    32
  0
VERTEX
  5
10E46
  8
0
 10
-0.114318
 20
2.09531
 30
0.0
 70
    32
  0
VERTEX
  5
10E47
  8
0
 10
-0.0981154
 20
2.0912599999999961
 30
0.0
 70
    32
  0
VERTEX
  5
10E48
  8
0
 10
-0.0818533
 20
2.087819999999998
 30
0.0
 70
    32
  0
VERTEX
  5
10E49
  8
0
 10
-0.0655419
 20
2.08501
 30
0.0
 70
    32
  0
VERTEX
  5
10E4A
  8
0
 10
-0.049191
 20
2.082819999999999
 30
0.0
 70
    32
  0
VERTEX
  5
10E4B
  8
0
 10
-0.0328105
 20
2.081249999999998
 30
0.0
 70
    32
  0
VERTEX
  5
10E4C
  8
0
 10
-0.0164102
 20
2.0803099999999981
 30
0.0
 70
    32
  0
VERTEX
  5
10E4D
  8
0
 10
0.0
 20
2.0800000000000001
 30
0.0
 70
    32
  0
SEQEND
  5
10E4E
  8
0
  0
POLYLINE
  5
10E4F
  8
HIDDEN
 66
     1
 10
0.0
 20
0.0
 30
0.0
 70
     8
  0
VERTEX
  5
10E50
  8
0
 10
0.0
 20
0.000000000000014
 30
0.0
 70
    32
  0
VERTEX
  5
10E51
  8
0
 10
0.0328105
 20
0.00125273
 30
0.0
 70
    32
  0
VERTEX
  5
10E52
  8
0
 10
0.0655419
 20
0.00500788
 30
0.0
 70
    32
  0
VERTEX
  5
10E53
  8
0
 10
0.0981154
 20
0.0112564
 30
0.0
 70
    32
  0
VERTEX
  5
10E54
  8
0
 10
0.130453
 20
0.0199833
 30
0.0
 70
    32
  0
VERTEX
  5
10E55
  8
0
 10
0.162475
 20
0.0311675
 30
0.0
 70
    32
  0
VERTEX
  5
10E56
  8
0
 10
0.194107
 20
0.0447821
 30
0.0
 70
    32
  0
VERTEX
  5
10E57
  8
0
 10
0.225271
 20
0.0607942
 30
0.0
 70
    32
  0
VERTEX
  5
10E58
  8
0
 10
0.255892
 20
0.0791653
 30
0.0
 70
    32
  0
VERTEX
  5
10E59
  8
0
 10
0.2858969999999999
 20
0.0998511
 30
0.0
 70
    32
  0
VERTEX
  5
10E5A
  8
0
 10
0.315212
 20
0.122802
 30
0.0
 70
    32
  0
VERTEX
  5
10E5B
  8
0
 10
0.343769
 20
0.147962
 30
0.0
 70
    32
  0
VERTEX
  5
10E5C
  8
0
 10
0.371497
 20
0.175272
 30
0.0
 70
    32
  0
VERTEX
  5
10E5D
  8
0
 10
0.398331
 20
0.204664
 30
0.0
 70
    32
  0
VERTEX
  5
10E5E
  8
0
 10
0.424205
 20
0.236069
 30
0.0
 70
    32
  0
VERTEX
  5
10E5F
  8
0
 10
0.4490560000000002
 20
0.269411
 30
0.0
 70
    32
  0
VERTEX
  5
10E60
  8
0
 10
0.4728260000000001
 20
0.304609
 30
0.0
 70
    32
  0
VERTEX
  5
10E61
  8
0
 10
0.495457
 20
0.341579
 30
0.0
 70
    32
  0
VERTEX
  5
10E62
  8
0
 10
0.516895
 20
0.380231
 30
0.0
 70
    32
  0
VERTEX
  5
10E63
  8
0
 10
0.537087
 20
0.420473
 30
0.0
 70
    32
  0
VERTEX
  5
10E64
  8
0
 10
0.5559850000000001
 20
0.462207
 30
0.0
 70
    32
  0
VERTEX
  5
10E65
  8
0
 10
0.5735440000000001
 20
0.5053330000000003
 30
0.0
 70
    32
  0
VERTEX
  5
10E66
  8
0
 10
0.5897210000000001
 20
0.549747
 30
0.0
 70
    32
  0
VERTEX
  5
10E67
  8
0
 10
0.6044770000000002
 20
0.5953430000000001
 30
0.0
 70
    32
  0
VERTEX
  5
10E68
  8
0
 10
0.6177780000000001
 20
0.6420090000000001
 30
0.0
 70
    32
  0
VERTEX
  5
10E69
  8
0
 10
0.6295890000000001
 20
0.689635
 30
0.0
 70
    32
  0
VERTEX
  5
10E6A
  8
0
 10
0.6398850000000002
 20
0.738104
 30
0.0
 70
    32
  0
VERTEX
  5
10E6B
  8
0
 10
0.6486380000000001
 20
0.7873010000000003
 30
0.0
 70
    32
  0
VERTEX
  5
10E6C
  8
0
 10
0.655829
 20
0.8371059999999999
 30
0.0
 70
    32
  0
VERTEX
  5
10E6D
  8
0
 10
0.6614399999999999
 20
0.8873999999999997
 30
0.0
 70
    32
  0
VERTEX
  5
10E6E
  8
0
 10
0.6654580000000001
 20
0.938062
 30
0.0
 70
    32
  0
VERTEX
  5
10E6F
  8
0
 10
0.6678720000000001
 20
0.9889699999999999
 30
0.0
 70
    32
  0
VERTEX
  5
10E70
  8
0
 10
0.668678
 20
1.04
 30
0.0
 70
    32
  0
VERTEX
  5
10E71
  8
0
 10
0.6678720000000001
 20
1.0910299999999991
 30
0.0
 70
    32
  0
VERTEX
  5
10E72
  8
0
 10
0.6654580000000001
 20
1.1419399999999991
 30
0.0
 70
    32
  0
VERTEX
  5
10E73
  8
0
 10
0.6614399999999999
 20
1.1926000000000001
 30
0.0
 70
    32
  0
VERTEX
  5
10E74
  8
0
 10
0.655829
 20
1.2428900000000001
 30
0.0
 70
    32
  0
VERTEX
  5
10E75
  8
0
 10
0.6486380000000001
 20
1.2926999999999991
 30
0.0
 70
    32
  0
VERTEX
  5
10E76
  8
0
 10
0.6398850000000002
 20
1.3419000000000001
 30
0.0
 70
    32
  0
VERTEX
  5
10E77
  8
0
 10
0.6295890000000001
 20
1.3903700000000001
 30
0.0
 70
    32
  0
VERTEX
  5
10E78
  8
0
 10
0.6177780000000001
 20
1.4379899999999981
 30
0.0
 70
    32
  0
VERTEX
  5
10E79
  8
0
 10
0.6044770000000002
 20
1.4846600000000001
 30
0.0
 70
    32
  0
VERTEX
  5
10E7A
  8
0
 10
0.5897210000000001
 20
1.5302500000000001
 30
0.0
 70
    32
  0
VERTEX
  5
10E7B
  8
0
 10
0.5735440000000001
 20
1.57467
 30
0.0
 70
    32
  0
VERTEX
  5
10E7C
  8
0
 10
0.5559850000000001
 20
1.6177900000000001
 30
0.0
 70
    32
  0
VERTEX
  5
10E7D
  8
0
 10
0.537087
 20
1.6595299999999991
 30
0.0
 70
    32
  0
VERTEX
  5
10E7E
  8
0
 10
0.516895
 20
1.69977
 30
0.0
 70
    32
  0
VERTEX
  5
10E7F
  8
0
 10
0.495457
 20
1.7384200000000001
 30
0.0
 70
    32
  0
VERTEX
  5
10E80
  8
0
 10
0.4728260000000001
 20
1.77539
 30
0.0
 70
    32
  0
VERTEX
  5
10E81
  8
0
 10
0.4490560000000002
 20
1.810589999999999
 30
0.0
 70
    32
  0
VERTEX
  5
10E82
  8
0
 10
0.424205
 20
1.8439299999999981
 30
0.0
 70
    32
  0
VERTEX
  5
10E83
  8
0
 10
0.398331
 20
1.87534
 30
0.0
 70
    32
  0
VERTEX
  5
10E84
  8
0
 10
0.371497
 20
1.9047299999999949
 30
0.0
 70
    32
  0
VERTEX
  5
10E85
  8
0
 10
0.343769
 20
1.9320399999999991
 30
0.0
 70
    32
  0
VERTEX
  5
10E86
  8
0
 10
0.315212
 20
1.9572000000000001
 30
0.0
 70
    32
  0
VERTEX
  5
10E87
  8
0
 10
0.2858969999999999
 20
1.9801500000000001
 30
0.0
 70
    32
  0
VERTEX
  5
10E88
  8
0
 10
0.255892
 20
2.0008300000000001
 30
0.0
 70
    32
  0
VERTEX
  5
10E89
  8
0
 10
0.225271
 20
2.0192099999999962
 30
0.0
 70
    32
  0
VERTEX
  5
10E8A
  8
0
 10
0.194107
 20
2.035219999999998
 30
0.0
 70
    32
  0
VERTEX
  5
10E8B
  8
0
 10
0.162475
 20
2.0488299999999962
 30
0.0
 70
    32
  0
VERTEX
  5
10E8C
  8
0
 10
0.130453
 20
2.0600200000000002
 30
0.0
 70
    32
  0
VERTEX
  5
10E8D
  8
0
 10
0.0981154
 20
2.06874
 30
0.0
 70
    32
  0
VERTEX
  5
10E8E
  8
0
 10
0.0655419
 20
2.0749900000000001
 30
0.0
 70
    32
  0
VERTEX
  5
10E8F
  8
0
 10
0.0328105
 20
2.0787499999999981
 30
0.0
 70
    32
  0
VERTEX
  5
10E90
  8
0
 10
0.0000000000000001
 20
2.0800000000000001
 30
0.0
 70
    32
  0
VERTEX
  5
10E91
  8
0
 10
-0.0328105
 20
2.0787499999999981
 30
0.0
 70
    32
  0
VERTEX
  5
10E92
  8
0
 10
-0.0655419
 20
2.0749900000000001
 30
0.0
 70
    32
  0
VERTEX
  5
10E93
  8
0
 10
-0.0981154
 20
2.06874
 30
0.0
 70
    32
  0
VERTEX
  5
10E94
  8
0
 10
-0.130453
 20
2.0600200000000002
 30
0.0
 70
    32
  0
VERTEX
  5
10E95
  8
0
 10
-0.162475
 20
2.0488299999999962
 30
0.0
 70
    32
  0
VERTEX
  5
10E96
  8
0
 10
-0.194107
 20
2.035219999999998
 30
0.0
 70
    32
  0
VERTEX
  5
10E97
  8
0
 10
-0.225271
 20
2.0192099999999962
 30
0.0
 70
    32
  0
VERTEX
  5
10E98
  8
0
 10
-0.255892
 20
2.0008300000000001
 30
0.0
 70
    32
  0
VERTEX
  5
10E99
  8
0
 10
-0.2858969999999999
 20
1.9801500000000001
 30
0.0
 70
    32
  0
VERTEX
  5
10E9A
  8
0
 10
-0.315212
 20
1.9572000000000001
 30
0.0
 70
    32
  0
VERTEX
  5
10E9B
  8
0
 10
-0.343769
 20
1.9320399999999991
 30
0.0
 70
    32
  0
VERTEX
  5
10E9C
  8
0
 10
-0.371497
 20
1.9047299999999949
 30
0.0
 70
    32
  0
VERTEX
  5
10E9D
  8
0
 10
-0.398331
 20
1.87534
 30
0.0
 70
    32
  0
VERTEX
  5
10E9E
  8
0
 10
-0.424205
 20
1.8439299999999981
 30
0.0
 70
    32
  0
VERTEX
  5
10E9F
  8
0
 10
-0.4490560000000002
 20
1.810589999999999
 30
0.0
 70
    32
  0
VERTEX
  5
10EA0
  8
0
 10
-0.4728260000000001
 20
1.77539
 30
0.0
 70
    32
  0
VERTEX
  5
10EA1
  8
0
 10
-0.495457
 20
1.7384200000000001
 30
0.0
 70
    32
  0
VERTEX
  5
10EA2
  8
0
 10
-0.516895
 20
1.69977
 30
0.0
 70
    32
  0
VERTEX
  5
10EA3
  8
0
 10
-0.537087
 20
1.6595299999999991
 30
0.0
 70
    32
  0
VERTEX
  5
10EA4
  8
0
 10
-0.5559850000000001
 20
1.6177900000000001
 30
0.0
 70
    32
  0
VERTEX
  5
10EA5
  8
0
 10
-0.5735440000000001
 20
1.57467
 30
0.0
 70
    32
  0
VERTEX
  5
10EA6
  8
0
 10
-0.5897210000000001
 20
1.5302500000000001
 30
0.0
 70
    32
  0
VERTEX
  5
10EA7
  8
0
 10
-0.6044770000000002
 20
1.4846600000000001
 30
0.0
 70
    32
  0
VERTEX
  5
10EA8
  8
0
 10
-0.6177780000000001
 20
1.4379899999999981
 30
0.0
 70
    32
  0
VERTEX
  5
10EA9
  8
0
 10
-0.6295890000000001
 20
1.3903700000000001
 30
0.0
 70
    32
  0
VERTEX
  5
10EAA
  8
0
 10
-0.6398850000000002
 20
1.3419000000000001
 30
0.0
 70
    32
  0
VERTEX
  5
10EAB
  8
0
 10
-0.6486380000000001
 20
1.2926999999999991
 30
0.0
 70
    32
  0
VERTEX
  5
10EAC
  8
0
 10
-0.655829
 20
1.2428900000000001
 30
0.0
 70
    32
  0
VERTEX
  5
10EAD
  8
0
 10
-0.6614399999999999
 20
1.1926000000000001
 30
0.0
 70
    32
  0
VERTEX
  5
10EAE
  8
0
 10
-0.6654580000000001
 20
1.1419399999999991
 30
0.0
 70
    32
  0
VERTEX
  5
10EAF
  8
0
 10
-0.6678720000000001
 20
1.0910299999999991
 30
0.0
 70
    32
  0
VERTEX
  5
10EB0
  8
0
 10
-0.668678
 20
1.04
 30
0.0
 70
    32
  0
VERTEX
  5
10EB1
  8
0
 10
-0.6678720000000001
 20
0.9889699999999999
 30
0.0
 70
    32
  0
VERTEX
  5
10EB2
  8
0
 10
-0.6654580000000001
 20
0.938062
 30
0.0
 70
    32
  0
VERTEX
  5
10EB3
  8
0
 10
-0.6614399999999999
 20
0.8873999999999997
 30
0.0
 70
    32
  0
VERTEX
  5
10EB4
  8
0
 10
-0.655829
 20
0.8371059999999999
 30
0.0
 70
    32
  0
VERTEX
  5
10EB5
  8
0
 10
-0.6486380000000001
 20
0.7873010000000003
 30
0.0
 70
    32
  0
VERTEX
  5
10EB6
  8
0
 10
-0.6398850000000002
 20
0.738104
 30
0.0
 70
    32
  0
VERTEX
  5
10EB7
  8
0
 10
-0.6295890000000001
 20
0.689635
 30
0.0
 70
    32
  0
VERTEX
  5
10EB8
  8
0
 10
-0.6177780000000001
 20
0.6420090000000001
 30
0.0
 70
    32
  0
VERTEX
  5
10EB9
  8
0
 10
-0.6044770000000002
 20
0.5953430000000001
 30
0.0
 70
    32
  0
VERTEX
  5
10EBA
  8
0
 10
-0.5897210000000001
 20
0.549747
 30
0.0
 70
    32
  0
VERTEX
  5
10EBB
  8
0
 10
-0.5735440000000001
 20
0.5053330000000003
 30
0.0
 70
    32
  0
VERTEX
  5
10EBC
  8
0
 10
-0.5559850000000001
 20
0.462207
 30
0.0
 70
    32
  0
VERTEX
  5
10EBD
  8
0
 10
-0.537087
 20
0.420473
 30
0.0
 70
    32
  0
VERTEX
  5
10EBE
  8
0
 10
-0.516895
 20
0.380231
 30
0.0
 70
    32
  0
VERTEX
  5
10EBF
  8
0
 10
-0.495457
 20
0.341579
 30
0.0
 70
    32
  0
VERTEX
  5
10EC0
  8
0
 10
-0.4728260000000001
 20
0.304609
 30
0.0
 70
    32
  0
VERTEX
  5
10EC1
  8
0
 10
-0.4490560000000002
 20
0.269411
 30
0.0
 70
    32
  0
VERTEX
  5
10EC2
  8
0
 10
-0.424205
 20
0.236069
 30
0.0
 70
    32
  0
VERTEX
  5
10EC3
  8
0
 10
-0.398331
 20
0.204664
 30
0.0
 70
    32
  0
VERTEX
  5
10EC4
  8
0
 10
-0.371497
 20
0.175272
 30
0.0
 70
    32
  0
VERTEX
  5
10EC5
  8
0
 10
-0.343769
 20
0.147962
 30
0.0
 70
    32
  0
VERTEX
  5
10EC6
  8
0
 10
-0.315212
 20
0.122802
 30
0.0
 70
    32
  0
VERTEX
  5
10EC7
  8
0
 10
-0.2858969999999999
 20
0.0998511
 30
0.0
 70
    32
  0
VERTEX
  5
10EC8
  8
0
 10
-0.255892
 20
0.0791653
 30
0.0
 70
    32
  0
VERTEX
  5
10EC9
  8
0
 10
-0.225271
 20
0.0607942
 30
0.0
 70
    32
  0
VERTEX
  5
10ECA
  8
0
 10
-0.194107
 20
0.0447821
 30
0.0
 70
    32
  0
VERTEX
  5
10ECB
  8
0
 10
-0.162475
 20
0.0311675
 30
0.0
 70
    32
  0
VERTEX
  5
10ECC
  8
0
 10
-0.130453
 20
0.0199833
 30
0.0
 70
    32
  0
VERTEX
  5
10ECD
  8
0
 10
-0.0981154
 20
0.0112564
 30
0.0
 70
    32
  0
VERTEX
  5
10ECE
  8
0
 10
-0.0655419
 20
0.00500788
 30
0.0
 70
    32
  0
VERTEX
  5
10ECF
  8
0
 10
-0.0328105
 20
0.00125273
 30
0.0
 70
    32
  0
VERTEX
  5
10ED0
  8
0
 10
0.0
 20
0.000000000000014
 30
0.0
 70
    32
  0
SEQEND
  5
10ED1
  8
0
  0
ENDBLK
  5
10ED2
  8
0
  0
ENDSEC
  0
SECTION
  2
ENTITIES
  0
TEXT
  5
10ED3
  8
0
  6
CONTINUOUS
 62
     7
 10
56.193270999999989
 20
223.0527799999999
 30
0.0
 40
8.4666671999999998
  1
HF-MP23
  0
POLYLINE
  5
10ED4
  8
HIDDEN
 66
     1
 10
0.0
 20
0.0
 30
0.0
  0
VERTEX
  5
118F9
  8
HIDDEN
 10
221.06746640752439
 20
121.4886550423997
 30
0.0
  0
VERTEX
  5
118FA
  8
HIDDEN
 10
220.8170662213744
 20
125.0292993491
 30
0.0
  0
VERTEX
  5
118FB
  8
HIDDEN
 10
220.76857947387421
 20
125.2904187259
 30
0.0
  0
VERTEX
  5
118FC
  8
HIDDEN
 10
220.71693952347431
 20
125.5070423496998
 30
0.0
  0
VERTEX
  5
118FD
  8
HIDDEN
 10
220.6645318581744
 20
125.6719212556999
 30
0.0
  0
VERTEX
  5
118FE
  8
HIDDEN
 10
220.60847922197439
 20
125.7941075319999
 30
0.0
  0
VERTEX
  5
118FF
  8
HIDDEN
 10
220.56925413402439
 20
125.8611503061999
 30
0.0
  0
SEQEND
  5
11900
  8
HIDDEN
  0
LINE
  5
10EDD
  8
HIDDEN
 10
166.25576621733771
 20
120.3967775991688
 30
0.0
 11
166.25576621732441
 21
129.02222
 31
0.0
  0
INSERT
  5
10EDE
  8
1
  2
A$C3C4259C2
 10
236.63310522154569
 20
118.2246154193359
 30
0.0
 41
-1.5615775000000021
 42
1.5615774999999841
 43
1.5615775000000001
  0
LINE
  5
10EDF
  8
HIDDEN
 10
195.51746640812431
 20
120.9222199999999
 30
0.0
 11
195.51746640812431
 21
126.1222199999999
 31
0.0
  0
LINE
  5
10EE0
  8
HIDDEN
 10
106.2611179999499
 20
118.9222199999999
 30
0.0
 11
106.2611179999499
 21
126.1222199999999
 31
0.0
  0
LINE
  5
10EE1
  8
HIDDEN
 10
75.005656630049984
 20
123.0254452149869
 30
0.0
 11
75.005656630049984
 21
120.413820209787
 31
0.0
  0
LINE
  5
10EE2
  8
CENTER
 10
96.811117999999965
 20
134.0347482769242
 30
0.0
 11
96.811117999999965
 21
112.9666691681616
 31
0.0
  0
LINE
  5
10EE3
  8
CENTER
 10
80.911117999999973
 20
134.0347482769242
 30
0.0
 11
80.911117999999973
 21
113.6763035774954
 31
0.0
  0
LINE
  5
10EE4
  8
CENTER
 10
90.911118000000002
 20
195.73991167614511
 30
0.0
 11
90.911117999999959
 21
110.1267141867086
 31
0.0
  0
LINE
  5
10EE5
  8
CENTER
 10
176.3674664081243
 20
118.235622121197
 30
0.0
 11
176.3674664081243
 21
135.237376850266
 31
0.0
  0
LINE
  5
10EE6
  8
CENTER
 10
201.86746640812439
 20
120.5376262139707
 30
0.0
 11
201.86746640812439
 21
136.31261133017199
 31
0.0
  0
ARC
  5
10EE7
  8
HIDDEN
 10
91.361117999950011
 20
118.9222199999999
 30
0.0
 40
4.0
 50
226.9037386681004
 51
270.0
  0
LINE
  5
10EE8
  8
HIDDEN
 10
85.146210343549654
 20
116.0254452149868
 30
0.0
 11
79.022513861508699
 21
116.0254464841907
 31
0.0
  0
LINE
  5
10EE9
  8
HIDDEN
 10
91.361117999950011
 20
114.9222199999998
 30
0.0
 11
102.2611179983094
 21
114.9222199999998
 31
0.0
  0
ARC
  5
10EEA
  8
HIDDEN
 10
102.26111799995
 20
118.9222199999999
 30
0.0
 40
4.0
 50
269.99999997649991
 51
0.0
  0
ARC
  5
10EEB
  8
HIDDEN
 10
172.8429916283317
 20
123.1684638604562
 30
0.0
 40
7.146592429001509
 50
202.8197457139016
 51
270.56775375275549
  0
LINE
  5
10EEC
  8
HIDDEN
 10
192.58917921172431
 20
116.0222199999999
 30
0.0
 11
172.91380728532431
 21
116.02222229659991
 31
0.0
  0
LINE
  5
10EED
  8
HIDDEN
 10
220.83289789194239
 20
118.22221999999979
 30
0.0
 11
236.64385140752441
 21
118.22221999999979
 31
0.0
  0
LINE
  5
10EEE
  8
HIDDEN
 10
216.86341879759919
 20
114.9222199999998
 30
0.0
 11
201.51746640812399
 21
114.92222
 31
0.0
  0
ARC
  5
10EEF
  8
HIDDEN
 10
201.51746640812399
 20
120.9222199999999
 30
0.0
 40
6.0
 50
180.0
 51
269.99999999230062
  0
LINE
  5
10EF0
  8
HIDDEN
 10
196.12123322002441
 20
117.2222199999995
 30
0.0
 11
194.73846954322411
 21
117.2222199999995
 31
0.0
  0
LINE
  5
10EF1
  8
HIDDEN
 10
194.78759412022441
 20
117.2222199999995
 30
0.0
 11
193.55768097682409
 21
116.3376786101999
 31
0.0
  0
LINE
  5
10EF2
  8
HIDDEN
 10
220.56925413402439
 20
117.0832896937999
 30
0.0
 11
216.86341879759919
 21
114.9222199999998
 31
0.0
  0
POLYLINE
  5
10EF3
  8
HIDDEN
 66
     1
 10
0.0
 20
0.0
 30
0.0
  0
VERTEX
  5
11901
  8
HIDDEN
 10
220.56925413402439
 20
117.0832896937999
 30
0.0
  0
VERTEX
  5
11902
  8
HIDDEN
 10
220.60578308807439
 20
117.1748118504
 30
0.0
  0
VERTEX
  5
11903
  8
HIDDEN
 10
220.66191141677439
 20
117.2946357477
 30
0.0
  0
VERTEX
  5
11904
  8
HIDDEN
 10
220.71613434937399
 20
117.4634991375999
 30
0.0
  0
VERTEX
  5
11905
  8
HIDDEN
 10
220.76619630227441
 20
117.6717510777999
 30
0.0
  0
VERTEX
  5
11906
  8
HIDDEN
 10
220.81484574837441
 20
117.9308248981
 30
0.0
  0
VERTEX
  5
11907
  8
HIDDEN
 10
221.06746640752439
 20
121.4886550423997
 30
0.0
  0
SEQEND
  5
11908
  8
HIDDEN
  0
LINE
  5
10EFC
  8
CENTER
 10
109.61359985402341
 20
143.3197381459764
 30
0.0
 11
121.3547106543503
 21
131.57862734564941
 31
0.0
  0
LINE
  5
10EFD
  8
CENTER
 10
109.61359985402351
 20
180.72470185402341
 30
0.0
 11
121.3547106543503
 21
192.4658126543504
 31
0.0
  0
LINE
  5
10EFE
  8
CENTER
 10
126.20780704149981
 20
162.02222
 30
0.0
 11
55.61442895850017
 21
162.02222
 31
0.0
  0
LINE
  5
10EFF
  8
0
 62
     5
 10
110.47048656165001
 20
192.02221999999941
 30
0.0
 11
116.4111179999497
 21
192.02221999999941
 31
0.0
  0
ARC
  5
10F00
  8
0
 62
     5
 10
110.5525622201498
 20
184.02222
 30
0.0
 40
1.0
 50
28.289069654297659
 51
90.0
  0
ARC
  5
10F01
  8
0
 62
     5
 10
115.65985534155
 20
186.77095734150001
 30
0.0
 40
4.5338355998999971
 50
183.68757177850171
 51
266.31242822149972
  0
ARC
  5
10F02
  8
0
 62
     5
 10
110.8550966914499
 20
140.52221999999969
 30
0.0
 40
1.0
 50
270.0
 51
325.93541006420128
  0
LINE
  5
10F03
  8
0
 62
     5
 10
116.4111179999497
 20
132.02221999999969
 30
0.0
 11
110.73723592005
 21
132.02221999999969
 31
0.0
  0
ARC
  5
10F04
  8
0
 62
     5
 10
-268.34345193594982
 20
162.02221999999981
 30
0.0
 40
380.26616440010002
 50
355.43488272469762
 51
356.31242822149801
  0
ARC
  5
10F05
  8
0
 62
     5
 10
115.65985534155
 20
137.2734826584998
 30
0.0
 40
4.5338355998999971
 50
93.687571778500185
 51
176.3124282214981
  0
ARC
  5
10F06
  8
0
 62
     5
 10
115.65985534155
 20
137.2734826584998
 30
0.0
 40
4.799999999999998
 50
93.687571778500185
 51
176.3124282214981
  0
ARC
  5
10F07
  8
0
 62
     5
 10
115.65985534155
 20
186.77095734150001
 30
0.0
 40
4.799999999999998
 50
183.68757177850171
 51
266.31242822149972
  0
LINE
  5
10F08
  8
CENTER
 10
72.208636145976484
 20
180.72470185402341
 30
0.0
 11
60.467525345649513
 21
192.4658126543504
 31
0.0
  0
LINE
  5
10F09
  8
0
 62
     5
 10
67.911117999950022
 20
181.66366422019971
 30
0.0
 11
67.911117999950022
 21
178.3222199999999
 31
0.0
  0
ARC
  5
10F0A
  8
0
 62
     5
 10
61.911117999950008
 20
180.65652261790001
 30
0.0
 40
1.0
 50
94.388399157499776
 51
180.0
  0
ARC
  5
10F0B
  8
0
 62
     5
 10
69.622326411831366
 20
135.02222
 30
0.0
 40
1.5
 50
270.0
 51
4.0584021088592062
  0
ARC
  5
10F0C
  8
HIDDEN
 10
70.221283120350023
 20
124.5254452149868
 30
0.0
 40
1.5
 50
180.0
 51
270.0
  0
ARC
  5
10F0D
  8
CENTER
 10
90.911117999999959
 20
162.02222
 30
0.0
 40
34.999999999958803
 50
216.25402293116221
 51
234.3810343967447
  0
LINE
  5
10F0E
  8
CENTER
 10
72.208636145976413
 20
143.3197381459764
 30
0.0
 11
60.467525345649513
 21
131.57862734564941
 31
0.0
  0
ARC
  5
10F0F
  8
0
 62
     5
 10
66.162380658450019
 20
137.2734826584998
 30
0.0
 40
4.5338355998999971
 50
3.6875717785018272
 51
86.3124282214998
  0
ARC
  5
10F10
  8
0
 62
     5
 10
66.162380658450019
 20
137.2734826584998
 30
0.0
 40
4.799999999999998
 50
3.6875717785018272
 51
86.3124282214998
  0
LINE
  5
10F11
  8
0
 62
     5
 10
68.721287705549997
 20
129.02222
 30
0.0
 11
93.100948294350005
 21
129.02222
 31
0.0
  0
LINE
  5
10F12
  8
0
 62
     5
 10
67.411117999950022
 20
130.02221999999961
 30
0.0
 11
95.411117999949994
 21
130.02221999999961
 31
0.0
  0
LINE
  5
10F13
  8
0
 62
     5
 10
60.64495359995
 20
143.14146793659981
 30
0.0
 11
60.64495359995
 21
180.9029720634
 31
0.0
  0
LINE
  5
10F14
  8
0
 62
     5
 10
60.911117999949973
 20
180.65652261790001
 30
0.0
 11
60.911117999949973
 21
143.3879173820994
 31
0.0
  0
LINE
  5
10F15
  8
0
 62
     5
 10
60.911117999949973
 20
136.52222
 30
0.0
 11
60.911117999949973
 21
142.46285143840001
 31
0.0
  0
CIRCLE
  5
10F16
  8
0
 62
     5
 10
66.162380658450019
 20
137.2734826584998
 30
0.0
 40
2.8999999999999981
  0
LINE
  5
10F17
  8
0
 62
     5
 10
68.721283120350009
 20
129.02222
 30
0.0
 11
68.721283120350009
 21
130.02221999999961
 31
0.0
  0
LINE
  5
10F18
  8
0
 62
     5
 10
68.770529757950015
 20
130.02221999999961
 30
0.0
 11
68.770529757950015
 21
129.02222
 31
0.0
  0
LINE
  5
10F19
  8
HIDDEN
 10
68.721283120350009
 20
124.5254452149868
 30
0.0
 11
68.721283120350009
 21
127.2754452149869
 31
0.0
  0
ARC
  5
10F1A
  8
0
 62
     5
 10
65.411117999950022
 20
136.52222
 30
0.0
 40
4.5
 50
180.0
 51
270.0
  0
LINE
  5
10F1B
  8
0
 62
     5
 10
69.842555078150028
 20
133.02377165870001
 30
0.0
 11
69.816443074649953
 21
133.52299583359991
 31
0.0
  0
POLYLINE
  5
10F1C
  8
0
 62
     5
 66
     1
 10
0.0
 20
0.0
 30
0.0
 70
     8
  0
VERTEX
  5
10F1D
  8
0
 62
     5
 10
69.816400000000002
 20
133.52299999999991
 30
0.0
 70
    32
  0
VERTEX
  5
10F1E
  8
0
 62
     5
 10
69.816000000000003
 20
133.52299999999991
 30
0.0
 70
    32
  0
VERTEX
  5
10F1F
  8
0
 62
     5
 10
69.8155
 20
133.52299999999991
 30
0.0
 70
    32
  0
VERTEX
  5
10F20
  8
0
 62
     5
 10
69.815100000000001
 20
133.52299999999991
 30
0.0
 70
    32
  0
VERTEX
  5
10F21
  8
0
 62
     5
 10
69.814599999999999
 20
133.52299999999991
 30
0.0
 70
    32
  0
VERTEX
  5
10F22
  8
0
 62
     5
 10
69.814199999999985
 20
133.52299999999991
 30
0.0
 70
    32
  0
VERTEX
  5
10F23
  8
0
 62
     5
 10
69.813699999999997
 20
133.52299999999991
 30
0.0
 70
    32
  0
VERTEX
  5
10F24
  8
0
 62
     5
 10
69.813299999999984
 20
133.52299999999991
 30
0.0
 70
    32
  0
VERTEX
  5
10F25
  8
0
 62
     5
 10
69.812799999999996
 20
133.52299999999991
 30
0.0
 70
    32
  0
VERTEX
  5
10F26
  8
0
 62
     5
 10
69.812399999999997
 20
133.52299999999991
 30
0.0
 70
    32
  0
VERTEX
  5
10F27
  8
0
 62
     5
 10
69.811899999999994
 20
133.52299999999991
 30
0.0
 70
    32
  0
VERTEX
  5
10F28
  8
0
 62
     5
 10
69.811499999999995
 20
133.52299999999991
 30
0.0
 70
    32
  0
VERTEX
  5
10F29
  8
0
 62
     5
 10
69.811000000000007
 20
133.52299999999991
 30
0.0
 70
    32
  0
VERTEX
  5
10F2A
  8
0
 62
     5
 10
69.810599999999994
 20
133.52299999999991
 30
0.0
 70
    32
  0
VERTEX
  5
10F2B
  8
0
 62
     5
 10
69.810100000000006
 20
133.52299999999991
 30
0.0
 70
    32
  0
VERTEX
  5
10F2C
  8
0
 62
     5
 10
69.809700000000007
 20
133.52299999999991
 30
0.0
 70
    32
  0
VERTEX
  5
10F2D
  8
0
 62
     5
 10
69.809200000000004
 20
133.52299999999991
 30
0.0
 70
    32
  0
VERTEX
  5
10F2E
  8
0
 62
     5
 10
69.808800000000005
 20
133.52299999999991
 30
0.0
 70
    32
  0
VERTEX
  5
10F2F
  8
0
 62
     5
 10
69.808300000000003
 20
133.52299999999991
 30
0.0
 70
    32
  0
VERTEX
  5
10F30
  8
0
 62
     5
 10
69.807900000000004
 20
133.52299999999991
 30
0.0
 70
    32
  0
VERTEX
  5
10F31
  8
0
 62
     5
 10
69.807400000000001
 20
133.52299999999991
 30
0.0
 70
    32
  0
VERTEX
  5
10F32
  8
0
 62
     5
 10
69.807000000000002
 20
133.52299999999991
 30
0.0
 70
    32
  0
VERTEX
  5
10F33
  8
0
 62
     5
 10
69.8065
 20
133.52299999999991
 30
0.0
 70
    32
  0
VERTEX
  5
10F34
  8
0
 62
     5
 10
69.806100000000001
 20
133.52299999999991
 30
0.0
 70
    32
  0
VERTEX
  5
10F35
  8
0
 62
     5
 10
69.805599999999998
 20
133.52299999999991
 30
0.0
 70
    32
  0
VERTEX
  5
10F36
  8
0
 62
     5
 10
69.805199999999999
 20
133.52299999999991
 30
0.0
 70
    32
  0
VERTEX
  5
10F37
  8
0
 62
     5
 10
69.804699999999997
 20
133.52299999999991
 30
0.0
 70
    32
  0
VERTEX
  5
10F38
  8
0
 62
     5
 10
69.804299999999998
 20
133.52299999999991
 30
0.0
 70
    32
  0
VERTEX
  5
10F39
  8
0
 62
     5
 10
69.803799999999995
 20
133.52299999999991
 30
0.0
 70
    32
  0
VERTEX
  5
10F3A
  8
0
 62
     5
 10
69.803399999999996
 20
133.52299999999991
 30
0.0
 70
    32
  0
VERTEX
  5
10F3B
  8
0
 62
     5
 10
69.802899999999994
 20
133.52299999999991
 30
0.0
 70
    32
  0
VERTEX
  5
10F3C
  8
0
 62
     5
 10
69.802499999999995
 20
133.52299999999991
 30
0.0
 70
    32
  0
VERTEX
  5
10F3D
  8
0
 62
     5
 10
69.802000000000007
 20
133.52299999999991
 30
0.0
 70
    32
  0
VERTEX
  5
10F3E
  8
0
 62
     5
 10
69.801599999999993
 20
133.52299999999991
 30
0.0
 70
    32
  0
VERTEX
  5
10F3F
  8
0
 62
     5
 10
69.801100000000005
 20
133.52299999999991
 30
0.0
 70
    32
  0
VERTEX
  5
10F40
  8
0
 62
     5
 10
69.800700000000006
 20
133.52299999999991
 30
0.0
 70
    32
  0
VERTEX
  5
10F41
  8
0
 62
     5
 10
69.800200000000004
 20
133.52299999999991
 30
0.0
 70
    32
  0
VERTEX
  5
10F42
  8
0
 62
     5
 10
69.799800000000005
 20
133.52299999999991
 30
0.0
 70
    32
  0
VERTEX
  5
10F43
  8
0
 62
     5
 10
69.799300000000002
 20
133.52299999999991
 30
0.0
 70
    32
  0
VERTEX
  5
10F44
  8
0
 62
     5
 10
69.798900000000003
 20
133.52299999999991
 30
0.0
 70
    32
  0
VERTEX
  5
10F45
  8
0
 62
     5
 10
69.798400000000001
 20
133.52299999999991
 30
0.0
 70
    32
  0
VERTEX
  5
10F46
  8
0
 62
     5
 10
69.798000000000002
 20
133.52299999999991
 30
0.0
 70
    32
  0
VERTEX
  5
10F47
  8
0
 62
     5
 10
69.797499999999999
 20
133.52299999999991
 30
0.0
 70
    32
  0
VERTEX
  5
10F48
  8
0
 62
     5
 10
69.7971
 20
133.52299999999991
 30
0.0
 70
    32
  0
VERTEX
  5
10F49
  8
0
 62
     5
 10
69.796599999999984
 20
133.52299999999991
 30
0.0
 70
    32
  0
VERTEX
  5
10F4A
  8
0
 62
     5
 10
69.796199999999999
 20
133.52299999999991
 30
0.0
 70
    32
  0
VERTEX
  5
10F4B
  8
0
 62
     5
 10
69.795699999999997
 20
133.52299999999991
 30
0.0
 70
    32
  0
VERTEX
  5
10F4C
  8
0
 62
     5
 10
69.795299999999997
 20
133.52299999999991
 30
0.0
 70
    32
  0
VERTEX
  5
10F4D
  8
0
 62
     5
 10
69.794799999999995
 20
133.52299999999991
 30
0.0
 70
    32
  0
VERTEX
  5
10F4E
  8
0
 62
     5
 10
69.794399999999996
 20
133.52299999999991
 30
0.0
 70
    32
  0
VERTEX
  5
10F4F
  8
0
 62
     5
 10
69.793899999999994
 20
133.52299999999991
 30
0.0
 70
    32
  0
VERTEX
  5
10F50
  8
0
 62
     5
 10
69.793499999999995
 20
133.52299999999991
 30
0.0
 70
    32
  0
VERTEX
  5
10F51
  8
0
 62
     5
 10
69.793000000000006
 20
133.52299999999991
 30
0.0
 70
    32
  0
VERTEX
  5
10F52
  8
0
 62
     5
 10
69.792599999999993
 20
133.52299999999991
 30
0.0
 70
    32
  0
VERTEX
  5
10F53
  8
0
 62
     5
 10
69.792100000000005
 20
133.52399999999949
 30
0.0
 70
    32
  0
VERTEX
  5
10F54
  8
0
 62
     5
 10
69.791700000000006
 20
133.52399999999949
 30
0.0
 70
    32
  0
VERTEX
  5
10F55
  8
0
 62
     5
 10
69.791200000000003
 20
133.52399999999949
 30
0.0
 70
    32
  0
VERTEX
  5
10F56
  8
0
 62
     5
 10
69.790800000000004
 20
133.52399999999949
 30
0.0
 70
    32
  0
VERTEX
  5
10F57
  8
0
 62
     5
 10
69.790300000000002
 20
133.52399999999949
 30
0.0
 70
    32
  0
VERTEX
  5
10F58
  8
0
 62
     5
 10
69.789799999999985
 20
133.52399999999949
 30
0.0
 70
    32
  0
VERTEX
  5
10F59
  8
0
 62
     5
 10
69.789400000000001
 20
133.52399999999949
 30
0.0
 70
    32
  0
VERTEX
  5
10F5A
  8
0
 62
     5
 10
69.788899999999984
 20
133.52399999999949
 30
0.0
 70
    32
  0
VERTEX
  5
10F5B
  8
0
 62
     5
 10
69.788499999999999
 20
133.52399999999949
 30
0.0
 70
    32
  0
VERTEX
  5
10F5C
  8
0
 62
     5
 10
69.787999999999997
 20
133.52399999999949
 30
0.0
 70
    32
  0
VERTEX
  5
10F5D
  8
0
 62
     5
 10
69.787599999999998
 20
133.52399999999949
 30
0.0
 70
    32
  0
VERTEX
  5
10F5E
  8
0
 62
     5
 10
69.787099999999995
 20
133.52399999999949
 30
0.0
 70
    32
  0
VERTEX
  5
10F5F
  8
0
 62
     5
 10
69.786699999999996
 20
133.52399999999949
 30
0.0
 70
    32
  0
VERTEX
  5
10F60
  8
0
 62
     5
 10
69.786199999999994
 20
133.52399999999949
 30
0.0
 70
    32
  0
VERTEX
  5
10F61
  8
0
 62
     5
 10
69.785799999999995
 20
133.52399999999949
 30
0.0
 70
    32
  0
VERTEX
  5
10F62
  8
0
 62
     5
 10
69.785300000000007
 20
133.52399999999949
 30
0.0
 70
    32
  0
VERTEX
  5
10F63
  8
0
 62
     5
 10
69.784899999999993
 20
133.52399999999949
 30
0.0
 70
    32
  0
VERTEX
  5
10F64
  8
0
 62
     5
 10
69.784400000000005
 20
133.52399999999949
 30
0.0
 70
    32
  0
VERTEX
  5
10F65
  8
0
 62
     5
 10
69.784000000000006
 20
133.52399999999949
 30
0.0
 70
    32
  0
VERTEX
  5
10F66
  8
0
 62
     5
 10
69.783500000000004
 20
133.52399999999949
 30
0.0
 70
    32
  0
VERTEX
  5
10F67
  8
0
 62
     5
 10
69.783100000000005
 20
133.52399999999949
 30
0.0
 70
    32
  0
VERTEX
  5
10F68
  8
0
 62
     5
 10
69.782600000000002
 20
133.52399999999949
 30
0.0
 70
    32
  0
VERTEX
  5
10F69
  8
0
 62
     5
 10
69.782200000000003
 20
133.52399999999949
 30
0.0
 70
    32
  0
VERTEX
  5
10F6A
  8
0
 62
     5
 10
69.781700000000001
 20
133.52399999999949
 30
0.0
 70
    32
  0
VERTEX
  5
10F6B
  8
0
 62
     5
 10
69.781300000000002
 20
133.52399999999949
 30
0.0
 70
    32
  0
VERTEX
  5
10F6C
  8
0
 62
     5
 10
69.780799999999999
 20
133.52399999999949
 30
0.0
 70
    32
  0
VERTEX
  5
10F6D
  8
0
 62
     5
 10
69.7804
 20
133.52399999999949
 30
0.0
 70
    32
  0
VERTEX
  5
10F6E
  8
0
 62
     5
 10
69.779899999999998
 20
133.52399999999949
 30
0.0
 70
    32
  0
VERTEX
  5
10F6F
  8
0
 62
     5
 10
69.779499999999985
 20
133.52399999999949
 30
0.0
 70
    32
  0
VERTEX
  5
10F70
  8
0
 62
     5
 10
69.778999999999996
 20
133.52399999999949
 30
0.0
 70
    32
  0
VERTEX
  5
10F71
  8
0
 62
     5
 10
69.778599999999983
 20
133.52399999999949
 30
0.0
 70
    32
  0
VERTEX
  5
10F72
  8
0
 62
     5
 10
69.778099999999995
 20
133.52399999999949
 30
0.0
 70
    32
  0
VERTEX
  5
10F73
  8
0
 62
     5
 10
69.777699999999996
 20
133.52399999999949
 30
0.0
 70
    32
  0
VERTEX
  5
10F74
  8
0
 62
     5
 10
69.777199999999993
 20
133.52399999999949
 30
0.0
 70
    32
  0
VERTEX
  5
10F75
  8
0
 62
     5
 10
69.776799999999994
 20
133.52399999999949
 30
0.0
 70
    32
  0
VERTEX
  5
10F76
  8
0
 62
     5
 10
69.776300000000006
 20
133.52399999999949
 30
0.0
 70
    32
  0
VERTEX
  5
10F77
  8
0
 62
     5
 10
69.775899999999993
 20
133.52399999999949
 30
0.0
 70
    32
  0
VERTEX
  5
10F78
  8
0
 62
     5
 10
69.775400000000005
 20
133.52399999999949
 30
0.0
 70
    32
  0
VERTEX
  5
10F79
  8
0
 62
     5
 10
69.775000000000006
 20
133.52399999999949
 30
0.0
 70
    32
  0
VERTEX
  5
10F7A
  8
0
 62
     5
 10
69.774500000000003
 20
133.52399999999949
 30
0.0
 70
    32
  0
VERTEX
  5
10F7B
  8
0
 62
     5
 10
69.774100000000004
 20
133.52399999999949
 30
0.0
 70
    32
  0
VERTEX
  5
10F7C
  8
0
 62
     5
 10
69.773600000000002
 20
133.52399999999949
 30
0.0
 70
    32
  0
VERTEX
  5
10F7D
  8
0
 62
     5
 10
69.773200000000003
 20
133.52399999999949
 30
0.0
 70
    32
  0
VERTEX
  5
10F7E
  8
0
 62
     5
 10
69.7727
 20
133.52399999999949
 30
0.0
 70
    32
  0
VERTEX
  5
10F7F
  8
0
 62
     5
 10
69.772300000000001
 20
133.52399999999949
 30
0.0
 70
    32
  0
VERTEX
  5
10F80
  8
0
 62
     5
 10
69.771799999999999
 20
133.52399999999949
 30
0.0
 70
    32
  0
VERTEX
  5
10F81
  8
0
 62
     5
 10
69.7714
 20
133.52399999999949
 30
0.0
 70
    32
  0
VERTEX
  5
10F82
  8
0
 62
     5
 10
69.770899999999997
 20
133.52399999999949
 30
0.0
 70
    32
  0
VERTEX
  5
10F83
  8
0
 62
     5
 10
69.770499999999998
 20
133.52399999999949
 30
0.0
 70
    32
  0
VERTEX
  5
10F84
  8
0
 62
     5
 10
69.769999999999996
 20
133.52399999999949
 30
0.0
 70
    32
  0
VERTEX
  5
10F85
  8
0
 62
     5
 10
69.769599999999997
 20
133.52399999999949
 30
0.0
 70
    32
  0
VERTEX
  5
10F86
  8
0
 62
     5
 10
69.769099999999995
 20
133.52399999999949
 30
0.0
 70
    32
  0
VERTEX
  5
10F87
  8
0
 62
     5
 10
69.768699999999995
 20
133.52399999999949
 30
0.0
 70
    32
  0
VERTEX
  5
10F88
  8
0
 62
     5
 10
69.768199999999993
 20
133.52399999999949
 30
0.0
 70
    32
  0
VERTEX
  5
10F89
  8
0
 62
     5
 10
69.767799999999994
 20
133.52399999999949
 30
0.0
 70
    32
  0
VERTEX
  5
10F8A
  8
0
 62
     5
 10
69.767300000000006
 20
133.52399999999949
 30
0.0
 70
    32
  0
VERTEX
  5
10F8B
  8
0
 62
     5
 10
69.766900000000007
 20
133.52399999999949
 30
0.0
 70
    32
  0
VERTEX
  5
10F8C
  8
0
 62
     5
 10
69.766400000000004
 20
133.52399999999949
 30
0.0
 70
    32
  0
VERTEX
  5
10F8D
  8
0
 62
     5
 10
69.765900000000002
 20
133.52399999999949
 30
0.0
 70
    32
  0
VERTEX
  5
10F8E
  8
0
 62
     5
 10
69.765500000000003
 20
133.52399999999949
 30
0.0
 70
    32
  0
VERTEX
  5
10F8F
  8
0
 62
     5
 10
69.765000000000001
 20
133.52399999999949
 30
0.0
 70
    32
  0
VERTEX
  5
10F90
  8
0
 62
     5
 10
69.764600000000002
 20
133.52399999999949
 30
0.0
 70
    32
  0
VERTEX
  5
10F91
  8
0
 62
     5
 10
69.764099999999999
 20
133.52399999999949
 30
0.0
 70
    32
  0
VERTEX
  5
10F92
  8
0
 62
     5
 10
69.7637
 20
133.52399999999949
 30
0.0
 70
    32
  0
VERTEX
  5
10F93
  8
0
 62
     5
 10
69.763199999999998
 20
133.52399999999949
 30
0.0
 70
    32
  0
VERTEX
  5
10F94
  8
0
 62
     5
 10
69.762799999999999
 20
133.52399999999949
 30
0.0
 70
    32
  0
VERTEX
  5
10F95
  8
0
 62
     5
 10
69.762299999999996
 20
133.52399999999949
 30
0.0
 70
    32
  0
VERTEX
  5
10F96
  8
0
 62
     5
 10
69.761899999999983
 20
133.52399999999949
 30
0.0
 70
    32
  0
VERTEX
  5
10F97
  8
0
 62
     5
 10
69.761399999999995
 20
133.52399999999949
 30
0.0
 70
    32
  0
VERTEX
  5
10F98
  8
0
 62
     5
 10
69.760999999999996
 20
133.52399999999949
 30
0.0
 70
    32
  0
VERTEX
  5
10F99
  8
0
 62
     5
 10
69.760499999999993
 20
133.52399999999949
 30
0.0
 70
    32
  0
VERTEX
  5
10F9A
  8
0
 62
     5
 10
69.760099999999994
 20
133.52399999999949
 30
0.0
 70
    32
  0
VERTEX
  5
10F9B
  8
0
 62
     5
 10
69.759600000000006
 20
133.52399999999949
 30
0.0
 70
    32
  0
VERTEX
  5
10F9C
  8
0
 62
     5
 10
69.759200000000007
 20
133.52399999999949
 30
0.0
 70
    32
  0
VERTEX
  5
10F9D
  8
0
 62
     5
 10
69.758700000000005
 20
133.52399999999949
 30
0.0
 70
    32
  0
VERTEX
  5
10F9E
  8
0
 62
     5
 10
69.758300000000006
 20
133.52399999999949
 30
0.0
 70
    32
  0
VERTEX
  5
10F9F
  8
0
 62
     5
 10
69.757800000000003
 20
133.52399999999949
 30
0.0
 70
    32
  0
VERTEX
  5
10FA0
  8
0
 62
     5
 10
69.757400000000004
 20
133.52399999999949
 30
0.0
 70
    32
  0
VERTEX
  5
10FA1
  8
0
 62
     5
 10
69.756900000000002
 20
133.52399999999949
 30
0.0
 70
    32
  0
VERTEX
  5
10FA2
  8
0
 62
     5
 10
69.756500000000003
 20
133.52399999999949
 30
0.0
 70
    32
  0
VERTEX
  5
10FA3
  8
0
 62
     5
 10
69.756
 20
133.52399999999949
 30
0.0
 70
    32
  0
VERTEX
  5
10FA4
  8
0
 62
     5
 10
69.755600000000001
 20
133.52399999999949
 30
0.0
 70
    32
  0
VERTEX
  5
10FA5
  8
0
 62
     5
 10
69.755099999999985
 20
133.52399999999949
 30
0.0
 70
    32
  0
VERTEX
  5
10FA6
  8
0
 62
     5
 10
69.7547
 20
133.52399999999949
 30
0.0
 70
    32
  0
VERTEX
  5
10FA7
  8
0
 62
     5
 10
69.754199999999983
 20
133.52399999999949
 30
0.0
 70
    32
  0
VERTEX
  5
10FA8
  8
0
 62
     5
 10
69.753799999999998
 20
133.52399999999949
 30
0.0
 70
    32
  0
VERTEX
  5
10FA9
  8
0
 62
     5
 10
69.753299999999996
 20
133.52399999999949
 30
0.0
 70
    32
  0
VERTEX
  5
10FAA
  8
0
 62
     5
 10
69.752899999999997
 20
133.52399999999949
 30
0.0
 70
    32
  0
VERTEX
  5
10FAB
  8
0
 62
     5
 10
69.752399999999994
 20
133.52399999999949
 30
0.0
 70
    32
  0
VERTEX
  5
10FAC
  8
0
 62
     5
 10
69.751999999999995
 20
133.52399999999949
 30
0.0
 70
    32
  0
VERTEX
  5
10FAD
  8
0
 62
     5
 10
69.751499999999993
 20
133.52399999999949
 30
0.0
 70
    32
  0
VERTEX
  5
10FAE
  8
0
 62
     5
 10
69.751099999999994
 20
133.52399999999949
 30
0.0
 70
    32
  0
VERTEX
  5
10FAF
  8
0
 62
     5
 10
69.750600000000006
 20
133.52399999999949
 30
0.0
 70
    32
  0
VERTEX
  5
10FB0
  8
0
 62
     5
 10
69.750200000000007
 20
133.52399999999949
 30
0.0
 70
    32
  0
VERTEX
  5
10FB1
  8
0
 62
     5
 10
69.749700000000004
 20
133.52399999999949
 30
0.0
 70
    32
  0
VERTEX
  5
10FB2
  8
0
 62
     5
 10
69.749300000000005
 20
133.52399999999949
 30
0.0
 70
    32
  0
VERTEX
  5
10FB3
  8
0
 62
     5
 10
69.748800000000003
 20
133.52399999999949
 30
0.0
 70
    32
  0
VERTEX
  5
10FB4
  8
0
 62
     5
 10
69.748400000000004
 20
133.52399999999949
 30
0.0
 70
    32
  0
VERTEX
  5
10FB5
  8
0
 62
     5
 10
69.747900000000001
 20
133.52399999999949
 30
0.0
 70
    32
  0
VERTEX
  5
10FB6
  8
0
 62
     5
 10
69.747500000000002
 20
133.52399999999949
 30
0.0
 70
    32
  0
VERTEX
  5
10FB7
  8
0
 62
     5
 10
69.747
 20
133.52399999999949
 30
0.0
 70
    32
  0
VERTEX
  5
10FB8
  8
0
 62
     5
 10
69.746600000000001
 20
133.52399999999949
 30
0.0
 70
    32
  0
VERTEX
  5
10FB9
  8
0
 62
     5
 10
69.746099999999998
 20
133.52399999999949
 30
0.0
 70
    32
  0
VERTEX
  5
10FBA
  8
0
 62
     5
 10
69.745699999999985
 20
133.52399999999949
 30
0.0
 70
    32
  0
VERTEX
  5
10FBB
  8
0
 62
     5
 10
69.745199999999997
 20
133.52399999999949
 30
0.0
 70
    32
  0
VERTEX
  5
10FBC
  8
0
 62
     5
 10
69.744799999999984
 20
133.52399999999949
 30
0.0
 70
    32
  0
VERTEX
  5
10FBD
  8
0
 62
     5
 10
69.744299999999996
 20
133.52399999999949
 30
0.0
 70
    32
  0
VERTEX
  5
10FBE
  8
0
 62
     5
 10
69.743899999999996
 20
133.52399999999949
 30
0.0
 70
    32
  0
VERTEX
  5
10FBF
  8
0
 62
     5
 10
69.743399999999994
 20
133.52399999999949
 30
0.0
 70
    32
  0
VERTEX
  5
10FC0
  8
0
 62
     5
 10
69.742999999999995
 20
133.52399999999949
 30
0.0
 70
    32
  0
VERTEX
  5
10FC1
  8
0
 62
     5
 10
69.742500000000007
 20
133.52399999999949
 30
0.0
 70
    32
  0
VERTEX
  5
10FC2
  8
0
 62
     5
 10
69.742099999999994
 20
133.52399999999949
 30
0.0
 70
    32
  0
VERTEX
  5
10FC3
  8
0
 62
     5
 10
69.741600000000005
 20
133.52399999999949
 30
0.0
 70
    32
  0
VERTEX
  5
10FC4
  8
0
 62
     5
 10
69.741200000000006
 20
133.52399999999949
 30
0.0
 70
    32
  0
VERTEX
  5
10FC5
  8
0
 62
     5
 10
69.740700000000004
 20
133.52399999999949
 30
0.0
 70
    32
  0
VERTEX
  5
10FC6
  8
0
 62
     5
 10
69.740300000000005
 20
133.52399999999949
 30
0.0
 70
    32
  0
VERTEX
  5
10FC7
  8
0
 62
     5
 10
69.739800000000002
 20
133.52399999999949
 30
0.0
 70
    32
  0
VERTEX
  5
10FC8
  8
0
 62
     5
 10
69.7393
 20
133.52399999999949
 30
0.0
 70
    32
  0
VERTEX
  5
10FC9
  8
0
 62
     5
 10
69.738900000000001
 20
133.52399999999949
 30
0.0
 70
    32
  0
VERTEX
  5
10FCA
  8
0
 62
     5
 10
69.738399999999999
 20
133.52399999999949
 30
0.0
 70
    32
  0
VERTEX
  5
10FCB
  8
0
 62
     5
 10
69.738
 20
133.52399999999949
 30
0.0
 70
    32
  0
VERTEX
  5
10FCC
  8
0
 62
     5
 10
69.737499999999983
 20
133.52399999999949
 30
0.0
 70
    32
  0
VERTEX
  5
10FCD
  8
0
 62
     5
 10
69.737099999999998
 20
133.52399999999949
 30
0.0
 70
    32
  0
VERTEX
  5
10FCE
  8
0
 62
     5
 10
69.736599999999996
 20
133.52399999999949
 30
0.0
 70
    32
  0
VERTEX
  5
10FCF
  8
0
 62
     5
 10
69.736199999999997
 20
133.52399999999949
 30
0.0
 70
    32
  0
VERTEX
  5
10FD0
  8
0
 62
     5
 10
69.735699999999994
 20
133.52399999999949
 30
0.0
 70
    32
  0
VERTEX
  5
10FD1
  8
0
 62
     5
 10
69.735299999999995
 20
133.52399999999949
 30
0.0
 70
    32
  0
VERTEX
  5
10FD2
  8
0
 62
     5
 10
69.734800000000007
 20
133.52299999999991
 30
0.0
 70
    32
  0
VERTEX
  5
10FD3
  8
0
 62
     5
 10
69.734399999999994
 20
133.52299999999991
 30
0.0
 70
    32
  0
VERTEX
  5
10FD4
  8
0
 62
     5
 10
69.733900000000006
 20
133.52299999999991
 30
0.0
 70
    32
  0
VERTEX
  5
10FD5
  8
0
 62
     5
 10
69.733500000000006
 20
133.52299999999991
 30
0.0
 70
    32
  0
VERTEX
  5
10FD6
  8
0
 62
     5
 10
69.733000000000004
 20
133.52299999999991
 30
0.0
 70
    32
  0
VERTEX
  5
10FD7
  8
0
 62
     5
 10
69.732600000000005
 20
133.52299999999991
 30
0.0
 70
    32
  0
VERTEX
  5
10FD8
  8
0
 62
     5
 10
69.732100000000003
 20
133.52299999999991
 30
0.0
 70
    32
  0
VERTEX
  5
10FD9
  8
0
 62
     5
 10
69.731700000000004
 20
133.52299999999991
 30
0.0
 70
    32
  0
VERTEX
  5
10FDA
  8
0
 62
     5
 10
69.731200000000001
 20
133.52299999999991
 30
0.0
 70
    32
  0
VERTEX
  5
10FDB
  8
0
 62
     5
 10
69.730800000000002
 20
133.52299999999991
 30
0.0
 70
    32
  0
VERTEX
  5
10FDC
  8
0
 62
     5
 10
69.7303
 20
133.52299999999991
 30
0.0
 70
    32
  0
SEQEND
  5
10FDD
  8
0
 62
     5
  0
LINE
  5
10FDE
  8
0
 62
     5
 10
69.842555078150028
 20
133.02377089579991
 30
0.0
 11
69.842555078150028
 21
130.02221999999961
 31
0.0
  0
LINE
  5
10FDF
  8
0
 62
     5
 10
67.211117999949991
 20
132.02221999999969
 30
0.0
 11
65.411117999950022
 21
132.02221999999969
 31
0.0
  0
POLYLINE
  5
10FE0
  8
0
 62
     5
 66
     1
 10
0.0
 20
0.0
 30
0.0
  0
VERTEX
  5
11909
  8
0
 62
     5
 10
67.702060869150017
 20
133.51794243079991
 30
0.0
  0
VERTEX
  5
1190A
  8
0
 62
     5
 10
67.734221513750001
 20
133.52114946169991
 30
0.0
  0
VERTEX
  5
1190B
  8
0
 62
     5
 10
67.766520467350006
 20
133.52222
 30
0.0
  0
SEQEND
  5
1190C
  8
0
 62
     5
  0
ARC
  5
10FE5
  8
0
 62
     5
 10
67.711117999949991
 20
133.02221999999969
 30
0.0
 40
0.5
 50
90.0
 51
180.0
  0
ARC
  5
10FE6
  8
0
 62
     5
 10
67.411117999950022
 20
130.22221999999971
 30
0.0
 40
0.2
 50
180.0
 51
270.0
  0
LINE
  5
10FE7
  8
0
 62
     5
 10
67.211117999949991
 20
130.22221999999971
 30
0.0
 11
67.211117999949991
 21
133.02221999999969
 31
0.0
  0
LINE
  5
10FE8
  8
0
 62
     5
 10
69.622326411831366
 20
133.52222
 30
0.0
 11
67.711117999949991
 21
133.52222
 31
0.0
  0
LINE
  5
10FE9
  8
0
 62
     5
 10
64.702410348149982
 20
144.5081694626999
 30
0.0
 11
64.562410348150024
 21
144.71137084189991
 31
0.0
  0
LINE
  5
10FEA
  8
0
 62
     5
 10
64.142410348150008
 20
144.5081694626999
 30
0.0
 11
63.799045993749999
 21
145.10289397
 31
0.0
  0
LINE
  5
10FEB
  8
0
 62
     5
 10
64.702410348149982
 20
143.94816946270001
 30
0.0
 11
64.562410348150024
 21
144.65537084189981
 31
0.0
  0
LINE
  5
10FEC
  8
0
 62
     5
 10
64.142410348150008
 20
143.94816946270001
 30
0.0
 11
64.282410348150009
 21
144.65537084189981
 31
0.0
  0
LINE
  5
10FED
  8
0
 62
     5
 10
64.142410348150008
 20
144.5081694626999
 30
0.0
 11
64.282410348150009
 21
144.71137084189991
 31
0.0
  0
LINE
  5
10FEE
  8
0
 62
     5
 10
65.04577470255002
 20
145.10289397
 30
0.0
 11
64.702410348149982
 21
144.5081694626999
 31
0.0
  0
LINE
  5
10FEF
  8
0
 62
     5
 10
68.411117999949994
 20
146.02222
 30
0.0
 11
68.411117999949994
 21
142.07824130859939
 31
0.0
  0
CIRCLE
  5
10FF0
  8
0
 62
     5
 10
64.422410348149995
 20
145.72625832429981
 30
0.0
 40
2.75
  0
ARC
  5
10FF1
  8
0
 62
     5
 10
64.422410348149995
 20
145.72625832429981
 30
0.0
 40
2.9500000000000002
 50
276.8138543441998
 51
263.18614565579992
  0
CIRCLE
  5
10FF2
  8
0
 62
     5
 10
64.422410348149995
 20
145.72625832429981
 30
0.0
 40
3.0
  0
ARC
  5
10FF3
  8
0
 62
     5
 10
90.911117999950051
 20
521.27678993589984
 30
0.0
 40
380.26616440010002
 50
265.57435662750009
 51
266.31242822149972
  0
ARC
  5
10FF4
  8
0
 62
     5
 10
90.911117999950051
 20
521.27678993589984
 30
0.0
 40
380.0
 50
265.61160084250008
 51
266.31242822149972
  0
LINE
  5
10FF5
  8
0
 62
     5
 10
64.142410348150008
 20
143.94816946270001
 30
0.0
 11
64.142410348150008
 21
144.5081694626999
 31
0.0
  0
LINE
  5
10FF6
  8
0
 62
     5
 10
64.702410348149982
 20
144.5081694626999
 30
0.0
 11
64.702410348149982
 21
143.94816946270001
 31
0.0
  0
ARC
  5
10FF7
  8
0
 62
     5
 10
64.422410348149995
 20
145.72625832429981
 30
0.0
 40
1.8
 50
261.05098193469991
 51
278.94901806529992
  0
LINE
  5
10FF8
  8
0
 62
     5
 10
64.072410348150001
 20
143.0009976595
 30
0.0
 11
64.072410348150001
 21
142.7970946211999
 31
0.0
  0
LINE
  5
10FF9
  8
0
 62
     5
 10
64.77241034814999
 20
142.7970946211999
 30
0.0
 11
64.77241034814999
 21
143.0009976595
 31
0.0
  0
ARC
  5
10FFA
  8
0
 62
     5
 10
61.911117999950008
 20
143.3879173820994
 30
0.0
 40
1.0
 50
180.0
 51
265.61160084250008
  0
ARC
  5
10FFB
  8
0
 62
     5
 10
69.411117999950008
 20
142.07824130859939
 30
0.0
 40
1.0
 50
180.0
 51
235.93541006419881
  0
LINE
  5
10FFC
  8
0
 62
     5
 10
65.04577470255002
 20
145.10289397
 30
0.0
 11
63.799045993749999
 21
146.3496226786994
 31
0.0
  0
LINE
  5
10FFD
  8
0
 62
     5
 10
64.702410348149982
 20
146.9443471859999
 30
0.0
 11
65.04577470255002
 21
146.3496226786994
 31
0.0
  0
LINE
  5
10FFE
  8
0
 62
     5
 10
65.437297830550008
 20
145.86625832429991
 30
0.0
 11
64.882641392149992
 21
146.18648936839961
 31
0.0
  0
LINE
  5
10FFF
  8
0
 62
     5
 10
63.351522865749999
 20
145.86625832429991
 30
0.0
 11
65.493297830549992
 21
145.58625832429951
 31
0.0
  0
LINE
  5
11000
  8
0
 62
     5
 10
63.407522865749982
 20
145.86625832429991
 30
0.0
 11
65.437297830550008
 21
145.58625832429951
 31
0.0
  0
LINE
  5
11001
  8
0
 62
     5
 10
63.351522865749999
 20
145.58625832429951
 30
0.0
 11
65.493297830549992
 21
145.86625832429991
 31
0.0
  0
LINE
  5
11002
  8
0
 62
     5
 10
63.407522865749982
 20
145.58625832429951
 30
0.0
 11
65.437297830550008
 21
145.86625832429991
 31
0.0
  0
LINE
  5
11003
  8
0
 62
     5
 10
63.799045993749999
 20
145.10289397
 30
0.0
 11
65.04577470255002
 21
146.3496226786994
 31
0.0
  0
LINE
  5
11004
  8
0
 62
     5
 10
64.882641392149992
 20
145.26602728029991
 30
0.0
 11
65.437297830550008
 21
145.58625832429951
 31
0.0
  0
ARC
  5
11005
  8
0
 62
     5
 10
64.422410348149995
 20
145.72625832429981
 30
0.0
 40
1.1277213352999991
 50
289.03326855569981
 51
340.9667314443011
  0
ARC
  5
11006
  8
0
 62
     5
 10
64.422410348149995
 20
145.72625832429981
 30
0.0
 40
1.1277213352999991
 50
19.033268555698768
 51
70.96673144430018
  0
ARC
  5
11007
  8
0
 62
     5
 10
64.911117999950022
 20
146.02222
 30
0.0
 40
3.5
 50
0.0
 51
90.0
  0
LINE
  5
11008
  8
0
 62
     5
 10
61.911117999950008
 20
149.52221999999981
 30
0.0
 11
64.911117999950022
 21
149.52221999999981
 31
0.0
  0
LINE
  5
11009
  8
0
 62
     5
 10
63.20432148644997
 20
146.00625832430001
 30
0.0
 11
63.407522865749982
 21
145.86625832429991
 31
0.0
  0
LINE
  5
1100A
  8
0
 62
     5
 10
64.142410348150008
 20
146.9443471859999
 30
0.0
 11
64.282410348150009
 21
146.74114580679961
 31
0.0
  0
LINE
  5
1100B
  8
0
 62
     5
 10
63.962179304149998
 20
145.26602728029991
 30
0.0
 11
64.282410348150009
 21
144.71137084189991
 31
0.0
  0
LINE
  5
1100C
  8
0
 62
     5
 10
64.882641392149992
 20
146.18648936839961
 30
0.0
 11
64.562410348150024
 21
146.74114580679961
 31
0.0
  0
LINE
  5
1100D
  8
0
 62
     5
 10
64.142410348150008
 20
147.5043471859999
 30
0.0
 11
64.282410348150009
 21
146.7971458067999
 31
0.0
  0
LINE
  5
1100E
  8
0
 62
     5
 10
64.142410348150008
 20
146.9443471859999
 30
0.0
 11
64.142410348150008
 21
147.5043471859999
 31
0.0
  0
LINE
  5
1100F
  8
0
 62
     5
 10
64.282410348150009
 20
146.7971458067999
 30
0.0
 11
64.282410348150009
 21
146.74114580679961
 31
0.0
  0
LINE
  5
11010
  8
0
 62
     5
 10
64.282410348150009
 20
144.71137084189991
 30
0.0
 11
64.282410348150009
 21
144.65537084189981
 31
0.0
  0
LINE
  5
11011
  8
0
 62
     5
 10
64.562410348150024
 20
144.65537084189981
 30
0.0
 11
64.562410348150024
 21
144.71137084189991
 31
0.0
  0
LINE
  5
11012
  8
0
 62
     5
 10
64.562410348150024
 20
146.74114580679961
 30
0.0
 11
64.562410348150024
 21
146.7971458067999
 31
0.0
  0
LINE
  5
11013
  8
0
 62
     5
 10
64.702410348149982
 20
147.5043471859999
 30
0.0
 11
64.702410348149982
 21
146.9443471859999
 31
0.0
  0
LINE
  5
11014
  8
0
 62
     5
 10
63.799045993749999
 20
145.10289397
 30
0.0
 11
63.20432148644997
 21
145.44625832429981
 31
0.0
  0
LINE
  5
11015
  8
0
 62
     5
 10
63.407522865749982
 20
145.58625832429951
 30
0.0
 11
63.962179304149998
 21
145.26602728029991
 31
0.0
  0
LINE
  5
11016
  8
0
 62
     5
 10
64.562410348150024
 20
144.71137084189991
 30
0.0
 11
64.282410348150009
 21
146.74114580679961
 31
0.0
  0
LINE
  5
11017
  8
0
 62
     5
 10
64.562410348150024
 20
144.65537084189981
 30
0.0
 11
64.282410348150009
 21
146.7971458067999
 31
0.0
  0
LINE
  5
11018
  8
0
 62
     5
 10
64.282410348150009
 20
144.65537084189981
 30
0.0
 11
64.562410348150024
 21
146.7971458067999
 31
0.0
  0
LINE
  5
11019
  8
0
 62
     5
 10
64.282410348150009
 20
144.71137084189991
 30
0.0
 11
64.562410348150024
 21
146.74114580679961
 31
0.0
  0
LINE
  5
1101A
  8
0
 62
     5
 10
64.702410348149982
 20
147.5043471859999
 30
0.0
 11
64.562410348150024
 21
146.7971458067999
 31
0.0
  0
LINE
  5
1101B
  8
0
 62
     5
 10
62.644321486450004
 20
146.00625832430001
 30
0.0
 11
63.351522865749999
 21
145.86625832429991
 31
0.0
  0
LINE
  5
1101C
  8
0
 62
     5
 10
63.20432148644997
 20
145.44625832429981
 30
0.0
 11
62.644321486450004
 21
145.44625832429981
 31
0.0
  0
LINE
  5
1101D
  8
0
 62
     5
 10
63.351522865749999
 20
145.58625832429951
 30
0.0
 11
63.407522865749982
 21
145.58625832429951
 31
0.0
  0
LINE
  5
1101E
  8
0
 62
     5
 10
63.407522865749982
 20
145.86625832429991
 30
0.0
 11
63.351522865749999
 21
145.86625832429991
 31
0.0
  0
LINE
  5
1101F
  8
0
 62
     5
 10
62.644321486450004
 20
146.00625832430001
 30
0.0
 11
63.20432148644997
 21
146.00625832430001
 31
0.0
  0
LINE
  5
11020
  8
0
 62
     5
 10
63.799045993749999
 20
146.3496226786994
 30
0.0
 11
64.142410348150008
 21
146.9443471859999
 31
0.0
  0
LINE
  5
11021
  8
0
 62
     5
 10
64.282410348150009
 20
146.74114580679961
 30
0.0
 11
63.962179304149998
 21
146.18648936839961
 31
0.0
  0
LINE
  5
11022
  8
0
 62
     5
 10
64.562410348150024
 20
144.71137084189991
 30
0.0
 11
64.882641392149992
 21
145.26602728029991
 31
0.0
  0
LINE
  5
11023
  8
0
 62
     5
 10
64.702410348149982
 20
146.9443471859999
 30
0.0
 11
64.562410348150024
 21
146.74114580679961
 31
0.0
  0
LINE
  5
11024
  8
0
 62
     5
 10
62.644321486450004
 20
145.44625832429981
 30
0.0
 11
63.351522865749999
 21
145.58625832429951
 31
0.0
  0
LINE
  5
11025
  8
0
 62
     5
 10
63.20432148644997
 20
145.44625832429981
 30
0.0
 11
63.407522865749982
 21
145.58625832429951
 31
0.0
  0
LINE
  5
11026
  8
0
 62
     5
 10
63.20432148644997
 20
146.00625832430001
 30
0.0
 11
63.799045993749999
 21
146.3496226786994
 31
0.0
  0
LINE
  5
11027
  8
0
 62
     5
 10
63.962179304149998
 20
146.18648936839961
 30
0.0
 11
63.407522865749982
 21
145.86625832429991
 31
0.0
  0
ARC
  5
11028
  8
0
 62
     5
 10
64.422410348149995
 20
145.72625832429981
 30
0.0
 40
1.1277213352999991
 50
109.03326855569981
 51
160.96673144430119
  0
ARC
  5
11029
  8
0
 62
     5
 10
64.422410348149995
 20
145.72625832429981
 30
0.0
 40
1.0800000000000001
 50
172.55180943900211
 51
187.4481905609978
  0
ARC
  5
1102A
  8
0
 62
     5
 10
64.422410348149995
 20
145.72625832429981
 30
0.0
 40
1.0800000000000001
 50
262.55180943899973
 51
277.44819056100022
  0
ARC
  5
1102B
  8
0
 62
     5
 10
64.422410348149995
 20
145.72625832429981
 30
0.0
 40
1.0800000000000001
 50
82.551809438999697
 51
97.448190561000288
  0
ARC
  5
1102C
  8
0
 62
     5
 10
64.422410348149995
 20
145.72625832429981
 30
0.0
 40
1.1277213352999991
 50
199.0332685556983
 51
250.9667314443
  0
ARC
  5
1102D
  8
0
 62
     5
 10
64.422410348149995
 20
145.72625832429981
 30
0.0
 40
1.8
 50
171.05098193469971
 51
188.9490180652999
  0
ARC
  5
1102E
  8
0
 62
     5
 10
64.422410348149995
 20
145.72625832429981
 30
0.0
 40
1.8
 50
81.050981934699905
 51
98.949018065300081
  0
ARC
  5
1102F
  8
0
 62
     5
 10
61.911117999950008
 20
150.52221999999981
 30
0.0
 40
1.0
 50
180.0
 51
270.0
  0
LINE
  5
11030
  8
0
 62
     5
 10
65.04577470255002
 20
146.3496226786994
 30
0.0
 11
65.640499209850006
 21
146.00625832430001
 31
0.0
  0
LINE
  5
11031
  8
0
 62
     5
 10
65.640499209850006
 20
145.44625832429981
 30
0.0
 11
65.437297830550008
 21
145.58625832429951
 31
0.0
  0
LINE
  5
11032
  8
0
 62
     5
 10
66.200499209850022
 20
145.44625832429981
 30
0.0
 11
65.493297830549992
 21
145.58625832429951
 31
0.0
  0
LINE
  5
11033
  8
0
 62
     5
 10
66.200499209850022
 20
145.44625832429981
 30
0.0
 11
65.640499209850006
 21
145.44625832429981
 31
0.0
  0
LINE
  5
11034
  8
0
 62
     5
 10
65.437297830550008
 20
145.58625832429951
 30
0.0
 11
65.493297830549992
 21
145.58625832429951
 31
0.0
  0
LINE
  5
11035
  8
0
 62
     5
 10
65.493297830549992
 20
145.86625832429991
 30
0.0
 11
65.437297830550008
 21
145.86625832429991
 31
0.0
  0
LINE
  5
11036
  8
0
 62
     5
 10
65.640499209850006
 20
146.00625832430001
 30
0.0
 11
66.200499209850022
 21
146.00625832430001
 31
0.0
  0
LINE
  5
11037
  8
0
 62
     5
 10
66.200499209850022
 20
146.00625832430001
 30
0.0
 11
65.493297830549992
 21
145.86625832429991
 31
0.0
  0
LINE
  5
11038
  8
0
 62
     5
 10
65.640499209850006
 20
146.00625832430001
 30
0.0
 11
65.437297830550008
 21
145.86625832429991
 31
0.0
  0
LINE
  5
11039
  8
0
 62
     5
 10
65.640499209850006
 20
145.44625832429981
 30
0.0
 11
65.04577470255002
 21
145.10289397
 31
0.0
  0
ARC
  5
1103A
  8
0
 62
     5
 10
64.422410348149995
 20
145.72625832429981
 30
0.0
 40
1.0800000000000001
 50
352.551809439002
 51
7.4481905609978769
  0
ARC
  5
1103B
  8
0
 62
     5
 10
64.422410348149995
 20
145.72625832429981
 30
0.0
 40
1.8
 50
351.05098193469979
 51
8.9490180653002085
  0
ARC
  5
1103C
  8
0
 62
     5
 10
64.411117999950008
 20
178.3222199999999
 30
0.0
 40
3.5
 50
270.0
 51
0.0
  0
LINE
  5
1103D
  8
0
 62
     5
 10
64.411117999950008
 20
174.82221999999979
 30
0.0
 11
61.911117999950008
 21
174.82221999999979
 31
0.0
  0
ARC
  5
1103E
  8
0
 62
     5
 10
61.911117999950008
 20
173.8222199999999
 30
0.0
 40
1.0
 50
90.0
 51
180.0
  0
LINE
  5
1103F
  8
HIDDEN
 10
89.253580242250024
 20
123.01908770778699
 30
0.0
 11
91.600991298449983
 21
123.0254452149869
 31
0.0
  0
LINE
  5
11040
  8
0
 62
     5
 10
90.695978689750007
 20
124.8222199999996
 30
0.0
 11
90.399672187549996
 21
124.5222199999999
 31
0.0
  0
LINE
  5
11041
  8
0
 62
     5
 10
87.62033935014999
 20
125.1222199999999
 30
0.0
 11
91.000904415750014
 21
125.1222199999999
 31
0.0
  0
LINE
  5
11042
  8
0
 62
     5
 10
89.452818222949986
 20
123.22221999999979
 30
0.0
 11
104.1694177769499
 21
123.22221999999979
 31
0.0
  0
ARC
  5
11043
  8
0
 62
     5
 10
450.16568793905151
 20
162.02222000021891
 30
0.0
 40
380.26616440330889
 50
183.6875717785033
 51
184.18672164793401
  0
ARC
  5
11044
  8
0
 62
     5
 10
450.16568793584992
 20
162.02221999999981
 30
0.0
 40
380.0
 50
183.68757177850171
 51
184.0584021088558
  0
LINE
  5
11045
  8
0
 62
     5
 10
77.545918276049989
 20
127.8222199999996
 30
0.0
 11
86.435113341450005
 21
127.8222199999996
 31
0.0
  0
LINE
  5
11046
  8
0
 62
     5
 10
87.573409010650039
 20
124.5222199999999
 30
0.0
 11
71.422563812449994
 21
124.5222199999999
 31
0.0
  0
LINE
  5
11047
  8
0
 62
     5
 10
74.911365630850014
 20
130.02221999999961
 30
0.0
 11
74.911365630850014
 21
129.02222
 31
0.0
  0
LINE
  5
11048
  8
0
 62
     5
 10
70.334874408350018
 20
129.02222
 30
0.0
 11
70.334874408350018
 21
130.02221999999961
 31
0.0
  0
LINE
  5
11049
  8
0
 62
     5
 10
72.127437886549984
 20
125.1222199999999
 30
0.0
 11
76.360692267350018
 21
125.1222199999999
 31
0.0
  0
LINE
  5
1104A
  8
HIDDEN
 10
70.221244701550006
 20
123.0254452149869
 30
0.0
 11
75.005656630049984
 21
123.0254452149869
 31
0.0
  0
LINE
  5
1104B
  8
0
 62
     5
 10
74.004045733650003
 20
125.1222199999999
 30
0.0
 11
74.004045733650003
 21
124.5222199999999
 31
0.0
  0
LINE
  5
1104C
  8
0
 62
     5
 10
71.422563812449994
 20
124.5222199999999
 30
0.0
 11
71.126257310249997
 21
124.8222199999996
 31
0.0
  0
LINE
  5
1104D
  8
0
 62
     5
 10
71.126257310249997
 20
124.8222199999996
 30
0.0
 11
72.127437886549984
 21
124.8222199999996
 31
0.0
  0
LINE
  5
1104E
  8
0
 62
     5
 10
71.126257310249997
 20
125.1222199999999
 30
0.0
 11
70.821331584250004
 21
125.1222199999999
 31
0.0
  0
LINE
  5
1104F
  8
0
 62
     5
 10
71.126257310249997
 20
125.1222199999999
 30
0.0
 11
71.126257310249997
 21
124.8222199999996
 31
0.0
  0
LINE
  5
11050
  8
0
 62
     5
 10
72.127437886549984
 20
124.8222199999996
 30
0.0
 11
72.127437886549984
 21
125.1222199999999
 31
0.0
  0
LINE
  5
11051
  8
0
 62
     5
 10
72.423744388749981
 20
124.5222199999999
 30
0.0
 11
72.127437886549984
 21
124.8222199999996
 31
0.0
  0
LINE
  5
11052
  8
0
 62
     5
 10
70.821283120350017
 20
129.02222
 30
0.0
 11
70.821283120350017
 21
125.1222199999999
 31
0.0
  0
LINE
  5
11053
  8
0
 62
     5
 10
70.844675273150003
 20
129.02222
 30
0.0
 11
70.844675273150003
 21
125.1222199999999
 31
0.0
  0
LINE
  5
11054
  8
0
 62
     5
 10
72.409019923650021
 20
125.1222199999999
 30
0.0
 11
72.409019923650021
 21
129.02222
 31
0.0
  0
LINE
  5
11055
  8
0
 62
     5
 10
74.582853254350013
 20
129.02222
 30
0.0
 11
74.582853254350013
 21
125.1222199999999
 31
0.0
  0
LINE
  5
11056
  8
0
 62
     5
 10
76.360692267350018
 20
124.8222199999996
 30
0.0
 11
77.545918276049989
 21
124.8222199999996
 31
0.0
  0
LINE
  5
11057
  8
0
 62
     5
 10
76.360692267350018
 20
125.1222199999999
 30
0.0
 11
76.360692267350018
 21
124.8222199999996
 31
0.0
  0
LINE
  5
11058
  8
0
 62
     5
 10
76.313761927849995
 20
124.5222199999999
 30
0.0
 11
76.360692267350018
 21
124.8222199999996
 31
0.0
  0
LINE
  5
11059
  8
0
 62
     5
 10
77.498987936550023
 20
124.5222199999999
 30
0.0
 11
77.545918276049989
 21
124.8222199999996
 31
0.0
  0
LINE
  5
1105A
  8
0
 62
     5
 10
77.545918276049989
 20
124.8222199999996
 30
0.0
 11
77.545918276049989
 21
127.8222199999996
 31
0.0
  0
LINE
  5
1105B
  8
0
 62
     5
 10
76.063466783850004
 20
124.5222199999999
 30
0.0
 11
76.063466783850004
 21
125.1222199999999
 31
0.0
  0
LINE
  5
1105C
  8
0
 62
     5
 10
89.726690739850014
 20
129.02222
 30
0.0
 11
89.726690739850014
 21
130.02221999999961
 31
0.0
  0
LINE
  5
1105D
  8
0
 62
     5
 10
89.123600491149958
 20
124.5222199999999
 30
0.0
 11
89.140522831549987
 21
123.22221999999979
 31
0.0
  0
LINE
  5
1105E
  8
0
 62
     5
 10
88.819370842550015
 20
124.5222199999999
 30
0.0
 11
88.819370842550015
 21
125.1222199999999
 31
0.0
  0
LINE
  5
1105F
  8
0
 62
     5
 10
86.435113341450005
 20
124.8222199999996
 30
0.0
 11
87.62033935014999
 21
124.8222199999996
 31
0.0
  0
LINE
  5
11060
  8
0
 62
     5
 10
88.452818222950015
 20
123.22221999999979
 30
0.0
 11
88.411964077150003
 21
124.5222199999999
 31
0.0
  0
LINE
  5
11061
  8
0
 62
     5
 10
87.62033935014999
 20
124.8222199999996
 30
0.0
 11
87.62033935014999
 21
125.1222199999999
 31
0.0
  0
LINE
  5
11062
  8
0
 62
     5
 10
86.435113341450005
 20
124.8222199999996
 30
0.0
 11
86.388183001949983
 21
124.5222199999999
 31
0.0
  0
LINE
  5
11063
  8
0
 62
     5
 10
87.62033935014999
 20
124.8222199999996
 30
0.0
 11
87.573409010650039
 21
124.5222199999999
 31
0.0
  0
LINE
  5
11064
  8
0
 62
     5
 10
90.399672187549996
 20
124.5222199999999
 30
0.0
 11
87.644807898550013
 21
124.5222199999999
 31
0.0
  0
LINE
  5
11065
  8
0
 62
     5
 10
86.075314071850016
 20
124.5222199999999
 30
0.0
 11
86.075314071850016
 21
127.8222199999996
 31
0.0
  0
LINE
  5
11066
  8
0
 62
     5
 10
86.435113341450005
 20
127.8222199999996
 30
0.0
 11
86.435113341450005
 21
124.8222199999996
 31
0.0
  0
LINE
  5
11067
  8
0
 62
     5
 10
89.398178363250011
 20
125.1222199999999
 30
0.0
 11
89.398178363250011
 21
129.02222
 31
0.0
  0
ARC
  5
11068
  8
0
 62
     5
 10
-268.34345193594982
 20
162.02221999999981
 30
0.0
 40
380.0
 50
355.6116008424986
 51
356.31242822149801
  0
LINE
  5
11069
  8
0
 62
     5
 10
106.92707967565001
 20
137.3116012097999
 30
0.0
 11
107.06707967565001
 21
136.6043998305999
 31
0.0
  0
LINE
  5
1106A
  8
0
 62
     5
 10
106.92707967565001
 20
136.7516012097999
 30
0.0
 11
106.92707967565001
 21
137.3116012097999
 31
0.0
  0
LINE
  5
1106B
  8
0
 62
     5
 10
107.4870796756496
 20
137.3116012097999
 30
0.0
 11
107.4870796756496
 21
136.7516012097999
 31
0.0
  0
LINE
  5
1106C
  8
0
 62
     5
 10
107.4870796756496
 20
137.3116012097999
 30
0.0
 11
107.34707967564999
 21
136.6043998305999
 31
0.0
  0
CIRCLE
  5
1106D
  8
0
 62
     5
 10
107.2070796756496
 20
135.53351234819991
 30
0.0
 40
2.75
  0
ARC
  5
1106E
  8
0
 62
     5
 10
106.9111179999497
 20
136.02222
 30
0.0
 40
3.5
 50
90.0
 51
180.0
  0
ARC
  5
1106F
  8
0
 62
     5
 10
107.2070796756496
 20
135.53351234819991
 30
0.0
 40
2.9500000000000002
 50
276.8138543441998
 51
263.18614565579992
  0
CIRCLE
  5
11070
  8
0
 62
     5
 10
107.2070796756496
 20
135.53351234819991
 30
0.0
 40
3.0
  0
LINE
  5
11071
  8
0
 62
     5
 10
96.111117999950011
 20
132.02221999999969
 30
0.0
 11
109.54542061795
 21
132.02221999999969
 31
0.0
  0
LINE
  5
11072
  8
0
 62
     5
 10
110.23381002395
 20
128.62222
 30
0.0
 11
91.000952879650001
 21
128.62222
 31
0.0
  0
LINE
  5
11073
  8
0
 62
     5
 10
110.7163257773494
 20
131.7560555998997
 30
0.0
 11
95.669221333649944
 21
131.7560555998997
 31
0.0
  0
LINE
  5
11074
  8
0
 62
     5
 10
93.100952879649995
 20
129.02222
 30
0.0
 11
93.100952879649995
 21
130.02221999999961
 31
0.0
  0
LINE
  5
11075
  8
0
 62
     5
 10
100.31111799995
 20
128.6452503992999
 30
0.0
 11
93.311117999949985
 21
128.6452503992999
 31
0.0
  0
LINE
  5
11076
  8
0
 62
     5
 10
100.31111799995
 20
128.9222199999999
 30
0.0
 11
93.311117999949985
 21
128.9222199999999
 31
0.0
  0
LINE
  5
11077
  8
HIDDEN
 10
93.100952879649995
 20
124.5254452149868
 30
0.0
 11
93.100952879649995
 21
127.2754452149869
 31
0.0
  0
ARC
  5
11078
  8
HIDDEN
 10
91.600952879650023
 20
124.5254452149868
 30
0.0
 40
1.5
 50
270.0
 51
0.0
  0
LINE
  5
11079
  8
0
 62
     5
 10
93.311117999949985
 20
128.6452503992999
 30
0.0
 11
93.311117999949985
 21
128.9222199999999
 31
0.0
  0
LINE
  5
1107A
  8
0
 62
     5
 10
90.695978689750007
 20
125.1222199999999
 30
0.0
 11
90.695978689750007
 21
124.8222199999996
 31
0.0
  0
LINE
  5
1107B
  8
0
 62
     5
 10
91.000952879650001
 20
129.02222
 30
0.0
 11
91.000952879650001
 21
125.1222199999999
 31
0.0
  0
LINE
  5
1107C
  8
0
 62
     5
 10
100.31111799995
 20
128.6452503992999
 30
0.0
 11
100.31111799995
 21
128.9222199999999
 31
0.0
  0
ARC
  5
1107D
  8
0
 62
     5
 10
96.111117999950011
 20
131.52222
 30
0.0
 40
0.5
 50
90.0
 51
180.0
  0
LINE
  5
1107E
  8
0
 62
     5
 10
95.611117999950025
 20
131.52222
 30
0.0
 11
95.611117999950025
 21
130.22221999999971
 31
0.0
  0
ARC
  5
1107F
  8
0
 62
     5
 10
95.411117999949994
 20
130.22221999999971
 30
0.0
 40
0.2
 50
270.0
 51
0.0
  0
LINE
  5
11080
  8
0
 62
     5
 10
110.7338100239499
 20
131.9786119010995
 30
0.0
 11
110.7338100239499
 21
129.12221999999991
 31
0.0
  0
LINE
  5
11081
  8
0
 62
     5
 10
103.48171316845
 20
123.22221999999979
 30
0.0
 11
103.5520059671499
 21
128.62222
 31
0.0
  0
LINE
  5
11082
  8
0
 62
     5
 10
104.3391196137499
 20
128.62222
 30
0.0
 11
104.1694177769499
 21
123.22221999999979
 31
0.0
  0
LINE
  5
11083
  8
HIDDEN
 10
108.5611179997542
 20
126.1222199999999
 30
0.0
 11
106.2611179999499
 21
126.1222199999999
 31
0.0
  0
ARC
  5
11084
  8
HIDDEN
 10
108.56111799989991
 20
126.6222199999996
 30
0.0
 40
0.5
 50
269.99999998330031
 51
0.0
  0
LINE
  5
11085
  8
HIDDEN
 10
109.06111799989991
 20
127.1722199999999
 30
0.0
 11
109.06111799989991
 21
126.6222199999996
 31
0.0
  0
LINE
  5
11086
  8
0
 62
     5
 10
105.4289908139498
 20
135.25351234819999
 30
0.0
 11
106.1361921932499
 21
135.39351234819981
 31
0.0
  0
LINE
  5
11087
  8
0
 62
     5
 10
105.4289908139498
 20
135.81351234819991
 30
0.0
 11
106.1361921932499
 21
135.67351234819981
 31
0.0
  0
LINE
  5
11088
  8
0
 62
     5
 10
106.5837153212499
 20
134.91014799379991
 30
0.0
 11
105.9889908139499
 21
135.25351234819999
 31
0.0
  0
LINE
  5
11089
  8
0
 62
     5
 10
105.9889908139499
 20
135.81351234819991
 30
0.0
 11
106.19219219324999
 21
135.67351234819981
 31
0.0
  0
LINE
  5
1108A
  8
0
 62
     5
 10
105.9889908139499
 20
135.25351234819999
 30
0.0
 11
106.19219219324999
 21
135.39351234819981
 31
0.0
  0
LINE
  5
1108B
  8
0
 62
     5
 10
105.9889908139499
 20
135.81351234819991
 30
0.0
 11
106.5837153212499
 21
136.1568767025
 31
0.0
  0
LINE
  5
1108C
  8
0
 62
     5
 10
105.9889908139499
 20
135.25351234819999
 30
0.0
 11
105.4289908139498
 21
135.25351234819999
 31
0.0
  0
LINE
  5
1108D
  8
0
 62
     5
 10
105.4289908139498
 20
135.81351234819991
 30
0.0
 11
105.9889908139499
 21
135.81351234819991
 31
0.0
  0
LINE
  5
1108E
  8
0
 62
     5
 10
103.4111179999497
 20
133.02221999999969
 30
0.0
 11
103.4111179999497
 21
136.02222
 31
0.0
  0
ARC
  5
1108F
  8
0
 62
     5
 10
107.2070796756496
 20
135.53351234819991
 30
0.0
 40
1.8
 50
171.05098193469971
 51
188.9490180652999
  0
ARC
  5
11090
  8
0
 62
     5
 10
102.4111179999497
 20
133.02221999999969
 30
0.0
 40
1.0
 50
270.0
 51
0.0
  0
LINE
  5
11091
  8
0
 62
     5
 10
108.98516853735001
 20
135.81351234819991
 30
0.0
 11
108.27796715805
 21
135.67351234819981
 31
0.0
  0
LINE
  5
11092
  8
0
 62
     5
 10
106.19219219324999
 20
135.39351234819981
 30
0.0
 11
108.22196715805001
 21
135.67351234819981
 31
0.0
  0
LINE
  5
11093
  8
0
 62
     5
 10
106.1361921932499
 20
135.39351234819981
 30
0.0
 11
108.27796715805
 21
135.67351234819981
 31
0.0
  0
LINE
  5
11094
  8
0
 62
     5
 10
108.98516853735001
 20
135.25351234819999
 30
0.0
 11
108.42516853735
 21
135.25351234819999
 31
0.0
  0
LINE
  5
11095
  8
0
 62
     5
 10
106.1361921932499
 20
135.39351234819981
 30
0.0
 11
106.19219219324999
 21
135.39351234819981
 31
0.0
  0
LINE
  5
11096
  8
0
 62
     5
 10
108.22196715805001
 20
135.39351234819981
 30
0.0
 11
108.27796715805
 21
135.39351234819981
 31
0.0
  0
LINE
  5
11097
  8
0
 62
     5
 10
108.27796715805
 20
135.67351234819981
 30
0.0
 11
108.22196715805001
 21
135.67351234819981
 31
0.0
  0
LINE
  5
11098
  8
0
 62
     5
 10
106.19219219324999
 20
135.67351234819981
 30
0.0
 11
106.1361921932499
 21
135.67351234819981
 31
0.0
  0
LINE
  5
11099
  8
0
 62
     5
 10
108.42516853735
 20
135.81351234819991
 30
0.0
 11
108.98516853735001
 21
135.81351234819991
 31
0.0
  0
LINE
  5
1109A
  8
0
 62
     5
 10
106.1361921932499
 20
135.67351234819981
 30
0.0
 11
108.27796715805
 21
135.39351234819981
 31
0.0
  0
LINE
  5
1109B
  8
0
 62
     5
 10
106.19219219324999
 20
135.67351234819981
 30
0.0
 11
108.22196715805001
 21
135.39351234819981
 31
0.0
  0
LINE
  5
1109C
  8
0
 62
     5
 10
108.98516853735001
 20
135.25351234819999
 30
0.0
 11
108.27796715805
 21
135.39351234819981
 31
0.0
  0
LINE
  5
1109D
  8
0
 62
     5
 10
106.19219219324999
 20
135.39351234819981
 30
0.0
 11
106.74684863165
 21
135.07328130409991
 31
0.0
  0
LINE
  5
1109E
  8
0
 62
     5
 10
108.22196715805001
 20
135.67351234819981
 30
0.0
 11
107.66731071965
 21
135.9937433921998
 31
0.0
  0
LINE
  5
1109F
  8
0
 62
     5
 10
107.8304440300499
 20
136.1568767025
 30
0.0
 11
108.42516853735
 21
135.81351234819991
 31
0.0
  0
LINE
  5
110A0
  8
0
 62
     5
 10
108.42516853735
 20
135.25351234819999
 30
0.0
 11
108.22196715805001
 21
135.39351234819981
 31
0.0
  0
LINE
  5
110A1
  8
0
 62
     5
 10
107.8304440300499
 20
134.91014799379991
 30
0.0
 11
106.5837153212499
 21
136.1568767025
 31
0.0
  0
LINE
  5
110A2
  8
0
 62
     5
 10
107.4870796756496
 20
134.31542348650001
 30
0.0
 11
107.34707967564999
 21
134.51862486569991
 31
0.0
  0
LINE
  5
110A3
  8
0
 62
     5
 10
106.92707967565001
 20
136.7516012097999
 30
0.0
 11
107.06707967565001
 21
136.54839983059981
 31
0.0
  0
LINE
  5
110A4
  8
0
 62
     5
 10
106.92707967565001
 20
134.31542348650001
 30
0.0
 11
106.5837153212499
 21
134.91014799379991
 31
0.0
  0
LINE
  5
110A5
  8
0
 62
     5
 10
106.74684863165
 20
135.07328130409991
 30
0.0
 11
107.06707967565001
 21
134.51862486569991
 31
0.0
  0
LINE
  5
110A6
  8
0
 62
     5
 10
107.66731071965
 20
135.9937433921998
 30
0.0
 11
107.34707967564999
 21
136.54839983059981
 31
0.0
  0
LINE
  5
110A7
  8
0
 62
     5
 10
107.4870796756496
 20
136.7516012097999
 30
0.0
 11
107.8304440300499
 21
136.1568767025
 31
0.0
  0
LINE
  5
110A8
  8
0
 62
     5
 10
107.4870796756496
 20
133.75542348649981
 30
0.0
 11
107.34707967564999
 21
134.46262486569981
 31
0.0
  0
LINE
  5
110A9
  8
0
 62
     5
 10
107.34707967564999
 20
134.51862486569991
 30
0.0
 11
107.06707967565001
 21
136.54839983059981
 31
0.0
  0
LINE
  5
110AA
  8
0
 62
     5
 10
107.34707967564999
 20
134.46262486569981
 30
0.0
 11
107.06707967565001
 21
136.6043998305999
 31
0.0
  0
LINE
  5
110AB
  8
0
 62
     5
 10
106.8570796756499
 20
132.8082516832994
 30
0.0
 11
106.8570796756499
 21
132.6043486449999
 31
0.0
  0
LINE
  5
110AC
  8
0
 62
     5
 10
106.92707967565001
 20
133.75542348649981
 30
0.0
 11
106.92707967565001
 21
134.31542348650001
 31
0.0
  0
LINE
  5
110AD
  8
0
 62
     5
 10
107.06707967565001
 20
136.6043998305999
 30
0.0
 11
107.06707967565001
 21
136.54839983059981
 31
0.0
  0
LINE
  5
110AE
  8
0
 62
     5
 10
107.06707967565001
 20
134.51862486569991
 30
0.0
 11
107.06707967565001
 21
134.46262486569981
 31
0.0
  0
LINE
  5
110AF
  8
0
 62
     5
 10
107.34707967564999
 20
134.46262486569981
 30
0.0
 11
107.34707967564999
 21
134.51862486569991
 31
0.0
  0
LINE
  5
110B0
  8
0
 62
     5
 10
107.34707967564999
 20
136.54839983059981
 30
0.0
 11
107.34707967564999
 21
136.6043998305999
 31
0.0
  0
LINE
  5
110B1
  8
0
 62
     5
 10
107.4870796756496
 20
134.31542348650001
 30
0.0
 11
107.4870796756496
 21
133.75542348649981
 31
0.0
  0
LINE
  5
110B2
  8
0
 62
     5
 10
107.55707967565
 20
132.6043486449999
 30
0.0
 11
107.55707967565
 21
132.8082516832994
 31
0.0
  0
LINE
  5
110B3
  8
0
 62
     5
 10
107.06707967565001
 20
134.46262486569981
 30
0.0
 11
107.34707967564999
 21
136.6043998305999
 31
0.0
  0
LINE
  5
110B4
  8
0
 62
     5
 10
107.06707967565001
 20
134.51862486569991
 30
0.0
 11
107.34707967564999
 21
136.54839983059981
 31
0.0
  0
LINE
  5
110B5
  8
0
 62
     5
 10
106.92707967565001
 20
133.75542348649981
 30
0.0
 11
107.06707967565001
 21
134.46262486569981
 31
0.0
  0
LINE
  5
110B6
  8
0
 62
     5
 10
106.5837153212499
 20
136.1568767025
 30
0.0
 11
106.92707967565001
 21
136.7516012097999
 31
0.0
  0
LINE
  5
110B7
  8
0
 62
     5
 10
107.06707967565001
 20
136.54839983059981
 30
0.0
 11
106.74684863165
 21
135.9937433921998
 31
0.0
  0
LINE
  5
110B8
  8
0
 62
     5
 10
107.34707967564999
 20
134.51862486569991
 30
0.0
 11
107.66731071965
 21
135.07328130409991
 31
0.0
  0
LINE
  5
110B9
  8
0
 62
     5
 10
107.8304440300499
 20
134.91014799379991
 30
0.0
 11
107.4870796756496
 21
134.31542348650001
 31
0.0
  0
LINE
  5
110BA
  8
0
 62
     5
 10
107.4870796756496
 20
136.7516012097999
 30
0.0
 11
107.34707967564999
 21
136.54839983059981
 31
0.0
  0
LINE
  5
110BB
  8
0
 62
     5
 10
106.92707967565001
 20
134.31542348650001
 30
0.0
 11
107.06707967565001
 21
134.51862486569991
 31
0.0
  0
LINE
  5
110BC
  8
0
 62
     5
 10
106.5837153212499
 20
134.91014799379991
 30
0.0
 11
107.8304440300499
 21
136.1568767025
 31
0.0
  0
LINE
  5
110BD
  8
0
 62
     5
 10
108.42516853735
 20
135.81351234819991
 30
0.0
 11
108.22196715805001
 21
135.67351234819981
 31
0.0
  0
LINE
  5
110BE
  8
0
 62
     5
 10
106.74684863165
 20
135.9937433921998
 30
0.0
 11
106.19219219324999
 21
135.67351234819981
 31
0.0
  0
LINE
  5
110BF
  8
0
 62
     5
 10
107.66731071965
 20
135.07328130409991
 30
0.0
 11
108.22196715805001
 21
135.39351234819981
 31
0.0
  0
LINE
  5
110C0
  8
0
 62
     5
 10
108.42516853735
 20
135.25351234819999
 30
0.0
 11
107.8304440300499
 21
134.91014799379991
 31
0.0
  0
ARC
  5
110C1
  8
0
 62
     5
 10
107.2070796756496
 20
135.53351234819991
 30
0.0
 40
1.1277213352999991
 50
109.03326855569981
 51
160.96673144430119
  0
ARC
  5
110C2
  8
0
 62
     5
 10
107.2070796756496
 20
135.53351234819991
 30
0.0
 40
1.1277213352999991
 50
289.03326855569981
 51
340.9667314443011
  0
ARC
  5
110C3
  8
0
 62
     5
 10
107.2070796756496
 20
135.53351234819991
 30
0.0
 40
1.1277213352999991
 50
19.033268555698768
 51
70.96673144430018
  0
ARC
  5
110C4
  8
0
 62
     5
 10
107.2070796756496
 20
135.53351234819991
 30
0.0
 40
1.0800000000000001
 50
172.55180943900211
 51
187.4481905609978
  0
ARC
  5
110C5
  8
0
 62
     5
 10
107.2070796756496
 20
135.53351234819991
 30
0.0
 40
1.0800000000000001
 50
262.55180943899973
 51
277.44819056100022
  0
ARC
  5
110C6
  8
0
 62
     5
 10
107.2070796756496
 20
135.53351234819991
 30
0.0
 40
1.0800000000000001
 50
352.551809439002
 51
7.4481905609978769
  0
ARC
  5
110C7
  8
0
 62
     5
 10
107.2070796756496
 20
135.53351234819991
 30
0.0
 40
1.0800000000000001
 50
82.551809438999697
 51
97.448190561000288
  0
ARC
  5
110C8
  8
0
 62
     5
 10
107.2070796756496
 20
135.53351234819991
 30
0.0
 40
1.8
 50
261.05098193469991
 51
278.94901806529992
  0
ARC
  5
110C9
  8
0
 62
     5
 10
107.2070796756496
 20
135.53351234819991
 30
0.0
 40
1.1277213352999991
 50
199.0332685556983
 51
250.9667314443
  0
ARC
  5
110CA
  8
0
 62
     5
 10
107.2070796756496
 20
135.53351234819991
 30
0.0
 40
1.8
 50
351.05098193469979
 51
8.9490180653002085
  0
ARC
  5
110CB
  8
0
 62
     5
 10
109.54542061795
 20
133.02221999999969
 30
0.0
 40
1.0
 50
270.0
 51
355.6116008424986
  0
ARC
  5
110CC
  8
0
 62
     5
 10
107.2070796756496
 20
135.53351234819991
 30
0.0
 40
1.8
 50
81.050981934699905
 51
98.949018065300081
  0
LINE
  5
110CD
  8
0
 62
     5
 10
106.9111179999497
 20
139.52221999999961
 30
0.0
 11
110.8550966914499
 21
139.52221999999961
 31
0.0
  0
ARC
  5
110CE
  8
CENTER
 10
90.911117999999945
 20
162.02222
 30
0.0
 40
34.999999999958803
 50
126.2540229311621
 51
144.3810343967435
  0
LINE
  5
110CF
  8
0
 62
     5
 10
65.411117999950022
 20
192.02221999999941
 30
0.0
 11
71.351749438350026
 21
192.02221999999941
 31
0.0
  0
ARC
  5
110D0
  8
0
 62
     5
 10
66.162380658450019
 20
186.77095734150001
 30
0.0
 40
4.5338355998999971
 50
273.68757177850023
 51
356.31242822149801
  0
ARC
  5
110D1
  8
0
 62
     5
 10
70.967139308550017
 20
183.52222
 30
0.0
 40
1.0
 50
90.0
 51
145.93541006420111
  0
ARC
  5
110D2
  8
0
 62
     5
 10
66.162380658450019
 20
186.77095734150001
 30
0.0
 40
4.799999999999998
 50
273.68757177850023
 51
356.31242822149801
  0
ARC
  5
110D3
  8
0
 62
     5
 10
65.411117999950022
 20
187.52221999999981
 30
0.0
 40
4.5
 50
90.0
 51
180.0
  0
CIRCLE
  5
110D4
  8
0
 62
     5
 10
66.162380658450019
 20
186.77095734150001
 30
0.0
 40
2.8999999999999981
  0
LINE
  5
110D5
  8
0
 62
     5
 10
61.83460084955
 20
181.65359088319991
 30
0.0
 11
66.471096716750026
 21
181.98089529649991
 31
0.0
  0
ARC
  5
110D6
  8
0
 62
     5
 10
90.911117999950051
 20
-197.2323499358998
 30
0.0
 40
380.26616440010002
 50
93.687571778500185
 51
94.425643372499863
  0
LINE
  5
110D7
  8
0
 62
     5
 10
60.911117999949973
 20
181.5815885615998
 30
0.0
 11
60.911117999949973
 21
187.52221999999981
 31
0.0
  0
ARC
  5
110D8
  8
0
 62
     5
 10
68.911117999950008
 20
181.66366422019971
 30
0.0
 40
1.0
 50
118.2890696542982
 51
180.0
  0
LINE
  5
110D9
  8
0
 62
     5
 10
109.54542061795
 20
192.02221999999941
 30
0.0
 11
72.276815382050003
 21
192.02221999999941
 31
0.0
  0
LINE
  5
110DA
  8
0
 62
     5
 10
72.030365936550012
 20
192.2883844000998
 30
0.0
 11
109.79187006344991
 21
192.2883844000998
 31
0.0
  0
LINE
  5
110DB
  8
0
 62
     5
 10
78.411117999949951
 20
191.02221999999941
 30
0.0
 11
78.411117999949951
 21
188.02221999999981
 31
0.0
  0
LINE
  5
110DC
  8
0
 62
     5
 10
73.991791969950015
 20
187.8875632974995
 30
0.0
 11
75.23852067874995
 21
189.1342920061999
 31
0.0
  0
LINE
  5
110DD
  8
0
 62
     5
 10
74.47515632435001
 20
187.44004016939951
 30
0.0
 11
74.755156324349983
 21
189.5818151343
 31
0.0
  0
LINE
  5
110DE
  8
0
 62
     5
 10
74.47515632435001
 20
187.49604016939961
 30
0.0
 11
74.755156324349983
 21
189.52581513429999
 31
0.0
  0
LINE
  5
110DF
  8
0
 62
     5
 10
74.755156324349983
 20
187.49604016939961
 30
0.0
 11
74.47515632435001
 21
189.52581513429999
 31
0.0
  0
LINE
  5
110E0
  8
0
 62
     5
 10
74.755156324349983
 20
187.44004016939951
 30
0.0
 11
74.47515632435001
 21
189.5818151343
 31
0.0
  0
LINE
  5
110E1
  8
0
 62
     5
 10
75.23852067874995
 20
187.8875632974995
 30
0.0
 11
73.991791969950015
 21
189.1342920061999
 31
0.0
  0
LINE
  5
110E2
  8
0
 62
     5
 10
73.544268841950014
 20
188.65092765189991
 30
0.0
 11
75.68604380674995
 21
188.3709276518999
 31
0.0
  0
LINE
  5
110E3
  8
0
 62
     5
 10
73.600268841950012
 20
188.65092765189991
 30
0.0
 11
75.630043806749981
 21
188.3709276518999
 31
0.0
  0
LINE
  5
110E4
  8
0
 62
     5
 10
73.600268841950012
 20
188.3709276518999
 30
0.0
 11
75.630043806749981
 21
188.65092765189991
 31
0.0
  0
LINE
  5
110E5
  8
0
 62
     5
 10
73.544268841950014
 20
188.3709276518999
 30
0.0
 11
75.68604380674995
 21
188.65092765189991
 31
0.0
  0
ARC
  5
110E6
  8
0
 62
     5
 10
74.615156324350011
 20
188.51092765189981
 30
0.0
 40
1.0800000000000001
 50
172.55180943900211
 51
187.4481905609978
  0
ARC
  5
110E7
  8
0
 62
     5
 10
74.615156324350011
 20
188.51092765189981
 30
0.0
 40
1.0800000000000001
 50
352.551809439002
 51
7.4481905609978769
  0
ARC
  5
110E8
  8
0
 62
     5
 10
74.615156324350011
 20
188.51092765189981
 30
0.0
 40
1.8
 50
351.05098193469979
 51
8.9490180653002085
  0
ARC
  5
110E9
  8
0
 62
     5
 10
74.615156324350011
 20
188.51092765189981
 30
0.0
 40
1.8
 50
171.05098193469971
 51
188.9490180652999
  0
LINE
  5
110EA
  8
0
 62
     5
 10
71.279747116750002
 20
191.09873715040001
 30
0.0
 11
70.95244270355002
 21
186.4622412831998
 31
0.0
  0
ARC
  5
110EB
  8
0
 62
     5
 10
450.16568793584992
 20
162.02221999999981
 30
0.0
 40
380.26616440010002
 50
175.5743566274983
 51
176.3124282214981
  0
CIRCLE
  5
110EC
  8
0
 62
     5
 10
74.615156324350011
 20
188.51092765189981
 30
0.0
 40
2.75
  0
ARC
  5
110ED
  8
0
 62
     5
 10
74.615156324350011
 20
188.51092765189981
 30
0.0
 40
2.9500000000000002
 50
276.8138543441998
 51
263.18614565579992
  0
CIRCLE
  5
110EE
  8
0
 62
     5
 10
74.615156324350011
 20
188.51092765189981
 30
0.0
 40
3.0
  0
LINE
  5
110EF
  8
0
 62
     5
 10
75.075387368349979
 20
188.05069660779981
 30
0.0
 11
75.630043806749981
 21
188.3709276518999
 31
0.0
  0
LINE
  5
110F0
  8
0
 62
     5
 10
75.833245185950005
 20
188.2309276518998
 30
0.0
 11
75.23852067874995
 21
187.8875632974995
 31
0.0
  0
ARC
  5
110F1
  8
0
 62
     5
 10
74.615156324350011
 20
188.51092765189981
 30
0.0
 40
1.1277213352999991
 50
289.03326855569981
 51
340.9667314443011
  0
ARC
  5
110F2
  8
0
 62
     5
 10
74.911117999950022
 20
188.02221999999981
 30
0.0
 40
3.5
 50
270.0
 51
0.0
  0
LINE
  5
110F3
  8
0
 62
     5
 10
73.39706746265
 20
188.2309276518998
 30
0.0
 11
73.600268841950012
 21
188.3709276518999
 31
0.0
  0
LINE
  5
110F4
  8
0
 62
     5
 10
74.755156324349983
 20
187.49604016939961
 30
0.0
 11
75.075387368349979
 21
188.05069660779981
 31
0.0
  0
LINE
  5
110F5
  8
0
 62
     5
 10
75.23852067874995
 20
187.8875632974995
 30
0.0
 11
74.895156324349983
 21
187.2928387901998
 31
0.0
  0
LINE
  5
110F6
  8
0
 62
     5
 10
74.335156324349981
 20
187.2928387901998
 30
0.0
 11
74.47515632435001
 21
187.49604016939961
 31
0.0
  0
LINE
  5
110F7
  8
0
 62
     5
 10
74.335156324349981
 20
186.73283879019971
 30
0.0
 11
74.47515632435001
 21
187.44004016939951
 31
0.0
  0
LINE
  5
110F8
  8
0
 62
     5
 10
74.265156324350002
 20
185.7856669869995
 30
0.0
 11
74.265156324350002
 21
185.5817639487
 31
0.0
  0
LINE
  5
110F9
  8
0
 62
     5
 10
74.335156324349981
 20
186.73283879019971
 30
0.0
 11
74.335156324349981
 21
187.2928387901998
 31
0.0
  0
LINE
  5
110FA
  8
0
 62
     5
 10
74.47515632435001
 20
187.49604016939961
 30
0.0
 11
74.47515632435001
 21
187.44004016939951
 31
0.0
  0
LINE
  5
110FB
  8
0
 62
     5
 10
74.755156324349983
 20
187.44004016939951
 30
0.0
 11
74.755156324349983
 21
187.49604016939961
 31
0.0
  0
LINE
  5
110FC
  8
0
 62
     5
 10
74.895156324349983
 20
187.2928387901998
 30
0.0
 11
74.895156324349983
 21
186.73283879019971
 31
0.0
  0
LINE
  5
110FD
  8
0
 62
     5
 10
74.965156324350005
 20
185.5817639487
 30
0.0
 11
74.965156324350005
 21
185.7856669869995
 31
0.0
  0
LINE
  5
110FE
  8
0
 62
     5
 10
74.895156324349983
 20
186.73283879019971
 30
0.0
 11
74.755156324349983
 21
187.44004016939951
 31
0.0
  0
LINE
  5
110FF
  8
0
 62
     5
 10
74.335156324349981
 20
187.2928387901998
 30
0.0
 11
73.991791969950015
 21
187.8875632974995
 31
0.0
  0
LINE
  5
11100
  8
0
 62
     5
 10
74.154925280350014
 20
188.05069660779981
 30
0.0
 11
74.47515632435001
 21
187.49604016939961
 31
0.0
  0
LINE
  5
11101
  8
0
 62
     5
 10
74.895156324349983
 20
187.2928387901998
 30
0.0
 11
74.755156324349983
 21
187.49604016939961
 31
0.0
  0
LINE
  5
11102
  8
0
 62
     5
 10
73.991791969950015
 20
187.8875632974995
 30
0.0
 11
73.39706746265
 21
188.2309276518998
 31
0.0
  0
LINE
  5
11103
  8
0
 62
     5
 10
73.600268841950012
 20
188.3709276518999
 30
0.0
 11
74.154925280350014
 21
188.05069660779981
 31
0.0
  0
LINE
  5
11104
  8
0
 62
     5
 10
73.544268841950014
 20
188.3709276518999
 30
0.0
 11
73.600268841950012
 21
188.3709276518999
 31
0.0
  0
ARC
  5
11105
  8
0
 62
     5
 10
74.615156324350011
 20
188.51092765189981
 30
0.0
 40
1.0800000000000001
 50
262.55180943899973
 51
277.44819056100022
  0
ARC
  5
11106
  8
0
 62
     5
 10
74.615156324350011
 20
188.51092765189981
 30
0.0
 40
1.8
 50
261.05098193469991
 51
278.94901806529992
  0
ARC
  5
11107
  8
0
 62
     5
 10
74.615156324350011
 20
188.51092765189981
 30
0.0
 40
1.1277213352999991
 50
199.0332685556983
 51
250.9667314443
  0
LINE
  5
11108
  8
0
 62
     5
 10
74.911117999950022
 20
184.52222
 30
0.0
 11
70.967139308550017
 21
184.52222
 31
0.0
  0
LINE
  5
11109
  8
0
 62
     5
 10
73.39706746265
 20
188.2309276518998
 30
0.0
 11
72.837067462649983
 21
188.2309276518998
 31
0.0
  0
LINE
  5
1110A
  8
0
 62
     5
 10
72.837067462649983
 20
188.2309276518998
 30
0.0
 11
73.544268841950014
 21
188.3709276518999
 31
0.0
  0
LINE
  5
1110B
  8
0
 62
     5
 10
75.833245185950005
 20
188.2309276518998
 30
0.0
 11
75.630043806749981
 21
188.3709276518999
 31
0.0
  0
LINE
  5
1110C
  8
0
 62
     5
 10
76.393245185949979
 20
188.2309276518998
 30
0.0
 11
75.68604380674995
 21
188.3709276518999
 31
0.0
  0
LINE
  5
1110D
  8
0
 62
     5
 10
76.393245185949979
 20
188.2309276518998
 30
0.0
 11
75.833245185950005
 21
188.2309276518998
 31
0.0
  0
LINE
  5
1110E
  8
0
 62
     5
 10
75.630043806749981
 20
188.3709276518999
 30
0.0
 11
75.68604380674995
 21
188.3709276518999
 31
0.0
  0
LINE
  5
1110F
  8
0
 62
     5
 10
75.630043806749981
 20
188.65092765189991
 30
0.0
 11
75.075387368349979
 21
188.9711586958999
 31
0.0
  0
LINE
  5
11110
  8
0
 62
     5
 10
75.23852067874995
 20
189.1342920061999
 30
0.0
 11
75.833245185950005
 21
188.79092765189981
 31
0.0
  0
ARC
  5
11111
  8
0
 62
     5
 10
74.615156324350011
 20
188.51092765189981
 30
0.0
 40
1.1277213352999991
 50
19.033268555698768
 51
70.96673144430018
  0
ARC
  5
11112
  8
0
 62
     5
 10
74.615156324350011
 20
188.51092765189981
 30
0.0
 40
1.8
 50
81.050981934699905
 51
98.949018065300081
  0
ARC
  5
11113
  8
0
 62
     5
 10
72.276815382050003
 20
191.02221999999941
 30
0.0
 40
1.0
 50
90.0
 51
175.6116008424984
  0
LINE
  5
11114
  8
0
 62
     5
 10
73.39706746265
 20
188.79092765189981
 30
0.0
 11
73.991791969950015
 21
189.1342920061999
 31
0.0
  0
LINE
  5
11115
  8
0
 62
     5
 10
74.154925280350014
 20
188.9711586958999
 30
0.0
 11
73.600268841950012
 21
188.65092765189991
 31
0.0
  0
LINE
  5
11116
  8
0
 62
     5
 10
73.991791969950015
 20
189.1342920061999
 30
0.0
 11
74.335156324349981
 21
189.7290165134998
 31
0.0
  0
LINE
  5
11117
  8
0
 62
     5
 10
74.47515632435001
 20
189.52581513429999
 30
0.0
 11
74.154925280350014
 21
188.9711586958999
 31
0.0
  0
LINE
  5
11118
  8
0
 62
     5
 10
74.895156324349983
 20
189.7290165134998
 30
0.0
 11
74.755156324349983
 21
189.52581513429999
 31
0.0
  0
LINE
  5
11119
  8
0
 62
     5
 10
74.47515632435001
 20
189.5818151343
 30
0.0
 11
74.47515632435001
 21
189.52581513429999
 31
0.0
  0
LINE
  5
1111A
  8
0
 62
     5
 10
74.755156324349983
 20
189.52581513429999
 30
0.0
 11
74.755156324349983
 21
189.5818151343
 31
0.0
  0
LINE
  5
1111B
  8
0
 62
     5
 10
74.335156324349981
 20
189.7290165134998
 30
0.0
 11
74.47515632435001
 21
189.52581513429999
 31
0.0
  0
LINE
  5
1111C
  8
0
 62
     5
 10
75.075387368349979
 20
188.9711586958999
 30
0.0
 11
74.755156324349983
 21
189.52581513429999
 31
0.0
  0
LINE
  5
1111D
  8
0
 62
     5
 10
74.895156324349983
 20
189.7290165134998
 30
0.0
 11
75.23852067874995
 21
189.1342920061999
 31
0.0
  0
LINE
  5
1111E
  8
0
 62
     5
 10
73.39706746265
 20
188.79092765189981
 30
0.0
 11
73.600268841950012
 21
188.65092765189991
 31
0.0
  0
LINE
  5
1111F
  8
0
 62
     5
 10
73.600268841950012
 20
188.65092765189991
 30
0.0
 11
73.544268841950014
 21
188.65092765189991
 31
0.0
  0
ARC
  5
11120
  8
0
 62
     5
 10
74.615156324350011
 20
188.51092765189981
 30
0.0
 40
1.1277213352999991
 50
109.03326855569981
 51
160.96673144430119
  0
ARC
  5
11121
  8
0
 62
     5
 10
74.615156324350011
 20
188.51092765189981
 30
0.0
 40
1.0800000000000001
 50
82.551809438999697
 51
97.448190561000288
  0
LINE
  5
11122
  8
0
 62
     5
 10
72.837067462649983
 20
188.79092765189981
 30
0.0
 11
73.544268841950014
 21
188.65092765189991
 31
0.0
  0
LINE
  5
11123
  8
0
 62
     5
 10
72.837067462649983
 20
188.79092765189981
 30
0.0
 11
73.39706746265
 21
188.79092765189981
 31
0.0
  0
LINE
  5
11124
  8
0
 62
     5
 10
74.895156324349983
 20
190.2890165134998
 30
0.0
 11
74.755156324349983
 21
189.5818151343
 31
0.0
  0
LINE
  5
11125
  8
0
 62
     5
 10
74.335156324349981
 20
189.7290165134998
 30
0.0
 11
74.335156324349981
 21
190.2890165134998
 31
0.0
  0
LINE
  5
11126
  8
0
 62
     5
 10
74.895156324349983
 20
190.2890165134998
 30
0.0
 11
74.895156324349983
 21
189.7290165134998
 31
0.0
  0
LINE
  5
11127
  8
0
 62
     5
 10
74.335156324349981
 20
190.2890165134998
 30
0.0
 11
74.47515632435001
 21
189.5818151343
 31
0.0
  0
ARC
  5
11128
  8
0
 62
     5
 10
79.411117999950022
 20
191.02221999999941
 30
0.0
 40
1.0
 50
90.0
 51
180.0
  0
LINE
  5
11129
  8
0
 62
     5
 10
75.833245185950005
 20
188.79092765189981
 30
0.0
 11
75.630043806749981
 21
188.65092765189991
 31
0.0
  0
LINE
  5
1112A
  8
0
 62
     5
 10
76.393245185949979
 20
188.79092765189981
 30
0.0
 11
75.68604380674995
 21
188.65092765189991
 31
0.0
  0
LINE
  5
1112B
  8
0
 62
     5
 10
75.68604380674995
 20
188.65092765189991
 30
0.0
 11
75.630043806749981
 21
188.65092765189991
 31
0.0
  0
LINE
  5
1112C
  8
0
 62
     5
 10
75.833245185950005
 20
188.79092765189981
 30
0.0
 11
76.393245185949979
 21
188.79092765189981
 31
0.0
  0
LINE
  5
1112D
  8
0
 62
     5
 10
110.54248888325
 20
191.09873715040001
 30
0.0
 11
110.8697932964499
 21
186.4622412831998
 31
0.0
  0
ARC
  5
1112E
  8
0
 62
     5
 10
-268.34345193594982
 20
162.02221999999981
 30
0.0
 40
380.26616440010002
 50
3.6875717785018272
 51
4.4256433725014768
  0
ARC
  5
1112F
  8
0
 62
     5
 10
107.21111799995001
 20
188.52222
 30
0.0
 40
3.5
 50
180.0
 51
270.0
  0
LINE
  5
11130
  8
0
 62
     5
 10
110.5525622201498
 20
185.02221999999989
 30
0.0
 11
107.21111799995001
 21
185.02221999999989
 31
0.0
  0
ARC
  5
11131
  8
0
 62
     5
 10
102.71111799995001
 20
191.02221999999941
 30
0.0
 40
1.0
 50
0.0
 51
90.0
  0
LINE
  5
11132
  8
0
 62
     5
 10
103.71111799995001
 20
188.52222
 30
0.0
 11
103.71111799995001
 21
191.02221999999941
 31
0.0
  0
ARC
  5
11133
  8
0
 62
     5
 10
109.54542061795
 20
191.02221999999941
 30
0.0
 40
1.0
 50
4.3883991575014001
 51
90.0
  0
LINE
  5
11134
  8
0
 62
     5
 10
193.60837342238551
 20
131.85397314995151
 30
0.0
 11
193.06746640812381
 21
131.85161298288651
 31
0.0
  0
LINE
  5
11135
  8
CENTER
 10
273.639228270952
 20
162.02221999999981
 30
0.0
 11
160.10639036590581
 21
162.02222
 31
0.0
  0
ARC
  5
11136
  8
0
 62
     5
 10
193.7174664081243
 20
129.12221999999991
 30
0.0
 40
0.5
 50
180.0
 51
270.0
  0
LINE
  5
11137
  8
0
 62
     5
 10
232.16746640812431
 20
192.02221999999941
 30
0.0
 11
193.06746640812381
 21
192.1928270171133
 31
0.0
  0
LINE
  5
11138
  8
0
 62
     5
 10
184.0674664081244
 20
175.02221999999981
 30
0.0
 11
184.0674664081244
 21
181.9661986914
 31
0.0
  0
ARC
  5
11139
  8
0
 62
     5
 10
182.86746640812399
 20
179.1343581463
 30
0.0
 40
1.9338235293999959
 50
90.0
 51
149.4197126253006
  0
LINE
  5
1113A
  8
0
 62
     5
 10
182.86746640812399
 20
175.3890179724994
 30
0.0
 11
182.86746640812399
 21
181.26637960169981
 31
0.0
  0
LINE
  5
1113B
  8
0
 62
     5
 10
183.5674664081244
 20
181.31537657339999
 30
0.0
 11
183.5674664081244
 21
175.32098677799971
 31
0.0
  0
LINE
  5
1113C
  8
0
 62
     5
 10
188.5674664081244
 20
191.8222199999999
 30
0.0
 11
188.5674664081244
 21
132.02221999999969
 31
0.0
  0
LINE
  5
1113D
  8
0
 62
     5
 10
193.06746640812381
 20
131.85161298288651
 30
0.0
 11
193.06746640812381
 21
192.1928270171133
 31
0.0
  0
ARC
  5
1113E
  8
0
 62
     5
 10
119.91111799994999
 20
180.65652261790001
 30
0.0
 40
1.0
 50
0.0
 51
85.611600842500224
  0
LINE
  5
1113F
  8
0
 62
     5
 10
113.41111799994999
 20
178.02221999999981
 30
0.0
 11
113.41111799994999
 21
181.9661986914
 31
0.0
  0
ARC
  5
11140
  8
0
 62
     5
 10
117.3998256518498
 20
178.3181816757
 30
0.0
 40
2.9500000000000002
 50
276.8138543441998
 51
263.18614565579992
  0
CIRCLE
  5
11141
  8
0
 62
     5
 10
117.3998256518498
 20
178.3181816757
 30
0.0
 40
3.0
  0
LINE
  5
11142
  8
0
 62
     5
 10
164.5674664081244
 20
130.22221999999971
 30
0.0
 11
164.5674664081244
 21
191.02221999999941
 31
0.0
  0
LINE
  5
11143
  8
0
 62
     5
 10
120.91111799994999
 20
143.3879173820994
 30
0.0
 11
120.91111799994999
 21
180.65652261790001
 31
0.0
  0
LINE
  5
11144
  8
0
 62
     5
 10
121.1772824000499
 20
180.9029720634
 30
0.0
 11
121.1772824000499
 21
143.14146793659981
 31
0.0
  0
ARC
  5
11145
  8
CENTER
 10
90.911117999999959
 20
162.02222
 30
0.0
 40
34.999999999958803
 50
306.25402293116213
 51
324.38103439674347
  0
LINE
  5
11146
  8
0
 62
     5
 10
120.91111799994999
 20
142.46285143840001
 30
0.0
 11
120.91111799994999
 21
136.52222
 31
0.0
  0
CIRCLE
  5
11147
  8
0
 62
     5
 10
115.65985534155
 20
137.2734826584998
 30
0.0
 40
2.8999999999999981
  0
ARC
  5
11148
  8
0
 62
     5
 10
116.4111179999497
 20
136.52222
 30
0.0
 40
4.5
 50
270.0
 51
0.0
  0
LINE
  5
11149
  8
0
 62
     5
 10
113.9111179999497
 20
142.3807757797999
 30
0.0
 11
113.9111179999497
 21
145.72221999999991
 31
0.0
  0
LINE
  5
1114A
  8
0
 62
     5
 10
115.35113928325001
 20
142.0635447034999
 30
0.0
 11
119.98763515035
 21
142.3908491167999
 31
0.0
  0
ARC
  5
1114B
  8
0
 62
     5
 10
90.911117999950051
 20
521.27678993589984
 30
0.0
 40
380.26616440010002
 50
273.68757177850023
 51
274.42564337249951
  0
ARC
  5
1114C
  8
0
 62
     5
 10
112.9111179999497
 20
142.3807757797999
 30
0.0
 40
1.0
 50
298.28906965429832
 51
0.0
  0
ARC
  5
1114D
  8
0
 62
     5
 10
119.91111799994999
 20
143.3879173820994
 30
0.0
 40
1.0
 50
274.38839915749969
 51
0.0
  0
ARC
  5
1114E
  8
0
 62
     5
 10
117.4111179999497
 20
145.72221999999991
 30
0.0
 40
3.5
 50
90.0
 51
180.0
  0
LINE
  5
1114F
  8
0
 62
     5
 10
117.4111179999497
 20
149.22221999999991
 30
0.0
 11
119.91111799994999
 21
149.22221999999991
 31
0.0
  0
ARC
  5
11150
  8
0
 62
     5
 10
119.91111799994999
 20
150.22221999999991
 30
0.0
 40
1.0
 50
270.0
 51
0.0
  0
ARC
  5
11151
  8
0
 62
     5
 10
119.91111799994999
 20
173.52222
 30
0.0
 40
1.0
 50
0.0
 51
90.0
  0
LINE
  5
11152
  8
0
 62
     5
 10
116.18173679015
 20
178.5981816757
 30
0.0
 11
116.77646129745
 21
178.94154602999981
 31
0.0
  0
LINE
  5
11153
  8
0
 62
     5
 10
115.6217367901499
 20
178.5981816757
 30
0.0
 11
116.32893816945
 21
178.45818167569999
 31
0.0
  0
LINE
  5
11154
  8
0
 62
     5
 10
116.18173679015
 20
178.5981816757
 30
0.0
 11
116.3849381694499
 21
178.45818167569999
 31
0.0
  0
ARC
  5
11155
  8
0
 62
     5
 10
117.3998256518498
 20
178.3181816757
 30
0.0
 40
1.1277213352999991
 50
109.03326855569981
 51
160.96673144430119
  0
LINE
  5
11156
  8
0
 62
     5
 10
116.18173679015
 20
178.0381816756998
 30
0.0
 11
116.3849381694499
 21
178.17818167569979
 31
0.0
  0
LINE
  5
11157
  8
0
 62
     5
 10
115.6217367901499
 20
178.0381816756998
 30
0.0
 11
116.32893816945
 21
178.17818167569979
 31
0.0
  0
LINE
  5
11158
  8
0
 62
     5
 10
116.77646129745
 20
177.69481732130001
 30
0.0
 11
116.18173679015
 21
178.0381816756998
 31
0.0
  0
ARC
  5
11159
  8
0
 62
     5
 10
117.3998256518498
 20
178.3181816757
 30
0.0
 40
1.1277213352999991
 50
199.0332685556983
 51
250.9667314443
  0
ARC
  5
1115A
  8
0
 62
     5
 10
116.9111179999497
 20
178.02221999999981
 30
0.0
 40
3.5
 50
180.0
 51
270.0
  0
CIRCLE
  5
1115B
  8
0
 62
     5
 10
117.3998256518498
 20
178.3181816757
 30
0.0
 40
2.75
  0
LINE
  5
1115C
  8
0
 62
     5
 10
115.6217367901499
 20
178.5981816757
 30
0.0
 11
116.18173679015
 21
178.5981816757
 31
0.0
  0
LINE
  5
1115D
  8
0
 62
     5
 10
116.18173679015
 20
178.0381816756998
 30
0.0
 11
115.6217367901499
 21
178.0381816756998
 31
0.0
  0
ARC
  5
1115E
  8
0
 62
     5
 10
117.3998256518498
 20
178.3181816757
 30
0.0
 40
1.8
 50
171.05098193469971
 51
188.9490180652999
  0
LINE
  5
1115F
  8
0
 62
     5
 10
118.61791451354991
 20
178.5981816757
 30
0.0
 11
118.41471313424999
 21
178.45818167569999
 31
0.0
  0
LINE
  5
11160
  8
0
 62
     5
 10
119.1779145135494
 20
178.5981816757
 30
0.0
 11
118.47071313424991
 21
178.45818167569999
 31
0.0
  0
LINE
  5
11161
  8
0
 62
     5
 10
118.47071313424991
 20
178.45818167569999
 30
0.0
 11
118.41471313424999
 21
178.45818167569999
 31
0.0
  0
LINE
  5
11162
  8
0
 62
     5
 10
118.61791451354991
 20
178.5981816757
 30
0.0
 11
119.1779145135494
 21
178.5981816757
 31
0.0
  0
LINE
  5
11163
  8
0
 62
     5
 10
119.1779145135494
 20
178.0381816756998
 30
0.0
 11
118.61791451354991
 21
178.0381816756998
 31
0.0
  0
LINE
  5
11164
  8
0
 62
     5
 10
118.41471313424999
 20
178.17818167569979
 30
0.0
 11
118.47071313424991
 21
178.17818167569979
 31
0.0
  0
LINE
  5
11165
  8
0
 62
     5
 10
119.1779145135494
 20
178.0381816756998
 30
0.0
 11
118.47071313424991
 21
178.17818167569979
 31
0.0
  0
LINE
  5
11166
  8
0
 62
     5
 10
118.61791451354991
 20
178.0381816756998
 30
0.0
 11
118.41471313424999
 21
178.17818167569979
 31
0.0
  0
ARC
  5
11167
  8
0
 62
     5
 10
117.3998256518498
 20
178.3181816757
 30
0.0
 40
1.0800000000000001
 50
352.551809439002
 51
7.4481905609978769
  0
ARC
  5
11168
  8
0
 62
     5
 10
117.3998256518498
 20
178.3181816757
 30
0.0
 40
1.8
 50
351.05098193469979
 51
8.9490180653002085
  0
LINE
  5
11169
  8
0
 62
     5
 10
116.9395946078499
 20
178.77841271969979
 30
0.0
 11
116.3849381694499
 21
178.45818167569999
 31
0.0
  0
LINE
  5
1116A
  8
0
 62
     5
 10
117.67982565185
 20
179.53627053729991
 30
0.0
 11
117.5398256518499
 21
179.33306915809979
 31
0.0
  0
LINE
  5
1116B
  8
0
 62
     5
 10
116.77646129745
 20
178.94154602999981
 30
0.0
 11
117.11982565184979
 21
179.53627053729991
 31
0.0
  0
LINE
  5
1116C
  8
0
 62
     5
 10
117.25982565184999
 20
179.33306915809979
 30
0.0
 11
116.9395946078499
 21
178.77841271969979
 31
0.0
  0
LINE
  5
1116D
  8
0
 62
     5
 10
116.3849381694499
 20
178.45818167569999
 30
0.0
 11
116.32893816945
 21
178.45818167569999
 31
0.0
  0
LINE
  5
1116E
  8
0
 62
     5
 10
117.67982565185
 20
180.0962705372994
 30
0.0
 11
117.5398256518499
 21
179.3890691580998
 31
0.0
  0
LINE
  5
1116F
  8
0
 62
     5
 10
117.11982565184979
 20
179.53627053729991
 30
0.0
 11
117.11982565184979
 21
180.0962705372994
 31
0.0
  0
LINE
  5
11170
  8
0
 62
     5
 10
117.25982565184999
 20
179.3890691580998
 30
0.0
 11
117.25982565184999
 21
179.33306915809979
 31
0.0
  0
LINE
  5
11171
  8
0
 62
     5
 10
117.5398256518499
 20
179.33306915809979
 30
0.0
 11
117.5398256518499
 21
179.3890691580998
 31
0.0
  0
LINE
  5
11172
  8
0
 62
     5
 10
117.67982565185
 20
180.0962705372994
 30
0.0
 11
117.67982565185
 21
179.53627053729991
 31
0.0
  0
LINE
  5
11173
  8
0
 62
     5
 10
117.11982565184979
 20
180.0962705372994
 30
0.0
 11
117.25982565184999
 21
179.3890691580998
 31
0.0
  0
LINE
  5
11174
  8
0
 62
     5
 10
117.11982565184979
 20
179.53627053729991
 30
0.0
 11
117.25982565184999
 21
179.33306915809979
 31
0.0
  0
LINE
  5
11175
  8
0
 62
     5
 10
117.86005669585001
 20
178.77841271969979
 30
0.0
 11
117.5398256518499
 21
179.33306915809979
 31
0.0
  0
LINE
  5
11176
  8
0
 62
     5
 10
117.67982565185
 20
179.53627053729991
 30
0.0
 11
118.02319000624991
 21
178.94154602999981
 31
0.0
  0
ARC
  5
11177
  8
0
 62
     5
 10
117.3998256518498
 20
178.3181816757
 30
0.0
 40
1.0800000000000001
 50
82.551809438999697
 51
97.448190561000288
  0
ARC
  5
11178
  8
0
 62
     5
 10
117.3998256518498
 20
178.3181816757
 30
0.0
 40
1.8
 50
81.050981934699905
 51
98.949018065300081
  0
LINE
  5
11179
  8
0
 62
     5
 10
117.5398256518499
 20
177.30329419329991
 30
0.0
 11
117.86005669585001
 21
177.85795063169999
 31
0.0
  0
LINE
  5
1117A
  8
0
 62
     5
 10
118.02319000624991
 20
177.69481732130001
 30
0.0
 11
117.67982565185
 21
177.10009281399991
 31
0.0
  0
LINE
  5
1117B
  8
0
 62
     5
 10
117.11982565184979
 20
177.10009281399991
 30
0.0
 11
117.25982565184999
 21
177.30329419329991
 31
0.0
  0
LINE
  5
1117C
  8
0
 62
     5
 10
116.32893816945
 20
178.17818167569979
 30
0.0
 11
116.3849381694499
 21
178.17818167569979
 31
0.0
  0
LINE
  5
1117D
  8
0
 62
     5
 10
117.11982565184979
 20
176.54009281399999
 30
0.0
 11
117.25982565184999
 21
177.24729419329981
 31
0.0
  0
LINE
  5
1117E
  8
0
 62
     5
 10
117.04982565185
 20
175.5929210107999
 30
0.0
 11
117.04982565185
 21
175.3890179724994
 31
0.0
  0
LINE
  5
1117F
  8
0
 62
     5
 10
117.11982565184979
 20
176.54009281399999
 30
0.0
 11
117.11982565184979
 21
177.10009281399991
 31
0.0
  0
LINE
  5
11180
  8
0
 62
     5
 10
117.25982565184999
 20
177.30329419329991
 30
0.0
 11
117.25982565184999
 21
177.24729419329981
 31
0.0
  0
LINE
  5
11181
  8
0
 62
     5
 10
117.5398256518499
 20
177.24729419329981
 30
0.0
 11
117.5398256518499
 21
177.30329419329991
 31
0.0
  0
LINE
  5
11182
  8
0
 62
     5
 10
117.67982565185
 20
177.10009281399991
 30
0.0
 11
117.67982565185
 21
176.54009281399999
 31
0.0
  0
LINE
  5
11183
  8
0
 62
     5
 10
117.7498256518499
 20
175.3890179724994
 30
0.0
 11
117.7498256518499
 21
175.5929210107999
 31
0.0
  0
LINE
  5
11184
  8
0
 62
     5
 10
116.3849381694499
 20
178.17818167569979
 30
0.0
 11
116.9395946078499
 21
177.85795063169999
 31
0.0
  0
LINE
  5
11185
  8
0
 62
     5
 10
117.67982565185
 20
177.10009281399991
 30
0.0
 11
117.5398256518499
 21
177.30329419329991
 31
0.0
  0
LINE
  5
11186
  8
0
 62
     5
 10
117.11982565184979
 20
177.10009281399991
 30
0.0
 11
116.77646129745
 21
177.69481732130001
 31
0.0
  0
LINE
  5
11187
  8
0
 62
     5
 10
116.9395946078499
 20
177.85795063169999
 30
0.0
 11
117.25982565184999
 21
177.30329419329991
 31
0.0
  0
LINE
  5
11188
  8
0
 62
     5
 10
117.67982565185
 20
176.54009281399999
 30
0.0
 11
117.5398256518499
 21
177.24729419329981
 31
0.0
  0
ARC
  5
11189
  8
0
 62
     5
 10
117.3998256518498
 20
178.3181816757
 30
0.0
 40
1.0800000000000001
 50
262.55180943899973
 51
277.44819056100022
  0
ARC
  5
1118A
  8
0
 62
     5
 10
117.3998256518498
 20
178.3181816757
 30
0.0
 40
1.8
 50
261.05098193469991
 51
278.94901806529992
  0
LINE
  5
1118B
  8
0
 62
     5
 10
116.77646129745
 20
177.69481732130001
 30
0.0
 11
118.02319000624991
 21
178.94154602999981
 31
0.0
  0
LINE
  5
1118C
  8
0
 62
     5
 10
117.25982565184999
 20
177.24729419329981
 30
0.0
 11
117.5398256518499
 21
179.3890691580998
 31
0.0
  0
LINE
  5
1118D
  8
0
 62
     5
 10
117.25982565184999
 20
177.30329419329991
 30
0.0
 11
117.5398256518499
 21
179.33306915809979
 31
0.0
  0
LINE
  5
1118E
  8
0
 62
     5
 10
118.02319000624991
 20
177.69481732130001
 30
0.0
 11
116.77646129745
 21
178.94154602999981
 31
0.0
  0
LINE
  5
1118F
  8
0
 62
     5
 10
117.5398256518499
 20
177.30329419329991
 30
0.0
 11
117.25982565184999
 21
179.33306915809979
 31
0.0
  0
LINE
  5
11190
  8
0
 62
     5
 10
117.5398256518499
 20
177.24729419329981
 30
0.0
 11
117.25982565184999
 21
179.3890691580998
 31
0.0
  0
ARC
  5
11191
  8
0
 62
     5
 10
117.3998256518498
 20
178.3181816757
 30
0.0
 40
1.0800000000000001
 50
172.55180943900211
 51
187.4481905609978
  0
LINE
  5
11192
  8
0
 62
     5
 10
117.86005669585001
 20
177.85795063169999
 30
0.0
 11
118.41471313424999
 21
178.17818167569979
 31
0.0
  0
LINE
  5
11193
  8
0
 62
     5
 10
118.61791451354991
 20
178.0381816756998
 30
0.0
 11
118.02319000624991
 21
177.69481732130001
 31
0.0
  0
LINE
  5
11194
  8
0
 62
     5
 10
116.3849381694499
 20
178.17818167569979
 30
0.0
 11
118.41471313424999
 21
178.45818167569999
 31
0.0
  0
LINE
  5
11195
  8
0
 62
     5
 10
116.32893816945
 20
178.17818167569979
 30
0.0
 11
118.47071313424991
 21
178.45818167569999
 31
0.0
  0
LINE
  5
11196
  8
0
 62
     5
 10
119.91111799994999
 20
174.52222
 30
0.0
 11
116.9111179999497
 21
174.52222
 31
0.0
  0
LINE
  5
11197
  8
0
 62
     5
 10
116.32893816945
 20
178.45818167569999
 30
0.0
 11
118.47071313424991
 21
178.17818167569979
 31
0.0
  0
LINE
  5
11198
  8
0
 62
     5
 10
116.3849381694499
 20
178.45818167569999
 30
0.0
 11
118.41471313424999
 21
178.17818167569979
 31
0.0
  0
LINE
  5
11199
  8
0
 62
     5
 10
118.41471313424999
 20
178.45818167569999
 30
0.0
 11
117.86005669585001
 21
178.77841271969979
 31
0.0
  0
LINE
  5
1119A
  8
0
 62
     5
 10
118.02319000624991
 20
178.94154602999981
 30
0.0
 11
118.61791451354991
 21
178.5981816757
 31
0.0
  0
ARC
  5
1119B
  8
0
 62
     5
 10
117.3998256518498
 20
178.3181816757
 30
0.0
 40
1.1277213352999991
 50
289.03326855569981
 51
340.9667314443011
  0
ARC
  5
1119C
  8
0
 62
     5
 10
117.3998256518498
 20
178.3181816757
 30
0.0
 40
1.1277213352999991
 50
19.033268555698768
 51
70.96673144430018
  0
LINE
  5
1119D
  8
0
 62
     5
 10
164.5674664081244
 20
142.3807757797999
 30
0.0
 11
180.56835992962431
 21
142.3807757797999
 31
0.0
  0
LINE
  5
1119E
  8
0
 62
     5
 10
165.5674664081244
 20
149.22221999999991
 30
0.0
 11
180.56746640812381
 21
149.22221999999991
 31
0.0
  0
LINE
  5
1119F
  8
0
 62
     5
 10
170.4440933087244
 20
125.1222199999999
 30
0.0
 11
174.6773476896243
 21
125.1222199999999
 31
0.0
  0
LINE
  5
111A0
  8
0
 62
     5
 10
183.77788590682439
 20
124.5222199999999
 30
0.0
 11
168.95704690942429
 21
124.5222199999999
 31
0.0
  0
LINE
  5
111A1
  8
0
 62
     5
 10
166.25577080262431
 20
129.02222
 30
0.0
 11
186.4791620136242
 21
129.02222
 31
0.0
  0
LINE
  5
111A2
  8
0
 62
     5
 10
164.76746640812431
 20
130.02221999999961
 30
0.0
 11
187.8674664081243
 21
130.02221999999961
 31
0.0
  0
LINE
  5
111A3
  8
0
 62
     5
 10
165.5674664081244
 20
132.02221999999969
 30
0.0
 11
188.5674664081244
 21
132.02221999999969
 31
0.0
  0
LINE
  5
111A4
  8
0
 62
     5
 10
183.5674664081244
 20
139.52221999999961
 30
0.0
 11
165.5674664081244
 21
139.52221999999961
 31
0.0
  0
LINE
  5
111A5
  8
0
  6
CONTINUOUS
 62
     5
 10
166.25576621732441
 20
129.62221999999991
 30
0.0
 11
166.25576621732441
 21
130.02221999999961
 31
0.0
  0
LINE
  5
111A6
  8
0
 62
     5
 10
166.25576621732441
 20
129.02222
 30
0.0
 11
166.25576621732441
 21
130.02221999999961
 31
0.0
  0
LINE
  5
111A7
  8
0
 62
     5
 10
168.8484617653238
 20
127.8222199999996
 30
0.0
 11
170.2563719507244
 21
127.8222199999996
 31
0.0
  0
LINE
  5
111A8
  8
0
 62
     5
 10
168.95704690942429
 20
124.5222199999999
 30
0.0
 11
168.66074040732431
 21
124.8222199999996
 31
0.0
  0
LINE
  5
111A9
  8
0
 62
     5
 10
169.1447682675244
 20
124.5222199999999
 30
0.0
 11
168.8484617653238
 21
124.8222199999996
 31
0.0
  0
LINE
  5
111AA
  8
0
 62
     5
 10
170.2563719507244
 20
124.8222199999996
 30
0.0
 11
170.5526784529244
 21
124.5222199999999
 31
0.0
  0
LINE
  5
111AB
  8
0
 62
     5
 10
170.4440933087244
 20
124.8222199999996
 30
0.0
 11
170.740399810924
 21
124.5222199999999
 31
0.0
  0
LINE
  5
111AC
  8
0
 62
     5
 10
168.66074040732431
 20
125.1222199999999
 30
0.0
 11
168.66074040732431
 21
124.8222199999996
 31
0.0
  0
LINE
  5
111AD
  8
0
 62
     5
 10
170.4440933087244
 20
124.8222199999996
 30
0.0
 11
170.4440933087244
 21
125.1222199999999
 31
0.0
  0
LINE
  5
111AE
  8
0
 62
     5
 10
172.32070115592441
 20
125.1222199999999
 30
0.0
 11
172.32070115592441
 21
124.5222199999999
 31
0.0
  0
LINE
  5
111AF
  8
0
 62
     5
 10
168.66074040732431
 20
124.8222199999996
 30
0.0
 11
168.8484617653238
 21
124.8222199999996
 31
0.0
  0
LINE
  5
111B0
  8
0
 62
     5
 10
170.2563719507244
 20
124.8222199999996
 30
0.0
 11
170.4440933087244
 21
124.8222199999996
 31
0.0
  0
LINE
  5
111B1
  8
0
 62
     5
 10
168.3558146813244
 20
125.1222199999999
 30
0.0
 11
168.66074040732431
 21
125.1222199999999
 31
0.0
  0
LINE
  5
111B2
  8
0
 62
     5
 10
168.355766217324
 20
129.02222
 30
0.0
 11
168.355766217324
 21
125.1222199999999
 31
0.0
  0
LINE
  5
111B3
  8
0
 62
     5
 10
168.3791583702243
 20
129.02222
 30
0.0
 11
168.3791583702243
 21
125.1222199999999
 31
0.0
  0
LINE
  5
111B4
  8
0
 62
     5
 10
168.8484617653238
 20
124.8222199999996
 30
0.0
 11
168.8484617653238
 21
127.8222199999996
 31
0.0
  0
LINE
  5
111B5
  8
0
 62
     5
 10
170.2563719507244
 20
127.8222199999996
 30
0.0
 11
170.2563719507244
 21
124.8222199999996
 31
0.0
  0
LINE
  5
111B6
  8
0
 62
     5
 10
170.7256753458243
 20
125.1222199999999
 30
0.0
 11
170.7256753458243
 21
129.02222
 31
0.0
  0
POLYLINE
  5
111B7
  8
0
 62
     5
 66
     1
 10
0.0
 20
0.0
 30
0.0
 70
     8
  0
VERTEX
  5
111B8
  8
0
 62
     5
 10
164.56799999999981
 20
132.96700000000001
 30
0.0
 70
    32
  0
VERTEX
  5
111B9
  8
0
 62
     5
 10
164.56799999999981
 20
132.9679999999999
 30
0.0
 70
    32
  0
VERTEX
  5
111BA
  8
0
 62
     5
 10
164.56799999999981
 20
132.9679999999999
 30
0.0
 70
    32
  0
VERTEX
  5
111BB
  8
0
 62
     5
 10
164.56799999999981
 20
132.9679999999999
 30
0.0
 70
    32
  0
VERTEX
  5
111BC
  8
0
 62
     5
 10
164.56799999999981
 20
132.96899999999999
 30
0.0
 70
    32
  0
VERTEX
  5
111BD
  8
0
 62
     5
 10
164.56799999999981
 20
132.96899999999999
 30
0.0
 70
    32
  0
VERTEX
  5
111BE
  8
0
 62
     5
 10
164.56799999999981
 20
132.97
 30
0.0
 70
    32
  0
VERTEX
  5
111BF
  8
0
 62
     5
 10
164.56799999999981
 20
132.97
 30
0.0
 70
    32
  0
VERTEX
  5
111C0
  8
0
 62
     5
 10
164.56799999999981
 20
132.971
 30
0.0
 70
    32
  0
VERTEX
  5
111C1
  8
0
 62
     5
 10
164.56799999999981
 20
132.971
 30
0.0
 70
    32
  0
VERTEX
  5
111C2
  8
0
 62
     5
 10
164.56799999999981
 20
132.97200000000001
 30
0.0
 70
    32
  0
VERTEX
  5
111C3
  8
0
 62
     5
 10
164.56799999999981
 20
132.97200000000001
 30
0.0
 70
    32
  0
VERTEX
  5
111C4
  8
0
 62
     5
 10
164.56799999999981
 20
132.97200000000001
 30
0.0
 70
    32
  0
VERTEX
  5
111C5
  8
0
 62
     5
 10
164.56799999999981
 20
132.9729999999995
 30
0.0
 70
    32
  0
VERTEX
  5
111C6
  8
0
 62
     5
 10
164.56799999999981
 20
132.9729999999995
 30
0.0
 70
    32
  0
VERTEX
  5
111C7
  8
0
 62
     5
 10
164.56799999999981
 20
132.9739999999999
 30
0.0
 70
    32
  0
VERTEX
  5
111C8
  8
0
 62
     5
 10
164.56799999999981
 20
132.9739999999999
 30
0.0
 70
    32
  0
VERTEX
  5
111C9
  8
0
 62
     5
 10
164.56799999999981
 20
132.97499999999991
 30
0.0
 70
    32
  0
VERTEX
  5
111CA
  8
0
 62
     5
 10
164.56799999999981
 20
132.97499999999991
 30
0.0
 70
    32
  0
VERTEX
  5
111CB
  8
0
 62
     5
 10
164.56799999999981
 20
132.97499999999991
 30
0.0
 70
    32
  0
VERTEX
  5
111CC
  8
0
 62
     5
 10
164.56799999999981
 20
132.976
 30
0.0
 70
    32
  0
VERTEX
  5
111CD
  8
0
 62
     5
 10
164.56799999999981
 20
132.976
 30
0.0
 70
    32
  0
VERTEX
  5
111CE
  8
0
 62
     5
 10
164.56799999999981
 20
132.977
 30
0.0
 70
    32
  0
VERTEX
  5
111CF
  8
0
 62
     5
 10
164.56799999999981
 20
132.977
 30
0.0
 70
    32
  0
VERTEX
  5
111D0
  8
0
 62
     5
 10
164.56799999999981
 20
132.9779999999997
 30
0.0
 70
    32
  0
VERTEX
  5
111D1
  8
0
 62
     5
 10
164.56799999999981
 20
132.9779999999997
 30
0.0
 70
    32
  0
VERTEX
  5
111D2
  8
0
 62
     5
 10
164.56799999999981
 20
132.9779999999997
 30
0.0
 70
    32
  0
VERTEX
  5
111D3
  8
0
 62
     5
 10
164.56799999999981
 20
132.9789999999997
 30
0.0
 70
    32
  0
VERTEX
  5
111D4
  8
0
 62
     5
 10
164.56799999999981
 20
132.9789999999997
 30
0.0
 70
    32
  0
VERTEX
  5
111D5
  8
0
 62
     5
 10
164.56799999999981
 20
132.97999999999951
 30
0.0
 70
    32
  0
VERTEX
  5
111D6
  8
0
 62
     5
 10
164.56799999999981
 20
132.97999999999951
 30
0.0
 70
    32
  0
VERTEX
  5
111D7
  8
0
 62
     5
 10
164.56799999999981
 20
132.98099999999991
 30
0.0
 70
    32
  0
VERTEX
  5
111D8
  8
0
 62
     5
 10
164.56799999999981
 20
132.98099999999991
 30
0.0
 70
    32
  0
VERTEX
  5
111D9
  8
0
 62
     5
 10
164.56799999999981
 20
132.98099999999991
 30
0.0
 70
    32
  0
VERTEX
  5
111DA
  8
0
 62
     5
 10
164.56799999999981
 20
132.982
 30
0.0
 70
    32
  0
VERTEX
  5
111DB
  8
0
 62
     5
 10
164.56799999999981
 20
132.982
 30
0.0
 70
    32
  0
VERTEX
  5
111DC
  8
0
 62
     5
 10
164.56799999999981
 20
132.983
 30
0.0
 70
    32
  0
VERTEX
  5
111DD
  8
0
 62
     5
 10
164.56799999999981
 20
132.983
 30
0.0
 70
    32
  0
VERTEX
  5
111DE
  8
0
 62
     5
 10
164.56799999999981
 20
132.98400000000001
 30
0.0
 70
    32
  0
VERTEX
  5
111DF
  8
0
 62
     5
 10
164.56799999999981
 20
132.98400000000001
 30
0.0
 70
    32
  0
VERTEX
  5
111E0
  8
0
 62
     5
 10
164.56799999999981
 20
132.98500000000001
 30
0.0
 70
    32
  0
VERTEX
  5
111E1
  8
0
 62
     5
 10
164.56799999999981
 20
132.98500000000001
 30
0.0
 70
    32
  0
VERTEX
  5
111E2
  8
0
 62
     5
 10
164.56799999999981
 20
132.98500000000001
 30
0.0
 70
    32
  0
VERTEX
  5
111E3
  8
0
 62
     5
 10
164.56799999999981
 20
132.9859999999999
 30
0.0
 70
    32
  0
VERTEX
  5
111E4
  8
0
 62
     5
 10
164.56799999999981
 20
132.9859999999999
 30
0.0
 70
    32
  0
VERTEX
  5
111E5
  8
0
 62
     5
 10
164.56799999999981
 20
132.98699999999991
 30
0.0
 70
    32
  0
VERTEX
  5
111E6
  8
0
 62
     5
 10
164.56799999999981
 20
132.98699999999991
 30
0.0
 70
    32
  0
VERTEX
  5
111E7
  8
0
 62
     5
 10
164.56799999999981
 20
132.98799999999949
 30
0.0
 70
    32
  0
VERTEX
  5
111E8
  8
0
 62
     5
 10
164.56799999999981
 20
132.98799999999949
 30
0.0
 70
    32
  0
VERTEX
  5
111E9
  8
0
 62
     5
 10
164.56799999999981
 20
132.98799999999949
 30
0.0
 70
    32
  0
VERTEX
  5
111EA
  8
0
 62
     5
 10
164.56799999999981
 20
132.989
 30
0.0
 70
    32
  0
VERTEX
  5
111EB
  8
0
 62
     5
 10
164.56799999999981
 20
132.989
 30
0.0
 70
    32
  0
VERTEX
  5
111EC
  8
0
 62
     5
 10
164.56799999999981
 20
132.99000000000001
 30
0.0
 70
    32
  0
VERTEX
  5
111ED
  8
0
 62
     5
 10
164.56799999999981
 20
132.99000000000001
 30
0.0
 70
    32
  0
VERTEX
  5
111EE
  8
0
 62
     5
 10
164.56799999999981
 20
132.99100000000001
 30
0.0
 70
    32
  0
VERTEX
  5
111EF
  8
0
 62
     5
 10
164.56799999999981
 20
132.99100000000001
 30
0.0
 70
    32
  0
VERTEX
  5
111F0
  8
0
 62
     5
 10
164.56799999999981
 20
132.99100000000001
 30
0.0
 70
    32
  0
VERTEX
  5
111F1
  8
0
 62
     5
 10
164.56799999999981
 20
132.9919999999999
 30
0.0
 70
    32
  0
VERTEX
  5
111F2
  8
0
 62
     5
 10
164.56799999999981
 20
132.9919999999999
 30
0.0
 70
    32
  0
VERTEX
  5
111F3
  8
0
 62
     5
 10
164.56799999999981
 20
132.99299999999999
 30
0.0
 70
    32
  0
VERTEX
  5
111F4
  8
0
 62
     5
 10
164.56799999999981
 20
132.99299999999999
 30
0.0
 70
    32
  0
VERTEX
  5
111F5
  8
0
 62
     5
 10
164.56799999999981
 20
132.994
 30
0.0
 70
    32
  0
VERTEX
  5
111F6
  8
0
 62
     5
 10
164.56799999999981
 20
132.994
 30
0.0
 70
    32
  0
VERTEX
  5
111F7
  8
0
 62
     5
 10
164.56799999999981
 20
132.994
 30
0.0
 70
    32
  0
VERTEX
  5
111F8
  8
0
 62
     5
 10
164.56799999999981
 20
132.99499999999961
 30
0.0
 70
    32
  0
VERTEX
  5
111F9
  8
0
 62
     5
 10
164.56799999999981
 20
132.99499999999961
 30
0.0
 70
    32
  0
VERTEX
  5
111FA
  8
0
 62
     5
 10
164.56799999999981
 20
132.99600000000001
 30
0.0
 70
    32
  0
VERTEX
  5
111FB
  8
0
 62
     5
 10
164.56799999999981
 20
132.99600000000001
 30
0.0
 70
    32
  0
VERTEX
  5
111FC
  8
0
 62
     5
 10
164.56799999999981
 20
132.99700000000001
 30
0.0
 70
    32
  0
VERTEX
  5
111FD
  8
0
 62
     5
 10
164.56799999999981
 20
132.99700000000001
 30
0.0
 70
    32
  0
VERTEX
  5
111FE
  8
0
 62
     5
 10
164.56799999999981
 20
132.99799999999991
 30
0.0
 70
    32
  0
VERTEX
  5
111FF
  8
0
 62
     5
 10
164.56799999999981
 20
132.99799999999991
 30
0.0
 70
    32
  0
VERTEX
  5
11200
  8
0
 62
     5
 10
164.56799999999981
 20
132.99799999999991
 30
0.0
 70
    32
  0
VERTEX
  5
11201
  8
0
 62
     5
 10
164.56799999999981
 20
132.999
 30
0.0
 70
    32
  0
VERTEX
  5
11202
  8
0
 62
     5
 10
164.56799999999981
 20
132.999
 30
0.0
 70
    32
  0
VERTEX
  5
11203
  8
0
 62
     5
 10
164.56799999999981
 20
133.0
 30
0.0
 70
    32
  0
VERTEX
  5
11204
  8
0
 62
     5
 10
164.56799999999981
 20
133.0
 30
0.0
 70
    32
  0
VERTEX
  5
11205
  8
0
 62
     5
 10
164.56799999999981
 20
133.001
 30
0.0
 70
    32
  0
VERTEX
  5
11206
  8
0
 62
     5
 10
164.56799999999981
 20
133.001
 30
0.0
 70
    32
  0
VERTEX
  5
11207
  8
0
 62
     5
 10
164.56799999999981
 20
133.001
 30
0.0
 70
    32
  0
VERTEX
  5
11208
  8
0
 62
     5
 10
164.56799999999981
 20
133.00200000000001
 30
0.0
 70
    32
  0
VERTEX
  5
11209
  8
0
 62
     5
 10
164.56799999999981
 20
133.00200000000001
 30
0.0
 70
    32
  0
VERTEX
  5
1120A
  8
0
 62
     5
 10
164.56799999999981
 20
133.0029999999995
 30
0.0
 70
    32
  0
VERTEX
  5
1120B
  8
0
 62
     5
 10
164.56799999999981
 20
133.0029999999995
 30
0.0
 70
    32
  0
VERTEX
  5
1120C
  8
0
 62
     5
 10
164.56799999999981
 20
133.00399999999991
 30
0.0
 70
    32
  0
VERTEX
  5
1120D
  8
0
 62
     5
 10
164.56799999999981
 20
133.00399999999991
 30
0.0
 70
    32
  0
VERTEX
  5
1120E
  8
0
 62
     5
 10
164.56799999999981
 20
133.00399999999991
 30
0.0
 70
    32
  0
VERTEX
  5
1120F
  8
0
 62
     5
 10
164.56799999999981
 20
133.00499999999991
 30
0.0
 70
    32
  0
VERTEX
  5
11210
  8
0
 62
     5
 10
164.56799999999981
 20
133.00499999999991
 30
0.0
 70
    32
  0
VERTEX
  5
11211
  8
0
 62
     5
 10
164.56799999999981
 20
133.006
 30
0.0
 70
    32
  0
VERTEX
  5
11212
  8
0
 62
     5
 10
164.56799999999981
 20
133.006
 30
0.0
 70
    32
  0
VERTEX
  5
11213
  8
0
 62
     5
 10
164.56799999999981
 20
133.00700000000001
 30
0.0
 70
    32
  0
VERTEX
  5
11214
  8
0
 62
     5
 10
164.56799999999981
 20
133.00700000000001
 30
0.0
 70
    32
  0
VERTEX
  5
11215
  8
0
 62
     5
 10
164.56799999999981
 20
133.00700000000001
 30
0.0
 70
    32
  0
VERTEX
  5
11216
  8
0
 62
     5
 10
164.56799999999981
 20
133.0079999999999
 30
0.0
 70
    32
  0
VERTEX
  5
11217
  8
0
 62
     5
 10
164.56799999999981
 20
133.0079999999999
 30
0.0
 70
    32
  0
VERTEX
  5
11218
  8
0
 62
     5
 10
164.56799999999981
 20
133.0089999999999
 30
0.0
 70
    32
  0
VERTEX
  5
11219
  8
0
 62
     5
 10
164.56799999999981
 20
133.0089999999999
 30
0.0
 70
    32
  0
VERTEX
  5
1121A
  8
0
 62
     5
 10
164.56799999999981
 20
133.00999999999991
 30
0.0
 70
    32
  0
VERTEX
  5
1121B
  8
0
 62
     5
 10
164.56799999999981
 20
133.00999999999991
 30
0.0
 70
    32
  0
VERTEX
  5
1121C
  8
0
 62
     5
 10
164.56799999999981
 20
133.01099999999991
 30
0.0
 70
    32
  0
VERTEX
  5
1121D
  8
0
 62
     5
 10
164.56799999999981
 20
133.01099999999991
 30
0.0
 70
    32
  0
VERTEX
  5
1121E
  8
0
 62
     5
 10
164.56799999999981
 20
133.01099999999991
 30
0.0
 70
    32
  0
VERTEX
  5
1121F
  8
0
 62
     5
 10
164.56799999999981
 20
133.01199999999949
 30
0.0
 70
    32
  0
VERTEX
  5
11220
  8
0
 62
     5
 10
164.56799999999981
 20
133.01199999999949
 30
0.0
 70
    32
  0
VERTEX
  5
11221
  8
0
 62
     5
 10
164.56799999999981
 20
133.01300000000001
 30
0.0
 70
    32
  0
VERTEX
  5
11222
  8
0
 62
     5
 10
164.56799999999981
 20
133.01300000000001
 30
0.0
 70
    32
  0
VERTEX
  5
11223
  8
0
 62
     5
 10
164.56799999999981
 20
133.01400000000001
 30
0.0
 70
    32
  0
VERTEX
  5
11224
  8
0
 62
     5
 10
164.56799999999981
 20
133.01400000000001
 30
0.0
 70
    32
  0
VERTEX
  5
11225
  8
0
 62
     5
 10
164.56799999999981
 20
133.01400000000001
 30
0.0
 70
    32
  0
VERTEX
  5
11226
  8
0
 62
     5
 10
164.56799999999981
 20
133.0149999999999
 30
0.0
 70
    32
  0
VERTEX
  5
11227
  8
0
 62
     5
 10
164.56799999999981
 20
133.0149999999999
 30
0.0
 70
    32
  0
VERTEX
  5
11228
  8
0
 62
     5
 10
164.56799999999981
 20
133.01599999999999
 30
0.0
 70
    32
  0
VERTEX
  5
11229
  8
0
 62
     5
 10
164.56799999999981
 20
133.01599999999999
 30
0.0
 70
    32
  0
VERTEX
  5
1122A
  8
0
 62
     5
 10
164.56799999999981
 20
133.017
 30
0.0
 70
    32
  0
VERTEX
  5
1122B
  8
0
 62
     5
 10
164.56799999999981
 20
133.017
 30
0.0
 70
    32
  0
VERTEX
  5
1122C
  8
0
 62
     5
 10
164.56799999999981
 20
133.017
 30
0.0
 70
    32
  0
VERTEX
  5
1122D
  8
0
 62
     5
 10
164.56799999999981
 20
133.018
 30
0.0
 70
    32
  0
VERTEX
  5
1122E
  8
0
 62
     5
 10
164.56799999999981
 20
133.018
 30
0.0
 70
    32
  0
VERTEX
  5
1122F
  8
0
 62
     5
 10
164.56799999999981
 20
133.01899999999961
 30
0.0
 70
    32
  0
VERTEX
  5
11230
  8
0
 62
     5
 10
164.56799999999981
 20
133.01899999999961
 30
0.0
 70
    32
  0
VERTEX
  5
11231
  8
0
 62
     5
 10
164.56799999999981
 20
133.02000000000001
 30
0.0
 70
    32
  0
VERTEX
  5
11232
  8
0
 62
     5
 10
164.56799999999981
 20
133.02000000000001
 30
0.0
 70
    32
  0
VERTEX
  5
11233
  8
0
 62
     5
 10
164.56700000000001
 20
133.02000000000001
 30
0.0
 70
    32
  0
VERTEX
  5
11234
  8
0
 62
     5
 10
164.56700000000001
 20
133.0209999999999
 30
0.0
 70
    32
  0
VERTEX
  5
11235
  8
0
 62
     5
 10
164.56700000000001
 20
133.0209999999999
 30
0.0
 70
    32
  0
VERTEX
  5
11236
  8
0
 62
     5
 10
164.56700000000001
 20
133.02199999999991
 30
0.0
 70
    32
  0
VERTEX
  5
11237
  8
0
 62
     5
 10
164.56700000000001
 20
133.02199999999991
 30
0.0
 70
    32
  0
SEQEND
  5
11238
  8
0
 62
     5
  0
ARC
  5
11239
  8
0
 62
     5
 10
164.76746640812431
 20
130.22221999999971
 30
0.0
 40
0.2
 50
180.0
 51
270.0
  0
ARC
  5
1123A
  8
0
 62
     5
 10
165.5674664081244
 20
133.02221999999969
 30
0.0
 40
1.0
 50
180.0
 51
270.0
  0
ARC
  5
1123B
  8
0
 62
     5
 10
165.5674664081244
 20
140.52221999999969
 30
0.0
 40
1.0
 50
180.0
 51
270.0
  0
ARC
  5
1123C
  8
0
 62
     5
 10
165.5674664081244
 20
150.22221999999991
 30
0.0
 40
1.0
 50
180.0
 51
270.0
  0
LINE
  5
1123D
  8
0
 62
     5
 10
182.86746640812399
 20
132.6043486449999
 30
0.0
 11
182.86746640812399
 21
138.48171027419991
 31
0.0
  0
LINE
  5
1123E
  8
0
 62
     5
 10
183.5674664081244
 20
138.5307072457997
 30
0.0
 11
183.5674664081244
 21
132.53631745049981
 31
0.0
  0
LINE
  5
1123F
  8
0
 62
     5
 10
184.0674664081244
 20
132.22221999999991
 30
0.0
 11
184.0674664081244
 21
139.02722302859991
 31
0.0
  0
LINE
  5
11240
  8
0
 62
     5
 10
183.5674664081244
 20
132.6043486449999
 30
0.0
 11
182.86746640812399
 21
132.6043486449999
 31
0.0
  0
LINE
  5
11241
  8
0
 62
     5
 10
184.3791181349244
 20
125.1222199999999
 30
0.0
 11
180.9985530694243
 21
125.1222199999999
 31
0.0
  0
LINE
  5
11242
  8
0
 62
     5
 10
174.6773476896243
 20
124.8222199999996
 30
0.0
 11
180.9985530694243
 21
124.8222199999996
 31
0.0
  0
LINE
  5
11243
  8
0
 62
     5
 10
174.38012220602431
 20
124.5222199999999
 30
0.0
 11
174.38012220602431
 21
125.1222199999999
 31
0.0
  0
LINE
  5
11244
  8
0
 62
     5
 10
174.6773476896243
 20
125.1222199999999
 30
0.0
 11
174.6773476896243
 21
124.8222199999996
 31
0.0
  0
LINE
  5
11245
  8
0
 62
     5
 10
174.6773476896243
 20
124.8222199999996
 30
0.0
 11
174.6304173501243
 21
124.5222199999999
 31
0.0
  0
LINE
  5
11246
  8
0
 62
     5
 10
172.89950867652431
 20
129.02222
 30
0.0
 11
172.89950867652431
 21
125.1222199999999
 31
0.0
  0
LINE
  5
11247
  8
0
 62
     5
 10
180.9985530694243
 20
124.8222199999996
 30
0.0
 11
180.9985530694243
 21
125.1222199999999
 31
0.0
  0
LINE
  5
11248
  8
0
 62
     5
 10
182.1975845618243
 20
124.5222199999999
 30
0.0
 11
182.1975845618243
 21
125.1222199999999
 31
0.0
  0
LINE
  5
11249
  8
0
 62
     5
 10
180.95162272992431
 20
124.5222199999999
 30
0.0
 11
180.9985530694243
 21
124.8222199999996
 31
0.0
  0
LINE
  5
1124A
  8
0
 62
     5
 10
182.7763920825239
 20
125.1222199999999
 30
0.0
 11
182.7763920825239
 21
129.02222
 31
0.0
  0
LINE
  5
1124B
  8
0
 62
     5
 10
180.95890327312421
 20
135.16574312430001
 30
0.0
 11
180.95890327312421
 21
134.4674442415
 31
0.0
  0
LINE
  5
1124C
  8
0
 62
     5
 10
180.95890327312421
 20
135.9068635412751
 30
0.0
 11
180.95890327312421
 21
136.5988827183391
 31
0.0
  0
LINE
  5
1124D
  8
0
 62
     5
 10
181.20260464032441
 20
135.81351234819991
 30
0.0
 11
181.20260464032441
 21
135.25351234819999
 31
0.0
  0
LINE
  5
1124E
  8
0
 62
     5
 10
181.20260464032441
 20
133.75542348649981
 30
0.0
 11
181.20260464032441
 21
133.73351234819981
 31
0.0
  0
LINE
  5
1124F
  8
0
 62
     5
 10
181.20260464032441
 20
135.25351234819999
 30
0.0
 11
180.98289872532439
 21
135.25351234819999
 31
0.0
  0
LINE
  5
11250
  8
0
 62
     5
 10
180.98289872532439
 20
135.81351234819991
 30
0.0
 11
181.20260464032441
 21
135.81351234819991
 31
0.0
  0
ARC
  5
11251
  8
0
 62
     5
 10
182.86746640812399
 20
134.71733587759991
 30
0.0
 40
1.9338235293999959
 50
210.58028737469871
 51
270.0
  0
LINE
  5
11252
  8
0
 62
     5
 10
186.47916659892439
 20
129.02222
 30
0.0
 11
186.47916659892439
 21
130.02221999999961
 31
0.0
  0
LINE
  5
11253
  8
HIDDEN
 10
192.58917921172431
 20
129.62221999999991
 30
0.0
 11
186.47916659892439
 21
129.62221999999991
 31
0.0
  0
LINE
  5
11254
  8
0
 62
     5
 10
184.07419240892381
 20
125.1222199999999
 30
0.0
 11
184.07419240892381
 21
124.8222199999996
 31
0.0
  0
LINE
  5
11255
  8
0
 62
     5
 10
183.77788590682439
 20
124.5222199999999
 30
0.0
 11
184.07419240892381
 21
124.8222199999996
 31
0.0
  0
LINE
  5
11256
  8
0
 62
     5
 10
184.37916659892409
 20
129.02222
 30
0.0
 11
184.37916659892409
 21
125.1222199999999
 31
0.0
  0
ARC
  5
11257
  8
0
 62
     5
 10
187.8674664081243
 20
130.22221999999971
 30
0.0
 40
0.2
 50
270.0
 51
0.0
  0
LINE
  5
11258
  8
0
 62
     5
 10
183.5674664081244
 20
132.53351234819991
 30
0.0
 11
184.0674664081244
 21
132.53351234819991
 31
0.0
  0
ARC
  5
11259
  8
0
 62
     5
 10
184.26746640812431
 20
132.22221999999991
 30
0.0
 40
0.2
 50
180.0
 51
270.0
  0
ARC
  5
1125A
  8
0
 62
     5
 10
192.8674664081243
 20
132.22221999999991
 30
0.0
 40
0.2
 50
270.0
 51
0.0
  0
ARC
  5
1125B
  8
0
 62
     5
 10
188.76746640812431
 20
132.22221999999991
 30
0.0
 40
0.2
 50
180.0
 51
270.0
  0
LINE
  5
1125C
  8
0
 62
     5
 10
188.0674664081244
 20
132.02221999999969
 30
0.0
 11
188.0674664081244
 21
130.22221999999971
 31
0.0
  0
LINE
  5
1125D
  8
0
 62
     5
 10
192.8674664081243
 20
132.02221999999969
 30
0.0
 11
188.76746640812431
 21
132.02221999999969
 31
0.0
  0
LINE
  5
1125E
  8
0
 62
     5
 10
183.5674664081244
 20
138.48351234819981
 30
0.0
 11
182.86746640812399
 21
138.48351234819981
 31
0.0
  0
LINE
  5
1125F
  8
0
 62
     5
 10
181.5674664081242
 20
142.3908491167999
 30
0.0
 11
183.5674664081244
 21
142.3908491167999
 31
0.0
  0
LINE
  5
11260
  8
0
 62
     5
 10
181.0674664081244
 20
142.42427435019991
 30
0.0
 11
181.0674664081244
 21
148.72221999999991
 31
0.0
  0
POLYLINE
  5
11261
  8
0
 62
     5
 66
     1
 10
0.0
 20
0.0
 30
0.0
  0
VERTEX
  5
1190D
  8
0
 62
     5
 10
181.0674664081244
 20
142.88938324939991
 30
0.0
  0
VERTEX
  5
1190E
  8
0
 62
     5
 10
181.0685369456242
 20
142.8567775698998
 30
0.0
  0
VERTEX
  5
1190F
  8
0
 62
     5
 10
181.0717439742242
 20
142.82431151189991
 30
0.0
  0
VERTEX
  5
11910
  8
0
 62
     5
 10
181.07707376092441
 20
142.79212409999991
 30
0.0
  0
VERTEX
  5
11911
  8
0
 62
     5
 10
181.08450348312431
 20
142.76035316539981
 30
0.0
  0
VERTEX
  5
11912
  8
0
 62
     5
 10
181.09400132572409
 20
142.7291347561999
 30
0.0
  0
VERTEX
  5
11913
  8
0
 62
     5
 10
181.1055266179244
 20
142.69860255409981
 30
0.0
  0
VERTEX
  5
11914
  8
0
 62
     5
 10
181.1190300067243
 20
142.6688873026994
 30
0.0
  0
VERTEX
  5
11915
  8
0
 62
     5
 10
181.13445366902431
 20
142.64011624739979
 30
0.0
  0
VERTEX
  5
11916
  8
0
 62
     5
 10
181.1517315584243
 20
142.61241259019991
 30
0.0
  0
VERTEX
  5
11917
  8
0
 62
     5
 10
181.17078968862441
 20
142.58589496249991
 30
0.0
  0
VERTEX
  5
11918
  8
0
 62
     5
 10
181.19154645012421
 20
142.5606769170999
 30
0.0
  0
VERTEX
  5
11919
  8
0
 62
     5
 10
181.21391295942431
 20
142.53686644149991
 30
0.0
  0
VERTEX
  5
1191A
  8
0
 62
     5
 10
181.23779343982409
 20
142.51456549619991
 30
0.0
  0
VERTEX
  5
1191B
  8
0
 62
     5
 10
181.26308563162431
 20
142.49386957749991
 30
0.0
  0
VERTEX
  5
1191C
  8
0
 62
     5
 10
181.2896812299243
 20
142.4748673085
 30
0.0
  0
VERTEX
  5
1191D
  8
0
 62
     5
 10
181.3174663482244
 20
142.45764006039991
 30
0.0
  0
VERTEX
  5
1191E
  8
0
 62
     5
 10
181.34632200652399
 20
142.4422616029
 30
0.0
  0
VERTEX
  5
1191F
  8
0
 62
     5
 10
181.37612464032389
 20
142.42879778929961
 30
0.0
  0
VERTEX
  5
11920
  8
0
 62
     5
 10
181.4067466301243
 20
142.41730627399991
 30
0.0
  0
VERTEX
  5
11921
  8
0
 62
     5
 10
181.4380568477244
 20
142.40783626549981
 30
0.0
  0
VERTEX
  5
11922
  8
0
 62
     5
 10
181.46992121772431
 20
142.40042831619979
 30
0.0
  0
VERTEX
  5
11923
  8
0
 62
     5
 10
181.5022032919243
 20
142.39511414799989
 30
0.0
  0
VERTEX
  5
11924
  8
0
 62
     5
 10
181.5347648332243
 20
142.39191651729951
 30
0.0
  0
VERTEX
  5
11925
  8
0
 62
     5
 10
181.5674664081242
 20
142.3908491167999
 30
0.0
  0
SEQEND
  5
11926
  8
0
 62
     5
  0
POLYLINE
  5
1127C
  8
0
 62
     5
 66
     1
 10
0.0
 20
0.0
 30
0.0
 70
     8
  0
VERTEX
  5
1127D
  8
0
 62
     5
 10
181.06799999999981
 20
142.40100000000001
 30
0.0
 70
    32
  0
VERTEX
  5
1127E
  8
0
 62
     5
 10
181.06799999999981
 20
142.40100000000001
 30
0.0
 70
    32
  0
VERTEX
  5
1127F
  8
0
 62
     5
 10
181.06799999999981
 20
142.40199999999979
 30
0.0
 70
    32
  0
VERTEX
  5
11280
  8
0
 62
     5
 10
181.06799999999981
 20
142.40199999999979
 30
0.0
 70
    32
  0
VERTEX
  5
11281
  8
0
 62
     5
 10
181.06799999999981
 20
142.40199999999979
 30
0.0
 70
    32
  0
VERTEX
  5
11282
  8
0
 62
     5
 10
181.06799999999981
 20
142.40199999999979
 30
0.0
 70
    32
  0
VERTEX
  5
11283
  8
0
 62
     5
 10
181.06799999999981
 20
142.40199999999979
 30
0.0
 70
    32
  0
VERTEX
  5
11284
  8
0
 62
     5
 10
181.06799999999981
 20
142.40199999999979
 30
0.0
 70
    32
  0
VERTEX
  5
11285
  8
0
 62
     5
 10
181.06799999999981
 20
142.40199999999979
 30
0.0
 70
    32
  0
VERTEX
  5
11286
  8
0
 62
     5
 10
181.06799999999981
 20
142.40299999999991
 30
0.0
 70
    32
  0
VERTEX
  5
11287
  8
0
 62
     5
 10
181.06799999999981
 20
142.40299999999991
 30
0.0
 70
    32
  0
VERTEX
  5
11288
  8
0
 62
     5
 10
181.06799999999981
 20
142.40299999999991
 30
0.0
 70
    32
  0
VERTEX
  5
11289
  8
0
 62
     5
 10
181.06799999999981
 20
142.40299999999991
 30
0.0
 70
    32
  0
VERTEX
  5
1128A
  8
0
 62
     5
 10
181.06799999999981
 20
142.40299999999991
 30
0.0
 70
    32
  0
VERTEX
  5
1128B
  8
0
 62
     5
 10
181.06799999999981
 20
142.40299999999991
 30
0.0
 70
    32
  0
VERTEX
  5
1128C
  8
0
 62
     5
 10
181.06799999999981
 20
142.40299999999991
 30
0.0
 70
    32
  0
VERTEX
  5
1128D
  8
0
 62
     5
 10
181.06799999999981
 20
142.40399999999991
 30
0.0
 70
    32
  0
VERTEX
  5
1128E
  8
0
 62
     5
 10
181.06799999999981
 20
142.40399999999991
 30
0.0
 70
    32
  0
VERTEX
  5
1128F
  8
0
 62
     5
 10
181.06799999999981
 20
142.40399999999991
 30
0.0
 70
    32
  0
VERTEX
  5
11290
  8
0
 62
     5
 10
181.06799999999981
 20
142.40399999999991
 30
0.0
 70
    32
  0
VERTEX
  5
11291
  8
0
 62
     5
 10
181.06799999999981
 20
142.40399999999991
 30
0.0
 70
    32
  0
VERTEX
  5
11292
  8
0
 62
     5
 10
181.06799999999981
 20
142.40399999999991
 30
0.0
 70
    32
  0
VERTEX
  5
11293
  8
0
 62
     5
 10
181.06799999999981
 20
142.40399999999991
 30
0.0
 70
    32
  0
VERTEX
  5
11294
  8
0
 62
     5
 10
181.06799999999981
 20
142.405
 30
0.0
 70
    32
  0
VERTEX
  5
11295
  8
0
 62
     5
 10
181.06799999999981
 20
142.405
 30
0.0
 70
    32
  0
VERTEX
  5
11296
  8
0
 62
     5
 10
181.06799999999981
 20
142.405
 30
0.0
 70
    32
  0
VERTEX
  5
11297
  8
0
 62
     5
 10
181.06799999999981
 20
142.405
 30
0.0
 70
    32
  0
VERTEX
  5
11298
  8
0
 62
     5
 10
181.06799999999981
 20
142.405
 30
0.0
 70
    32
  0
VERTEX
  5
11299
  8
0
 62
     5
 10
181.06799999999981
 20
142.405
 30
0.0
 70
    32
  0
VERTEX
  5
1129A
  8
0
 62
     5
 10
181.06799999999981
 20
142.405
 30
0.0
 70
    32
  0
VERTEX
  5
1129B
  8
0
 62
     5
 10
181.06799999999981
 20
142.40600000000001
 30
0.0
 70
    32
  0
VERTEX
  5
1129C
  8
0
 62
     5
 10
181.06799999999981
 20
142.40600000000001
 30
0.0
 70
    32
  0
VERTEX
  5
1129D
  8
0
 62
     5
 10
181.06799999999981
 20
142.40600000000001
 30
0.0
 70
    32
  0
VERTEX
  5
1129E
  8
0
 62
     5
 10
181.06799999999981
 20
142.40600000000001
 30
0.0
 70
    32
  0
VERTEX
  5
1129F
  8
0
 62
     5
 10
181.06799999999981
 20
142.40600000000001
 30
0.0
 70
    32
  0
VERTEX
  5
112A0
  8
0
 62
     5
 10
181.06799999999981
 20
142.40600000000001
 30
0.0
 70
    32
  0
VERTEX
  5
112A1
  8
0
 62
     5
 10
181.06799999999981
 20
142.40700000000001
 30
0.0
 70
    32
  0
VERTEX
  5
112A2
  8
0
 62
     5
 10
181.06799999999981
 20
142.40700000000001
 30
0.0
 70
    32
  0
VERTEX
  5
112A3
  8
0
 62
     5
 10
181.06799999999981
 20
142.40700000000001
 30
0.0
 70
    32
  0
VERTEX
  5
112A4
  8
0
 62
     5
 10
181.06799999999981
 20
142.40700000000001
 30
0.0
 70
    32
  0
VERTEX
  5
112A5
  8
0
 62
     5
 10
181.06799999999981
 20
142.40700000000001
 30
0.0
 70
    32
  0
VERTEX
  5
112A6
  8
0
 62
     5
 10
181.06799999999981
 20
142.40700000000001
 30
0.0
 70
    32
  0
VERTEX
  5
112A7
  8
0
 62
     5
 10
181.06799999999981
 20
142.40700000000001
 30
0.0
 70
    32
  0
VERTEX
  5
112A8
  8
0
 62
     5
 10
181.06799999999981
 20
142.4079999999999
 30
0.0
 70
    32
  0
VERTEX
  5
112A9
  8
0
 62
     5
 10
181.06799999999981
 20
142.4079999999999
 30
0.0
 70
    32
  0
VERTEX
  5
112AA
  8
0
 62
     5
 10
181.06799999999981
 20
142.4079999999999
 30
0.0
 70
    32
  0
VERTEX
  5
112AB
  8
0
 62
     5
 10
181.06799999999981
 20
142.4079999999999
 30
0.0
 70
    32
  0
VERTEX
  5
112AC
  8
0
 62
     5
 10
181.06799999999981
 20
142.4079999999999
 30
0.0
 70
    32
  0
VERTEX
  5
112AD
  8
0
 62
     5
 10
181.06799999999981
 20
142.4079999999999
 30
0.0
 70
    32
  0
VERTEX
  5
112AE
  8
0
 62
     5
 10
181.06799999999981
 20
142.4079999999999
 30
0.0
 70
    32
  0
VERTEX
  5
112AF
  8
0
 62
     5
 10
181.06799999999981
 20
142.40899999999991
 30
0.0
 70
    32
  0
VERTEX
  5
112B0
  8
0
 62
     5
 10
181.06799999999981
 20
142.40899999999991
 30
0.0
 70
    32
  0
VERTEX
  5
112B1
  8
0
 62
     5
 10
181.06799999999981
 20
142.40899999999991
 30
0.0
 70
    32
  0
VERTEX
  5
112B2
  8
0
 62
     5
 10
181.06799999999981
 20
142.40899999999991
 30
0.0
 70
    32
  0
VERTEX
  5
112B3
  8
0
 62
     5
 10
181.06799999999981
 20
142.40899999999991
 30
0.0
 70
    32
  0
VERTEX
  5
112B4
  8
0
 62
     5
 10
181.06799999999981
 20
142.40899999999991
 30
0.0
 70
    32
  0
VERTEX
  5
112B5
  8
0
 62
     5
 10
181.06799999999981
 20
142.40899999999991
 30
0.0
 70
    32
  0
VERTEX
  5
112B6
  8
0
 62
     5
 10
181.06799999999981
 20
142.40999999999991
 30
0.0
 70
    32
  0
VERTEX
  5
112B7
  8
0
 62
     5
 10
181.06799999999981
 20
142.40999999999991
 30
0.0
 70
    32
  0
VERTEX
  5
112B8
  8
0
 62
     5
 10
181.06799999999981
 20
142.40999999999991
 30
0.0
 70
    32
  0
VERTEX
  5
112B9
  8
0
 62
     5
 10
181.06799999999981
 20
142.40999999999991
 30
0.0
 70
    32
  0
VERTEX
  5
112BA
  8
0
 62
     5
 10
181.06799999999981
 20
142.40999999999991
 30
0.0
 70
    32
  0
VERTEX
  5
112BB
  8
0
 62
     5
 10
181.06799999999981
 20
142.40999999999991
 30
0.0
 70
    32
  0
VERTEX
  5
112BC
  8
0
 62
     5
 10
181.06799999999981
 20
142.40999999999991
 30
0.0
 70
    32
  0
VERTEX
  5
112BD
  8
0
 62
     5
 10
181.06799999999981
 20
142.4109999999996
 30
0.0
 70
    32
  0
VERTEX
  5
112BE
  8
0
 62
     5
 10
181.06799999999981
 20
142.4109999999996
 30
0.0
 70
    32
  0
VERTEX
  5
112BF
  8
0
 62
     5
 10
181.06799999999981
 20
142.4109999999996
 30
0.0
 70
    32
  0
VERTEX
  5
112C0
  8
0
 62
     5
 10
181.06799999999981
 20
142.4109999999996
 30
0.0
 70
    32
  0
VERTEX
  5
112C1
  8
0
 62
     5
 10
181.06799999999981
 20
142.4109999999996
 30
0.0
 70
    32
  0
VERTEX
  5
112C2
  8
0
 62
     5
 10
181.06799999999981
 20
142.4109999999996
 30
0.0
 70
    32
  0
VERTEX
  5
112C3
  8
0
 62
     5
 10
181.06799999999981
 20
142.4109999999996
 30
0.0
 70
    32
  0
VERTEX
  5
112C4
  8
0
 62
     5
 10
181.06799999999981
 20
142.41200000000001
 30
0.0
 70
    32
  0
VERTEX
  5
112C5
  8
0
 62
     5
 10
181.06799999999981
 20
142.41200000000001
 30
0.0
 70
    32
  0
VERTEX
  5
112C6
  8
0
 62
     5
 10
181.06799999999981
 20
142.41200000000001
 30
0.0
 70
    32
  0
VERTEX
  5
112C7
  8
0
 62
     5
 10
181.06799999999981
 20
142.41200000000001
 30
0.0
 70
    32
  0
VERTEX
  5
112C8
  8
0
 62
     5
 10
181.06799999999981
 20
142.41200000000001
 30
0.0
 70
    32
  0
VERTEX
  5
112C9
  8
0
 62
     5
 10
181.06799999999981
 20
142.41200000000001
 30
0.0
 70
    32
  0
VERTEX
  5
112CA
  8
0
 62
     5
 10
181.06799999999981
 20
142.41200000000001
 30
0.0
 70
    32
  0
VERTEX
  5
112CB
  8
0
 62
     5
 10
181.06799999999981
 20
142.4129999999999
 30
0.0
 70
    32
  0
VERTEX
  5
112CC
  8
0
 62
     5
 10
181.06799999999981
 20
142.4129999999999
 30
0.0
 70
    32
  0
VERTEX
  5
112CD
  8
0
 62
     5
 10
181.06799999999981
 20
142.4129999999999
 30
0.0
 70
    32
  0
VERTEX
  5
112CE
  8
0
 62
     5
 10
181.06799999999981
 20
142.4129999999999
 30
0.0
 70
    32
  0
VERTEX
  5
112CF
  8
0
 62
     5
 10
181.06799999999981
 20
142.4129999999999
 30
0.0
 70
    32
  0
VERTEX
  5
112D0
  8
0
 62
     5
 10
181.06799999999981
 20
142.4129999999999
 30
0.0
 70
    32
  0
VERTEX
  5
112D1
  8
0
 62
     5
 10
181.06799999999981
 20
142.4129999999999
 30
0.0
 70
    32
  0
VERTEX
  5
112D2
  8
0
 62
     5
 10
181.06799999999981
 20
142.4139999999999
 30
0.0
 70
    32
  0
VERTEX
  5
112D3
  8
0
 62
     5
 10
181.06799999999981
 20
142.4139999999999
 30
0.0
 70
    32
  0
VERTEX
  5
112D4
  8
0
 62
     5
 10
181.06799999999981
 20
142.4139999999999
 30
0.0
 70
    32
  0
VERTEX
  5
112D5
  8
0
 62
     5
 10
181.06799999999981
 20
142.4139999999999
 30
0.0
 70
    32
  0
VERTEX
  5
112D6
  8
0
 62
     5
 10
181.06799999999981
 20
142.4139999999999
 30
0.0
 70
    32
  0
VERTEX
  5
112D7
  8
0
 62
     5
 10
181.06799999999981
 20
142.4139999999999
 30
0.0
 70
    32
  0
VERTEX
  5
112D8
  8
0
 62
     5
 10
181.06799999999981
 20
142.4139999999999
 30
0.0
 70
    32
  0
VERTEX
  5
112D9
  8
0
 62
     5
 10
181.06799999999981
 20
142.41499999999999
 30
0.0
 70
    32
  0
VERTEX
  5
112DA
  8
0
 62
     5
 10
181.06799999999981
 20
142.41499999999999
 30
0.0
 70
    32
  0
VERTEX
  5
112DB
  8
0
 62
     5
 10
181.06799999999981
 20
142.41499999999999
 30
0.0
 70
    32
  0
VERTEX
  5
112DC
  8
0
 62
     5
 10
181.06799999999981
 20
142.41499999999999
 30
0.0
 70
    32
  0
VERTEX
  5
112DD
  8
0
 62
     5
 10
181.06799999999981
 20
142.41499999999999
 30
0.0
 70
    32
  0
VERTEX
  5
112DE
  8
0
 62
     5
 10
181.06799999999981
 20
142.41499999999999
 30
0.0
 70
    32
  0
VERTEX
  5
112DF
  8
0
 62
     5
 10
181.06799999999981
 20
142.41499999999999
 30
0.0
 70
    32
  0
VERTEX
  5
112E0
  8
0
 62
     5
 10
181.06799999999981
 20
142.416
 30
0.0
 70
    32
  0
VERTEX
  5
112E1
  8
0
 62
     5
 10
181.06799999999981
 20
142.416
 30
0.0
 70
    32
  0
VERTEX
  5
112E2
  8
0
 62
     5
 10
181.06799999999981
 20
142.416
 30
0.0
 70
    32
  0
VERTEX
  5
112E3
  8
0
 62
     5
 10
181.06799999999981
 20
142.416
 30
0.0
 70
    32
  0
VERTEX
  5
112E4
  8
0
 62
     5
 10
181.06799999999981
 20
142.416
 30
0.0
 70
    32
  0
VERTEX
  5
112E5
  8
0
 62
     5
 10
181.06799999999981
 20
142.416
 30
0.0
 70
    32
  0
VERTEX
  5
112E6
  8
0
 62
     5
 10
181.06799999999981
 20
142.416
 30
0.0
 70
    32
  0
VERTEX
  5
112E7
  8
0
 62
     5
 10
181.06799999999981
 20
142.4169999999998
 30
0.0
 70
    32
  0
VERTEX
  5
112E8
  8
0
 62
     5
 10
181.06799999999981
 20
142.4169999999998
 30
0.0
 70
    32
  0
VERTEX
  5
112E9
  8
0
 62
     5
 10
181.06799999999981
 20
142.4169999999998
 30
0.0
 70
    32
  0
VERTEX
  5
112EA
  8
0
 62
     5
 10
181.06799999999981
 20
142.4169999999998
 30
0.0
 70
    32
  0
VERTEX
  5
112EB
  8
0
 62
     5
 10
181.06799999999981
 20
142.4169999999998
 30
0.0
 70
    32
  0
VERTEX
  5
112EC
  8
0
 62
     5
 10
181.06799999999981
 20
142.4169999999998
 30
0.0
 70
    32
  0
VERTEX
  5
112ED
  8
0
 62
     5
 10
181.06799999999981
 20
142.4169999999998
 30
0.0
 70
    32
  0
VERTEX
  5
112EE
  8
0
 62
     5
 10
181.06799999999981
 20
142.41799999999981
 30
0.0
 70
    32
  0
VERTEX
  5
112EF
  8
0
 62
     5
 10
181.06799999999981
 20
142.41799999999981
 30
0.0
 70
    32
  0
VERTEX
  5
112F0
  8
0
 62
     5
 10
181.06799999999981
 20
142.41799999999981
 30
0.0
 70
    32
  0
VERTEX
  5
112F1
  8
0
 62
     5
 10
181.06799999999981
 20
142.41799999999981
 30
0.0
 70
    32
  0
VERTEX
  5
112F2
  8
0
 62
     5
 10
181.06799999999981
 20
142.41799999999981
 30
0.0
 70
    32
  0
VERTEX
  5
112F3
  8
0
 62
     5
 10
181.06799999999981
 20
142.41799999999981
 30
0.0
 70
    32
  0
VERTEX
  5
112F4
  8
0
 62
     5
 10
181.06799999999981
 20
142.41799999999981
 30
0.0
 70
    32
  0
VERTEX
  5
112F5
  8
0
 62
     5
 10
181.06799999999981
 20
142.41899999999981
 30
0.0
 70
    32
  0
VERTEX
  5
112F6
  8
0
 62
     5
 10
181.06700000000001
 20
142.41899999999981
 30
0.0
 70
    32
  0
VERTEX
  5
112F7
  8
0
 62
     5
 10
181.06700000000001
 20
142.41899999999981
 30
0.0
 70
    32
  0
VERTEX
  5
112F8
  8
0
 62
     5
 10
181.06700000000001
 20
142.41899999999981
 30
0.0
 70
    32
  0
VERTEX
  5
112F9
  8
0
 62
     5
 10
181.06700000000001
 20
142.41899999999981
 30
0.0
 70
    32
  0
VERTEX
  5
112FA
  8
0
 62
     5
 10
181.06700000000001
 20
142.41899999999981
 30
0.0
 70
    32
  0
VERTEX
  5
112FB
  8
0
 62
     5
 10
181.06700000000001
 20
142.4199999999999
 30
0.0
 70
    32
  0
VERTEX
  5
112FC
  8
0
 62
     5
 10
181.06700000000001
 20
142.4199999999999
 30
0.0
 70
    32
  0
VERTEX
  5
112FD
  8
0
 62
     5
 10
181.06700000000001
 20
142.4199999999999
 30
0.0
 70
    32
  0
VERTEX
  5
112FE
  8
0
 62
     5
 10
181.06700000000001
 20
142.4199999999999
 30
0.0
 70
    32
  0
VERTEX
  5
112FF
  8
0
 62
     5
 10
181.06700000000001
 20
142.4199999999999
 30
0.0
 70
    32
  0
VERTEX
  5
11300
  8
0
 62
     5
 10
181.06700000000001
 20
142.4199999999999
 30
0.0
 70
    32
  0
VERTEX
  5
11301
  8
0
 62
     5
 10
181.06700000000001
 20
142.4199999999999
 30
0.0
 70
    32
  0
VERTEX
  5
11302
  8
0
 62
     5
 10
181.06700000000001
 20
142.42099999999991
 30
0.0
 70
    32
  0
VERTEX
  5
11303
  8
0
 62
     5
 10
181.06700000000001
 20
142.42099999999991
 30
0.0
 70
    32
  0
VERTEX
  5
11304
  8
0
 62
     5
 10
181.06700000000001
 20
142.42099999999991
 30
0.0
 70
    32
  0
VERTEX
  5
11305
  8
0
 62
     5
 10
181.06700000000001
 20
142.42099999999991
 30
0.0
 70
    32
  0
VERTEX
  5
11306
  8
0
 62
     5
 10
181.06700000000001
 20
142.42099999999991
 30
0.0
 70
    32
  0
VERTEX
  5
11307
  8
0
 62
     5
 10
181.06700000000001
 20
142.42099999999991
 30
0.0
 70
    32
  0
VERTEX
  5
11308
  8
0
 62
     5
 10
181.06700000000001
 20
142.42099999999991
 30
0.0
 70
    32
  0
VERTEX
  5
11309
  8
0
 62
     5
 10
181.06700000000001
 20
142.422
 30
0.0
 70
    32
  0
VERTEX
  5
1130A
  8
0
 62
     5
 10
181.06700000000001
 20
142.422
 30
0.0
 70
    32
  0
VERTEX
  5
1130B
  8
0
 62
     5
 10
181.06700000000001
 20
142.422
 30
0.0
 70
    32
  0
VERTEX
  5
1130C
  8
0
 62
     5
 10
181.06700000000001
 20
142.422
 30
0.0
 70
    32
  0
VERTEX
  5
1130D
  8
0
 62
     5
 10
181.06700000000001
 20
142.422
 30
0.0
 70
    32
  0
VERTEX
  5
1130E
  8
0
 62
     5
 10
181.06700000000001
 20
142.422
 30
0.0
 70
    32
  0
VERTEX
  5
1130F
  8
0
 62
     5
 10
181.06700000000001
 20
142.422
 30
0.0
 70
    32
  0
VERTEX
  5
11310
  8
0
 62
     5
 10
181.06700000000001
 20
142.423
 30
0.0
 70
    32
  0
VERTEX
  5
11311
  8
0
 62
     5
 10
181.06700000000001
 20
142.423
 30
0.0
 70
    32
  0
VERTEX
  5
11312
  8
0
 62
     5
 10
181.06700000000001
 20
142.423
 30
0.0
 70
    32
  0
VERTEX
  5
11313
  8
0
 62
     5
 10
181.06700000000001
 20
142.423
 30
0.0
 70
    32
  0
VERTEX
  5
11314
  8
0
 62
     5
 10
181.06700000000001
 20
142.423
 30
0.0
 70
    32
  0
VERTEX
  5
11315
  8
0
 62
     5
 10
181.06700000000001
 20
142.423
 30
0.0
 70
    32
  0
VERTEX
  5
11316
  8
0
 62
     5
 10
181.06700000000001
 20
142.423
 30
0.0
 70
    32
  0
VERTEX
  5
11317
  8
0
 62
     5
 10
181.06700000000001
 20
142.42400000000001
 30
0.0
 70
    32
  0
VERTEX
  5
11318
  8
0
 62
     5
 10
181.06700000000001
 20
142.42400000000001
 30
0.0
 70
    32
  0
VERTEX
  5
11319
  8
0
 62
     5
 10
181.06700000000001
 20
142.42400000000001
 30
0.0
 70
    32
  0
VERTEX
  5
1131A
  8
0
 62
     5
 10
181.06700000000001
 20
142.42400000000001
 30
0.0
 70
    32
  0
VERTEX
  5
1131B
  8
0
 62
     5
 10
181.06700000000001
 20
142.42400000000001
 30
0.0
 70
    32
  0
VERTEX
  5
1131C
  8
0
 62
     5
 10
181.06700000000001
 20
142.42400000000001
 30
0.0
 70
    32
  0
SEQEND
  5
1131D
  8
0
 62
     5
  0
LINE
  5
1131E
  8
0
 62
     5
 10
181.20260464032441
 20
137.3335123482
 30
0.0
 11
181.20260464032441
 21
137.31125238109641
 31
0.0
  0
ARC
  5
1131F
  8
0
 62
     5
 10
182.7909831381852
 20
136.48372468385961
 30
0.0
 40
1.8014120369675419
 50
87.566638768916448
 51
151.8530738511943
  0
LINE
  5
11320
  8
0
 62
     5
 10
181.0679131711243
 20
142.4013031107998
 30
0.0
 11
180.56835992962431
 21
142.3807757797999
 31
0.0
  0
ARC
  5
11321
  8
0
 62
     5
 10
180.56746640812381
 20
148.72221999999991
 30
0.0
 40
0.5
 50
0.0
 51
90.0
  0
LINE
  5
11322
  8
0
 62
     5
 10
184.0674664081244
 20
148.9222199999999
 30
0.0
 11
184.0674664081244
 21
142.37162613389981
 31
0.0
  0
LINE
  5
11323
  8
0
 62
     5
 10
187.8674664081243
 20
142.7970946211999
 30
0.0
 11
187.8674664081243
 21
148.67445625039991
 31
0.0
  0
LINE
  5
11324
  8
0
 62
     5
 10
188.5674664081244
 20
142.7970946211999
 30
0.0
 11
187.8674664081243
 21
142.7970946211999
 31
0.0
  0
LINE
  5
11325
  8
0
 62
     5
 10
184.0674664081244
 20
142.3807757797999
 30
0.0
 11
188.5674664081244
 21
142.3807757797999
 31
0.0
  0
LINE
  5
11326
  8
0
 62
     5
 10
186.11635538842441
 20
143.8762583242999
 30
0.0
 11
186.17182599902421
 21
143.6845924574998
 31
0.0
  0
LINE
  5
11327
  8
0
 62
     5
 10
186.11635538842441
 20
143.89757026999951
 30
0.0
 11
186.11635538842441
 21
143.8762583242999
 31
0.0
  0
LINE
  5
11328
  8
0
 62
     5
 10
187.12834602742399
 20
142.97625832429981
 30
0.0
 11
187.8674664081243
 21
142.97625832429981
 31
0.0
  0
LINE
  5
11329
  8
0
 62
     5
 10
183.5674664081244
 20
138.53351234819991
 30
0.0
 11
183.5674664081244
 21
139.52555535239961
 31
0.0
  0
POLYLINE
  5
1132A
  8
0
 62
     5
 66
     1
 10
0.0
 20
0.0
 30
0.0
  0
VERTEX
  5
11927
  8
0
 62
     5
 10
184.0674664081244
 20
142.88938324939991
 30
0.0
  0
VERTEX
  5
11928
  8
0
 62
     5
 10
184.06639586972381
 20
142.8567775570998
 30
0.0
  0
VERTEX
  5
11929
  8
0
 62
     5
 10
184.06318883882381
 20
142.8243114874
 30
0.0
  0
VERTEX
  5
1192A
  8
0
 62
     5
 10
184.0578590483243
 20
142.79212406490001
 30
0.0
  0
VERTEX
  5
1192B
  8
0
 62
     5
 10
184.0504293212243
 20
142.7603531212994
 30
0.0
  0
VERTEX
  5
1192C
  8
0
 62
     5
 10
184.0409314728239
 20
142.7291347044
 30
0.0
  0
VERTEX
  5
1192D
  8
0
 62
     5
 10
184.02940617442431
 20
142.69860249639979
 30
0.0
  0
VERTEX
  5
1192E
  8
0
 62
     5
 10
184.01590277892441
 20
142.66888724090001
 30
0.0
  0
VERTEX
  5
1192F
  8
0
 62
     5
 10
184.00047911002409
 20
142.64011618309991
 30
0.0
  0
VERTEX
  5
11930
  8
0
 62
     5
 10
183.9832012143244
 20
142.6124125252
 30
0.0
  0
VERTEX
  5
11931
  8
0
 62
     5
 10
183.96414307822431
 20
142.58589489839991
 30
0.0
  0
VERTEX
  5
11932
  8
0
 62
     5
 10
183.94338631182441
 20
142.5606768554
 30
0.0
  0
VERTEX
  5
11933
  8
0
 62
     5
 10
183.9210197987243
 20
142.5368663835998
 30
0.0
  0
VERTEX
  5
11934
  8
0
 62
     5
 10
183.8971393157243
 20
142.51456544309991
 30
0.0
  0
VERTEX
  5
11935
  8
0
 62
     5
 10
183.8718471226241
 20
142.49386953000001
 30
0.0
  0
VERTEX
  5
11936
  8
0
 62
     5
 10
183.8452515246239
 20
142.4748672673999
 30
0.0
  0
VERTEX
  5
11937
  8
0
 62
     5
 10
183.81746640812401
 20
142.45764002589999
 30
0.0
  0
VERTEX
  5
11938
  8
0
 62
     5
 10
183.78861075322411
 20
142.44226157509991
 30
0.0
  0
VERTEX
  5
11939
  8
0
 62
     5
 10
183.7588081243243
 20
142.42879776799981
 30
0.0
  0
VERTEX
  5
1193A
  8
0
 62
     5
 10
183.72818614082439
 20
142.41730625859981
 30
0.0
  0
VERTEX
  5
1193B
  8
0
 62
     5
 10
183.6968759307243
 20
142.40783625540001
 30
0.0
  0
VERTEX
  5
1193C
  8
0
 62
     5
 10
183.66501156912409
 20
142.4004283102999
 30
0.0
  0
VERTEX
  5
1193D
  8
0
 62
     5
 10
183.6327295042243
 20
142.3951141453999
 30
0.0
  0
VERTEX
  5
1193E
  8
0
 62
     5
 10
183.60016797272439
 20
142.39191651659971
 30
0.0
  0
VERTEX
  5
1193F
  8
0
 62
     5
 10
183.5674664081244
 20
142.3908491167999
 30
0.0
  0
SEQEND
  5
11940
  8
0
 62
     5
  0
LINE
  5
11345
  8
0
 62
     5
 10
183.5674664081244
 20
138.53351234819991
 30
0.0
 11
184.0674664081244
 21
138.53351234819991
 31
0.0
  0
ARC
  5
11346
  8
0
 62
     5
 10
183.5674664081244
 20
139.02221999999961
 30
0.0
 40
0.5
 50
0.0
 51
90.0
  0
POLYLINE
  5
11347
  8
0
 62
     5
 66
     1
 10
0.0
 20
0.0
 30
0.0
 70
     8
  0
VERTEX
  5
11348
  8
0
 62
     5
 10
184.3669999999999
 20
142.374
 30
0.0
 70
    32
  0
VERTEX
  5
11349
  8
0
 62
     5
 10
184.3669999999999
 20
142.374
 30
0.0
 70
    32
  0
VERTEX
  5
1134A
  8
0
 62
     5
 10
184.3659999999997
 20
142.374
 30
0.0
 70
    32
  0
VERTEX
  5
1134B
  8
0
 62
     5
 10
184.36500000000001
 20
142.374
 30
0.0
 70
    32
  0
VERTEX
  5
1134C
  8
0
 62
     5
 10
184.36500000000001
 20
142.374
 30
0.0
 70
    32
  0
VERTEX
  5
1134D
  8
0
 62
     5
 10
184.364
 20
142.374
 30
0.0
 70
    32
  0
VERTEX
  5
1134E
  8
0
 62
     5
 10
184.363
 20
142.374
 30
0.0
 70
    32
  0
VERTEX
  5
1134F
  8
0
 62
     5
 10
184.363
 20
142.374
 30
0.0
 70
    32
  0
VERTEX
  5
11350
  8
0
 62
     5
 10
184.36199999999991
 20
142.374
 30
0.0
 70
    32
  0
VERTEX
  5
11351
  8
0
 62
     5
 10
184.3609999999999
 20
142.374
 30
0.0
 70
    32
  0
VERTEX
  5
11352
  8
0
 62
     5
 10
184.3609999999999
 20
142.374
 30
0.0
 70
    32
  0
VERTEX
  5
11353
  8
0
 62
     5
 10
184.36000000000001
 20
142.374
 30
0.0
 70
    32
  0
VERTEX
  5
11354
  8
0
 62
     5
 10
184.35900000000001
 20
142.374
 30
0.0
 70
    32
  0
VERTEX
  5
11355
  8
0
 62
     5
 10
184.35900000000001
 20
142.374
 30
0.0
 70
    32
  0
VERTEX
  5
11356
  8
0
 62
     5
 10
184.35799999999961
 20
142.374
 30
0.0
 70
    32
  0
VERTEX
  5
11357
  8
0
 62
     5
 10
184.35699999999991
 20
142.374
 30
0.0
 70
    32
  0
VERTEX
  5
11358
  8
0
 62
     5
 10
184.35699999999991
 20
142.374
 30
0.0
 70
    32
  0
VERTEX
  5
11359
  8
0
 62
     5
 10
184.35599999999999
 20
142.374
 30
0.0
 70
    32
  0
VERTEX
  5
1135A
  8
0
 62
     5
 10
184.35499999999999
 20
142.374
 30
0.0
 70
    32
  0
VERTEX
  5
1135B
  8
0
 62
     5
 10
184.35499999999999
 20
142.374
 30
0.0
 70
    32
  0
VERTEX
  5
1135C
  8
0
 62
     5
 10
184.35400000000001
 20
142.374
 30
0.0
 70
    32
  0
VERTEX
  5
1135D
  8
0
 62
     5
 10
184.35299999999981
 20
142.374
 30
0.0
 70
    32
  0
VERTEX
  5
1135E
  8
0
 62
     5
 10
184.35299999999981
 20
142.374
 30
0.0
 70
    32
  0
VERTEX
  5
1135F
  8
0
 62
     5
 10
184.352
 20
142.374
 30
0.0
 70
    32
  0
VERTEX
  5
11360
  8
0
 62
     5
 10
184.35099999999991
 20
142.374
 30
0.0
 70
    32
  0
VERTEX
  5
11361
  8
0
 62
     5
 10
184.35099999999991
 20
142.374
 30
0.0
 70
    32
  0
VERTEX
  5
11362
  8
0
 62
     5
 10
184.34999999999991
 20
142.374
 30
0.0
 70
    32
  0
VERTEX
  5
11363
  8
0
 62
     5
 10
184.3489999999999
 20
142.374
 30
0.0
 70
    32
  0
VERTEX
  5
11364
  8
0
 62
     5
 10
184.3489999999999
 20
142.374
 30
0.0
 70
    32
  0
VERTEX
  5
11365
  8
0
 62
     5
 10
184.3479999999999
 20
142.374
 30
0.0
 70
    32
  0
VERTEX
  5
11366
  8
0
 62
     5
 10
184.34700000000001
 20
142.374
 30
0.0
 70
    32
  0
VERTEX
  5
11367
  8
0
 62
     5
 10
184.34700000000001
 20
142.374
 30
0.0
 70
    32
  0
VERTEX
  5
11368
  8
0
 62
     5
 10
184.3459999999998
 20
142.374
 30
0.0
 70
    32
  0
VERTEX
  5
11369
  8
0
 62
     5
 10
184.34499999999991
 20
142.374
 30
0.0
 70
    32
  0
VERTEX
  5
1136A
  8
0
 62
     5
 10
184.34499999999991
 20
142.374
 30
0.0
 70
    32
  0
VERTEX
  5
1136B
  8
0
 62
     5
 10
184.34399999999991
 20
142.374
 30
0.0
 70
    32
  0
VERTEX
  5
1136C
  8
0
 62
     5
 10
184.3429999999999
 20
142.374
 30
0.0
 70
    32
  0
VERTEX
  5
1136D
  8
0
 62
     5
 10
184.3429999999999
 20
142.374
 30
0.0
 70
    32
  0
VERTEX
  5
1136E
  8
0
 62
     5
 10
184.34200000000001
 20
142.374
 30
0.0
 70
    32
  0
VERTEX
  5
1136F
  8
0
 62
     5
 10
184.34099999999981
 20
142.374
 30
0.0
 70
    32
  0
VERTEX
  5
11370
  8
0
 62
     5
 10
184.34099999999981
 20
142.374
 30
0.0
 70
    32
  0
VERTEX
  5
11371
  8
0
 62
     5
 10
184.34
 20
142.374
 30
0.0
 70
    32
  0
VERTEX
  5
11372
  8
0
 62
     5
 10
184.339
 20
142.374
 30
0.0
 70
    32
  0
VERTEX
  5
11373
  8
0
 62
     5
 10
184.339
 20
142.374
 30
0.0
 70
    32
  0
VERTEX
  5
11374
  8
0
 62
     5
 10
184.33799999999991
 20
142.374
 30
0.0
 70
    32
  0
VERTEX
  5
11375
  8
0
 62
     5
 10
184.3369999999999
 20
142.374
 30
0.0
 70
    32
  0
VERTEX
  5
11376
  8
0
 62
     5
 10
184.3369999999999
 20
142.374
 30
0.0
 70
    32
  0
VERTEX
  5
11377
  8
0
 62
     5
 10
184.33599999999981
 20
142.374
 30
0.0
 70
    32
  0
VERTEX
  5
11378
  8
0
 62
     5
 10
184.33500000000001
 20
142.374
 30
0.0
 70
    32
  0
VERTEX
  5
11379
  8
0
 62
     5
 10
184.33500000000001
 20
142.374
 30
0.0
 70
    32
  0
VERTEX
  5
1137A
  8
0
 62
     5
 10
184.33399999999949
 20
142.374
 30
0.0
 70
    32
  0
VERTEX
  5
1137B
  8
0
 62
     5
 10
184.33299999999991
 20
142.374
 30
0.0
 70
    32
  0
VERTEX
  5
1137C
  8
0
 62
     5
 10
184.33299999999991
 20
142.374
 30
0.0
 70
    32
  0
VERTEX
  5
1137D
  8
0
 62
     5
 10
184.33199999999999
 20
142.374
 30
0.0
 70
    32
  0
VERTEX
  5
1137E
  8
0
 62
     5
 10
184.3309999999999
 20
142.374
 30
0.0
 70
    32
  0
VERTEX
  5
1137F
  8
0
 62
     5
 10
184.3309999999999
 20
142.374
 30
0.0
 70
    32
  0
VERTEX
  5
11380
  8
0
 62
     5
 10
184.33000000000001
 20
142.374
 30
0.0
 70
    32
  0
VERTEX
  5
11381
  8
0
 62
     5
 10
184.32900000000001
 20
142.374
 30
0.0
 70
    32
  0
VERTEX
  5
11382
  8
0
 62
     5
 10
184.32900000000001
 20
142.374
 30
0.0
 70
    32
  0
VERTEX
  5
11383
  8
0
 62
     5
 10
184.328
 20
142.374
 30
0.0
 70
    32
  0
VERTEX
  5
11384
  8
0
 62
     5
 10
184.3269999999996
 20
142.374
 30
0.0
 70
    32
  0
VERTEX
  5
11385
  8
0
 62
     5
 10
184.3269999999996
 20
142.374
 30
0.0
 70
    32
  0
VERTEX
  5
11386
  8
0
 62
     5
 10
184.32599999999991
 20
142.374
 30
0.0
 70
    32
  0
VERTEX
  5
11387
  8
0
 62
     5
 10
184.3249999999999
 20
142.374
 30
0.0
 70
    32
  0
VERTEX
  5
11388
  8
0
 62
     5
 10
184.3249999999999
 20
142.374
 30
0.0
 70
    32
  0
VERTEX
  5
11389
  8
0
 62
     5
 10
184.32400000000001
 20
142.374
 30
0.0
 70
    32
  0
VERTEX
  5
1138A
  8
0
 62
     5
 10
184.32299999999989
 20
142.374
 30
0.0
 70
    32
  0
VERTEX
  5
1138B
  8
0
 62
     5
 10
184.32299999999989
 20
142.374
 30
0.0
 70
    32
  0
VERTEX
  5
1138C
  8
0
 62
     5
 10
184.322
 20
142.374
 30
0.0
 70
    32
  0
VERTEX
  5
1138D
  8
0
 62
     5
 10
184.321
 20
142.374
 30
0.0
 70
    32
  0
VERTEX
  5
1138E
  8
0
 62
     5
 10
184.321
 20
142.374
 30
0.0
 70
    32
  0
VERTEX
  5
1138F
  8
0
 62
     5
 10
184.31999999999991
 20
142.374
 30
0.0
 70
    32
  0
VERTEX
  5
11390
  8
0
 62
     5
 10
184.3189999999999
 20
142.374
 30
0.0
 70
    32
  0
VERTEX
  5
11391
  8
0
 62
     5
 10
184.3189999999999
 20
142.374
 30
0.0
 70
    32
  0
VERTEX
  5
11392
  8
0
 62
     5
 10
184.31799999999981
 20
142.374
 30
0.0
 70
    32
  0
VERTEX
  5
11393
  8
0
 62
     5
 10
184.31700000000001
 20
142.374
 30
0.0
 70
    32
  0
VERTEX
  5
11394
  8
0
 62
     5
 10
184.31700000000001
 20
142.374
 30
0.0
 70
    32
  0
VERTEX
  5
11395
  8
0
 62
     5
 10
184.31599999999989
 20
142.374
 30
0.0
 70
    32
  0
VERTEX
  5
11396
  8
0
 62
     5
 10
184.31499999999991
 20
142.374
 30
0.0
 70
    32
  0
VERTEX
  5
11397
  8
0
 62
     5
 10
184.31499999999991
 20
142.374
 30
0.0
 70
    32
  0
VERTEX
  5
11398
  8
0
 62
     5
 10
184.31399999999999
 20
142.374
 30
0.0
 70
    32
  0
VERTEX
  5
11399
  8
0
 62
     5
 10
184.3129999999999
 20
142.374
 30
0.0
 70
    32
  0
VERTEX
  5
1139A
  8
0
 62
     5
 10
184.3129999999999
 20
142.374
 30
0.0
 70
    32
  0
VERTEX
  5
1139B
  8
0
 62
     5
 10
184.31200000000001
 20
142.374
 30
0.0
 70
    32
  0
VERTEX
  5
1139C
  8
0
 62
     5
 10
184.3109999999995
 20
142.374
 30
0.0
 70
    32
  0
VERTEX
  5
1139D
  8
0
 62
     5
 10
184.3109999999995
 20
142.374
 30
0.0
 70
    32
  0
VERTEX
  5
1139E
  8
0
 62
     5
 10
184.30999999999949
 20
142.374
 30
0.0
 70
    32
  0
VERTEX
  5
1139F
  8
0
 62
     5
 10
184.309
 20
142.374
 30
0.0
 70
    32
  0
VERTEX
  5
113A0
  8
0
 62
     5
 10
184.309
 20
142.374
 30
0.0
 70
    32
  0
VERTEX
  5
113A1
  8
0
 62
     5
 10
184.30799999999999
 20
142.374
 30
0.0
 70
    32
  0
VERTEX
  5
113A2
  8
0
 62
     5
 10
184.3069999999999
 20
142.374
 30
0.0
 70
    32
  0
VERTEX
  5
113A3
  8
0
 62
     5
 10
184.3069999999999
 20
142.374
 30
0.0
 70
    32
  0
VERTEX
  5
113A4
  8
0
 62
     5
 10
184.3059999999999
 20
142.374
 30
0.0
 70
    32
  0
VERTEX
  5
113A5
  8
0
 62
     5
 10
184.30500000000001
 20
142.374
 30
0.0
 70
    32
  0
VERTEX
  5
113A6
  8
0
 62
     5
 10
184.30500000000001
 20
142.374
 30
0.0
 70
    32
  0
VERTEX
  5
113A7
  8
0
 62
     5
 10
184.304
 20
142.374
 30
0.0
 70
    32
  0
VERTEX
  5
113A8
  8
0
 62
     5
 10
184.30299999999991
 20
142.374
 30
0.0
 70
    32
  0
VERTEX
  5
113A9
  8
0
 62
     5
 10
184.30299999999991
 20
142.374
 30
0.0
 70
    32
  0
VERTEX
  5
113AA
  8
0
 62
     5
 10
184.30199999999991
 20
142.374
 30
0.0
 70
    32
  0
VERTEX
  5
113AB
  8
0
 62
     5
 10
184.3009999999999
 20
142.374
 30
0.0
 70
    32
  0
VERTEX
  5
113AC
  8
0
 62
     5
 10
184.3009999999999
 20
142.374
 30
0.0
 70
    32
  0
VERTEX
  5
113AD
  8
0
 62
     5
 10
184.30000000000001
 20
142.374
 30
0.0
 70
    32
  0
VERTEX
  5
113AE
  8
0
 62
     5
 10
184.29900000000001
 20
142.374
 30
0.0
 70
    32
  0
VERTEX
  5
113AF
  8
0
 62
     5
 10
184.298
 20
142.374
 30
0.0
 70
    32
  0
VERTEX
  5
113B0
  8
0
 62
     5
 10
184.298
 20
142.374
 30
0.0
 70
    32
  0
VERTEX
  5
113B1
  8
0
 62
     5
 10
184.29699999999991
 20
142.374
 30
0.0
 70
    32
  0
VERTEX
  5
113B2
  8
0
 62
     5
 10
184.29599999999991
 20
142.374
 30
0.0
 70
    32
  0
VERTEX
  5
113B3
  8
0
 62
     5
 10
184.29599999999991
 20
142.374
 30
0.0
 70
    32
  0
VERTEX
  5
113B4
  8
0
 62
     5
 10
184.2949999999995
 20
142.374
 30
0.0
 70
    32
  0
VERTEX
  5
113B5
  8
0
 62
     5
 10
184.29400000000001
 20
142.374
 30
0.0
 70
    32
  0
VERTEX
  5
113B6
  8
0
 62
     5
 10
184.29400000000001
 20
142.374
 30
0.0
 70
    32
  0
VERTEX
  5
113B7
  8
0
 62
     5
 10
184.29300000000001
 20
142.374
 30
0.0
 70
    32
  0
VERTEX
  5
113B8
  8
0
 62
     5
 10
184.292
 20
142.374
 30
0.0
 70
    32
  0
VERTEX
  5
113B9
  8
0
 62
     5
 10
184.292
 20
142.374
 30
0.0
 70
    32
  0
VERTEX
  5
113BA
  8
0
 62
     5
 10
184.291
 20
142.374
 30
0.0
 70
    32
  0
VERTEX
  5
113BB
  8
0
 62
     5
 10
184.28999999999991
 20
142.374
 30
0.0
 70
    32
  0
VERTEX
  5
113BC
  8
0
 62
     5
 10
184.28999999999991
 20
142.374
 30
0.0
 70
    32
  0
VERTEX
  5
113BD
  8
0
 62
     5
 10
184.2889999999999
 20
142.374
 30
0.0
 70
    32
  0
VERTEX
  5
113BE
  8
0
 62
     5
 10
184.28799999999981
 20
142.374
 30
0.0
 70
    32
  0
VERTEX
  5
113BF
  8
0
 62
     5
 10
184.28799999999981
 20
142.374
 30
0.0
 70
    32
  0
VERTEX
  5
113C0
  8
0
 62
     5
 10
184.28699999999949
 20
142.374
 30
0.0
 70
    32
  0
VERTEX
  5
113C1
  8
0
 62
     5
 10
184.2859999999998
 20
142.374
 30
0.0
 70
    32
  0
VERTEX
  5
113C2
  8
0
 62
     5
 10
184.2859999999998
 20
142.374
 30
0.0
 70
    32
  0
VERTEX
  5
113C3
  8
0
 62
     5
 10
184.285
 20
142.374
 30
0.0
 70
    32
  0
VERTEX
  5
113C4
  8
0
 62
     5
 10
184.28399999999991
 20
142.374
 30
0.0
 70
    32
  0
VERTEX
  5
113C5
  8
0
 62
     5
 10
184.28399999999991
 20
142.374
 30
0.0
 70
    32
  0
VERTEX
  5
113C6
  8
0
 62
     5
 10
184.2829999999999
 20
142.374
 30
0.0
 70
    32
  0
VERTEX
  5
113C7
  8
0
 62
     5
 10
184.28200000000001
 20
142.374
 30
0.0
 70
    32
  0
VERTEX
  5
113C8
  8
0
 62
     5
 10
184.28200000000001
 20
142.374
 30
0.0
 70
    32
  0
VERTEX
  5
113C9
  8
0
 62
     5
 10
184.28099999999981
 20
142.374
 30
0.0
 70
    32
  0
VERTEX
  5
113CA
  8
0
 62
     5
 10
184.2799999999996
 20
142.374
 30
0.0
 70
    32
  0
VERTEX
  5
113CB
  8
0
 62
     5
 10
184.2799999999996
 20
142.374
 30
0.0
 70
    32
  0
VERTEX
  5
113CC
  8
0
 62
     5
 10
184.27899999999991
 20
142.374
 30
0.0
 70
    32
  0
VERTEX
  5
113CD
  8
0
 62
     5
 10
184.27799999999991
 20
142.374
 30
0.0
 70
    32
  0
VERTEX
  5
113CE
  8
0
 62
     5
 10
184.27799999999991
 20
142.374
 30
0.0
 70
    32
  0
VERTEX
  5
113CF
  8
0
 62
     5
 10
184.2769999999999
 20
142.374
 30
0.0
 70
    32
  0
VERTEX
  5
113D0
  8
0
 62
     5
 10
184.2759999999999
 20
142.374
 30
0.0
 70
    32
  0
VERTEX
  5
113D1
  8
0
 62
     5
 10
184.2759999999999
 20
142.374
 30
0.0
 70
    32
  0
VERTEX
  5
113D2
  8
0
 62
     5
 10
184.27500000000001
 20
142.374
 30
0.0
 70
    32
  0
VERTEX
  5
113D3
  8
0
 62
     5
 10
184.274
 20
142.374
 30
0.0
 70
    32
  0
VERTEX
  5
113D4
  8
0
 62
     5
 10
184.274
 20
142.374
 30
0.0
 70
    32
  0
VERTEX
  5
113D5
  8
0
 62
     5
 10
184.27299999999991
 20
142.374
 30
0.0
 70
    32
  0
VERTEX
  5
113D6
  8
0
 62
     5
 10
184.27199999999991
 20
142.374
 30
0.0
 70
    32
  0
VERTEX
  5
113D7
  8
0
 62
     5
 10
184.27199999999991
 20
142.374
 30
0.0
 70
    32
  0
VERTEX
  5
113D8
  8
0
 62
     5
 10
184.2709999999995
 20
142.374
 30
0.0
 70
    32
  0
VERTEX
  5
113D9
  8
0
 62
     5
 10
184.27000000000001
 20
142.374
 30
0.0
 70
    32
  0
VERTEX
  5
113DA
  8
0
 62
     5
 10
184.27000000000001
 20
142.374
 30
0.0
 70
    32
  0
VERTEX
  5
113DB
  8
0
 62
     5
 10
184.26900000000001
 20
142.374
 30
0.0
 70
    32
  0
VERTEX
  5
113DC
  8
0
 62
     5
 10
184.268
 20
142.374
 30
0.0
 70
    32
  0
VERTEX
  5
113DD
  8
0
 62
     5
 10
184.268
 20
142.374
 30
0.0
 70
    32
  0
VERTEX
  5
113DE
  8
0
 62
     5
 10
184.267
 20
142.374
 30
0.0
 70
    32
  0
VERTEX
  5
113DF
  8
0
 62
     5
 10
184.26599999999991
 20
142.374
 30
0.0
 70
    32
  0
VERTEX
  5
113E0
  8
0
 62
     5
 10
184.26599999999991
 20
142.374
 30
0.0
 70
    32
  0
VERTEX
  5
113E1
  8
0
 62
     5
 10
184.2649999999999
 20
142.374
 30
0.0
 70
    32
  0
VERTEX
  5
113E2
  8
0
 62
     5
 10
184.26400000000001
 20
142.374
 30
0.0
 70
    32
  0
VERTEX
  5
113E3
  8
0
 62
     5
 10
184.26400000000001
 20
142.374
 30
0.0
 70
    32
  0
VERTEX
  5
113E4
  8
0
 62
     5
 10
184.26299999999949
 20
142.374
 30
0.0
 70
    32
  0
VERTEX
  5
113E5
  8
0
 62
     5
 10
184.262
 20
142.374
 30
0.0
 70
    32
  0
VERTEX
  5
113E6
  8
0
 62
     5
 10
184.262
 20
142.374
 30
0.0
 70
    32
  0
VERTEX
  5
113E7
  8
0
 62
     5
 10
184.261
 20
142.374
 30
0.0
 70
    32
  0
VERTEX
  5
113E8
  8
0
 62
     5
 10
184.25999999999999
 20
142.374
 30
0.0
 70
    32
  0
VERTEX
  5
113E9
  8
0
 62
     5
 10
184.25999999999999
 20
142.374
 30
0.0
 70
    32
  0
VERTEX
  5
113EA
  8
0
 62
     5
 10
184.2589999999999
 20
142.374
 30
0.0
 70
    32
  0
VERTEX
  5
113EB
  8
0
 62
     5
 10
184.25799999999981
 20
142.374
 30
0.0
 70
    32
  0
VERTEX
  5
113EC
  8
0
 62
     5
 10
184.25799999999981
 20
142.374
 30
0.0
 70
    32
  0
VERTEX
  5
113ED
  8
0
 62
     5
 10
184.25700000000001
 20
142.374
 30
0.0
 70
    32
  0
VERTEX
  5
113EE
  8
0
 62
     5
 10
184.25599999999949
 20
142.374
 30
0.0
 70
    32
  0
VERTEX
  5
113EF
  8
0
 62
     5
 10
184.25599999999949
 20
142.374
 30
0.0
 70
    32
  0
VERTEX
  5
113F0
  8
0
 62
     5
 10
184.25499999999991
 20
142.374
 30
0.0
 70
    32
  0
VERTEX
  5
113F1
  8
0
 62
     5
 10
184.25399999999991
 20
142.374
 30
0.0
 70
    32
  0
VERTEX
  5
113F2
  8
0
 62
     5
 10
184.25399999999991
 20
142.374
 30
0.0
 70
    32
  0
VERTEX
  5
113F3
  8
0
 62
     5
 10
184.25299999999999
 20
142.374
 30
0.0
 70
    32
  0
VERTEX
  5
113F4
  8
0
 62
     5
 10
184.25200000000001
 20
142.374
 30
0.0
 70
    32
  0
VERTEX
  5
113F5
  8
0
 62
     5
 10
184.25200000000001
 20
142.374
 30
0.0
 70
    32
  0
VERTEX
  5
113F6
  8
0
 62
     5
 10
184.25099999999981
 20
142.374
 30
0.0
 70
    32
  0
VERTEX
  5
113F7
  8
0
 62
     5
 10
184.25
 20
142.374
 30
0.0
 70
    32
  0
VERTEX
  5
113F8
  8
0
 62
     5
 10
184.25
 20
142.374
 30
0.0
 70
    32
  0
VERTEX
  5
113F9
  8
0
 62
     5
 10
184.24899999999991
 20
142.374
 30
0.0
 70
    32
  0
VERTEX
  5
113FA
  8
0
 62
     5
 10
184.24799999999991
 20
142.374
 30
0.0
 70
    32
  0
VERTEX
  5
113FB
  8
0
 62
     5
 10
184.24799999999991
 20
142.374
 30
0.0
 70
    32
  0
VERTEX
  5
113FC
  8
0
 62
     5
 10
184.24700000000001
 20
142.374
 30
0.0
 70
    32
  0
VERTEX
  5
113FD
  8
0
 62
     5
 10
184.2459999999999
 20
142.374
 30
0.0
 70
    32
  0
VERTEX
  5
113FE
  8
0
 62
     5
 10
184.2459999999999
 20
142.374
 30
0.0
 70
    32
  0
VERTEX
  5
113FF
  8
0
 62
     5
 10
184.245
 20
142.374
 30
0.0
 70
    32
  0
VERTEX
  5
11400
  8
0
 62
     5
 10
184.244
 20
142.374
 30
0.0
 70
    32
  0
VERTEX
  5
11401
  8
0
 62
     5
 10
184.244
 20
142.374
 30
0.0
 70
    32
  0
VERTEX
  5
11402
  8
0
 62
     5
 10
184.24299999999999
 20
142.374
 30
0.0
 70
    32
  0
VERTEX
  5
11403
  8
0
 62
     5
 10
184.2419999999999
 20
142.374
 30
0.0
 70
    32
  0
VERTEX
  5
11404
  8
0
 62
     5
 10
184.2419999999999
 20
142.374
 30
0.0
 70
    32
  0
VERTEX
  5
11405
  8
0
 62
     5
 10
184.2409999999997
 20
142.374
 30
0.0
 70
    32
  0
VERTEX
  5
11406
  8
0
 62
     5
 10
184.2399999999995
 20
142.374
 30
0.0
 70
    32
  0
VERTEX
  5
11407
  8
0
 62
     5
 10
184.2399999999995
 20
142.374
 30
0.0
 70
    32
  0
VERTEX
  5
11408
  8
0
 62
     5
 10
184.23899999999981
 20
142.374
 30
0.0
 70
    32
  0
VERTEX
  5
11409
  8
0
 62
     5
 10
184.238
 20
142.374
 30
0.0
 70
    32
  0
VERTEX
  5
1140A
  8
0
 62
     5
 10
184.238
 20
142.374
 30
0.0
 70
    32
  0
VERTEX
  5
1140B
  8
0
 62
     5
 10
184.23699999999999
 20
142.374
 30
0.0
 70
    32
  0
VERTEX
  5
1140C
  8
0
 62
     5
 10
184.2359999999999
 20
142.374
 30
0.0
 70
    32
  0
VERTEX
  5
1140D
  8
0
 62
     5
 10
184.2359999999999
 20
142.374
 30
0.0
 70
    32
  0
VERTEX
  5
1140E
  8
0
 62
     5
 10
184.23500000000001
 20
142.374
 30
0.0
 70
    32
  0
VERTEX
  5
1140F
  8
0
 62
     5
 10
184.23400000000001
 20
142.374
 30
0.0
 70
    32
  0
VERTEX
  5
11410
  8
0
 62
     5
 10
184.23400000000001
 20
142.374
 30
0.0
 70
    32
  0
VERTEX
  5
11411
  8
0
 62
     5
 10
184.233
 20
142.374
 30
0.0
 70
    32
  0
VERTEX
  5
11412
  8
0
 62
     5
 10
184.23199999999991
 20
142.374
 30
0.0
 70
    32
  0
VERTEX
  5
11413
  8
0
 62
     5
 10
184.23199999999991
 20
142.374
 30
0.0
 70
    32
  0
VERTEX
  5
11414
  8
0
 62
     5
 10
184.23099999999991
 20
142.374
 30
0.0
 70
    32
  0
VERTEX
  5
11415
  8
0
 62
     5
 10
184.2299999999999
 20
142.374
 30
0.0
 70
    32
  0
VERTEX
  5
11416
  8
0
 62
     5
 10
184.2299999999999
 20
142.374
 30
0.0
 70
    32
  0
VERTEX
  5
11417
  8
0
 62
     5
 10
184.22900000000001
 20
142.37299999999991
 30
0.0
 70
    32
  0
VERTEX
  5
11418
  8
0
 62
     5
 10
184.22799999999981
 20
142.37299999999991
 30
0.0
 70
    32
  0
VERTEX
  5
11419
  8
0
 62
     5
 10
184.22799999999981
 20
142.37299999999991
 30
0.0
 70
    32
  0
VERTEX
  5
1141A
  8
0
 62
     5
 10
184.227
 20
142.37299999999991
 30
0.0
 70
    32
  0
VERTEX
  5
1141B
  8
0
 62
     5
 10
184.22599999999991
 20
142.37299999999991
 30
0.0
 70
    32
  0
VERTEX
  5
1141C
  8
0
 62
     5
 10
184.22599999999991
 20
142.37299999999991
 30
0.0
 70
    32
  0
VERTEX
  5
1141D
  8
0
 62
     5
 10
184.22499999999991
 20
142.37299999999991
 30
0.0
 70
    32
  0
VERTEX
  5
1141E
  8
0
 62
     5
 10
184.2239999999999
 20
142.37299999999991
 30
0.0
 70
    32
  0
VERTEX
  5
1141F
  8
0
 62
     5
 10
184.2239999999999
 20
142.37299999999991
 30
0.0
 70
    32
  0
VERTEX
  5
11420
  8
0
 62
     5
 10
184.2229999999997
 20
142.37299999999991
 30
0.0
 70
    32
  0
VERTEX
  5
11421
  8
0
 62
     5
 10
184.22200000000001
 20
142.37299999999991
 30
0.0
 70
    32
  0
VERTEX
  5
11422
  8
0
 62
     5
 10
184.2209999999998
 20
142.37299999999991
 30
0.0
 70
    32
  0
VERTEX
  5
11423
  8
0
 62
     5
 10
184.2209999999998
 20
142.37299999999991
 30
0.0
 70
    32
  0
VERTEX
  5
11424
  8
0
 62
     5
 10
184.22
 20
142.37299999999991
 30
0.0
 70
    32
  0
VERTEX
  5
11425
  8
0
 62
     5
 10
184.21899999999991
 20
142.37299999999991
 30
0.0
 70
    32
  0
VERTEX
  5
11426
  8
0
 62
     5
 10
184.21899999999991
 20
142.37299999999991
 30
0.0
 70
    32
  0
VERTEX
  5
11427
  8
0
 62
     5
 10
184.2179999999999
 20
142.37299999999991
 30
0.0
 70
    32
  0
VERTEX
  5
11428
  8
0
 62
     5
 10
184.21700000000001
 20
142.37299999999991
 30
0.0
 70
    32
  0
VERTEX
  5
11429
  8
0
 62
     5
 10
184.21700000000001
 20
142.37299999999991
 30
0.0
 70
    32
  0
VERTEX
  5
1142A
  8
0
 62
     5
 10
184.21599999999981
 20
142.37299999999991
 30
0.0
 70
    32
  0
VERTEX
  5
1142B
  8
0
 62
     5
 10
184.215
 20
142.37299999999991
 30
0.0
 70
    32
  0
VERTEX
  5
1142C
  8
0
 62
     5
 10
184.215
 20
142.37299999999991
 30
0.0
 70
    32
  0
VERTEX
  5
1142D
  8
0
 62
     5
 10
184.214
 20
142.37299999999991
 30
0.0
 70
    32
  0
VERTEX
  5
1142E
  8
0
 62
     5
 10
184.21299999999999
 20
142.37299999999991
 30
0.0
 70
    32
  0
VERTEX
  5
1142F
  8
0
 62
     5
 10
184.21299999999999
 20
142.37299999999991
 30
0.0
 70
    32
  0
VERTEX
  5
11430
  8
0
 62
     5
 10
184.2119999999999
 20
142.37299999999991
 30
0.0
 70
    32
  0
VERTEX
  5
11431
  8
0
 62
     5
 10
184.2109999999999
 20
142.37299999999991
 30
0.0
 70
    32
  0
VERTEX
  5
11432
  8
0
 62
     5
 10
184.2109999999999
 20
142.37299999999991
 30
0.0
 70
    32
  0
VERTEX
  5
11433
  8
0
 62
     5
 10
184.21000000000001
 20
142.37299999999991
 30
0.0
 70
    32
  0
VERTEX
  5
11434
  8
0
 62
     5
 10
184.2089999999998
 20
142.37299999999991
 30
0.0
 70
    32
  0
VERTEX
  5
11435
  8
0
 62
     5
 10
184.2089999999998
 20
142.37299999999991
 30
0.0
 70
    32
  0
VERTEX
  5
11436
  8
0
 62
     5
 10
184.20799999999991
 20
142.37299999999991
 30
0.0
 70
    32
  0
VERTEX
  5
11437
  8
0
 62
     5
 10
184.20699999999991
 20
142.37299999999991
 30
0.0
 70
    32
  0
VERTEX
  5
11438
  8
0
 62
     5
 10
184.20699999999991
 20
142.37299999999991
 30
0.0
 70
    32
  0
VERTEX
  5
11439
  8
0
 62
     5
 10
184.20599999999999
 20
142.37299999999991
 30
0.0
 70
    32
  0
VERTEX
  5
1143A
  8
0
 62
     5
 10
184.20500000000001
 20
142.37299999999991
 30
0.0
 70
    32
  0
VERTEX
  5
1143B
  8
0
 62
     5
 10
184.20500000000001
 20
142.37299999999991
 30
0.0
 70
    32
  0
VERTEX
  5
1143C
  8
0
 62
     5
 10
184.20400000000001
 20
142.37299999999991
 30
0.0
 70
    32
  0
VERTEX
  5
1143D
  8
0
 62
     5
 10
184.203
 20
142.37299999999991
 30
0.0
 70
    32
  0
VERTEX
  5
1143E
  8
0
 62
     5
 10
184.203
 20
142.37299999999991
 30
0.0
 70
    32
  0
VERTEX
  5
1143F
  8
0
 62
     5
 10
184.20199999999991
 20
142.37299999999991
 30
0.0
 70
    32
  0
VERTEX
  5
11440
  8
0
 62
     5
 10
184.20099999999991
 20
142.37299999999991
 30
0.0
 70
    32
  0
VERTEX
  5
11441
  8
0
 62
     5
 10
184.20099999999991
 20
142.37299999999991
 30
0.0
 70
    32
  0
VERTEX
  5
11442
  8
0
 62
     5
 10
184.19999999999951
 20
142.37299999999991
 30
0.0
 70
    32
  0
VERTEX
  5
11443
  8
0
 62
     5
 10
184.19900000000001
 20
142.37299999999991
 30
0.0
 70
    32
  0
VERTEX
  5
11444
  8
0
 62
     5
 10
184.19900000000001
 20
142.37299999999991
 30
0.0
 70
    32
  0
VERTEX
  5
11445
  8
0
 62
     5
 10
184.19799999999989
 20
142.37299999999991
 30
0.0
 70
    32
  0
VERTEX
  5
11446
  8
0
 62
     5
 10
184.197
 20
142.37299999999991
 30
0.0
 70
    32
  0
VERTEX
  5
11447
  8
0
 62
     5
 10
184.197
 20
142.37299999999991
 30
0.0
 70
    32
  0
VERTEX
  5
11448
  8
0
 62
     5
 10
184.196
 20
142.37299999999991
 30
0.0
 70
    32
  0
VERTEX
  5
11449
  8
0
 62
     5
 10
184.19499999999991
 20
142.37299999999991
 30
0.0
 70
    32
  0
VERTEX
  5
1144A
  8
0
 62
     5
 10
184.19499999999991
 20
142.37299999999991
 30
0.0
 70
    32
  0
VERTEX
  5
1144B
  8
0
 62
     5
 10
184.1939999999999
 20
142.37299999999991
 30
0.0
 70
    32
  0
VERTEX
  5
1144C
  8
0
 62
     5
 10
184.19299999999981
 20
142.37299999999991
 30
0.0
 70
    32
  0
VERTEX
  5
1144D
  8
0
 62
     5
 10
184.19299999999981
 20
142.37299999999991
 30
0.0
 70
    32
  0
VERTEX
  5
1144E
  8
0
 62
     5
 10
184.19200000000001
 20
142.37299999999991
 30
0.0
 70
    32
  0
VERTEX
  5
1144F
  8
0
 62
     5
 10
184.1909999999998
 20
142.37299999999991
 30
0.0
 70
    32
  0
VERTEX
  5
11450
  8
0
 62
     5
 10
184.1909999999998
 20
142.37299999999991
 30
0.0
 70
    32
  0
VERTEX
  5
11451
  8
0
 62
     5
 10
184.19
 20
142.37299999999991
 30
0.0
 70
    32
  0
VERTEX
  5
11452
  8
0
 62
     5
 10
184.18899999999999
 20
142.37299999999991
 30
0.0
 70
    32
  0
VERTEX
  5
11453
  8
0
 62
     5
 10
184.18899999999999
 20
142.37299999999991
 30
0.0
 70
    32
  0
VERTEX
  5
11454
  8
0
 62
     5
 10
184.1879999999999
 20
142.37299999999991
 30
0.0
 70
    32
  0
VERTEX
  5
11455
  8
0
 62
     5
 10
184.18700000000001
 20
142.37299999999991
 30
0.0
 70
    32
  0
VERTEX
  5
11456
  8
0
 62
     5
 10
184.18700000000001
 20
142.37299999999991
 30
0.0
 70
    32
  0
VERTEX
  5
11457
  8
0
 62
     5
 10
184.18599999999981
 20
142.37299999999991
 30
0.0
 70
    32
  0
VERTEX
  5
11458
  8
0
 62
     5
 10
184.1849999999998
 20
142.37299999999991
 30
0.0
 70
    32
  0
VERTEX
  5
11459
  8
0
 62
     5
 10
184.1849999999998
 20
142.37299999999991
 30
0.0
 70
    32
  0
VERTEX
  5
1145A
  8
0
 62
     5
 10
184.18399999999991
 20
142.37299999999991
 30
0.0
 70
    32
  0
VERTEX
  5
1145B
  8
0
 62
     5
 10
184.18299999999991
 20
142.37299999999991
 30
0.0
 70
    32
  0
VERTEX
  5
1145C
  8
0
 62
     5
 10
184.18299999999991
 20
142.37299999999991
 30
0.0
 70
    32
  0
VERTEX
  5
1145D
  8
0
 62
     5
 10
184.18199999999999
 20
142.37299999999991
 30
0.0
 70
    32
  0
VERTEX
  5
1145E
  8
0
 62
     5
 10
184.1809999999999
 20
142.37299999999991
 30
0.0
 70
    32
  0
VERTEX
  5
1145F
  8
0
 62
     5
 10
184.1809999999999
 20
142.37299999999991
 30
0.0
 70
    32
  0
VERTEX
  5
11460
  8
0
 62
     5
 10
184.18000000000001
 20
142.37299999999991
 30
0.0
 70
    32
  0
VERTEX
  5
11461
  8
0
 62
     5
 10
184.17899999999949
 20
142.37299999999991
 30
0.0
 70
    32
  0
VERTEX
  5
11462
  8
0
 62
     5
 10
184.17899999999949
 20
142.37299999999991
 30
0.0
 70
    32
  0
VERTEX
  5
11463
  8
0
 62
     5
 10
184.17799999999991
 20
142.37299999999991
 30
0.0
 70
    32
  0
VERTEX
  5
11464
  8
0
 62
     5
 10
184.17699999999991
 20
142.37299999999991
 30
0.0
 70
    32
  0
VERTEX
  5
11465
  8
0
 62
     5
 10
184.17699999999991
 20
142.37299999999991
 30
0.0
 70
    32
  0
VERTEX
  5
11466
  8
0
 62
     5
 10
184.1759999999997
 20
142.37299999999991
 30
0.0
 70
    32
  0
VERTEX
  5
11467
  8
0
 62
     5
 10
184.17500000000001
 20
142.37299999999991
 30
0.0
 70
    32
  0
VERTEX
  5
11468
  8
0
 62
     5
 10
184.17500000000001
 20
142.37299999999991
 30
0.0
 70
    32
  0
VERTEX
  5
11469
  8
0
 62
     5
 10
184.17400000000001
 20
142.37299999999991
 30
0.0
 70
    32
  0
VERTEX
  5
1146A
  8
0
 62
     5
 10
184.173
 20
142.37299999999991
 30
0.0
 70
    32
  0
VERTEX
  5
1146B
  8
0
 62
     5
 10
184.173
 20
142.37299999999991
 30
0.0
 70
    32
  0
VERTEX
  5
1146C
  8
0
 62
     5
 10
184.172
 20
142.37299999999991
 30
0.0
 70
    32
  0
VERTEX
  5
1146D
  8
0
 62
     5
 10
184.17099999999991
 20
142.37299999999991
 30
0.0
 70
    32
  0
VERTEX
  5
1146E
  8
0
 62
     5
 10
184.17099999999991
 20
142.37299999999991
 30
0.0
 70
    32
  0
VERTEX
  5
1146F
  8
0
 62
     5
 10
184.1699999999999
 20
142.37299999999991
 30
0.0
 70
    32
  0
VERTEX
  5
11470
  8
0
 62
     5
 10
184.16900000000001
 20
142.37299999999991
 30
0.0
 70
    32
  0
VERTEX
  5
11471
  8
0
 62
     5
 10
184.16900000000001
 20
142.37299999999991
 30
0.0
 70
    32
  0
VERTEX
  5
11472
  8
0
 62
     5
 10
184.16800000000001
 20
142.37299999999991
 30
0.0
 70
    32
  0
VERTEX
  5
11473
  8
0
 62
     5
 10
184.167
 20
142.37299999999991
 30
0.0
 70
    32
  0
VERTEX
  5
11474
  8
0
 62
     5
 10
184.167
 20
142.37299999999991
 30
0.0
 70
    32
  0
VERTEX
  5
11475
  8
0
 62
     5
 10
184.166
 20
142.37299999999991
 30
0.0
 70
    32
  0
VERTEX
  5
11476
  8
0
 62
     5
 10
184.16499999999991
 20
142.37299999999991
 30
0.0
 70
    32
  0
VERTEX
  5
11477
  8
0
 62
     5
 10
184.16499999999991
 20
142.37299999999991
 30
0.0
 70
    32
  0
VERTEX
  5
11478
  8
0
 62
     5
 10
184.1639999999999
 20
142.37299999999991
 30
0.0
 70
    32
  0
VERTEX
  5
11479
  8
0
 62
     5
 10
184.16299999999981
 20
142.37299999999991
 30
0.0
 70
    32
  0
VERTEX
  5
1147A
  8
0
 62
     5
 10
184.16299999999981
 20
142.37299999999991
 30
0.0
 70
    32
  0
VERTEX
  5
1147B
  8
0
 62
     5
 10
184.16199999999981
 20
142.37299999999991
 30
0.0
 70
    32
  0
VERTEX
  5
1147C
  8
0
 62
     5
 10
184.16099999999949
 20
142.37299999999991
 30
0.0
 70
    32
  0
VERTEX
  5
1147D
  8
0
 62
     5
 10
184.16099999999949
 20
142.37299999999991
 30
0.0
 70
    32
  0
VERTEX
  5
1147E
  8
0
 62
     5
 10
184.15999999999991
 20
142.37299999999991
 30
0.0
 70
    32
  0
VERTEX
  5
1147F
  8
0
 62
     5
 10
184.15899999999999
 20
142.37299999999991
 30
0.0
 70
    32
  0
VERTEX
  5
11480
  8
0
 62
     5
 10
184.15899999999999
 20
142.37299999999991
 30
0.0
 70
    32
  0
VERTEX
  5
11481
  8
0
 62
     5
 10
184.1579999999999
 20
142.37299999999991
 30
0.0
 70
    32
  0
VERTEX
  5
11482
  8
0
 62
     5
 10
184.15700000000001
 20
142.37299999999991
 30
0.0
 70
    32
  0
VERTEX
  5
11483
  8
0
 62
     5
 10
184.15700000000001
 20
142.37299999999991
 30
0.0
 70
    32
  0
VERTEX
  5
11484
  8
0
 62
     5
 10
184.15599999999949
 20
142.37299999999991
 30
0.0
 70
    32
  0
VERTEX
  5
11485
  8
0
 62
     5
 10
184.1549999999998
 20
142.37299999999991
 30
0.0
 70
    32
  0
VERTEX
  5
11486
  8
0
 62
     5
 10
184.1549999999998
 20
142.37299999999991
 30
0.0
 70
    32
  0
VERTEX
  5
11487
  8
0
 62
     5
 10
184.15399999999991
 20
142.37299999999991
 30
0.0
 70
    32
  0
VERTEX
  5
11488
  8
0
 62
     5
 10
184.15299999999991
 20
142.37299999999991
 30
0.0
 70
    32
  0
VERTEX
  5
11489
  8
0
 62
     5
 10
184.15299999999991
 20
142.37299999999991
 30
0.0
 70
    32
  0
VERTEX
  5
1148A
  8
0
 62
     5
 10
184.1519999999999
 20
142.37299999999991
 30
0.0
 70
    32
  0
VERTEX
  5
1148B
  8
0
 62
     5
 10
184.1509999999999
 20
142.37299999999991
 30
0.0
 70
    32
  0
VERTEX
  5
1148C
  8
0
 62
     5
 10
184.1509999999999
 20
142.37299999999991
 30
0.0
 70
    32
  0
VERTEX
  5
1148D
  8
0
 62
     5
 10
184.15000000000001
 20
142.37299999999991
 30
0.0
 70
    32
  0
VERTEX
  5
1148E
  8
0
 62
     5
 10
184.149
 20
142.37299999999991
 30
0.0
 70
    32
  0
VERTEX
  5
1148F
  8
0
 62
     5
 10
184.149
 20
142.37299999999991
 30
0.0
 70
    32
  0
VERTEX
  5
11490
  8
0
 62
     5
 10
184.14799999999991
 20
142.37299999999991
 30
0.0
 70
    32
  0
VERTEX
  5
11491
  8
0
 62
     5
 10
184.14699999999991
 20
142.37299999999991
 30
0.0
 70
    32
  0
VERTEX
  5
11492
  8
0
 62
     5
 10
184.14699999999991
 20
142.37299999999991
 30
0.0
 70
    32
  0
VERTEX
  5
11493
  8
0
 62
     5
 10
184.1459999999995
 20
142.37299999999991
 30
0.0
 70
    32
  0
VERTEX
  5
11494
  8
0
 62
     5
 10
184.14500000000001
 20
142.37299999999991
 30
0.0
 70
    32
  0
VERTEX
  5
11495
  8
0
 62
     5
 10
184.14400000000001
 20
142.37299999999991
 30
0.0
 70
    32
  0
VERTEX
  5
11496
  8
0
 62
     5
 10
184.14400000000001
 20
142.37299999999991
 30
0.0
 70
    32
  0
VERTEX
  5
11497
  8
0
 62
     5
 10
184.143
 20
142.37299999999991
 30
0.0
 70
    32
  0
VERTEX
  5
11498
  8
0
 62
     5
 10
184.142
 20
142.37299999999991
 30
0.0
 70
    32
  0
VERTEX
  5
11499
  8
0
 62
     5
 10
184.142
 20
142.37299999999991
 30
0.0
 70
    32
  0
VERTEX
  5
1149A
  8
0
 62
     5
 10
184.14099999999991
 20
142.37299999999991
 30
0.0
 70
    32
  0
VERTEX
  5
1149B
  8
0
 62
     5
 10
184.1399999999999
 20
142.37299999999991
 30
0.0
 70
    32
  0
VERTEX
  5
1149C
  8
0
 62
     5
 10
184.1399999999999
 20
142.37299999999991
 30
0.0
 70
    32
  0
VERTEX
  5
1149D
  8
0
 62
     5
 10
184.13900000000001
 20
142.37299999999991
 30
0.0
 70
    32
  0
VERTEX
  5
1149E
  8
0
 62
     5
 10
184.13800000000001
 20
142.37299999999991
 30
0.0
 70
    32
  0
VERTEX
  5
1149F
  8
0
 62
     5
 10
184.13800000000001
 20
142.37299999999991
 30
0.0
 70
    32
  0
VERTEX
  5
114A0
  8
0
 62
     5
 10
184.13699999999949
 20
142.37299999999991
 30
0.0
 70
    32
  0
VERTEX
  5
114A1
  8
0
 62
     5
 10
184.13599999999991
 20
142.37299999999991
 30
0.0
 70
    32
  0
VERTEX
  5
114A2
  8
0
 62
     5
 10
184.13599999999991
 20
142.37299999999991
 30
0.0
 70
    32
  0
VERTEX
  5
114A3
  8
0
 62
     5
 10
184.13499999999999
 20
142.37299999999991
 30
0.0
 70
    32
  0
VERTEX
  5
114A4
  8
0
 62
     5
 10
184.1339999999999
 20
142.37299999999991
 30
0.0
 70
    32
  0
VERTEX
  5
114A5
  8
0
 62
     5
 10
184.1339999999999
 20
142.37299999999991
 30
0.0
 70
    32
  0
VERTEX
  5
114A6
  8
0
 62
     5
 10
184.1329999999999
 20
142.37299999999991
 30
0.0
 70
    32
  0
VERTEX
  5
114A7
  8
0
 62
     5
 10
184.13199999999981
 20
142.37299999999991
 30
0.0
 70
    32
  0
VERTEX
  5
114A8
  8
0
 62
     5
 10
184.13199999999981
 20
142.37299999999991
 30
0.0
 70
    32
  0
VERTEX
  5
114A9
  8
0
 62
     5
 10
184.1309999999998
 20
142.37299999999991
 30
0.0
 70
    32
  0
VERTEX
  5
114AA
  8
0
 62
     5
 10
184.1299999999996
 20
142.37299999999991
 30
0.0
 70
    32
  0
VERTEX
  5
114AB
  8
0
 62
     5
 10
184.1299999999996
 20
142.37299999999991
 30
0.0
 70
    32
  0
VERTEX
  5
114AC
  8
0
 62
     5
 10
184.12899999999991
 20
142.37299999999991
 30
0.0
 70
    32
  0
VERTEX
  5
114AD
  8
0
 62
     5
 10
184.1279999999999
 20
142.37299999999991
 30
0.0
 70
    32
  0
VERTEX
  5
114AE
  8
0
 62
     5
 10
184.1279999999999
 20
142.37299999999991
 30
0.0
 70
    32
  0
VERTEX
  5
114AF
  8
0
 62
     5
 10
184.12700000000001
 20
142.37299999999991
 30
0.0
 70
    32
  0
VERTEX
  5
114B0
  8
0
 62
     5
 10
184.12599999999989
 20
142.37299999999991
 30
0.0
 70
    32
  0
VERTEX
  5
114B1
  8
0
 62
     5
 10
184.12599999999989
 20
142.37299999999991
 30
0.0
 70
    32
  0
VERTEX
  5
114B2
  8
0
 62
     5
 10
184.125
 20
142.37299999999991
 30
0.0
 70
    32
  0
VERTEX
  5
114B3
  8
0
 62
     5
 10
184.12399999999991
 20
142.37299999999991
 30
0.0
 70
    32
  0
VERTEX
  5
114B4
  8
0
 62
     5
 10
184.12399999999991
 20
142.37299999999991
 30
0.0
 70
    32
  0
VERTEX
  5
114B5
  8
0
 62
     5
 10
184.12299999999991
 20
142.37299999999991
 30
0.0
 70
    32
  0
VERTEX
  5
114B6
  8
0
 62
     5
 10
184.12200000000001
 20
142.37299999999991
 30
0.0
 70
    32
  0
VERTEX
  5
114B7
  8
0
 62
     5
 10
184.12200000000001
 20
142.37299999999991
 30
0.0
 70
    32
  0
VERTEX
  5
114B8
  8
0
 62
     5
 10
184.12099999999981
 20
142.37299999999991
 30
0.0
 70
    32
  0
VERTEX
  5
114B9
  8
0
 62
     5
 10
184.12
 20
142.37299999999991
 30
0.0
 70
    32
  0
VERTEX
  5
114BA
  8
0
 62
     5
 10
184.12
 20
142.37299999999991
 30
0.0
 70
    32
  0
VERTEX
  5
114BB
  8
0
 62
     5
 10
184.119
 20
142.37299999999991
 30
0.0
 70
    32
  0
VERTEX
  5
114BC
  8
0
 62
     5
 10
184.11799999999991
 20
142.37299999999991
 30
0.0
 70
    32
  0
VERTEX
  5
114BD
  8
0
 62
     5
 10
184.11799999999991
 20
142.37299999999991
 30
0.0
 70
    32
  0
VERTEX
  5
114BE
  8
0
 62
     5
 10
184.1169999999999
 20
142.37299999999991
 30
0.0
 70
    32
  0
VERTEX
  5
114BF
  8
0
 62
     5
 10
184.1159999999999
 20
142.37299999999991
 30
0.0
 70
    32
  0
VERTEX
  5
114C0
  8
0
 62
     5
 10
184.1159999999999
 20
142.37299999999991
 30
0.0
 70
    32
  0
VERTEX
  5
114C1
  8
0
 62
     5
 10
184.11500000000001
 20
142.37299999999991
 30
0.0
 70
    32
  0
VERTEX
  5
114C2
  8
0
 62
     5
 10
184.11399999999961
 20
142.37299999999991
 30
0.0
 70
    32
  0
VERTEX
  5
114C3
  8
0
 62
     5
 10
184.11399999999961
 20
142.37299999999991
 30
0.0
 70
    32
  0
VERTEX
  5
114C4
  8
0
 62
     5
 10
184.11299999999949
 20
142.37299999999991
 30
0.0
 70
    32
  0
VERTEX
  5
114C5
  8
0
 62
     5
 10
184.11199999999999
 20
142.37299999999991
 30
0.0
 70
    32
  0
VERTEX
  5
114C6
  8
0
 62
     5
 10
184.11199999999999
 20
142.37299999999991
 30
0.0
 70
    32
  0
VERTEX
  5
114C7
  8
0
 62
     5
 10
184.11099999999999
 20
142.37299999999991
 30
0.0
 70
    32
  0
VERTEX
  5
114C8
  8
0
 62
     5
 10
184.11000000000001
 20
142.37299999999991
 30
0.0
 70
    32
  0
VERTEX
  5
114C9
  8
0
 62
     5
 10
184.11000000000001
 20
142.37299999999991
 30
0.0
 70
    32
  0
VERTEX
  5
114CA
  8
0
 62
     5
 10
184.10900000000001
 20
142.37299999999991
 30
0.0
 70
    32
  0
VERTEX
  5
114CB
  8
0
 62
     5
 10
184.108
 20
142.37299999999991
 30
0.0
 70
    32
  0
VERTEX
  5
114CC
  8
0
 62
     5
 10
184.108
 20
142.37299999999991
 30
0.0
 70
    32
  0
VERTEX
  5
114CD
  8
0
 62
     5
 10
184.10699999999991
 20
142.37299999999991
 30
0.0
 70
    32
  0
VERTEX
  5
114CE
  8
0
 62
     5
 10
184.10599999999991
 20
142.37299999999991
 30
0.0
 70
    32
  0
VERTEX
  5
114CF
  8
0
 62
     5
 10
184.10599999999991
 20
142.37299999999991
 30
0.0
 70
    32
  0
VERTEX
  5
114D0
  8
0
 62
     5
 10
184.1049999999999
 20
142.37299999999991
 30
0.0
 70
    32
  0
VERTEX
  5
114D1
  8
0
 62
     5
 10
184.10400000000001
 20
142.37299999999991
 30
0.0
 70
    32
  0
VERTEX
  5
114D2
  8
0
 62
     5
 10
184.10400000000001
 20
142.37299999999991
 30
0.0
 70
    32
  0
VERTEX
  5
114D3
  8
0
 62
     5
 10
184.10299999999981
 20
142.37299999999991
 30
0.0
 70
    32
  0
VERTEX
  5
114D4
  8
0
 62
     5
 10
184.102
 20
142.37299999999991
 30
0.0
 70
    32
  0
VERTEX
  5
114D5
  8
0
 62
     5
 10
184.102
 20
142.37299999999991
 30
0.0
 70
    32
  0
VERTEX
  5
114D6
  8
0
 62
     5
 10
184.10099999999991
 20
142.37299999999991
 30
0.0
 70
    32
  0
VERTEX
  5
114D7
  8
0
 62
     5
 10
184.09999999999991
 20
142.37299999999991
 30
0.0
 70
    32
  0
VERTEX
  5
114D8
  8
0
 62
     5
 10
184.09999999999991
 20
142.37299999999991
 30
0.0
 70
    32
  0
VERTEX
  5
114D9
  8
0
 62
     5
 10
184.0989999999999
 20
142.37299999999991
 30
0.0
 70
    32
  0
VERTEX
  5
114DA
  8
0
 62
     5
 10
184.0979999999995
 20
142.37299999999991
 30
0.0
 70
    32
  0
VERTEX
  5
114DB
  8
0
 62
     5
 10
184.0979999999995
 20
142.37299999999991
 30
0.0
 70
    32
  0
VERTEX
  5
114DC
  8
0
 62
     5
 10
184.09700000000001
 20
142.37299999999991
 30
0.0
 70
    32
  0
VERTEX
  5
114DD
  8
0
 62
     5
 10
184.09599999999989
 20
142.37299999999991
 30
0.0
 70
    32
  0
VERTEX
  5
114DE
  8
0
 62
     5
 10
184.09599999999989
 20
142.37299999999991
 30
0.0
 70
    32
  0
VERTEX
  5
114DF
  8
0
 62
     5
 10
184.095
 20
142.37299999999991
 30
0.0
 70
    32
  0
VERTEX
  5
114E0
  8
0
 62
     5
 10
184.09399999999991
 20
142.37299999999991
 30
0.0
 70
    32
  0
VERTEX
  5
114E1
  8
0
 62
     5
 10
184.09399999999991
 20
142.37299999999991
 30
0.0
 70
    32
  0
VERTEX
  5
114E2
  8
0
 62
     5
 10
184.0929999999999
 20
142.37299999999991
 30
0.0
 70
    32
  0
VERTEX
  5
114E3
  8
0
 62
     5
 10
184.09200000000001
 20
142.37299999999991
 30
0.0
 70
    32
  0
VERTEX
  5
114E4
  8
0
 62
     5
 10
184.09200000000001
 20
142.37299999999991
 30
0.0
 70
    32
  0
VERTEX
  5
114E5
  8
0
 62
     5
 10
184.09099999999981
 20
142.37299999999991
 30
0.0
 70
    32
  0
VERTEX
  5
114E6
  8
0
 62
     5
 10
184.08999999999949
 20
142.37299999999991
 30
0.0
 70
    32
  0
VERTEX
  5
114E7
  8
0
 62
     5
 10
184.08999999999949
 20
142.37299999999991
 30
0.0
 70
    32
  0
VERTEX
  5
114E8
  8
0
 62
     5
 10
184.08899999999991
 20
142.37299999999991
 30
0.0
 70
    32
  0
VERTEX
  5
114E9
  8
0
 62
     5
 10
184.08799999999999
 20
142.37299999999991
 30
0.0
 70
    32
  0
VERTEX
  5
114EA
  8
0
 62
     5
 10
184.08799999999999
 20
142.37299999999991
 30
0.0
 70
    32
  0
VERTEX
  5
114EB
  8
0
 62
     5
 10
184.0869999999999
 20
142.37200000000001
 30
0.0
 70
    32
  0
VERTEX
  5
114EC
  8
0
 62
     5
 10
184.0859999999999
 20
142.37200000000001
 30
0.0
 70
    32
  0
VERTEX
  5
114ED
  8
0
 62
     5
 10
184.0859999999999
 20
142.37200000000001
 30
0.0
 70
    32
  0
VERTEX
  5
114EE
  8
0
 62
     5
 10
184.08500000000001
 20
142.37200000000001
 30
0.0
 70
    32
  0
VERTEX
  5
114EF
  8
0
 62
     5
 10
184.084
 20
142.37200000000001
 30
0.0
 70
    32
  0
VERTEX
  5
114F0
  8
0
 62
     5
 10
184.084
 20
142.37200000000001
 30
0.0
 70
    32
  0
VERTEX
  5
114F1
  8
0
 62
     5
 10
184.0829999999996
 20
142.37200000000001
 30
0.0
 70
    32
  0
VERTEX
  5
114F2
  8
0
 62
     5
 10
184.08199999999991
 20
142.37200000000001
 30
0.0
 70
    32
  0
VERTEX
  5
114F3
  8
0
 62
     5
 10
184.08199999999991
 20
142.37200000000001
 30
0.0
 70
    32
  0
VERTEX
  5
114F4
  8
0
 62
     5
 10
184.0809999999999
 20
142.37200000000001
 30
0.0
 70
    32
  0
VERTEX
  5
114F5
  8
0
 62
     5
 10
184.08000000000001
 20
142.37200000000001
 30
0.0
 70
    32
  0
VERTEX
  5
114F6
  8
0
 62
     5
 10
184.08000000000001
 20
142.37200000000001
 30
0.0
 70
    32
  0
VERTEX
  5
114F7
  8
0
 62
     5
 10
184.07900000000001
 20
142.37200000000001
 30
0.0
 70
    32
  0
VERTEX
  5
114F8
  8
0
 62
     5
 10
184.078
 20
142.37200000000001
 30
0.0
 70
    32
  0
VERTEX
  5
114F9
  8
0
 62
     5
 10
184.078
 20
142.37200000000001
 30
0.0
 70
    32
  0
VERTEX
  5
114FA
  8
0
 62
     5
 10
184.077
 20
142.37200000000001
 30
0.0
 70
    32
  0
VERTEX
  5
114FB
  8
0
 62
     5
 10
184.07599999999991
 20
142.37200000000001
 30
0.0
 70
    32
  0
VERTEX
  5
114FC
  8
0
 62
     5
 10
184.07599999999991
 20
142.37200000000001
 30
0.0
 70
    32
  0
VERTEX
  5
114FD
  8
0
 62
     5
 10
184.0749999999997
 20
142.37200000000001
 30
0.0
 70
    32
  0
VERTEX
  5
114FE
  8
0
 62
     5
 10
184.07400000000001
 20
142.37200000000001
 30
0.0
 70
    32
  0
VERTEX
  5
114FF
  8
0
 62
     5
 10
184.07400000000001
 20
142.37200000000001
 30
0.0
 70
    32
  0
VERTEX
  5
11500
  8
0
 62
     5
 10
184.07299999999981
 20
142.37200000000001
 30
0.0
 70
    32
  0
VERTEX
  5
11501
  8
0
 62
     5
 10
184.072
 20
142.37200000000001
 30
0.0
 70
    32
  0
VERTEX
  5
11502
  8
0
 62
     5
 10
184.072
 20
142.37200000000001
 30
0.0
 70
    32
  0
VERTEX
  5
11503
  8
0
 62
     5
 10
184.07099999999991
 20
142.37200000000001
 30
0.0
 70
    32
  0
VERTEX
  5
11504
  8
0
 62
     5
 10
184.06999999999999
 20
142.37200000000001
 30
0.0
 70
    32
  0
VERTEX
  5
11505
  8
0
 62
     5
 10
184.06999999999999
 20
142.37200000000001
 30
0.0
 70
    32
  0
VERTEX
  5
11506
  8
0
 62
     5
 10
184.0689999999999
 20
142.37200000000001
 30
0.0
 70
    32
  0
VERTEX
  5
11507
  8
0
 62
     5
 10
184.06799999999981
 20
142.37200000000001
 30
0.0
 70
    32
  0
SEQEND
  5
11508
  8
0
 62
     5
  0
POLYLINE
  5
11509
  8
0
 62
     5
 66
     1
 10
0.0
 20
0.0
 30
0.0
 70
     8
  0
VERTEX
  5
1150A
  8
0
 62
     5
 10
184.06799999999981
 20
142.37200000000001
 30
0.0
 70
    32
  0
VERTEX
  5
1150B
  8
0
 62
     5
 10
184.06799999999981
 20
142.37200000000001
 30
0.0
 70
    32
  0
VERTEX
  5
1150C
  8
0
 62
     5
 10
184.06799999999981
 20
142.37200000000001
 30
0.0
 70
    32
  0
VERTEX
  5
1150D
  8
0
 62
     5
 10
184.06799999999981
 20
142.37200000000001
 30
0.0
 70
    32
  0
VERTEX
  5
1150E
  8
0
 62
     5
 10
184.06799999999981
 20
142.37200000000001
 30
0.0
 70
    32
  0
VERTEX
  5
1150F
  8
0
 62
     5
 10
184.06799999999981
 20
142.37200000000001
 30
0.0
 70
    32
  0
VERTEX
  5
11510
  8
0
 62
     5
 10
184.06799999999981
 20
142.37200000000001
 30
0.0
 70
    32
  0
VERTEX
  5
11511
  8
0
 62
     5
 10
184.06799999999981
 20
142.37200000000001
 30
0.0
 70
    32
  0
VERTEX
  5
11512
  8
0
 62
     5
 10
184.06799999999981
 20
142.37200000000001
 30
0.0
 70
    32
  0
VERTEX
  5
11513
  8
0
 62
     5
 10
184.06799999999981
 20
142.37200000000001
 30
0.0
 70
    32
  0
VERTEX
  5
11514
  8
0
 62
     5
 10
184.06799999999981
 20
142.37200000000001
 30
0.0
 70
    32
  0
VERTEX
  5
11515
  8
0
 62
     5
 10
184.06799999999981
 20
142.37200000000001
 30
0.0
 70
    32
  0
VERTEX
  5
11516
  8
0
 62
     5
 10
184.06799999999981
 20
142.37200000000001
 30
0.0
 70
    32
  0
VERTEX
  5
11517
  8
0
 62
     5
 10
184.06799999999981
 20
142.37200000000001
 30
0.0
 70
    32
  0
VERTEX
  5
11518
  8
0
 62
     5
 10
184.06799999999981
 20
142.37200000000001
 30
0.0
 70
    32
  0
VERTEX
  5
11519
  8
0
 62
     5
 10
184.06799999999981
 20
142.37200000000001
 30
0.0
 70
    32
  0
VERTEX
  5
1151A
  8
0
 62
     5
 10
184.06799999999981
 20
142.37200000000001
 30
0.0
 70
    32
  0
VERTEX
  5
1151B
  8
0
 62
     5
 10
184.06799999999981
 20
142.37200000000001
 30
0.0
 70
    32
  0
VERTEX
  5
1151C
  8
0
 62
     5
 10
184.06799999999981
 20
142.37200000000001
 30
0.0
 70
    32
  0
VERTEX
  5
1151D
  8
0
 62
     5
 10
184.06799999999981
 20
142.37200000000001
 30
0.0
 70
    32
  0
VERTEX
  5
1151E
  8
0
 62
     5
 10
184.06799999999981
 20
142.37200000000001
 30
0.0
 70
    32
  0
VERTEX
  5
1151F
  8
0
 62
     5
 10
184.06799999999981
 20
142.37200000000001
 30
0.0
 70
    32
  0
VERTEX
  5
11520
  8
0
 62
     5
 10
184.06799999999981
 20
142.37200000000001
 30
0.0
 70
    32
  0
VERTEX
  5
11521
  8
0
 62
     5
 10
184.06799999999981
 20
142.37200000000001
 30
0.0
 70
    32
  0
VERTEX
  5
11522
  8
0
 62
     5
 10
184.06799999999981
 20
142.37200000000001
 30
0.0
 70
    32
  0
VERTEX
  5
11523
  8
0
 62
     5
 10
184.06799999999981
 20
142.37200000000001
 30
0.0
 70
    32
  0
VERTEX
  5
11524
  8
0
 62
     5
 10
184.06799999999981
 20
142.37200000000001
 30
0.0
 70
    32
  0
VERTEX
  5
11525
  8
0
 62
     5
 10
184.06799999999981
 20
142.37200000000001
 30
0.0
 70
    32
  0
VERTEX
  5
11526
  8
0
 62
     5
 10
184.06799999999981
 20
142.37200000000001
 30
0.0
 70
    32
  0
VERTEX
  5
11527
  8
0
 62
     5
 10
184.06799999999981
 20
142.37200000000001
 30
0.0
 70
    32
  0
VERTEX
  5
11528
  8
0
 62
     5
 10
184.06799999999981
 20
142.37200000000001
 30
0.0
 70
    32
  0
VERTEX
  5
11529
  8
0
 62
     5
 10
184.06799999999981
 20
142.37200000000001
 30
0.0
 70
    32
  0
VERTEX
  5
1152A
  8
0
 62
     5
 10
184.06799999999981
 20
142.37200000000001
 30
0.0
 70
    32
  0
VERTEX
  5
1152B
  8
0
 62
     5
 10
184.06799999999981
 20
142.37200000000001
 30
0.0
 70
    32
  0
VERTEX
  5
1152C
  8
0
 62
     5
 10
184.06799999999981
 20
142.37200000000001
 30
0.0
 70
    32
  0
VERTEX
  5
1152D
  8
0
 62
     5
 10
184.06799999999981
 20
142.37200000000001
 30
0.0
 70
    32
  0
VERTEX
  5
1152E
  8
0
 62
     5
 10
184.06799999999981
 20
142.37200000000001
 30
0.0
 70
    32
  0
VERTEX
  5
1152F
  8
0
 62
     5
 10
184.06799999999981
 20
142.37200000000001
 30
0.0
 70
    32
  0
VERTEX
  5
11530
  8
0
 62
     5
 10
184.06799999999981
 20
142.37200000000001
 30
0.0
 70
    32
  0
VERTEX
  5
11531
  8
0
 62
     5
 10
184.06799999999981
 20
142.37200000000001
 30
0.0
 70
    32
  0
VERTEX
  5
11532
  8
0
 62
     5
 10
184.06799999999981
 20
142.37200000000001
 30
0.0
 70
    32
  0
VERTEX
  5
11533
  8
0
 62
     5
 10
184.06799999999981
 20
142.37200000000001
 30
0.0
 70
    32
  0
VERTEX
  5
11534
  8
0
 62
     5
 10
184.06799999999981
 20
142.37200000000001
 30
0.0
 70
    32
  0
VERTEX
  5
11535
  8
0
 62
     5
 10
184.06799999999981
 20
142.37200000000001
 30
0.0
 70
    32
  0
VERTEX
  5
11536
  8
0
 62
     5
 10
184.06799999999981
 20
142.37200000000001
 30
0.0
 70
    32
  0
VERTEX
  5
11537
  8
0
 62
     5
 10
184.06799999999981
 20
142.37200000000001
 30
0.0
 70
    32
  0
VERTEX
  5
11538
  8
0
 62
     5
 10
184.06799999999981
 20
142.37200000000001
 30
0.0
 70
    32
  0
VERTEX
  5
11539
  8
0
 62
     5
 10
184.06799999999981
 20
142.37200000000001
 30
0.0
 70
    32
  0
VERTEX
  5
1153A
  8
0
 62
     5
 10
184.06799999999981
 20
142.37200000000001
 30
0.0
 70
    32
  0
VERTEX
  5
1153B
  8
0
 62
     5
 10
184.06799999999981
 20
142.37200000000001
 30
0.0
 70
    32
  0
VERTEX
  5
1153C
  8
0
 62
     5
 10
184.06799999999981
 20
142.37200000000001
 30
0.0
 70
    32
  0
VERTEX
  5
1153D
  8
0
 62
     5
 10
184.06799999999981
 20
142.37200000000001
 30
0.0
 70
    32
  0
VERTEX
  5
1153E
  8
0
 62
     5
 10
184.06799999999981
 20
142.37200000000001
 30
0.0
 70
    32
  0
VERTEX
  5
1153F
  8
0
 62
     5
 10
184.06799999999981
 20
142.37200000000001
 30
0.0
 70
    32
  0
VERTEX
  5
11540
  8
0
 62
     5
 10
184.06799999999981
 20
142.37200000000001
 30
0.0
 70
    32
  0
VERTEX
  5
11541
  8
0
 62
     5
 10
184.06799999999981
 20
142.37200000000001
 30
0.0
 70
    32
  0
VERTEX
  5
11542
  8
0
 62
     5
 10
184.06799999999981
 20
142.37200000000001
 30
0.0
 70
    32
  0
VERTEX
  5
11543
  8
0
 62
     5
 10
184.06799999999981
 20
142.37200000000001
 30
0.0
 70
    32
  0
VERTEX
  5
11544
  8
0
 62
     5
 10
184.06799999999981
 20
142.37200000000001
 30
0.0
 70
    32
  0
VERTEX
  5
11545
  8
0
 62
     5
 10
184.06799999999981
 20
142.37200000000001
 30
0.0
 70
    32
  0
VERTEX
  5
11546
  8
0
 62
     5
 10
184.06799999999981
 20
142.37200000000001
 30
0.0
 70
    32
  0
VERTEX
  5
11547
  8
0
 62
     5
 10
184.06799999999981
 20
142.37200000000001
 30
0.0
 70
    32
  0
VERTEX
  5
11548
  8
0
 62
     5
 10
184.06799999999981
 20
142.37200000000001
 30
0.0
 70
    32
  0
VERTEX
  5
11549
  8
0
 62
     5
 10
184.06799999999981
 20
142.37200000000001
 30
0.0
 70
    32
  0
VERTEX
  5
1154A
  8
0
 62
     5
 10
184.06799999999981
 20
142.37200000000001
 30
0.0
 70
    32
  0
VERTEX
  5
1154B
  8
0
 62
     5
 10
184.06799999999981
 20
142.37200000000001
 30
0.0
 70
    32
  0
VERTEX
  5
1154C
  8
0
 62
     5
 10
184.06799999999981
 20
142.37200000000001
 30
0.0
 70
    32
  0
VERTEX
  5
1154D
  8
0
 62
     5
 10
184.06799999999981
 20
142.37200000000001
 30
0.0
 70
    32
  0
VERTEX
  5
1154E
  8
0
 62
     5
 10
184.06799999999981
 20
142.37200000000001
 30
0.0
 70
    32
  0
VERTEX
  5
1154F
  8
0
 62
     5
 10
184.06799999999981
 20
142.37200000000001
 30
0.0
 70
    32
  0
VERTEX
  5
11550
  8
0
 62
     5
 10
184.06799999999981
 20
142.37200000000001
 30
0.0
 70
    32
  0
VERTEX
  5
11551
  8
0
 62
     5
 10
184.06799999999981
 20
142.37200000000001
 30
0.0
 70
    32
  0
VERTEX
  5
11552
  8
0
 62
     5
 10
184.06799999999981
 20
142.37200000000001
 30
0.0
 70
    32
  0
VERTEX
  5
11553
  8
0
 62
     5
 10
184.06799999999981
 20
142.37200000000001
 30
0.0
 70
    32
  0
VERTEX
  5
11554
  8
0
 62
     5
 10
184.06799999999981
 20
142.37200000000001
 30
0.0
 70
    32
  0
VERTEX
  5
11555
  8
0
 62
     5
 10
184.06799999999981
 20
142.37200000000001
 30
0.0
 70
    32
  0
VERTEX
  5
11556
  8
0
 62
     5
 10
184.06799999999981
 20
142.37200000000001
 30
0.0
 70
    32
  0
VERTEX
  5
11557
  8
0
 62
     5
 10
184.06799999999981
 20
142.37200000000001
 30
0.0
 70
    32
  0
VERTEX
  5
11558
  8
0
 62
     5
 10
184.06799999999981
 20
142.37200000000001
 30
0.0
 70
    32
  0
VERTEX
  5
11559
  8
0
 62
     5
 10
184.06799999999981
 20
142.37200000000001
 30
0.0
 70
    32
  0
VERTEX
  5
1155A
  8
0
 62
     5
 10
184.06799999999981
 20
142.37200000000001
 30
0.0
 70
    32
  0
VERTEX
  5
1155B
  8
0
 62
     5
 10
184.06799999999981
 20
142.37200000000001
 30
0.0
 70
    32
  0
VERTEX
  5
1155C
  8
0
 62
     5
 10
184.06799999999981
 20
142.37200000000001
 30
0.0
 70
    32
  0
VERTEX
  5
1155D
  8
0
 62
     5
 10
184.06799999999981
 20
142.37200000000001
 30
0.0
 70
    32
  0
VERTEX
  5
1155E
  8
0
 62
     5
 10
184.06799999999981
 20
142.37200000000001
 30
0.0
 70
    32
  0
VERTEX
  5
1155F
  8
0
 62
     5
 10
184.06799999999981
 20
142.37200000000001
 30
0.0
 70
    32
  0
VERTEX
  5
11560
  8
0
 62
     5
 10
184.06799999999981
 20
142.37200000000001
 30
0.0
 70
    32
  0
VERTEX
  5
11561
  8
0
 62
     5
 10
184.06799999999981
 20
142.37200000000001
 30
0.0
 70
    32
  0
VERTEX
  5
11562
  8
0
 62
     5
 10
184.06799999999981
 20
142.37200000000001
 30
0.0
 70
    32
  0
VERTEX
  5
11563
  8
0
 62
     5
 10
184.06799999999981
 20
142.37200000000001
 30
0.0
 70
    32
  0
VERTEX
  5
11564
  8
0
 62
     5
 10
184.06799999999981
 20
142.37200000000001
 30
0.0
 70
    32
  0
VERTEX
  5
11565
  8
0
 62
     5
 10
184.06799999999981
 20
142.37200000000001
 30
0.0
 70
    32
  0
VERTEX
  5
11566
  8
0
 62
     5
 10
184.06799999999981
 20
142.37200000000001
 30
0.0
 70
    32
  0
VERTEX
  5
11567
  8
0
 62
     5
 10
184.06799999999981
 20
142.37200000000001
 30
0.0
 70
    32
  0
VERTEX
  5
11568
  8
0
 62
     5
 10
184.06799999999981
 20
142.37200000000001
 30
0.0
 70
    32
  0
VERTEX
  5
11569
  8
0
 62
     5
 10
184.06799999999981
 20
142.37200000000001
 30
0.0
 70
    32
  0
VERTEX
  5
1156A
  8
0
 62
     5
 10
184.06799999999981
 20
142.37200000000001
 30
0.0
 70
    32
  0
VERTEX
  5
1156B
  8
0
 62
     5
 10
184.06799999999981
 20
142.37200000000001
 30
0.0
 70
    32
  0
VERTEX
  5
1156C
  8
0
 62
     5
 10
184.06799999999981
 20
142.37200000000001
 30
0.0
 70
    32
  0
VERTEX
  5
1156D
  8
0
 62
     5
 10
184.06799999999981
 20
142.37200000000001
 30
0.0
 70
    32
  0
VERTEX
  5
1156E
  8
0
 62
     5
 10
184.06799999999981
 20
142.37200000000001
 30
0.0
 70
    32
  0
VERTEX
  5
1156F
  8
0
 62
     5
 10
184.06799999999981
 20
142.37200000000001
 30
0.0
 70
    32
  0
VERTEX
  5
11570
  8
0
 62
     5
 10
184.06799999999981
 20
142.37200000000001
 30
0.0
 70
    32
  0
VERTEX
  5
11571
  8
0
 62
     5
 10
184.06799999999981
 20
142.37200000000001
 30
0.0
 70
    32
  0
VERTEX
  5
11572
  8
0
 62
     5
 10
184.06799999999981
 20
142.37200000000001
 30
0.0
 70
    32
  0
VERTEX
  5
11573
  8
0
 62
     5
 10
184.06799999999981
 20
142.37200000000001
 30
0.0
 70
    32
  0
VERTEX
  5
11574
  8
0
 62
     5
 10
184.06799999999981
 20
142.37200000000001
 30
0.0
 70
    32
  0
VERTEX
  5
11575
  8
0
 62
     5
 10
184.06799999999981
 20
142.37200000000001
 30
0.0
 70
    32
  0
VERTEX
  5
11576
  8
0
 62
     5
 10
184.06799999999981
 20
142.37200000000001
 30
0.0
 70
    32
  0
VERTEX
  5
11577
  8
0
 62
     5
 10
184.06799999999981
 20
142.37200000000001
 30
0.0
 70
    32
  0
VERTEX
  5
11578
  8
0
 62
     5
 10
184.06799999999981
 20
142.37200000000001
 30
0.0
 70
    32
  0
VERTEX
  5
11579
  8
0
 62
     5
 10
184.06799999999981
 20
142.37200000000001
 30
0.0
 70
    32
  0
VERTEX
  5
1157A
  8
0
 62
     5
 10
184.06799999999981
 20
142.37200000000001
 30
0.0
 70
    32
  0
VERTEX
  5
1157B
  8
0
 62
     5
 10
184.06799999999981
 20
142.37200000000001
 30
0.0
 70
    32
  0
VERTEX
  5
1157C
  8
0
 62
     5
 10
184.06799999999981
 20
142.37200000000001
 30
0.0
 70
    32
  0
VERTEX
  5
1157D
  8
0
 62
     5
 10
184.06799999999981
 20
142.37200000000001
 30
0.0
 70
    32
  0
VERTEX
  5
1157E
  8
0
 62
     5
 10
184.06799999999981
 20
142.37200000000001
 30
0.0
 70
    32
  0
VERTEX
  5
1157F
  8
0
 62
     5
 10
184.06799999999981
 20
142.37200000000001
 30
0.0
 70
    32
  0
VERTEX
  5
11580
  8
0
 62
     5
 10
184.06799999999981
 20
142.37200000000001
 30
0.0
 70
    32
  0
VERTEX
  5
11581
  8
0
 62
     5
 10
184.06799999999981
 20
142.37200000000001
 30
0.0
 70
    32
  0
VERTEX
  5
11582
  8
0
 62
     5
 10
184.06799999999981
 20
142.37200000000001
 30
0.0
 70
    32
  0
VERTEX
  5
11583
  8
0
 62
     5
 10
184.06799999999981
 20
142.37200000000001
 30
0.0
 70
    32
  0
VERTEX
  5
11584
  8
0
 62
     5
 10
184.06700000000001
 20
142.37200000000001
 30
0.0
 70
    32
  0
VERTEX
  5
11585
  8
0
 62
     5
 10
184.06700000000001
 20
142.37200000000001
 30
0.0
 70
    32
  0
VERTEX
  5
11586
  8
0
 62
     5
 10
184.06700000000001
 20
142.37200000000001
 30
0.0
 70
    32
  0
VERTEX
  5
11587
  8
0
 62
     5
 10
184.06700000000001
 20
142.37200000000001
 30
0.0
 70
    32
  0
VERTEX
  5
11588
  8
0
 62
     5
 10
184.06700000000001
 20
142.37200000000001
 30
0.0
 70
    32
  0
VERTEX
  5
11589
  8
0
 62
     5
 10
184.06700000000001
 20
142.37200000000001
 30
0.0
 70
    32
  0
SEQEND
  5
1158A
  8
0
 62
     5
  0
ARC
  5
1158B
  8
0
 62
     5
 10
187.12834626652429
 20
143.97625832429981
 30
0.0
 40
1.0
 50
196.95771539109879
 51
269.99998630049993
  0
POLYLINE
  5
1158C
  8
0
 62
     5
 66
     1
 10
0.0
 20
0.0
 30
0.0
  0
VERTEX
  5
11941
  8
0
 62
     5
 10
192.8674664081243
 20
142.0635447034999
 30
0.0
  0
VERTEX
  5
11942
  8
0
 62
     5
 10
192.8831582272243
 20
142.06415996029941
 30
0.0
  0
VERTEX
  5
11943
  8
0
 62
     5
 10
192.8987533011244
 20
142.0660019373999
 30
0.0
  0
VERTEX
  5
11944
  8
0
 62
     5
 10
192.91415548092431
 20
142.0690592782999
 30
0.0
  0
VERTEX
  5
11945
  8
0
 62
     5
 10
192.92926980702401
 20
142.07331313369991
 30
0.0
  0
VERTEX
  5
11946
  8
0
 62
     5
 10
192.94400309462441
 20
142.0787372768998
 30
0.0
  0
VERTEX
  5
11947
  8
0
 62
     5
 10
192.95826450812399
 20
142.0852982664999
 30
0.0
  0
VERTEX
  5
11948
  8
0
 62
     5
 10
192.97196612102431
 20
142.09295565169981
 30
0.0
  0
VERTEX
  5
11949
  8
0
 62
     5
 10
192.98502345862431
 20
142.10166222209989
 30
0.0
  0
VERTEX
  5
1194A
  8
0
 62
     5
 10
192.9973560178243
 20
142.1113642988999
 30
0.0
  0
VERTEX
  5
1194B
  8
0
 62
     5
 10
193.0088877643241
 20
142.1220020655999
 30
0.0
  0
VERTEX
  5
1194C
  8
0
 62
     5
 10
193.0195476012243
 20
142.13350993680001
 30
0.0
  0
VERTEX
  5
1194D
  8
0
 62
     5
 10
193.02926980702441
 20
142.14581696259981
 30
0.0
  0
VERTEX
  5
1194E
  8
0
 62
     5
 10
193.03799444102401
 20
142.15884726609991
 30
0.0
  0
VERTEX
  5
1194F
  8
0
 62
     5
 10
193.04566771292431
 20
142.17252051119991
 30
0.0
  0
VERTEX
  5
11950
  8
0
 62
     5
 10
193.0522423146241
 20
142.18675239769999
 30
0.0
  0
VERTEX
  5
11951
  8
0
 62
     5
 10
193.0576777114243
 20
142.20145518139989
 30
0.0
  0
VERTEX
  5
11952
  8
0
 62
     5
 10
193.0619403922243
 20
142.21653821469991
 30
0.0
  0
VERTEX
  5
11953
  8
0
 62
     5
 10
193.0650040762244
 20
142.23190850569961
 30
0.0
  0
VERTEX
  5
11954
  8
0
 62
     5
 10
193.06684987482441
 20
142.24747129139971
 30
0.0
  0
VERTEX
  5
11955
  8
0
 62
     5
 10
193.06746640812381
 20
142.26313062209991
 30
0.0
  0
SEQEND
  5
11956
  8
0
 62
     5
  0
LINE
  5
115A3
  8
0
 62
     5
 10
188.5674664081244
 20
142.0635447034999
 30
0.0
 11
192.8674664081243
 21
142.0635447034999
 31
0.0
  0
LINE
  5
115A4
  8
0
 62
     5
 10
188.5674664081244
 20
148.67625832429999
 30
0.0
 11
187.8674664081243
 21
148.67625832429999
 31
0.0
  0
LINE
  5
115A5
  8
0
 62
     5
 10
188.5674664081244
 20
149.22221999999991
 30
0.0
 11
184.3674664081243
 21
149.22221999999991
 31
0.0
  0
LINE
  5
115A6
  8
0
 62
     5
 10
186.11635538842441
 20
147.57625832429991
 30
0.0
 11
186.11635538842441
 21
147.55494640429981
 31
0.0
  0
LINE
  5
115A7
  8
0
 62
     5
 10
186.11635538842441
 20
146.00625832430001
 30
0.0
 11
186.11635538842441
 21
145.44625827589991
 31
0.0
  0
LINE
  5
115A8
  8
0
 62
     5
 10
186.11635538842441
 20
147.57625832429991
 30
0.0
 11
186.17182599902421
 21
147.76792419119991
 31
0.0
  0
LINE
  5
115A9
  8
0
 62
     5
 10
186.11635538842441
 20
145.44625832429981
 30
0.0
 11
185.9890922818241
 21
145.44625832429981
 31
0.0
  0
LINE
  5
115AA
  8
0
 62
     5
 10
185.9890922818241
 20
146.00625832430001
 30
0.0
 11
186.11635538842441
 21
146.00625832430001
 31
0.0
  0
LINE
  5
115AB
  8
0
 62
     5
 10
187.12834602742399
 20
148.47625832429961
 30
0.0
 11
187.8674664081243
 21
148.47625832429961
 31
0.0
  0
ARC
  5
115AC
  8
0
 62
     5
 10
187.12834626652429
 20
147.47625832429981
 30
0.0
 40
1.0
 50
90.000013699500073
 51
163.0422846088974
  0
ARC
  5
115AD
  8
0
 62
     5
 10
184.3674664081243
 20
148.9222199999999
 30
0.0
 40
0.3
 50
90.0
 51
180.0
  0
LINE
  5
115AE
  8
0
 62
     5
 10
183.5674664081244
 20
174.52222
 30
0.0
 11
165.5674664081244
 21
174.52222
 31
0.0
  0
ARC
  5
115AF
  8
0
 62
     5
 10
165.5674664081244
 20
173.52222
 30
0.0
 40
1.0
 50
90.0
 51
180.0
  0
LINE
  5
115B0
  8
0
 62
     5
 10
183.5674664081244
 20
175.3890179724994
 30
0.0
 11
182.86746640812399
 21
175.3890179724994
 31
0.0
  0
LINE
  5
115B1
  8
0
 62
     5
 10
180.95890327312421
 20
178.6859508995
 30
0.0
 11
180.95890327312421
 21
179.3842497822998
 31
0.0
  0
LINE
  5
115B2
  8
0
 62
     5
 10
181.20260464032441
 20
180.1181816756999
 30
0.0
 11
181.20260464032441
 21
180.0962705372994
 31
0.0
  0
LINE
  5
115B3
  8
0
 62
     5
 10
180.98289872532439
 20
178.5981816757
 30
0.0
 11
181.20260464032441
 21
178.5981816757
 31
0.0
  0
LINE
  5
115B4
  8
0
 62
     5
 10
180.95890327312421
 20
177.95041245179971
 30
0.0
 11
180.95890327312421
 21
177.24597953528161
 31
0.0
  0
LINE
  5
115B5
  8
0
 62
     5
 10
181.20260464032441
 20
176.54009281399999
 30
0.0
 11
181.20260464032441
 21
176.51818167569991
 31
0.0
  0
LINE
  5
115B6
  8
0
 62
     5
 10
181.20260464032441
 20
178.0381816756998
 30
0.0
 11
180.98289872532439
 21
178.0381816756998
 31
0.0
  0
ARC
  5
115B7
  8
0
 62
     5
 10
182.86746640812399
 20
177.50200520509961
 30
0.0
 40
1.9338235293999959
 50
210.58028737469871
 51
270.0
  0
LINE
  5
115B8
  8
0
 62
     5
 10
181.20260464032441
 20
178.5981816757
 30
0.0
 11
181.20260464032441
 21
178.0381816756998
 31
0.0
  0
LINE
  5
115B9
  8
0
 62
     5
 10
183.5674664081244
 20
175.3181816757
 30
0.0
 11
184.0674664081244
 21
175.3181816757
 31
0.0
  0
ARC
  5
115BA
  8
0
 62
     5
 10
183.5674664081244
 20
175.02221999999981
 30
0.0
 40
0.5
 50
270.0
 51
0.0
  0
ARC
  5
115BB
  8
0
 62
     5
 10
116.4111179999497
 20
187.52221999999981
 30
0.0
 40
4.5
 50
0.0
 51
90.0
  0
ARC
  5
115BC
  8
CENTER
 10
90.911117999999959
 20
162.02222
 30
0.0
 40
34.999999999958803
 50
36.254022931162282
 51
54.381034396744781
  0
CIRCLE
  5
115BD
  8
0
 62
     5
 10
115.65985534155
 20
186.77095734150001
 30
0.0
 40
2.8999999999999981
  0
ARC
  5
115BE
  8
0
 62
     5
 10
90.911117999950051
 20
-197.2323499358998
 30
0.0
 40
380.26616440010002
 50
85.574356627500123
 51
86.3124282214998
  0
ARC
  5
115BF
  8
0
 62
     5
 10
90.911117999950051
 20
-197.2323499358998
 30
0.0
 40
380.0
 50
85.611600842500224
 51
86.3124282214998
  0
ARC
  5
115C0
  8
0
 62
     5
 10
112.41111799994999
 20
181.9661986914
 30
0.0
 40
1.0
 50
0.0
 51
55.935410064198933
  0
LINE
  5
115C1
  8
0
 62
     5
 10
120.91111799994999
 20
187.52221999999981
 30
0.0
 11
120.91111799994999
 21
181.5815885615998
 31
0.0
  0
LINE
  5
115C2
  8
0
 62
     5
 10
165.5674664081244
 20
185.02221999999989
 30
0.0
 11
180.56835992962431
 21
185.02221999999989
 31
0.0
  0
LINE
  5
115C3
  8
0
 62
     5
 10
164.5674664081244
 20
181.9661986914
 30
0.0
 11
184.0674664081244
 21
181.9661986914
 31
0.0
  0
LINE
  5
115C4
  8
0
 62
     5
 10
165.5674664081244
 20
192.02221999999941
 30
0.0
 11
188.5674664081244
 21
192.02221999999941
 31
0.0
  0
ARC
  5
115C5
  8
0
 62
     5
 10
165.5674664081244
 20
184.02222
 30
0.0
 40
1.0
 50
90.0
 51
180.0
  0
ARC
  5
115C6
  8
0
 62
     5
 10
165.5674664081244
 20
191.02221999999941
 30
0.0
 40
1.0
 50
90.0
 51
180.0
  0
LINE
  5
115C7
  8
0
 62
     5
 10
183.5674664081244
 20
181.26818167569991
 30
0.0
 11
182.86746640812399
 21
181.26818167569991
 31
0.0
  0
LINE
  5
115C8
  8
0
 62
     5
 10
181.0674664081244
 20
185.52221999999981
 30
0.0
 11
181.0674664081244
 21
191.52222
 31
0.0
  0
ARC
  5
115C9
  8
0
 62
     5
 10
180.56746640812381
 20
185.52221999999981
 30
0.0
 40
0.5
 50
270.0
 51
0.0
  0
ARC
  5
115CA
  8
0
 62
     5
 10
181.5674664081242
 20
191.52222
 30
0.0
 40
0.5
 50
90.0
 51
180.0
  0
LINE
  5
115CB
  8
0
 62
     5
 10
186.11635538842441
 20
188.79092765189981
 30
0.0
 11
186.11635538842441
 21
188.23092760339981
 31
0.0
  0
LINE
  5
115CC
  8
0
 62
     5
 10
184.0674664081244
 20
185.3221878011
 30
0.0
 11
184.0674664081244
 21
191.52222
 31
0.0
  0
LINE
  5
115CD
  8
0
 62
     5
 10
187.8674664081243
 20
185.5817639487
 30
0.0
 11
187.8674664081243
 21
191.45912557790001
 31
0.0
  0
LINE
  5
115CE
  8
0
 62
     5
 10
188.5674664081244
 20
185.5817639487
 30
0.0
 11
187.8674664081243
 21
185.5817639487
 31
0.0
  0
LINE
  5
115CF
  8
0
 62
     5
 10
184.3674664081243
 20
185.02221999999989
 30
0.0
 11
188.0674664081244
 21
185.02221999999989
 31
0.0
  0
LINE
  5
115D0
  8
0
 62
     5
 10
188.0674664081244
 20
181.98089529649991
 30
0.0
 11
184.26746640812431
 21
181.98089529649991
 31
0.0
  0
LINE
  5
115D1
  8
0
 62
     5
 10
186.11635538842441
 20
186.6822395974998
 30
0.0
 11
186.11635538842441
 21
186.66092765189961
 31
0.0
  0
LINE
  5
115D2
  8
0
 62
     5
 10
186.11635538842441
 20
186.66092765189961
 30
0.0
 11
186.17182599902421
 21
186.4692617849995
 31
0.0
  0
LINE
  5
115D3
  8
0
 62
     5
 10
187.12834602742399
 20
185.76092765189961
 30
0.0
 11
187.8674664081243
 21
185.76092765189961
 31
0.0
  0
LINE
  5
115D4
  8
0
 62
     5
 10
186.11635538842441
 20
188.2309276518998
 30
0.0
 11
185.9890922818241
 21
188.2309276518998
 31
0.0
  0
ARC
  5
115D5
  8
0
 62
     5
 10
187.12834626652429
 20
186.76092765189941
 30
0.0
 40
1.0
 50
196.95771539109879
 51
269.99998630049993
  0
ARC
  5
115D6
  8
0
 62
     5
 10
184.3674664081243
 20
185.3222199999999
 30
0.0
 40
0.3
 50
180.0
 51
270.0
  0
LINE
  5
115D7
  8
0
 62
     5
 10
183.5674664081244
 20
181.3181816756998
 30
0.0
 11
184.0674664081244
 21
181.3181816756998
 31
0.0
  0
POLYLINE
  5
115D8
  8
0
 62
     5
 66
     1
 10
0.0
 20
0.0
 30
0.0
  0
VERTEX
  5
11957
  8
0
 62
     5
 10
192.8674664081243
 20
181.98089529649991
 30
0.0
  0
VERTEX
  5
11958
  8
0
 62
     5
 10
192.88315822582439
 20
181.98028003979991
 30
0.0
  0
VERTEX
  5
11959
  8
0
 62
     5
 10
192.89875329832421
 20
181.9784380630999
 30
0.0
  0
VERTEX
  5
1195A
  8
0
 62
     5
 10
192.9141554767244
 20
181.97538072269981
 30
0.0
  0
VERTEX
  5
1195B
  8
0
 62
     5
 10
192.92926980172439
 20
181.9711268680999
 30
0.0
  0
VERTEX
  5
1195C
  8
0
 62
     5
 10
192.94400308832439
 20
181.96570272569991
 30
0.0
  0
VERTEX
  5
1195D
  8
0
 62
     5
 10
192.9582645010243
 20
181.95914173709991
 30
0.0
  0
VERTEX
  5
1195E
  8
0
 62
     5
 10
192.9719661135243
 20
181.95148435289991
 30
0.0
  0
VERTEX
  5
1195F
  8
0
 62
     5
 10
192.9850234508242
 20
181.94277778349991
 30
0.0
  0
VERTEX
  5
11960
  8
0
 62
     5
 10
192.9973560100243
 20
181.93307570769991
 30
0.0
  0
VERTEX
  5
11961
  8
0
 62
     5
 10
193.00888775682441
 20
181.9224379418994
 30
0.0
  0
VERTEX
  5
11962
  8
0
 62
     5
 10
193.01954759422441
 20
181.9109300714
 30
0.0
  0
VERTEX
  5
11963
  8
0
 62
     5
 10
193.02926980072411
 20
181.8986230461
 30
0.0
  0
VERTEX
  5
11964
  8
0
 62
     5
 10
193.03799443562431
 20
181.8855927426994
 30
0.0
  0
VERTEX
  5
11965
  8
0
 62
     5
 10
193.04566770852401
 20
181.8719194974999
 30
0.0
  0
VERTEX
  5
11966
  8
0
 62
     5
 10
193.05224231122389
 20
181.85768761049999
 30
0.0
  0
VERTEX
  5
11967
  8
0
 62
     5
 10
193.0576777090244
 20
181.8429848258998
 30
0.0
  0
VERTEX
  5
11968
  8
0
 62
     5
 10
193.06194039072409
 20
181.82790179139991
 30
0.0
  0
VERTEX
  5
11969
  8
0
 62
     5
 10
193.0650040755244
 20
181.81253149879981
 30
0.0
  0
VERTEX
  5
1196A
  8
0
 62
     5
 10
193.06684987472431
 20
181.79696871099981
 30
0.0
  0
VERTEX
  5
1196B
  8
0
 62
     5
 10
193.06746640812381
 20
181.7813093778999
 30
0.0
  0
SEQEND
  5
1196C
  8
0
 62
     5
  0
POLYLINE
  5
115EF
  8
0
 62
     5
 66
     1
 10
0.0
 20
0.0
 30
0.0
  0
VERTEX
  5
1196D
  8
0
 62
     5
 10
188.76746640812431
 20
181.98089529649991
 30
0.0
  0
VERTEX
  5
1196E
  8
0
 62
     5
 10
188.751774589024
 20
181.98028003970001
 30
0.0
  0
VERTEX
  5
1196F
  8
0
 62
     5
 10
188.73617951512421
 20
181.97843806259951
 30
0.0
  0
VERTEX
  5
11970
  8
0
 62
     5
 10
188.72077733532441
 20
181.97538072169991
 30
0.0
  0
VERTEX
  5
11971
  8
0
 62
     5
 10
188.70566300922439
 20
181.97112686630001
 30
0.0
  0
VERTEX
  5
11972
  8
0
 62
     5
 10
188.69092972162409
 20
181.96570272310001
 30
0.0
  0
VERTEX
  5
11973
  8
0
 62
     5
 10
188.6766683082239
 20
181.95914173349991
 30
0.0
  0
VERTEX
  5
11974
  8
0
 62
     5
 10
188.6629666952243
 20
181.95148434829991
 30
0.0
  0
VERTEX
  5
11975
  8
0
 62
     5
 10
188.64990935762441
 20
181.94277777789949
 30
0.0
  0
VERTEX
  5
11976
  8
0
 62
     5
 10
188.63757679842399
 20
181.9330757010998
 30
0.0
  0
VERTEX
  5
11977
  8
0
 62
     5
 10
188.62604505192431
 20
181.92243793439991
 30
0.0
  0
VERTEX
  5
11978
  8
0
 62
     5
 10
188.6153852150243
 20
181.9109300632
 30
0.0
  0
VERTEX
  5
11979
  8
0
 62
     5
 10
188.6056630092244
 20
181.8986230374
 30
0.0
  0
VERTEX
  5
1197A
  8
0
 62
     5
 10
188.59693837522431
 20
181.8855927338999
 30
0.0
  0
VERTEX
  5
1197B
  8
0
 62
     5
 10
188.58926510332421
 20
181.8719194887999
 30
0.0
  0
VERTEX
  5
1197C
  8
0
 62
     5
 10
188.58269050162411
 20
181.8576876022999
 30
0.0
  0
VERTEX
  5
1197D
  8
0
 62
     5
 10
188.5772551048241
 20
181.8429848185994
 30
0.0
  0
VERTEX
  5
1197E
  8
0
 62
     5
 10
188.57299242402399
 20
181.8279017852999
 30
0.0
  0
VERTEX
  5
1197F
  8
0
 62
     5
 10
188.5699287400239
 20
181.81253149429989
 30
0.0
  0
VERTEX
  5
11980
  8
0
 62
     5
 10
188.56808294142411
 20
181.79696870859999
 30
0.0
  0
VERTEX
  5
11981
  8
0
 62
     5
 10
188.5674664081244
 20
181.7813093778999
 30
0.0
  0
SEQEND
  5
11982
  8
0
 62
     5
  0
LINE
  5
11606
  8
0
 62
     5
 10
188.5674664081244
 20
181.90883146299981
 30
0.0
 11
188.0674664081244
 21
181.90883146299981
 31
0.0
  0
LINE
  5
11607
  8
0
 62
     5
 10
188.5674664081244
 20
181.90996148740001
 30
0.0
 11
188.0674664081244
 21
181.90996148740001
 31
0.0
  0
LINE
  5
11608
  8
0
 62
     5
 10
188.76746640812431
 20
181.98089529649991
 30
0.0
 11
192.8674664081243
 21
181.98089529649991
 31
0.0
  0
LINE
  5
11609
  8
0
 62
     5
 10
188.0674664081244
 20
181.90883146299981
 30
0.0
 11
188.0674664081244
 21
185.5817639487
 31
0.0
  0
LINE
  5
1160A
  8
0
 62
     5
 10
188.5674664081244
 20
191.46092765189991
 30
0.0
 11
187.8674664081243
 21
191.46092765189991
 31
0.0
  0
LINE
  5
1160B
  8
0
 62
     5
 10
186.11635538842441
 20
190.3609276519
 30
0.0
 11
186.17182599902421
 21
190.55259351869981
 31
0.0
  0
LINE
  5
1160C
  8
0
 62
     5
 10
186.11635538842441
 20
190.3609276519
 30
0.0
 11
186.11635538842441
 21
190.3396157318
 31
0.0
  0
LINE
  5
1160D
  8
0
 62
     5
 10
187.12834602742399
 20
191.26092765189981
 30
0.0
 11
187.8674664081243
 21
191.26092765189981
 31
0.0
  0
ARC
  5
1160E
  8
0
 62
     5
 10
187.12834626652429
 20
190.26092765189981
 30
0.0
 40
1.0
 50
90.000013699500073
 51
163.0422846088974
  0
ARC
  5
1160F
  8
0
 62
     5
 10
183.5674664081244
 20
191.52222
 30
0.0
 40
0.5
 50
0.0
 51
90.0
  0
LINE
  5
11610
  8
0
 62
     5
 10
185.9890922818241
 20
188.79092765189981
 30
0.0
 11
186.11635538842441
 21
188.79092765189981
 31
0.0
  0
ARC
  5
11611
  8
0
 62
     5
 10
192.8674664081243
 20
191.8222199999999
 30
0.0
 40
0.2
 50
0.0
 51
90.0
  0
LINE
  5
11612
  8
0
 62
     5
 10
188.0674664081244
 20
192.02221999999941
 30
0.0
 11
188.0674664081244
 21
191.46092765189991
 31
0.0
  0
LINE
  5
11613
  8
0
 62
     5
 10
188.5674664081244
 20
192.02221999999941
 30
0.0
 11
188.5674664081244
 21
191.83057790359959
 31
0.0
  0
ARC
  5
11614
  8
0
 62
     5
 10
188.76746640812431
 20
191.8222199999999
 30
0.0
 40
0.2
 50
90.0
 51
180.0
  0
LINE
  5
11615
  8
0
 62
     5
 10
188.76746640812431
 20
192.02221999999941
 30
0.0
 11
192.8674664081243
 21
192.02221999999941
 31
0.0
  0
LINE
  5
11616
  8
0
 62
     5
 10
232.16746640812431
 20
132.02221999999969
 30
0.0
 11
232.16746640812431
 21
192.02221999999941
 31
0.0
  0
LINE
  5
11617
  8
0
 62
     5
 10
241.1674664081242
 20
192.02221999999941
 30
0.0
 11
241.1674664081242
 21
132.02221999999969
 31
0.0
  0
LINE
  5
11618
  8
0
 62
     5
 10
243.9674664081243
 20
187.02222
 30
0.0
 11
243.9674664081243
 21
137.02221999999961
 31
0.0
  0
LINE
  5
11619
  8
0
 62
     5
 10
244.16746640812431
 20
186.8222199999999
 30
0.0
 11
244.16746640812431
 21
137.22221999999991
 31
0.0
  0
LINE
  5
1161A
  8
HIDDEN
 10
220.8359897736531
 20
124.72221999999969
 30
0.0
 11
236.64385140752441
 21
124.72221999999969
 31
0.0
  0
LINE
  5
1161B
  8
0
 62
     5
 10
241.1674664081242
 20
132.02221999999969
 30
0.0
 11
232.16746640812431
 21
132.02221999999969
 31
0.0
  0
LINE
  5
1161C
  8
0
 62
     5
 10
232.16746640812431
 20
132.02221999999969
 30
0.0
 11
211.8648678110344
 21
131.9336326397364
 31
0.0
  0
LINE
  5
1161D
  8
HIDDEN
 10
216.8647326359272
 20
128.02145383089839
 30
0.0
 11
210.82116853987401
 21
128.0214538311244
 31
0.0
  0
LINE
  5
1161E
  8
0
 62
     5
 10
198.3341666311243
 20
123.22221999999979
 30
0.0
 11
205.4007661851243
 21
123.22221999999979
 31
0.0
  0
LINE
  5
1161F
  8
0
 62
     5
 10
210.8674664081243
 20
128.62222
 30
0.0
 11
193.7174664081243
 21
128.62222
 31
0.0
  0
LINE
  5
11620
  8
0
 62
     5
 10
193.7196480627243
 20
132.0118113998
 30
0.0
 11
211.0449195981241
 21
132.01479923819991
 31
0.0
  0
LINE
  5
11621
  8
0
 62
     5
 10
193.21746640812421
 20
131.85226748550971
 30
0.0
 11
193.21746640812421
 21
129.12221999999991
 31
0.0
  0
LINE
  5
11622
  8
0
 62
     5
 10
198.3341666311243
 20
123.22221999999979
 30
0.0
 11
198.1644647943244
 21
128.62222
 31
0.0
  0
LINE
  5
11623
  8
HIDDEN
 10
193.86746640812439
 20
126.6222199999996
 30
0.0
 11
193.86746640812439
 21
127.7222199999995
 31
0.0
  0
ARC
  5
11624
  8
HIDDEN
 10
194.3674664081243
 20
126.6222199999996
 30
0.0
 40
0.5
 50
180.0
 51
270.00000000499921
  0
LINE
  5
11625
  8
HIDDEN
 10
194.3674664081679
 20
126.1222199999999
 30
0.0
 11
195.51746640812431
 21
126.1222199999999
 31
0.0
  0
LINE
  5
11626
  8
0
 62
     5
 10
198.95157843932409
 20
128.62222
 30
0.0
 11
199.0218712401244
 21
123.22221999999979
 31
0.0
  0
LINE
  5
11627
  8
0
 62
     5
 10
211.36746640812399
 20
131.40500128080001
 30
0.0
 11
211.36746640812399
 21
129.12221999999991
 31
0.0
  0
LINE
  5
11628
  8
0
 62
     5
 10
204.7130615761242
 20
123.22221999999979
 30
0.0
 11
204.78335437692431
 21
128.62222
 31
0.0
  0
LINE
  5
11629
  8
0
 62
     5
 10
205.5704680219244
 20
128.62222
 30
0.0
 11
205.4007661851243
 21
123.22221999999979
 31
0.0
  0
ARC
  5
1162A
  8
0
 62
     5
 10
210.8674664081243
 20
129.12221999999991
 30
0.0
 40
0.5
 50
270.0
 51
0.0
  0
POLYLINE
  5
1162B
  8
0
 62
     5
 66
     1
 10
0.0
 20
0.0
 30
0.0
 70
     8
  0
VERTEX
  5
1162C
  8
0
 62
     5
 10
211.06599999999969
 20
132.0089999999999
 30
0.0
 70
    32
  0
VERTEX
  5
1162D
  8
0
 62
     5
 10
211.06599999999969
 20
132.0089999999999
 30
0.0
 70
    32
  0
VERTEX
  5
1162E
  8
0
 62
     5
 10
211.06599999999969
 20
132.00999999999991
 30
0.0
 70
    32
  0
VERTEX
  5
1162F
  8
0
 62
     5
 10
211.065
 20
132.00999999999991
 30
0.0
 70
    32
  0
VERTEX
  5
11630
  8
0
 62
     5
 10
211.065
 20
132.00999999999991
 30
0.0
 70
    32
  0
VERTEX
  5
11631
  8
0
 62
     5
 10
211.065
 20
132.00999999999991
 30
0.0
 70
    32
  0
VERTEX
  5
11632
  8
0
 62
     5
 10
211.065
 20
132.00999999999991
 30
0.0
 70
    32
  0
VERTEX
  5
11633
  8
0
 62
     5
 10
211.065
 20
132.00999999999991
 30
0.0
 70
    32
  0
VERTEX
  5
11634
  8
0
 62
     5
 10
211.065
 20
132.00999999999991
 30
0.0
 70
    32
  0
VERTEX
  5
11635
  8
0
 62
     5
 10
211.065
 20
132.00999999999991
 30
0.0
 70
    32
  0
VERTEX
  5
11636
  8
0
 62
     5
 10
211.065
 20
132.00999999999991
 30
0.0
 70
    32
  0
VERTEX
  5
11637
  8
0
 62
     5
 10
211.065
 20
132.00999999999991
 30
0.0
 70
    32
  0
VERTEX
  5
11638
  8
0
 62
     5
 10
211.065
 20
132.00999999999991
 30
0.0
 70
    32
  0
VERTEX
  5
11639
  8
0
 62
     5
 10
211.06399999999999
 20
132.00999999999991
 30
0.0
 70
    32
  0
VERTEX
  5
1163A
  8
0
 62
     5
 10
211.06399999999999
 20
132.00999999999991
 30
0.0
 70
    32
  0
VERTEX
  5
1163B
  8
0
 62
     5
 10
211.06399999999999
 20
132.00999999999991
 30
0.0
 70
    32
  0
VERTEX
  5
1163C
  8
0
 62
     5
 10
211.06399999999999
 20
132.00999999999991
 30
0.0
 70
    32
  0
VERTEX
  5
1163D
  8
0
 62
     5
 10
211.06399999999999
 20
132.00999999999991
 30
0.0
 70
    32
  0
VERTEX
  5
1163E
  8
0
 62
     5
 10
211.06399999999999
 20
132.00999999999991
 30
0.0
 70
    32
  0
VERTEX
  5
1163F
  8
0
 62
     5
 10
211.06399999999999
 20
132.00999999999991
 30
0.0
 70
    32
  0
VERTEX
  5
11640
  8
0
 62
     5
 10
211.06399999999999
 20
132.00999999999991
 30
0.0
 70
    32
  0
VERTEX
  5
11641
  8
0
 62
     5
 10
211.06399999999999
 20
132.01099999999991
 30
0.0
 70
    32
  0
VERTEX
  5
11642
  8
0
 62
     5
 10
211.06399999999999
 20
132.01099999999991
 30
0.0
 70
    32
  0
VERTEX
  5
11643
  8
0
 62
     5
 10
211.06299999999999
 20
132.01099999999991
 30
0.0
 70
    32
  0
VERTEX
  5
11644
  8
0
 62
     5
 10
211.06299999999999
 20
132.01099999999991
 30
0.0
 70
    32
  0
VERTEX
  5
11645
  8
0
 62
     5
 10
211.06299999999999
 20
132.01099999999991
 30
0.0
 70
    32
  0
VERTEX
  5
11646
  8
0
 62
     5
 10
211.06299999999999
 20
132.01099999999991
 30
0.0
 70
    32
  0
VERTEX
  5
11647
  8
0
 62
     5
 10
211.06299999999999
 20
132.01099999999991
 30
0.0
 70
    32
  0
VERTEX
  5
11648
  8
0
 62
     5
 10
211.06299999999999
 20
132.01099999999991
 30
0.0
 70
    32
  0
VERTEX
  5
11649
  8
0
 62
     5
 10
211.06299999999999
 20
132.01099999999991
 30
0.0
 70
    32
  0
VERTEX
  5
1164A
  8
0
 62
     5
 10
211.06299999999999
 20
132.01099999999991
 30
0.0
 70
    32
  0
VERTEX
  5
1164B
  8
0
 62
     5
 10
211.06299999999999
 20
132.01099999999991
 30
0.0
 70
    32
  0
VERTEX
  5
1164C
  8
0
 62
     5
 10
211.06299999999999
 20
132.01099999999991
 30
0.0
 70
    32
  0
VERTEX
  5
1164D
  8
0
 62
     5
 10
211.0619999999999
 20
132.01099999999991
 30
0.0
 70
    32
  0
VERTEX
  5
1164E
  8
0
 62
     5
 10
211.0619999999999
 20
132.01099999999991
 30
0.0
 70
    32
  0
VERTEX
  5
1164F
  8
0
 62
     5
 10
211.0619999999999
 20
132.01099999999991
 30
0.0
 70
    32
  0
VERTEX
  5
11650
  8
0
 62
     5
 10
211.0619999999999
 20
132.01099999999991
 30
0.0
 70
    32
  0
VERTEX
  5
11651
  8
0
 62
     5
 10
211.0619999999999
 20
132.01099999999991
 30
0.0
 70
    32
  0
VERTEX
  5
11652
  8
0
 62
     5
 10
211.0619999999999
 20
132.01099999999991
 30
0.0
 70
    32
  0
VERTEX
  5
11653
  8
0
 62
     5
 10
211.0619999999999
 20
132.01099999999991
 30
0.0
 70
    32
  0
VERTEX
  5
11654
  8
0
 62
     5
 10
211.0619999999999
 20
132.01099999999991
 30
0.0
 70
    32
  0
VERTEX
  5
11655
  8
0
 62
     5
 10
211.0619999999999
 20
132.01199999999949
 30
0.0
 70
    32
  0
VERTEX
  5
11656
  8
0
 62
     5
 10
211.06099999999981
 20
132.01199999999949
 30
0.0
 70
    32
  0
VERTEX
  5
11657
  8
0
 62
     5
 10
211.06099999999981
 20
132.01199999999949
 30
0.0
 70
    32
  0
VERTEX
  5
11658
  8
0
 62
     5
 10
211.06099999999981
 20
132.01199999999949
 30
0.0
 70
    32
  0
VERTEX
  5
11659
  8
0
 62
     5
 10
211.06099999999981
 20
132.01199999999949
 30
0.0
 70
    32
  0
VERTEX
  5
1165A
  8
0
 62
     5
 10
211.06099999999981
 20
132.01199999999949
 30
0.0
 70
    32
  0
VERTEX
  5
1165B
  8
0
 62
     5
 10
211.06099999999981
 20
132.01199999999949
 30
0.0
 70
    32
  0
VERTEX
  5
1165C
  8
0
 62
     5
 10
211.06099999999981
 20
132.01199999999949
 30
0.0
 70
    32
  0
VERTEX
  5
1165D
  8
0
 62
     5
 10
211.06099999999981
 20
132.01199999999949
 30
0.0
 70
    32
  0
VERTEX
  5
1165E
  8
0
 62
     5
 10
211.06099999999981
 20
132.01199999999949
 30
0.0
 70
    32
  0
VERTEX
  5
1165F
  8
0
 62
     5
 10
211.06099999999981
 20
132.01199999999949
 30
0.0
 70
    32
  0
VERTEX
  5
11660
  8
0
 62
     5
 10
211.06
 20
132.01199999999949
 30
0.0
 70
    32
  0
VERTEX
  5
11661
  8
0
 62
     5
 10
211.06
 20
132.01199999999949
 30
0.0
 70
    32
  0
VERTEX
  5
11662
  8
0
 62
     5
 10
211.06
 20
132.01199999999949
 30
0.0
 70
    32
  0
VERTEX
  5
11663
  8
0
 62
     5
 10
211.06
 20
132.01199999999949
 30
0.0
 70
    32
  0
VERTEX
  5
11664
  8
0
 62
     5
 10
211.06
 20
132.01199999999949
 30
0.0
 70
    32
  0
VERTEX
  5
11665
  8
0
 62
     5
 10
211.06
 20
132.01199999999949
 30
0.0
 70
    32
  0
VERTEX
  5
11666
  8
0
 62
     5
 10
211.06
 20
132.01199999999949
 30
0.0
 70
    32
  0
VERTEX
  5
11667
  8
0
 62
     5
 10
211.06
 20
132.01199999999949
 30
0.0
 70
    32
  0
VERTEX
  5
11668
  8
0
 62
     5
 10
211.06
 20
132.01199999999949
 30
0.0
 70
    32
  0
VERTEX
  5
11669
  8
0
 62
     5
 10
211.059
 20
132.01199999999949
 30
0.0
 70
    32
  0
VERTEX
  5
1166A
  8
0
 62
     5
 10
211.059
 20
132.01199999999949
 30
0.0
 70
    32
  0
VERTEX
  5
1166B
  8
0
 62
     5
 10
211.059
 20
132.01300000000001
 30
0.0
 70
    32
  0
VERTEX
  5
1166C
  8
0
 62
     5
 10
211.059
 20
132.01300000000001
 30
0.0
 70
    32
  0
VERTEX
  5
1166D
  8
0
 62
     5
 10
211.059
 20
132.01300000000001
 30
0.0
 70
    32
  0
VERTEX
  5
1166E
  8
0
 62
     5
 10
211.059
 20
132.01300000000001
 30
0.0
 70
    32
  0
VERTEX
  5
1166F
  8
0
 62
     5
 10
211.059
 20
132.01300000000001
 30
0.0
 70
    32
  0
VERTEX
  5
11670
  8
0
 62
     5
 10
211.059
 20
132.01300000000001
 30
0.0
 70
    32
  0
VERTEX
  5
11671
  8
0
 62
     5
 10
211.059
 20
132.01300000000001
 30
0.0
 70
    32
  0
VERTEX
  5
11672
  8
0
 62
     5
 10
211.059
 20
132.01300000000001
 30
0.0
 70
    32
  0
VERTEX
  5
11673
  8
0
 62
     5
 10
211.05799999999999
 20
132.01300000000001
 30
0.0
 70
    32
  0
VERTEX
  5
11674
  8
0
 62
     5
 10
211.05799999999999
 20
132.01300000000001
 30
0.0
 70
    32
  0
VERTEX
  5
11675
  8
0
 62
     5
 10
211.05799999999999
 20
132.01300000000001
 30
0.0
 70
    32
  0
VERTEX
  5
11676
  8
0
 62
     5
 10
211.05799999999999
 20
132.01300000000001
 30
0.0
 70
    32
  0
VERTEX
  5
11677
  8
0
 62
     5
 10
211.05799999999999
 20
132.01300000000001
 30
0.0
 70
    32
  0
VERTEX
  5
11678
  8
0
 62
     5
 10
211.05799999999999
 20
132.01300000000001
 30
0.0
 70
    32
  0
VERTEX
  5
11679
  8
0
 62
     5
 10
211.05799999999999
 20
132.01300000000001
 30
0.0
 70
    32
  0
VERTEX
  5
1167A
  8
0
 62
     5
 10
211.05799999999999
 20
132.01300000000001
 30
0.0
 70
    32
  0
VERTEX
  5
1167B
  8
0
 62
     5
 10
211.05799999999999
 20
132.01300000000001
 30
0.0
 70
    32
  0
VERTEX
  5
1167C
  8
0
 62
     5
 10
211.05699999999999
 20
132.01300000000001
 30
0.0
 70
    32
  0
VERTEX
  5
1167D
  8
0
 62
     5
 10
211.05699999999999
 20
132.01300000000001
 30
0.0
 70
    32
  0
VERTEX
  5
1167E
  8
0
 62
     5
 10
211.05699999999999
 20
132.01300000000001
 30
0.0
 70
    32
  0
VERTEX
  5
1167F
  8
0
 62
     5
 10
211.05699999999999
 20
132.01300000000001
 30
0.0
 70
    32
  0
VERTEX
  5
11680
  8
0
 62
     5
 10
211.05699999999999
 20
132.01300000000001
 30
0.0
 70
    32
  0
VERTEX
  5
11681
  8
0
 62
     5
 10
211.05699999999999
 20
132.01300000000001
 30
0.0
 70
    32
  0
VERTEX
  5
11682
  8
0
 62
     5
 10
211.05699999999999
 20
132.01300000000001
 30
0.0
 70
    32
  0
VERTEX
  5
11683
  8
0
 62
     5
 10
211.05699999999999
 20
132.01300000000001
 30
0.0
 70
    32
  0
VERTEX
  5
11684
  8
0
 62
     5
 10
211.05699999999999
 20
132.01300000000001
 30
0.0
 70
    32
  0
VERTEX
  5
11685
  8
0
 62
     5
 10
211.0559999999999
 20
132.01300000000001
 30
0.0
 70
    32
  0
VERTEX
  5
11686
  8
0
 62
     5
 10
211.0559999999999
 20
132.01300000000001
 30
0.0
 70
    32
  0
VERTEX
  5
11687
  8
0
 62
     5
 10
211.0559999999999
 20
132.01300000000001
 30
0.0
 70
    32
  0
VERTEX
  5
11688
  8
0
 62
     5
 10
211.0559999999999
 20
132.01300000000001
 30
0.0
 70
    32
  0
VERTEX
  5
11689
  8
0
 62
     5
 10
211.0559999999999
 20
132.01400000000001
 30
0.0
 70
    32
  0
VERTEX
  5
1168A
  8
0
 62
     5
 10
211.0559999999999
 20
132.01400000000001
 30
0.0
 70
    32
  0
VERTEX
  5
1168B
  8
0
 62
     5
 10
211.0559999999999
 20
132.01400000000001
 30
0.0
 70
    32
  0
VERTEX
  5
1168C
  8
0
 62
     5
 10
211.0559999999999
 20
132.01400000000001
 30
0.0
 70
    32
  0
VERTEX
  5
1168D
  8
0
 62
     5
 10
211.0559999999999
 20
132.01400000000001
 30
0.0
 70
    32
  0
VERTEX
  5
1168E
  8
0
 62
     5
 10
211.05499999999989
 20
132.01400000000001
 30
0.0
 70
    32
  0
VERTEX
  5
1168F
  8
0
 62
     5
 10
211.05499999999989
 20
132.01400000000001
 30
0.0
 70
    32
  0
VERTEX
  5
11690
  8
0
 62
     5
 10
211.05499999999989
 20
132.01400000000001
 30
0.0
 70
    32
  0
VERTEX
  5
11691
  8
0
 62
     5
 10
211.05499999999989
 20
132.01400000000001
 30
0.0
 70
    32
  0
VERTEX
  5
11692
  8
0
 62
     5
 10
211.05499999999989
 20
132.01400000000001
 30
0.0
 70
    32
  0
VERTEX
  5
11693
  8
0
 62
     5
 10
211.05499999999989
 20
132.01400000000001
 30
0.0
 70
    32
  0
VERTEX
  5
11694
  8
0
 62
     5
 10
211.05499999999989
 20
132.01400000000001
 30
0.0
 70
    32
  0
VERTEX
  5
11695
  8
0
 62
     5
 10
211.05499999999989
 20
132.01400000000001
 30
0.0
 70
    32
  0
VERTEX
  5
11696
  8
0
 62
     5
 10
211.05499999999989
 20
132.01400000000001
 30
0.0
 70
    32
  0
VERTEX
  5
11697
  8
0
 62
     5
 10
211.0539999999998
 20
132.01400000000001
 30
0.0
 70
    32
  0
VERTEX
  5
11698
  8
0
 62
     5
 10
211.0539999999998
 20
132.01400000000001
 30
0.0
 70
    32
  0
VERTEX
  5
11699
  8
0
 62
     5
 10
211.0539999999998
 20
132.01400000000001
 30
0.0
 70
    32
  0
VERTEX
  5
1169A
  8
0
 62
     5
 10
211.0539999999998
 20
132.01400000000001
 30
0.0
 70
    32
  0
VERTEX
  5
1169B
  8
0
 62
     5
 10
211.0539999999998
 20
132.01400000000001
 30
0.0
 70
    32
  0
VERTEX
  5
1169C
  8
0
 62
     5
 10
211.0539999999998
 20
132.01400000000001
 30
0.0
 70
    32
  0
VERTEX
  5
1169D
  8
0
 62
     5
 10
211.0539999999998
 20
132.01400000000001
 30
0.0
 70
    32
  0
VERTEX
  5
1169E
  8
0
 62
     5
 10
211.0539999999998
 20
132.01400000000001
 30
0.0
 70
    32
  0
VERTEX
  5
1169F
  8
0
 62
     5
 10
211.0539999999998
 20
132.01400000000001
 30
0.0
 70
    32
  0
VERTEX
  5
116A0
  8
0
 62
     5
 10
211.05299999999991
 20
132.01400000000001
 30
0.0
 70
    32
  0
VERTEX
  5
116A1
  8
0
 62
     5
 10
211.05299999999991
 20
132.01400000000001
 30
0.0
 70
    32
  0
VERTEX
  5
116A2
  8
0
 62
     5
 10
211.05299999999991
 20
132.01400000000001
 30
0.0
 70
    32
  0
VERTEX
  5
116A3
  8
0
 62
     5
 10
211.05299999999991
 20
132.01400000000001
 30
0.0
 70
    32
  0
VERTEX
  5
116A4
  8
0
 62
     5
 10
211.05299999999991
 20
132.01400000000001
 30
0.0
 70
    32
  0
VERTEX
  5
116A5
  8
0
 62
     5
 10
211.05299999999991
 20
132.01400000000001
 30
0.0
 70
    32
  0
VERTEX
  5
116A6
  8
0
 62
     5
 10
211.05299999999991
 20
132.01400000000001
 30
0.0
 70
    32
  0
VERTEX
  5
116A7
  8
0
 62
     5
 10
211.05299999999991
 20
132.01400000000001
 30
0.0
 70
    32
  0
VERTEX
  5
116A8
  8
0
 62
     5
 10
211.05299999999991
 20
132.01400000000001
 30
0.0
 70
    32
  0
VERTEX
  5
116A9
  8
0
 62
     5
 10
211.05199999999999
 20
132.01400000000001
 30
0.0
 70
    32
  0
VERTEX
  5
116AA
  8
0
 62
     5
 10
211.05199999999999
 20
132.01400000000001
 30
0.0
 70
    32
  0
VERTEX
  5
116AB
  8
0
 62
     5
 10
211.05199999999999
 20
132.01400000000001
 30
0.0
 70
    32
  0
VERTEX
  5
116AC
  8
0
 62
     5
 10
211.05199999999999
 20
132.01400000000001
 30
0.0
 70
    32
  0
VERTEX
  5
116AD
  8
0
 62
     5
 10
211.05199999999999
 20
132.01400000000001
 30
0.0
 70
    32
  0
VERTEX
  5
116AE
  8
0
 62
     5
 10
211.05199999999999
 20
132.01400000000001
 30
0.0
 70
    32
  0
VERTEX
  5
116AF
  8
0
 62
     5
 10
211.05199999999999
 20
132.01400000000001
 30
0.0
 70
    32
  0
VERTEX
  5
116B0
  8
0
 62
     5
 10
211.05199999999999
 20
132.01400000000001
 30
0.0
 70
    32
  0
VERTEX
  5
116B1
  8
0
 62
     5
 10
211.05099999999999
 20
132.01400000000001
 30
0.0
 70
    32
  0
VERTEX
  5
116B2
  8
0
 62
     5
 10
211.05099999999999
 20
132.01400000000001
 30
0.0
 70
    32
  0
VERTEX
  5
116B3
  8
0
 62
     5
 10
211.05099999999999
 20
132.01400000000001
 30
0.0
 70
    32
  0
VERTEX
  5
116B4
  8
0
 62
     5
 10
211.05099999999999
 20
132.01400000000001
 30
0.0
 70
    32
  0
VERTEX
  5
116B5
  8
0
 62
     5
 10
211.05099999999999
 20
132.01400000000001
 30
0.0
 70
    32
  0
VERTEX
  5
116B6
  8
0
 62
     5
 10
211.05099999999999
 20
132.01400000000001
 30
0.0
 70
    32
  0
VERTEX
  5
116B7
  8
0
 62
     5
 10
211.05099999999999
 20
132.01400000000001
 30
0.0
 70
    32
  0
VERTEX
  5
116B8
  8
0
 62
     5
 10
211.05099999999999
 20
132.01400000000001
 30
0.0
 70
    32
  0
VERTEX
  5
116B9
  8
0
 62
     5
 10
211.05099999999999
 20
132.01400000000001
 30
0.0
 70
    32
  0
VERTEX
  5
116BA
  8
0
 62
     5
 10
211.05000000000001
 20
132.01400000000001
 30
0.0
 70
    32
  0
VERTEX
  5
116BB
  8
0
 62
     5
 10
211.05000000000001
 20
132.01400000000001
 30
0.0
 70
    32
  0
VERTEX
  5
116BC
  8
0
 62
     5
 10
211.05000000000001
 20
132.01400000000001
 30
0.0
 70
    32
  0
VERTEX
  5
116BD
  8
0
 62
     5
 10
211.05000000000001
 20
132.01400000000001
 30
0.0
 70
    32
  0
VERTEX
  5
116BE
  8
0
 62
     5
 10
211.05000000000001
 20
132.01400000000001
 30
0.0
 70
    32
  0
VERTEX
  5
116BF
  8
0
 62
     5
 10
211.05000000000001
 20
132.0149999999999
 30
0.0
 70
    32
  0
VERTEX
  5
116C0
  8
0
 62
     5
 10
211.05000000000001
 20
132.0149999999999
 30
0.0
 70
    32
  0
VERTEX
  5
116C1
  8
0
 62
     5
 10
211.05000000000001
 20
132.0149999999999
 30
0.0
 70
    32
  0
VERTEX
  5
116C2
  8
0
 62
     5
 10
211.05000000000001
 20
132.0149999999999
 30
0.0
 70
    32
  0
VERTEX
  5
116C3
  8
0
 62
     5
 10
211.04899999999989
 20
132.0149999999999
 30
0.0
 70
    32
  0
VERTEX
  5
116C4
  8
0
 62
     5
 10
211.04899999999989
 20
132.0149999999999
 30
0.0
 70
    32
  0
VERTEX
  5
116C5
  8
0
 62
     5
 10
211.04899999999989
 20
132.0149999999999
 30
0.0
 70
    32
  0
VERTEX
  5
116C6
  8
0
 62
     5
 10
211.04899999999989
 20
132.0149999999999
 30
0.0
 70
    32
  0
VERTEX
  5
116C7
  8
0
 62
     5
 10
211.04899999999989
 20
132.0149999999999
 30
0.0
 70
    32
  0
VERTEX
  5
116C8
  8
0
 62
     5
 10
211.04899999999989
 20
132.0149999999999
 30
0.0
 70
    32
  0
VERTEX
  5
116C9
  8
0
 62
     5
 10
211.04899999999989
 20
132.0149999999999
 30
0.0
 70
    32
  0
VERTEX
  5
116CA
  8
0
 62
     5
 10
211.04899999999989
 20
132.0149999999999
 30
0.0
 70
    32
  0
VERTEX
  5
116CB
  8
0
 62
     5
 10
211.04899999999989
 20
132.0149999999999
 30
0.0
 70
    32
  0
VERTEX
  5
116CC
  8
0
 62
     5
 10
211.04799999999989
 20
132.0149999999999
 30
0.0
 70
    32
  0
VERTEX
  5
116CD
  8
0
 62
     5
 10
211.04799999999989
 20
132.0149999999999
 30
0.0
 70
    32
  0
VERTEX
  5
116CE
  8
0
 62
     5
 10
211.04799999999989
 20
132.0149999999999
 30
0.0
 70
    32
  0
VERTEX
  5
116CF
  8
0
 62
     5
 10
211.04799999999989
 20
132.0149999999999
 30
0.0
 70
    32
  0
VERTEX
  5
116D0
  8
0
 62
     5
 10
211.04799999999989
 20
132.0149999999999
 30
0.0
 70
    32
  0
VERTEX
  5
116D1
  8
0
 62
     5
 10
211.04799999999989
 20
132.0149999999999
 30
0.0
 70
    32
  0
VERTEX
  5
116D2
  8
0
 62
     5
 10
211.04799999999989
 20
132.0149999999999
 30
0.0
 70
    32
  0
VERTEX
  5
116D3
  8
0
 62
     5
 10
211.04799999999989
 20
132.0149999999999
 30
0.0
 70
    32
  0
VERTEX
  5
116D4
  8
0
 62
     5
 10
211.0469999999998
 20
132.0149999999999
 30
0.0
 70
    32
  0
VERTEX
  5
116D5
  8
0
 62
     5
 10
211.0469999999998
 20
132.0149999999999
 30
0.0
 70
    32
  0
VERTEX
  5
116D6
  8
0
 62
     5
 10
211.0469999999998
 20
132.0149999999999
 30
0.0
 70
    32
  0
VERTEX
  5
116D7
  8
0
 62
     5
 10
211.0469999999998
 20
132.0149999999999
 30
0.0
 70
    32
  0
VERTEX
  5
116D8
  8
0
 62
     5
 10
211.0469999999998
 20
132.0149999999999
 30
0.0
 70
    32
  0
VERTEX
  5
116D9
  8
0
 62
     5
 10
211.0469999999998
 20
132.0149999999999
 30
0.0
 70
    32
  0
VERTEX
  5
116DA
  8
0
 62
     5
 10
211.0469999999998
 20
132.0149999999999
 30
0.0
 70
    32
  0
VERTEX
  5
116DB
  8
0
 62
     5
 10
211.0469999999998
 20
132.0149999999999
 30
0.0
 70
    32
  0
VERTEX
  5
116DC
  8
0
 62
     5
 10
211.0469999999998
 20
132.0149999999999
 30
0.0
 70
    32
  0
VERTEX
  5
116DD
  8
0
 62
     5
 10
211.04599999999971
 20
132.0149999999999
 30
0.0
 70
    32
  0
VERTEX
  5
116DE
  8
0
 62
     5
 10
211.04599999999971
 20
132.0149999999999
 30
0.0
 70
    32
  0
VERTEX
  5
116DF
  8
0
 62
     5
 10
211.04599999999971
 20
132.0149999999999
 30
0.0
 70
    32
  0
VERTEX
  5
116E0
  8
0
 62
     5
 10
211.04599999999971
 20
132.0149999999999
 30
0.0
 70
    32
  0
VERTEX
  5
116E1
  8
0
 62
     5
 10
211.04599999999971
 20
132.0149999999999
 30
0.0
 70
    32
  0
VERTEX
  5
116E2
  8
0
 62
     5
 10
211.04599999999971
 20
132.0149999999999
 30
0.0
 70
    32
  0
VERTEX
  5
116E3
  8
0
 62
     5
 10
211.04599999999971
 20
132.0149999999999
 30
0.0
 70
    32
  0
VERTEX
  5
116E4
  8
0
 62
     5
 10
211.04599999999971
 20
132.0149999999999
 30
0.0
 70
    32
  0
VERTEX
  5
116E5
  8
0
 62
     5
 10
211.04599999999971
 20
132.0149999999999
 30
0.0
 70
    32
  0
VERTEX
  5
116E6
  8
0
 62
     5
 10
211.0449999999999
 20
132.0149999999999
 30
0.0
 70
    32
  0
VERTEX
  5
116E7
  8
0
 62
     5
 10
211.0449999999999
 20
132.0149999999999
 30
0.0
 70
    32
  0
VERTEX
  5
116E8
  8
0
 62
     5
 10
211.0449999999999
 20
132.0149999999999
 30
0.0
 70
    32
  0
VERTEX
  5
116E9
  8
0
 62
     5
 10
211.0449999999999
 20
132.0149999999999
 30
0.0
 70
    32
  0
VERTEX
  5
116EA
  8
0
 62
     5
 10
211.0449999999999
 20
132.0149999999999
 30
0.0
 70
    32
  0
VERTEX
  5
116EB
  8
0
 62
     5
 10
211.0449999999999
 20
132.0149999999999
 30
0.0
 70
    32
  0
SEQEND
  5
116EC
  8
0
 62
     5
  0
ARC
  5
116ED
  8
0
 62
     5
 10
211.86704946567701
 20
131.43363739937621
 30
0.0
 40
0.5
 50
90.249999999999702
 51
180.0
  0
LINE
  5
116EE
  8
0
 62
     5
 10
234.16746640812431
 20
132.02221999999969
 30
0.0
 11
234.16746640812431
 21
142.46285143840001
 31
0.0
  0
LINE
  5
116EF
  8
0
 62
     5
 10
232.16746640812431
 20
132.02221999999969
 30
0.0
 11
214.50480134352679
 21
131.94515159587701
 31
0.0
  0
LINE
  5
116F0
  8
HIDDEN
 10
220.56925413402439
 20
125.8611503061999
 30
0.0
 11
216.8647326359272
 21
128.02145383089839
 31
0.0
  0
LINE
  5
116F1
  8
0
 62
     5
 10
234.16746640812431
 20
142.46285143840001
 30
0.0
 11
232.16746640812431
 21
142.46285143840001
 31
0.0
  0
LINE
  5
116F2
  8
0
 62
     5
 10
241.36746640812439
 20
137.02221999999961
 30
0.0
 11
243.9674664081243
 21
137.02221999999961
 31
0.0
  0
LINE
  5
116F3
  8
0
 62
     5
 10
243.9674664081243
 20
137.02221999999961
 30
0.0
 11
244.16746640812431
 21
137.22221999999991
 31
0.0
  0
ARC
  5
116F4
  8
0
 62
     5
 10
241.36746640812439
 20
136.8222199999999
 30
0.0
 40
0.2
 50
90.0
 51
179.99999998790059
  0
LINE
  5
116F5
  8
0
 62
     5
 10
244.5674664081244
 20
169.02222
 30
0.0
 11
270.76746640812439
 21
169.02222
 31
0.0
  0
LINE
  5
116F6
  8
0
 62
     5
 10
244.5674664081244
 20
155.02221999999981
 30
0.0
 11
270.76746640812439
 21
155.02221999999981
 31
0.0
  0
ARC
  5
116F7
  8
0
 62
     5
 10
244.5674664081244
 20
154.62222
 30
0.0
 40
0.4000000000000001
 50
90.0
 51
179.99999996569841
  0
ARC
  5
116F8
  8
0
 62
     5
 10
244.5674664081244
 20
169.42221999999981
 30
0.0
 40
0.4000000000000001
 50
180.0000000342983
 51
270.0
  0
LINE
  5
116F9
  8
0
 62
     5
 10
270.76746640812439
 20
169.02222
 30
0.0
 11
270.76746640812439
 21
155.02221999999981
 31
0.0
  0
LINE
  5
116FA
  8
0
 62
     5
 10
271.16746640812443
 20
168.62221738709991
 30
0.0
 11
271.16746640812443
 21
155.4222226128999
 31
0.0
  0
LINE
  5
116FB
  8
0
 62
     5
 10
270.76746640812439
 20
155.02221999999981
 30
0.0
 11
271.16746640812443
 21
155.42221999999981
 31
0.0
  0
LINE
  5
116FC
  8
0
 62
     5
 10
270.76746640812439
 20
169.02222
 30
0.0
 11
271.16746640812443
 21
168.62222
 31
0.0
  0
LINE
  5
116FD
  8
0
 62
     5
 10
241.1674664081242
 20
192.02221999999941
 30
0.0
 11
232.16746640812431
 21
192.02221999999941
 31
0.0
  0
LINE
  5
116FE
  8
0
 62
     5
 10
234.16746640812431
 20
181.5815885615998
 30
0.0
 11
234.16746640812431
 21
192.02221999999941
 31
0.0
  0
LINE
  5
116FF
  8
0
 62
     5
 10
234.16746640812431
 20
181.5815885615998
 30
0.0
 11
232.16746640812431
 21
181.5815885615998
 31
0.0
  0
LINE
  5
11700
  8
0
 62
     5
 10
241.36746640812439
 20
187.02222
 30
0.0
 11
243.9674664081243
 21
187.02222
 31
0.0
  0
LINE
  5
11701
  8
0
 62
     5
 10
243.9674664081243
 20
187.02222
 30
0.0
 11
244.16746640812431
 21
186.8222199999999
 31
0.0
  0
ARC
  5
11702
  8
0
 62
     5
 10
241.36746640812439
 20
187.22221999999991
 30
0.0
 40
0.2
 50
180.00000001209921
 51
270.0
  0
LINE
  5
11703
  8
HIDDEN
 10
382.36563090531871
 20
123.0222199999999
 30
0.0
 11
382.36563090531871
 21
120.4105949584999
 31
0.0
  0
LINE
  5
11704
  8
HIDDEN
 10
368.44582488491881
 20
126.1222200000194
 30
0.0
 11
368.44582488491881
 21
118.9222199999999
 31
0.0
  0
LINE
  5
11705
  8
HIDDEN
 10
349.54582488491872
 20
126.1222200001808
 30
0.0
 11
349.54582488491872
 21
118.9222199999999
 31
0.0
  0
LINE
  5
11706
  8
CENTER
 10
374.89582488491851
 20
133.59301673939919
 30
0.0
 11
374.89582488491851
 21
114.3555923784
 31
0.0
  0
LINE
  5
11707
  8
CENTER
 10
358.99582488491848
 20
133.59301673939919
 30
0.0
 11
358.99582488491848
 21
111.27890120724039
 31
0.0
  0
LINE
  5
11708
  8
CENTER
 10
364.89582488491823
 20
198.65991205951511
 30
0.0
 11
364.89582488491823
 21
113.87822068918
 31
0.0
  0
LINE
  5
11709
  8
HIDDEN
 10
353.54582488491872
 20
114.9222199999998
 30
0.0
 11
364.44582488491881
 21
114.9222199999998
 31
0.0
  0
ARC
  5
1170A
  8
HIDDEN
 10
353.5471574775998
 20
118.92355259268101
 30
0.0
 40
4.001332814582498
 50
180.0190816263931
 51
269.98091837360641
  0
LINE
  5
1170B
  8
HIDDEN
 10
378.4313851015188
 20
116.0222219518997
 30
0.0
 11
370.66073254131828
 21
116.0222199999999
 31
0.0
  0
ARC
  5
1170C
  8
HIDDEN
 10
364.44582488388392
 20
118.9222200010346
 30
0.0
 40
4.0000000010347181
 50
270.0000000148213
 51
359.9999999851795
  0
ARC
  5
1170D
  8
HIDDEN
 10
378.09615919402961
 20
120.28050057512679
 30
0.0
 40
4.2714532939133392
 50
274.50123174538942
 51
1.7453104257324901
  0
LINE
  5
1170E
  8
0
 62
     5
 10
346.01507282146872
 20
192.2883844000996
 30
0.0
 11
383.77657694836847
 21
192.2883844000996
 31
0.0
  0
LINE
  5
1170F
  8
CENTER
 10
330.5529237857732
 20
162.02221999999981
 30
0.0
 11
399.23872598406439
 21
162.02221999999981
 31
0.0
  0
LINE
  5
11710
  8
0
 62
     5
 10
362.50521251251882
 20
128.9222199999999
 30
0.0
 11
355.48643725731881
 21
128.9222199999999
 31
0.0
  0
LINE
  5
11711
  8
0
 62
     5
 10
351.6375251079188
 20
123.22221999999979
 30
0.0
 11
366.35412466191872
 21
123.22221999999979
 31
0.0
  0
LINE
  5
11712
  8
0
 62
     5
 10
345.57313286091852
 20
128.62221999999991
 30
0.0
 11
372.33645632331871
 21
128.62221999999991
 31
0.0
  0
LINE
  5
11713
  8
0
 62
     5
 10
339.39582488491868
 20
132.02221999999969
 30
0.0
 11
390.3958248849188
 21
132.02221999999969
 31
0.0
  0
LINE
  5
11714
  8
0
 62
     5
 10
390.3958248849188
 20
192.02221999999941
 30
0.0
 11
339.39582488491868
 21
192.02221999999941
 31
0.0
  0
CIRCLE
  5
11715
  8
0
 62
     5
 10
364.89582488491823
 20
162.02221999999981
 30
0.0
 40
8.5
  0
CIRCLE
  5
11716
  8
0
 62
     5
 10
364.89582488491823
 20
162.02221999999981
 30
0.0
 40
25.0
  0
LINE
  5
11717
  8
CENTER
 10
346.19334303089511
 20
180.72470185402341
 30
0.0
 11
334.45223223056831
 21
192.4658126543504
 31
0.0
  0
LINE
  5
11718
  8
0
 62
     5
 10
334.8958248849188
 20
187.52221999999981
 30
0.0
 11
334.8958248849188
 21
136.52221999999961
 31
0.0
  0
LINE
  5
11719
  8
0
 62
     5
 10
334.62966048486862
 20
143.14146793659961
 30
0.0
 11
334.62966048486862
 21
180.9029720633994
 31
0.0
  0
ARC
  5
1171A
  8
CENTER
 10
364.89582488491823
 20
162.02221999999981
 30
0.0
 40
34.999999999958803
 50
216.25402293116221
 51
234.3810343967447
  0
LINE
  5
1171B
  8
CENTER
 10
346.19334303089511
 20
143.3197381459764
 30
0.0
 11
334.45223223056831
 21
131.57862734564941
 31
0.0
  0
ARC
  5
1171C
  8
0
 62
     5
 10
339.39582488491868
 20
136.52221999999961
 30
0.0
 40
4.5
 50
180.0
 51
270.0
  0
CIRCLE
  5
1171D
  8
0
 62
     5
 10
340.14708754341882
 20
137.2734826584998
 30
0.0
 40
2.8999999999999981
  0
ARC
  5
1171E
  8
HIDDEN
 10
347.2458248846188
 20
126.6222199998999
 30
0.0
 40
0.4999999997
 50
179.9999999967005
 51
270.0000000492995
  0
LINE
  5
1171F
  8
0
 62
     5
 10
345.07333933621521
 20
132.02221999999969
 30
0.0
 11
345.0731328609188
 21
129.12221999999991
 31
0.0
  0
LINE
  5
11720
  8
HIDDEN
 10
346.74582488491882
 20
127.7222199999995
 30
0.0
 11
346.74582488491882
 21
126.6222199999996
 31
0.0
  0
LINE
  5
11721
  8
0
 62
     5
 10
345.07404983481871
 20
129.0920307512998
 30
0.0
 11
345.07313762061881
 21
129.12221999999991
 31
0.0
  0
LINE
  5
11722
  8
0
 62
     5
 10
345.07313762061881
 20
132.0118113998
 30
0.0
 11
345.0731328609188
 21
132.01156579749991
 31
0.0
  0
LINE
  5
11723
  8
HIDDEN
 10
347.24582488504882
 20
126.1222200001999
 30
0.0
 11
349.54582488491872
 21
126.12222000018031
 31
0.0
  0
LINE
  5
11724
  8
0
 62
     5
 10
351.6375251079188
 20
123.22221999999979
 30
0.0
 11
351.46782327121872
 21
128.62221999999991
 31
0.0
  0
LINE
  5
11725
  8
0
 62
     5
 10
355.49582488491882
 20
128.82221999999939
 30
0.0
 11
355.49582488491882
 21
128.9222199999999
 31
0.0
  0
ARC
  5
11726
  8
0
 62
     5
 10
355.29582488491872
 20
128.82221999999939
 30
0.0
 40
0.2
 50
270.0
 51
0.0
  0
LINE
  5
11727
  8
0
 62
     5
 10
352.25493691771879
 20
128.62221999999991
 30
0.0
 11
352.32522971651872
 21
123.22221999999979
 31
0.0
  0
CIRCLE
  5
11728
  8
0
 62
     5
 10
338.40711723311881
 20
145.72625832429981
 30
0.0
 40
1.25
  0
ARC
  5
11729
  8
CENTER
 10
364.89582488491823
 20
162.02221999999981
 30
0.0
 40
34.999999999958803
 50
126.2540229311621
 51
144.3810343967435
  0
ARC
  5
1172A
  8
0
 62
     5
 10
339.39582488491868
 20
187.52221999999981
 30
0.0
 40
4.5
 50
90.0
 51
180.0
  0
CIRCLE
  5
1172B
  8
0
 62
     5
 10
340.14708754341882
 20
186.77095734149981
 30
0.0
 40
2.8999999999999981
  0
CIRCLE
  5
1172C
  8
0
 62
     5
 10
348.5998632092186
 20
188.51092765189981
 30
0.0
 40
1.25
  0
LINE
  5
1172D
  8
CENTER
 10
383.5983067389422
 20
180.72470185402341
 30
0.0
 11
395.33941753926911
 21
192.4658126543504
 31
0.0
  0
LINE
  5
1172E
  8
0
 62
     5
 10
394.89582488491823
 20
136.52221999999961
 30
0.0
 11
394.89582488491823
 21
187.52221999999981
 31
0.0
  0
LINE
  5
1172F
  8
0
 62
     5
 10
395.16198928496863
 20
180.9029720633994
 30
0.0
 11
395.16198928496863
 21
143.14146793659961
 31
0.0
  0
LINE
  5
11730
  8
0
 62
     5
 10
371.5306251610188
 20
127.8222199999996
 30
0.0
 11
380.41982022641878
 21
127.8222199999996
 31
0.0
  0
LINE
  5
11731
  8
0
 62
     5
 10
381.55811589561881
 20
124.5222199999999
 30
0.0
 11
366.3949788078188
 21
124.5222199999999
 31
0.0
  0
LINE
  5
11732
  8
0
 62
     5
 10
372.8263542718754
 20
129.02221999999961
 30
0.0
 11
387.08565517931828
 21
129.02221999999961
 31
0.0
  0
LINE
  5
11733
  8
0
 62
     5
 10
372.83645632331871
 20
130.02221999999961
 30
0.0
 11
388.39582488491862
 21
130.02221999999961
 31
0.0
  0
LINE
  5
11734
  8
0
 62
     5
 10
373.33431213811872
 20
131.75889189259991
 30
0.0
 11
383.77657694831851
 21
131.7560555998997
 31
0.0
  0
LINE
  5
11735
  8
0
 62
     5
 10
366.41383456741852
 20
125.1222199999999
 30
0.0
 11
370.34539915231881
 21
125.1222199999999
 31
0.0
  0
LINE
  5
11736
  8
0
 62
     5
 10
366.52382649871879
 20
128.62221999999991
 30
0.0
 11
366.35412466191872
 21
123.22221999999979
 31
0.0
  0
LINE
  5
11737
  8
0
 62
     5
 10
362.49582488491882
 20
128.82221999999939
 30
0.0
 11
362.49582488491882
 21
128.9222199999999
 31
0.0
  0
ARC
  5
11738
  8
0
 62
     5
 10
362.69582488491852
 20
128.82221999999939
 30
0.0
 40
0.2
 50
180.0
 51
270.0
  0
LINE
  5
11739
  8
0
 62
     5
 10
365.66642005331829
 20
123.22221999999979
 30
0.0
 11
365.73671285211873
 21
128.62221999999991
 31
0.0
  0
LINE
  5
1173A
  8
0
 62
     5
 10
372.83645632331871
 20
131.25888701830331
 30
0.0
 11
372.83645632331871
 21
129.12221999999991
 31
0.0
  0
ARC
  5
1173B
  8
0
 62
     5
 10
372.33645632331871
 20
129.12221999999991
 30
0.0
 40
0.5
 50
270.0
 51
0.0
  0
LINE
  5
1173C
  8
HIDDEN
 10
368.44582488491881
 20
126.1222200000194
 30
0.0
 11
370.74582488497771
 21
126.1222199999999
 31
0.0
  0
LINE
  5
1173D
  8
HIDDEN
 10
371.24582488491882
 20
127.7222199999995
 30
0.0
 11
371.24582488491882
 21
126.6222199999996
 31
0.0
  0
ARC
  5
1173E
  8
HIDDEN
 10
370.74582488491882
 20
126.6222199999996
 30
0.0
 40
0.5
 50
270.00000000680041
 51
0.0
  0
LINE
  5
1173F
  8
0
 62
     5
 10
371.48369482151872
 20
124.5222199999999
 30
0.0
 11
371.5306251610188
 21
124.8222199999996
 31
0.0
  0
LINE
  5
11740
  8
0
 62
     5
 10
370.34539915231881
 20
125.1222199999999
 30
0.0
 11
370.34539915231881
 21
124.8222199999996
 31
0.0
  0
LINE
  5
11741
  8
0
 62
     5
 10
370.29846881281878
 20
124.5222199999999
 30
0.0
 11
370.34539915231881
 21
124.8222199999996
 31
0.0
  0
LINE
  5
11742
  8
0
 62
     5
 10
370.34539915231881
 20
124.8222199999996
 30
0.0
 11
371.5306251610188
 21
124.8222199999996
 31
0.0
  0
LINE
  5
11743
  8
0
 62
     5
 10
371.5306251610188
 20
124.8222199999996
 30
0.0
 11
371.5306251610188
 21
127.8222199999996
 31
0.0
  0
LINE
  5
11744
  8
0
 62
     5
 10
374.33645632331871
 20
131.7589012972999
 30
0.0
 11
374.33431213811872
 21
131.75889189259991
 31
0.0
  0
ARC
  5
11745
  8
CENTER
 10
364.89582488491823
 20
162.02221999999981
 30
0.0
 40
34.999999999958803
 50
306.25402293116213
 51
324.38103439674347
  0
LINE
  5
11746
  8
CENTER
 10
383.5983067389422
 20
143.319738145976
 30
0.0
 11
395.33941753926911
 21
131.57862734564941
 31
0.0
  0
CIRCLE
  5
11747
  8
0
 62
     5
 10
389.64456222641883
 20
137.2734826584998
 30
0.0
 40
2.8999999999999981
  0
LINE
  5
11748
  8
HIDDEN
 10
387.08565976461881
 20
124.5222199999999
 30
0.0
 11
387.08565976461881
 21
130.02221999999961
 31
0.0
  0
LINE
  5
11749
  8
0
 62
     5
 10
387.08565976461881
 20
129.02221999999961
 30
0.0
 11
387.08565976461881
 21
130.02221999999961
 31
0.0
  0
LINE
  5
1174A
  8
HIDDEN
 10
382.36563090531871
 20
123.0222199999999
 30
0.0
 11
385.58569818331881
 21
123.0222199999999
 31
0.0
  0
LINE
  5
1174B
  8
0
 62
     5
 10
384.3843790725187
 20
124.5222199999999
 30
0.0
 11
381.55811589561881
 21
124.5222199999999
 31
0.0
  0
LINE
  5
1174C
  8
0
 62
     5
 10
381.60504623511872
 20
125.1222199999999
 30
0.0
 11
384.98561130061859
 21
125.1222199999999
 31
0.0
  0
LINE
  5
1174D
  8
0
 62
     5
 10
380.41982022641878
 20
124.8222199999996
 30
0.0
 11
381.60504623511872
 21
124.8222199999996
 31
0.0
  0
LINE
  5
1174E
  8
0
 62
     5
 10
381.60504623511872
 20
124.8222199999996
 30
0.0
 11
381.60504623511872
 21
125.1222199999999
 31
0.0
  0
LINE
  5
1174F
  8
0
 62
     5
 10
380.41982022641878
 20
124.8222199999996
 30
0.0
 11
380.37288988691841
 21
124.5222199999999
 31
0.0
  0
LINE
  5
11750
  8
0
 62
     5
 10
381.60504623511872
 20
124.8222199999996
 30
0.0
 11
381.55811589561881
 21
124.5222199999999
 31
0.0
  0
LINE
  5
11751
  8
0
 62
     5
 10
380.06002095681839
 20
124.5222199999999
 30
0.0
 11
380.06002095681839
 21
127.8222199999996
 31
0.0
  0
LINE
  5
11752
  8
0
 62
     5
 10
380.41982022641878
 20
127.8222199999996
 30
0.0
 11
380.41982022641878
 21
124.8222199999996
 31
0.0
  0
ARC
  5
11753
  8
HIDDEN
 10
385.58565976461881
 20
124.5222199999999
 30
0.0
 40
1.5
 50
270.0
 51
0.0
  0
LINE
  5
11754
  8
0
 62
     5
 10
384.68068557461839
 20
125.1222199999999
 30
0.0
 11
384.68068557461839
 21
124.8222199999996
 31
0.0
  0
LINE
  5
11755
  8
0
 62
     5
 10
384.3843790725187
 20
124.5222199999999
 30
0.0
 11
384.68068557461839
 21
124.8222199999996
 31
0.0
  0
LINE
  5
11756
  8
0
 62
     5
 10
384.98565976461879
 20
129.02221999999961
 30
0.0
 11
384.98565976461879
 21
125.1222199999999
 31
0.0
  0
CIRCLE
  5
11757
  8
0
 62
     5
 10
381.19178656061882
 20
135.53351234819991
 30
0.0
 40
1.25
  0
ARC
  5
11758
  8
0
 62
     5
 10
390.3958248849188
 20
136.52221999999961
 30
0.0
 40
4.5
 50
270.0
 51
0.0
  0
ARC
  5
11759
  8
0
 62
     5
 10
388.39582488491862
 20
130.22221999999971
 30
0.0
 40
0.2
 50
270.0
 51
0.0
  0
LINE
  5
1175A
  8
0
 62
     5
 10
388.5958248849189
 20
132.02221999999969
 30
0.0
 11
388.5958248849189
 21
130.22221999999971
 31
0.0
  0
CIRCLE
  5
1175B
  8
0
 62
     5
 10
364.89582488491823
 20
162.02221999999981
 30
0.0
 40
7.0
  0
CIRCLE
  5
1175C
  8
0
 62
     5
 10
391.38453253681871
 20
178.3181816757
 30
0.0
 40
1.25
  0
ARC
  5
1175D
  8
CENTER
 10
364.89582488491823
 20
162.02221999999981
 30
0.0
 40
34.999999999958803
 50
36.254022931162282
 51
54.381034396744781
  0
CIRCLE
  5
1175E
  8
0
 62
     5
 10
389.64456222641883
 20
186.77095734149981
 30
0.0
 40
2.8999999999999981
  0
LINE
  5
1175F
  8
0
 62
     5
 10
387.23621162871871
 20
185.156367695
 30
0.0
 11
387.2373220866188
 21
185.15751760789999
 31
0.0
  0
ARC
  5
11760
  8
0
 62
     5
 10
390.3958248849188
 20
187.52221999999981
 30
0.0
 40
4.5
 50
0.0
 51
90.0
  0
POLYLINE
  5
11761
  8
HIDDEN
 66
     1
 10
0.0
 20
0.0
 30
0.0
 70
     2
  0
VERTEX
  5
11762
  8
HIDDEN
 10
75.005700000000004
 20
120.4139999999999
 30
0.0
 42
0.0073372988564107
  0
VERTEX
  5
11763
  8
HIDDEN
 10
75.150193725519216
 20
119.81532895861019
 30
0.0
 42
0.0131566320670499
 70
     1
  0
VERTEX
  5
11764
  8
HIDDEN
 10
75.244399999999999
 20
119.4849999999999
 30
0.0
 42
0.0017180854329419
  0
VERTEX
  5
11765
  8
HIDDEN
 10
75.486838258384296
 20
118.7217552320717
 30
0.0
 42
0.0074591351832439
 70
     1
  0
VERTEX
  5
11766
  8
HIDDEN
 10
75.545900000000003
 20
118.547
 30
0.0
 42
0.0244307730307804
  0
VERTEX
  5
11767
  8
HIDDEN
 10
75.70437624125816
 20
118.1611201261087
 30
0.0
 42
0.0171108845593551
 70
     1
  0
VERTEX
  5
11768
  8
HIDDEN
 10
75.975499999999982
 20
117.6309999999999
 30
0.0
 42
0.0305245985170407
  0
VERTEX
  5
11769
  8
HIDDEN
 10
76.184093489630982
 20
117.30413167942631
 30
0.0
 42
0.0336243317859354
 70
     1
  0
VERTEX
  5
1176A
  8
HIDDEN
 10
76.409899999999979
 20
117.03399999999991
 30
0.0
 42
0.0453068258750187
  0
VERTEX
  5
1176B
  8
HIDDEN
 10
76.6893327837779
 20
116.7905144504624
 30
0.0
 42
0.043825618661365
 70
     1
  0
VERTEX
  5
1176C
  8
HIDDEN
 10
77.018199999999965
 20
116.5939999999997
 30
0.0
 42
0.019430625619231
  0
VERTEX
  5
1176D
  8
HIDDEN
 10
77.443389221584084
 20
116.40810444696351
 30
0.0
 42
0.0280997091713147
 70
     1
  0
VERTEX
  5
1176E
  8
HIDDEN
 10
77.748400000000004
 20
116.30799999999969
 30
0.0
 42
0.0050883550945052
  0
VERTEX
  5
1176F
  8
HIDDEN
 10
77.924492856325728
 20
116.2628931642116
 30
0.0
 42
0.001725925797195
 70
     1
  0
VERTEX
  5
11770
  8
HIDDEN
 10
78.445400000000006
 20
116.137
 30
0.0
 42
0.0106856369074662
  0
VERTEX
  5
11771
  8
HIDDEN
 10
78.642741942851444
 20
116.094461011612
 30
0.0
 42
0.0055881519854814
 70
     1
  0
VERTEX
  5
11772
  8
HIDDEN
 10
79.022513861508699
 20
116.0254464841907
 30
0.0
  0
SEQEND
  5
11773
  8
HIDDEN
  0
POLYLINE
  5
11774
  8
HIDDEN
 66
     1
 10
0.0
 20
0.0
 30
0.0
 70
     2
  0
VERTEX
  5
11775
  8
HIDDEN
 10
85.205099999999987
 20
116.02799999999991
 30
0.0
 42
0.0219017816878823
  0
VERTEX
  5
11776
  8
HIDDEN
 10
85.638238347199035
 20
116.051388240951
 30
0.0
 42
0.0390217961756726
 70
     1
  0
VERTEX
  5
11777
  8
HIDDEN
 10
85.878200000000007
 20
116.0939999999998
 30
0.0
 42
0.012407363045888
  0
VERTEX
  5
11778
  8
HIDDEN
 10
86.45073552347344
 20
116.2577445584183
 30
0.0
 42
0.0234262506648768
 70
     1
  0
VERTEX
  5
11779
  8
HIDDEN
 10
86.747100000000003
 20
116.3659999999999
 30
0.0
 42
0.0364547009303043
  0
VERTEX
  5
1177A
  8
HIDDEN
 10
87.184343544566744
 20
116.5880725044549
 30
0.0
 42
0.0348445637695967
 70
     1
  0
VERTEX
  5
1177B
  8
HIDDEN
 10
87.604100000000003
 20
116.883
 30
0.0
 42
0.0383208554293778
  0
VERTEX
  5
1177C
  8
HIDDEN
 10
87.939777248272378
 20
117.20124373952029
 30
0.0
 42
0.0399498928651393
 70
     1
  0
VERTEX
  5
1177D
  8
HIDDEN
 10
88.210300000000004
 20
117.5529999999999
 30
0.0
 42
0.0333001654623024
  0
VERTEX
  5
1177E
  8
HIDDEN
 10
88.454356260274224
 20
117.99017878042071
 30
0.0
 42
0.0358248852883291
 70
     1
  0
VERTEX
  5
1177F
  8
HIDDEN
 10
88.623099999999994
 20
118.42399999999969
 30
0.0
 42
0.0210982810157124
  0
VERTEX
  5
11780
  8
HIDDEN
 10
88.807220892115225
 20
119.1241453064155
 30
0.0
 42
0.028050117999958
 70
     1
  0
VERTEX
  5
11781
  8
HIDDEN
 10
88.8934
 20
119.66200000000001
 30
0.0
 42
0.0044620083142382
  0
VERTEX
  5
11782
  8
HIDDEN
 10
88.933246311919177
 20
120.0852474411039
 30
0.0
 42
0.0021249534762964
 70
     1
  0
VERTEX
  5
11783
  8
HIDDEN
 10
89.005200000000002
 20
120.9749999999995
 30
0.0
 42
0.0065262689199443
  0
VERTEX
  5
11784
  8
HIDDEN
 10
89.014308414512811
 20
121.11849266225541
 30
0.0
 42
0.0024634342556571
 70
     1
  0
VERTEX
  5
11785
  8
HIDDEN
 10
89.031599999999969
 20
121.499
 30
0.0
  0
SEQEND
  5
11786
  8
HIDDEN
  0
POLYLINE
  5
11787
  8
HIDDEN
 66
     1
 10
0.0
 20
0.0
 30
0.0
 70
     2
  0
VERTEX
  5
11788
  8
HIDDEN
 10
192.59599999999989
 20
129.62200000000001
 30
0.0
 42
-0.0169481820379044
  0
VERTEX
  5
11789
  8
HIDDEN
 10
192.73133246270891
 20
129.6172877234477
 30
0.0
 42
-0.0275626586990157
 70
     1
  0
VERTEX
  5
1178A
  8
HIDDEN
 10
192.81399999999991
 20
129.607
 30
0.0
 42
-0.0022544513140208
  0
VERTEX
  5
1178B
  8
HIDDEN
 10
192.955961515724
 20
129.58066386194611
 30
0.0
 42
-0.0151086010195895
 70
     1
  0
VERTEX
  5
1178C
  8
HIDDEN
 10
192.97699999999949
 20
129.57599999999999
 30
0.0
 42
-0.0119370076057247
  0
VERTEX
  5
1178D
  8
HIDDEN
 10
193.02948077457671
 20
129.56134875061539
 30
0.0
 42
-0.004980081767885
 70
     1
  0
VERTEX
  5
1178E
  8
HIDDEN
 10
193.154
 20
129.52199999999999
 30
0.0
 42
-0.0161191630592827
  0
VERTEX
  5
1178F
  8
HIDDEN
 10
193.1693709972337
 20
129.51641924944141
 30
0.0
 42
-0.0054583405746281
 70
     1
  0
VERTEX
  5
11790
  8
HIDDEN
 10
193.2139999999996
 20
129.49799999999999
 30
0.0
  0
SEQEND
  5
11791
  8
HIDDEN
  0
POLYLINE
  5
11792
  8
HIDDEN
 66
     1
 10
0.0
 20
0.0
 30
0.0
 70
     2
  0
VERTEX
  5
11793
  8
HIDDEN
 10
192.595
 20
116.023
 30
0.0
 42
0.0286010691750974
  0
VERTEX
  5
11794
  8
HIDDEN
 10
192.81865388192361
 20
116.03524009814249
 30
0.0
 42
0.0444649708012869
 70
     1
  0
VERTEX
  5
11795
  8
HIDDEN
 10
192.96000000000001
 20
116.06399999999969
 30
0.0
 42
0.006073000644962
  0
VERTEX
  5
11796
  8
HIDDEN
 10
193.18797043650571
 20
116.1349565108809
 30
0.0
 42
0.0336595630931679
 70
     1
  0
VERTEX
  5
11797
  8
HIDDEN
 10
193.22799999999981
 20
116.151
 30
0.0
 42
0.0113653778329301
  0
VERTEX
  5
11798
  8
HIDDEN
 10
193.3034880142431
 20
116.1894604679954
 30
0.0
 42
0.0053169869857336
 70
     1
  0
VERTEX
  5
11799
  8
HIDDEN
 10
193.4619999999999
 20
116.277
 30
0.0
 42
0.0127121327727625
  0
VERTEX
  5
1179A
  8
HIDDEN
 10
193.49108886960721
 20
116.29446173000819
 30
0.0
 42
0.0054019621791252
 70
     1
  0
VERTEX
  5
1179B
  8
HIDDEN
 10
193.55799999999999
 20
116.33799999999979
 30
0.0
  0
SEQEND
  5
1179C
  8
HIDDEN
  0
POLYLINE
  5
1179D
  8
HIDDEN
 66
     1
 10
0.0
 20
0.0
 30
0.0
 70
     2
  0
VERTEX
  5
1179E
  8
HIDDEN
 10
196.1209999999999
 20
117.22199999999999
 30
0.0
 42
0.015338305053437
  0
VERTEX
  5
1179F
  8
HIDDEN
 10
196.23822056232481
 20
117.2306498371187
 30
0.0
 42
0.0241600063005329
 70
     1
  0
VERTEX
  5
117A0
  8
HIDDEN
 10
196.31200000000001
 20
117.242
 30
0.0
 42
0.0022839423280067
  0
VERTEX
  5
117A1
  8
HIDDEN
 10
196.4318998586327
 20
117.266994844078
 30
0.0
 42
0.0168653030197947
 70
     1
  0
VERTEX
  5
117A2
  8
HIDDEN
 10
196.44799999999981
 20
117.271
 30
0.0
 42
0.0159271117810663
  0
VERTEX
  5
117A3
  8
HIDDEN
 10
196.4647266270054
 20
117.27634684584
 30
0.0
 42
0.0029127692815124
 70
     1
  0
VERTEX
  5
117A4
  8
HIDDEN
 10
196.55500000000001
 20
117.3089999999999
 30
0.0
 42
0.0276945456328674
  0
VERTEX
  5
117A5
  8
HIDDEN
 10
196.60414372781381
 20
117.3302585503188
 30
0.0
 42
0.0169470161822084
 70
     1
  0
VERTEX
  5
117A6
  8
HIDDEN
 10
196.6809999999999
 20
117.372
 30
0.0
  0
SEQEND
  5
117A7
  8
HIDDEN
  0
POLYLINE
  5
117A8
  8
HIDDEN
 66
     1
 10
0.0
 20
0.0
 30
0.0
 70
     2
  0
VERTEX
  5
117A9
  8
HIDDEN
 10
370.66099999999989
 20
116.02200000000001
 30
0.0
 42
-0.0114253094391412
  0
VERTEX
  5
117AA
  8
HIDDEN
 10
370.3724726436252
 20
116.03495790024679
 30
0.0
 42
-0.0194802698004036
 70
     1
  0
VERTEX
  5
117AB
  8
HIDDEN
 10
370.20400000000001
 20
116.053
 30
0.0
 42
-0.0021694059606022
  0
VERTEX
  5
117AC
  8
HIDDEN
 10
369.85366464239343
 20
116.10594083347431
 30
0.0
 42
-0.0138315545320284
 70
     1
  0
VERTEX
  5
117AD
  8
HIDDEN
 10
369.79899999999992
 20
116.1159999999999
 30
0.0
 42
-0.0174009724331521
  0
VERTEX
  5
117AE
  8
HIDDEN
 10
369.6078136429432
 20
116.1636871619049
 30
0.0
 42
-0.0141566035344173
 70
     1
  0
VERTEX
  5
117AF
  8
HIDDEN
 10
369.37699999999961
 20
116.2369999999999
 30
0.0
 42
-0.0112746468929557
  0
VERTEX
  5
117B0
  8
HIDDEN
 10
369.30181400991569
 20
116.26516375991
 30
0.0
 42
-0.0027324974534788
 70
     1
  0
VERTEX
  5
117B1
  8
HIDDEN
 10
368.995
 20
116.3899999999999
 30
0.0
 42
-0.0237931762495636
  0
VERTEX
  5
117B2
  8
HIDDEN
 10
368.88207567883592
 20
116.4430887827005
 30
0.0
 42
-0.0124343584714647
 70
     1
  0
VERTEX
  5
117B3
  8
HIDDEN
 10
368.67399999999992
 20
116.5599999999999
 30
0.0
  0
SEQEND
  5
117B4
  8
HIDDEN
  0
LINE
  5
117B5
  8
0
 62
     5
 10
193.06746640812381
 20
181.7813093778999
 30
0.0
 11
232.16746640812431
 21
181.5815885615998
 31
0.0
  0
LINE
  5
117B6
  8
0
 62
     5
 10
193.06746640812381
 20
142.14400363246199
 30
0.0
 11
232.16746640812431
 21
142.46285143840001
 31
0.0
  0
ARC
  5
117B7
  8
0
 62
     5
 10
183.3359400544974
 20
136.18356931775901
 30
0.0
 40
2.413045602698443
 50
152.13902856866011
 51
180.5358976668513
  0
ARC
  5
117B8
  8
0
 62
     5
 10
182.51482108159991
 20
136.2570447959136
 30
0.0
 40
1.5948376525002961
 50
183.52455779654039
 51
196.14714226922609
  0
ARC
  5
117B9
  8
0
 62
     5
 10
182.24454736927271
 20
134.86142230347599
 30
0.0
 40
1.3211706566333481
 50
162.73601240723801
 51
178.23997269345591
  0
ARC
  5
117BA
  8
0
 62
     5
 10
183.31202662161061
 20
134.87512536485889
 30
0.0
 40
2.388177839177029
 50
179.3552257102489
 51
207.9598010297143
  0
ARC
  5
117BB
  8
0
 62
     5
 10
190.741866837988
 20
146.208454156371
 30
0.0
 40
4.8175094752141101
 50
163.76965502187309
 51
178.10213651364811
  0
ARC
  5
117BC
  8
0
 62
     5
 10
188.3268367153434
 20
146.5937276323034
 30
0.0
 40
2.4104292614171521
 50
185.3734075963647
 51
194.10618978842751
  0
ARC
  5
117BD
  8
0
 62
     5
 10
187.785126871025
 20
144.95196144728979
 30
0.0
 40
1.8628122954895661
 50
164.61226077699931
 51
175.91890498974601
  0
ARC
  5
117BE
  8
0
 62
     5
 10
190.74956091196009
 20
145.24513284080439
 30
0.0
 40
4.8251961934781633
 50
181.90734131516751
 51
196.2170122277908
  0
ARC
  5
117BF
  8
0
 62
     5
 10
187.7863735465321
 20
187.73629610826941
 30
0.0
 40
1.864103084173248
 50
164.61251083403371
 51
175.91770977865309
  0
ARC
  5
117C0
  8
0
 62
     5
 10
190.7383888130303
 20
188.02820192409561
 30
0.0
 40
4.8140219736506031
 50
181.89514336603941
 51
196.2358591664638
  0
ARC
  5
117C1
  8
0
 62
     5
 10
190.9080131879038
 20
188.96656600795541
 30
0.0
 40
4.9845009791815871
 50
164.0103427762443
 51
177.85648089710509
  0
ARC
  5
117C2
  8
0
 62
     5
 10
187.7730780288266
 20
189.28322612503379
 30
0.0
 40
1.850665537626339
 50
184.03507739943109
 51
195.42707000817339
  0
ARC
  5
117C3
  8
0
 62
     5
 10
182.43455053169961
 20
177.5941461813149
 30
0.0
 40
1.5180449556012341
 50
162.99202329724801
 51
174.14198136509461
  0
ARC
  5
117C4
  8
0
 62
     5
 10
183.29964272784471
 20
177.65908858912039
 30
0.0
 40
2.3769140256325261
 50
177.8301455649565
 51
208.08472655719029
  0
ARC
  5
117C5
  8
0
 62
     5
 10
182.29331329694239
 20
179.0036039622527
 30
0.0
 40
1.3716973353999991
 50
182.5740624851943
 51
197.19127007872689
  0
ARC
  5
117C6
  8
0
 62
     5
 10
183.33476004634991
 20
178.9687877527642
 30
0.0
 40
2.4119088094014201
 50
152.13013486363761
 51
180.63636598784191
  0
ARC
  5
117C7
  8
0
 62
     5
 10
184.26731499830029
 20
181.78102647889679
 30
0.0
 40
0.1998688749530064
 50
89.956595819527564
 51
179.18369257716611
  0
ARC
  5
117C8
  8
0
 62
     5
 10
109.79064275432771
 20
191.2870679510421
 30
0.0
 40
1.0013172012110261
 50
4.4958705117431981
 51
89.929772852816143
  0
ARC
  5
117C9
  8
0
 62
     5
 10
72.031593245745938
 20
191.28706795085441
 30
0.0
 40
1.0013172013988121
 50
90.070227151389247
 51
175.5041294782778
  0
ARC
  5
117CA
  8
0
 62
     5
 10
61.64627004900747
 20
180.90174475438559
 30
0.0
 40
1.0013172012107261
 50
94.495870516858375
 51
179.92977285900309
  0
ARC
  5
117CB
  8
0
 62
     5
 10
61.646270049007079
 20
143.14269524561371
 30
0.0
 40
1.0013172012103311
 50
180.07022714098511
 51
265.5041294831525
  0
ARC
  5
117CC
  8
0
 62
     5
 10
110.2343479016852
 20
129.1216821222647
 30
0.0
 40
0.4994624118886414
 50
269.93829739867471
 51
0.0617025998532449
  0
ARC
  5
117CD
  8
0
 62
     5
 10
120.1759659508045
 20
143.14269524579581
 30
0.0
 40
1.001317201398773
 50
274.4958705209857
 51
359.92977284860979
  0
ARC
  5
117CE
  8
0
 62
     5
 10
120.1759659508041
 20
180.90174475420361
 30
0.0
 40
1.001317201399172
 50
0.0702271514015074
 51
85.504129478909945
  0
ARC
  5
117CF
  8
0
 62
     5
 10
373.33618034321921
 20
131.25917128397711
 30
0.0
 40
0.4997241007520968
 50
90.214199228526269
 51
180.03259243297001
  0
ARC
  5
117D0
  8
0
 62
     5
 10
345.57272935747972
 20
129.1217863086087
 30
0.0
 40
0.4995664715652798
 50
183.41471581259611
 51
270.04627821900641
  0
ARC
  5
117D1
  8
0
 62
     5
 10
383.77324266668671
 20
132.7654261346828
 30
0.0
 40
1.00937604188046
 50
270.1892660462658
 51
312.582606815551
  0
LINE
  5
117D2
  8
0
 62
     5
 10
211.06599999999969
 20
132.0089999999999
 30
0.0
 11
211.46099999999981
 21
131.779
 31
0.0
  0
ARC
  5
117D3
  8
0
 62
     5
 10
212.0641364292305
 20
131.42946590458121
 30
0.0
 40
0.6970994449323815
 50
149.906532270025
 51
182.01120169876799
  0
ARC
  5
117D4
  8
0
 62
     5
 10
346.01281860485011
 20
191.294779445941
 30
0.0
 40
0.9936075112540999
 50
89.870011843017437
 51
132.93553046176669
  0
ARC
  5
117D5
  8
0
 62
     5
 10
383.77883116498651
 20
191.294779445941
 30
0.0
 40
0.9936075112540999
 50
47.064469538233311
 51
90.129988156982563
  0
ARC
  5
117D6
  8
0
 62
     5
 10
335.63225252753648
 20
180.90156907357141
 30
0.0
 40
1.002593024313134
 50
137.2669261416392
 51
179.91982248016771
  0
ARC
  5
117D7
  8
0
 62
     5
 10
335.63225252753648
 20
143.14287092642809
 30
0.0
 40
1.002593024313134
 50
180.0801775198322
 51
222.7330738583606
  0
ARC
  5
117D8
  8
0
 62
     5
 10
394.15939724230032
 20
180.90156907357141
 30
0.0
 40
1.002593024313134
 50
0.0801775198322638
 51
42.733073858360768
  0
ARC
  5
117D9
  8
0
 62
     5
 10
394.15939724230032
 20
143.14287092642809
 30
0.0
 40
1.002593024313134
 50
317.2669261416392
 51
359.91982248016762
  0
ARC
  5
117DA
  8
0
 62
     5
 10
193.727101664933
 20
131.94677287224229
 30
0.0
 40
0.0654642364406311
 50
96.537738761115065
 51
142.813724506521
  0
ARC
  5
117DB
  8
0
 62
     5
 10
194.0015041780841
 20
131.7391715728001
 30
0.0
 40
0.4095499886371148
 50
142.87814104731811
 51
163.72120232144081
  0
ENDSEC
  0
EOF
