  0
SECTION
  2
HEADER
  9
$ACADVER
  1
AC1009
  9
$INSBASE
 10
0.0
 20
0.0
 30
0.0
  9
$EXTMIN
 10
24.903475
 20
110.823654
 30
-0.001526
  9
$EXTMAX
 10
388.323551
 20
238.582288
 30
0.0
  9
$LIMMIN
 10
0.0
 20
0.0
  9
$LIMMAX
 10
12.0
 20
9.0
  9
$ORTHOMODE
 70
     0
  9
$REGENMODE
 70
     1
  9
$FILLMODE
 70
     1
  9
$QTEXTMODE
 70
     0
  9
$MIRRTEXT
 70
     1
  9
$DRAGMODE
 70
     2
  9
$LTSCALE
 40
0.5
  9
$OSMODE
 70
    39
  9
$ATTMODE
 70
     1
  9
$TEXTSIZE
 40
0.2
  9
$TRACEWID
 40
0.05
  9
$TEXTSTYLE
  7
STANDARD
  9
$CLAYER
  8
0
  9
$CELTYPE
  6
BYLAYER
  9
$CECOLOR
 62
   256
  9
$DIMSCALE
 40
1.0
  9
$DIMASZ
 40
0.18
  9
$DIMEXO
 40
0.0625
  9
$DIMDLI
 40
0.38
  9
$DIMRND
 40
0.0
  9
$DIMDLE
 40
0.0
  9
$DIMEXE
 40
0.18
  9
$DIMTP
 40
0.0
  9
$DIMTM
 40
0.0
  9
$DIMTXT
 40
0.18
  9
$DIMCEN
 40
0.09
  9
$DIMTSZ
 40
0.0
  9
$DIMTOL
 70
     0
  9
$DIMLIM
 70
     0
  9
$DIMTIH
 70
     1
  9
$DIMTOH
 70
     1
  9
$DIMSE1
 70
     0
  9
$DIMSE2
 70
     0
  9
$DIMTAD
 70
     0
  9
$DIMZIN
 70
     0
  9
$DIMBLK
  1

  9
$DIMASO
 70
     1
  9
$DIMSHO
 70
     1
  9
$DIMPOST
  1

  9
$DIMAPOST
  1

  9
$DIMALT
 70
     0
  9
$DIMALTD
 70
     2
  9
$DIMALTF
 40
25.4
  9
$DIMLFAC
 40
1.0
  9
$DIMTOFL
 70
     0
  9
$DIMTVP
 40
0.0
  9
$DIMTIX
 70
     0
  9
$DIMSOXD
 70
     0
  9
$DIMSAH
 70
     0
  9
$DIMBLK1
  1

  9
$DIMBLK2
  1

  9
$DIMSTYLE
  2
STANDARD
  9
$DIMCLRD
 70
     0
  9
$DIMCLRE
 70
     0
  9
$DIMCLRT
 70
     0
  9
$DIMTFAC
 40
1.0
  9
$DIMGAP
 40
0.09
  9
$LUNITS
 70
     2
  9
$LUPREC
 70
     4
  9
$SKETCHINC
 40
0.1
  9
$FILLETRAD
 40
0.0
  9
$AUNITS
 70
     0
  9
$AUPREC
 70
     0
  9
$MENU
  1
.
  9
$ELEVATION
 40
0.0
  9
$PELEVATION
 40
0.0
  9
$THICKNESS
 40
0.0
  9
$LIMCHECK
 70
     0
  9
$BLIPMODE
 70
     0
  9
$CHAMFERA
 40
0.0
  9
$CHAMFERB
 40
0.0
  9
$SKPOLY
 70
     0
  9
$TDCREATE
 40
2451614.569646
  9
$TDUPDATE
 40
2452948.804921
  9
$TDINDWG
 40
0.163228
  9
$TDUSRTIMER
 40
0.163227
  9
$USRTIMER
 70
     1
  9
$ANGBASE
 50
0.0
  9
$ANGDIR
 70
     0
  9
$PDMODE
 70
     0
  9
$PDSIZE
 40
0.0
  9
$PLINEWID
 40
0.0
  9
$COORDS
 70
     2
  9
$SPLFRAME
 70
     0
  9
$SPLINETYPE
 70
     6
  9
$SPLINESEGS
 70
     8
  9
$ATTDIA
 70
     0
  9
$ATTREQ
 70
     1
  9
$HANDLING
 70
     1
  9
$HANDSEED
  5
122BB
  9
$SURFTAB1
 70
     6
  9
$SURFTAB2
 70
     6
  9
$SURFTYPE
 70
     6
  9
$SURFU
 70
     6
  9
$SURFV
 70
     6
  9
$UCSNAME
  2

  9
$UCSORG
 10
0.0
 20
0.0
 30
0.0
  9
$UCSXDIR
 10
1.0
 20
0.0
 30
0.0
  9
$UCSYDIR
 10
0.0
 20
1.0
 30
0.0
  9
$PUCSNAME
  2

  9
$PUCSORG
 10
0.0
 20
0.0
 30
0.0
  9
$PUCSXDIR
 10
1.0
 20
0.0
 30
0.0
  9
$PUCSYDIR
 10
0.0
 20
1.0
 30
0.0
  9
$USERI1
 70
     0
  9
$USERI2
 70
     0
  9
$USERI3
 70
     0
  9
$USERI4
 70
     0
  9
$USERI5
 70
     0
  9
$USERR1
 40
0.0
  9
$USERR2
 40
0.0
  9
$USERR3
 40
0.0
  9
$USERR4
 40
0.0
  9
$USERR5
 40
0.0
  9
$WORLDVIEW
 70
     1
  9
$SHADEDGE
 70
     3
  9
$SHADEDIF
 70
    70
  9
$TILEMODE
 70
     1
  9
$MAXACTVP
 70
    48
  9
$PLIMCHECK
 70
     0
  9
$PEXTMIN
 10
1.000000E+020
 20
1.000000E+020
 30
1.000000E+020
  9
$PEXTMAX
 10
-1.000000E+020
 20
-1.000000E+020
 30
-1.000000E+020
  9
$PLIMMIN
 10
0.0
 20
0.0
  9
$PLIMMAX
 10
12.0
 20
9.0
  9
$UNITMODE
 70
     0
  9
$VISRETAIN
 70
     1
  9
$PLINEGEN
 70
     0
  9
$PSLTSCALE
 70
     1
  0
ENDSEC
  0
SECTION
  2
TABLES
  0
TABLE
  2
VPORT
 70
     4
  0
VPORT
  2
*ACTIVE
 70
     0
 10
0.0
 20
0.0
 11
1.0
 21
1.0
 12
206.613513
 22
174.702971
 13
0.0
 23
0.0
 14
1.0
 24
1.0
 15
0.0
 25
0.0
 16
0.0
 26
0.0
 36
1.0
 17
0.0
 27
0.0
 37
0.0
 40
225.824812
 41
1.616967
 42
50.0
 43
0.0
 44
0.0
 50
0.0
 51
0.0
 71
     0
 72
   100
 73
     1
 74
     1
 75
     0
 76
     0
 77
     0
 78
     0
  0
ENDTAB
  0
TABLE
  2
LTYPE
 70
     6
  0
LTYPE
  2
CONTINUOUS
 70
     0
  3
Solid line
 72
    65
 73
     0
 40
0.0
  0
LTYPE
  2
CENTER
 70
     0
  3
____ _ ____ _ ____ _ ____ _ ____ _ ____ _ ____
 72
    65
 73
     4
 40
17.5
 49
13.0
 49
-1.5
 49
1.5
 49
-1.5
  0
LTYPE
  2
HIDDEN
 70
     0
  3
Hidden __ __ __ __ __ __ __ __ __ __ __ __ __ _
 72
    65
 73
     2
 40
9.525
 49
6.35
 49
-3.175
  0
ENDTAB
  0
TABLE
  2
LAYER
 70
     5
  0
LAYER
  2
0
 70
     0
 62
     7
  6
CONTINUOUS
  0
LAYER
  2
CENTER
 70
     0
 62
     1
  6
CENTER
  0
LAYER
  2
1
 70
     0
 62
     7
  6
CONTINUOUS
  0
LAYER
  2
HIDDEN
 70
     0
 62
     6
  6
HIDDEN
  0
ENDTAB
  0
TABLE
  2
STYLE
 70
     2
  0
STYLE
  2
STANDARD
 70
     0
 40
0.0
 41
1.0
 50
0.0
 71
     0
 42
0.2
  3
txt
  4

  0
ENDTAB
  0
TABLE
  2
VIEW
 70
     0
  0
ENDTAB
  0
TABLE
  2
UCS
 70
     0
  0
ENDTAB
  0
TABLE
  2
APPID
 70
     1
  0
APPID
  2
ACAD
 70
     0
  0
ENDTAB
  0
TABLE
  2
DIMSTYLE
 70
     3
  0
DIMSTYLE
  2
STANDARD
 70
     0
  3

  4

  5

  6

  7

 40
1.0
 41
0.18
 42
0.0625
 43
0.38
 44
0.18
 45
0.0
 46
0.0
 47
0.0
 48
0.0
140
0.18
141
0.09
142
0.0
143
25.4
144
1.0
145
0.0
146
1.0
147
0.09
 71
     0
 72
     0
 73
     1
 74
     1
 75
     0
 76
     0
 77
     0
 78
     0
170
     0
171
     2
172
     0
173
     0
174
     0
175
     0
176
     0
177
     0
178
     0
  0
ENDTAB
  0
ENDSEC
  0
SECTION
  2
BLOCKS
  0
BLOCK
  8
0
  2
$MODEL_SPACE
 70
     0
 10
0.0
 20
0.0
 30
0.0
  3
$MODEL_SPACE
  1

  0
ENDBLK
  5
12292
  8
0
  0
BLOCK
 67
     1
  8
0
  2
$PAPER_SPACE
 70
     0
 10
0.0
 20
0.0
 30
0.0
  3
$PAPER_SPACE
  1

  0
ENDBLK
  5
1228F
 67
     1
  8
0
  0
BLOCK
  8
0
  2
A$C3C4259C2
 70
     0
 10
0.0
 20
0.0
 30
0.0
  3
A$C3C4259C2
  1

  0
POLYLINE
  5
11675
  8
HIDDEN
 66
     1
 10
0.0
 20
0.0
 30
0.0
 70
     8
  0
VERTEX
  5
11676
  8
0
 10
0.0
 20
4.16
 30
0.0
 70
    32
  0
VERTEX
  5
11677
  8
0
 10
-0.01641
 20
4.15969
 30
0.0
 70
    32
  0
VERTEX
  5
11678
  8
0
 10
-0.032811
 20
4.15875
 30
0.0
 70
    32
  0
VERTEX
  5
11679
  8
0
 10
-0.049191
 20
4.15718
 30
0.0
 70
    32
  0
VERTEX
  5
1167A
  8
0
 10
-0.065542
 20
4.15499
 30
0.0
 70
    32
  0
VERTEX
  5
1167B
  8
0
 10
-0.081853
 20
4.15218
 30
0.0
 70
    32
  0
VERTEX
  5
1167C
  8
0
 10
-0.098115
 20
4.14874
 30
0.0
 70
    32
  0
VERTEX
  5
1167D
  8
0
 10
-0.114318
 20
4.14469
 30
0.0
 70
    32
  0
VERTEX
  5
1167E
  8
0
 10
-0.130453
 20
4.14002
 30
0.0
 70
    32
  0
VERTEX
  5
1167F
  8
0
 10
-0.146508
 20
4.13473
 30
0.0
 70
    32
  0
VERTEX
  5
11680
  8
0
 10
-0.162475
 20
4.12883
 30
0.0
 70
    32
  0
VERTEX
  5
11681
  8
0
 10
-0.178345
 20
4.12233
 30
0.0
 70
    32
  0
VERTEX
  5
11682
  8
0
 10
-0.194107
 20
4.11522
 30
0.0
 70
    32
  0
VERTEX
  5
11683
  8
0
 10
-0.209752
 20
4.10751
 30
0.0
 70
    32
  0
VERTEX
  5
11684
  8
0
 10
-0.225271
 20
4.09921
 30
0.0
 70
    32
  0
VERTEX
  5
11685
  8
0
 10
-0.240654
 20
4.09031
 30
0.0
 70
    32
  0
VERTEX
  5
11686
  8
0
 10
-0.255892
 20
4.08083
 30
0.0
 70
    32
  0
VERTEX
  5
11687
  8
0
 10
-0.270976
 20
4.07078
 30
0.0
 70
    32
  0
VERTEX
  5
11688
  8
0
 10
-0.285897
 20
4.06015
 30
0.0
 70
    32
  0
VERTEX
  5
11689
  8
0
 10
-0.300645
 20
4.04895
 30
0.0
 70
    32
  0
VERTEX
  5
1168A
  8
0
 10
-0.315212
 20
4.0372
 30
0.0
 70
    32
  0
VERTEX
  5
1168B
  8
0
 10
-0.32959
 20
4.02489
 30
0.0
 70
    32
  0
VERTEX
  5
1168C
  8
0
 10
-0.343769
 20
4.01204
 30
0.0
 70
    32
  0
VERTEX
  5
1168D
  8
0
 10
-0.357741
 20
3.99865
 30
0.0
 70
    32
  0
VERTEX
  5
1168E
  8
0
 10
-0.371497
 20
3.98473
 30
0.0
 70
    32
  0
VERTEX
  5
1168F
  8
0
 10
-0.38503
 20
3.97029
 30
0.0
 70
    32
  0
VERTEX
  5
11690
  8
0
 10
-0.398331
 20
3.95534
 30
0.0
 70
    32
  0
VERTEX
  5
11691
  8
0
 10
-0.411392
 20
3.93988
 30
0.0
 70
    32
  0
VERTEX
  5
11692
  8
0
 10
-0.424205
 20
3.92393
 30
0.0
 70
    32
  0
VERTEX
  5
11693
  8
0
 10
-0.436762
 20
3.9075
 30
0.0
 70
    32
  0
VERTEX
  5
11694
  8
0
 10
-0.449056
 20
3.89059
 30
0.0
 70
    32
  0
VERTEX
  5
11695
  8
0
 10
-0.46108
 20
3.87322
 30
0.0
 70
    32
  0
VERTEX
  5
11696
  8
0
 10
-0.472826
 20
3.85539
 30
0.0
 70
    32
  0
VERTEX
  5
11697
  8
0
 10
-0.484288
 20
3.83712
 30
0.0
 70
    32
  0
VERTEX
  5
11698
  8
0
 10
-0.495457
 20
3.81842
 30
0.0
 70
    32
  0
VERTEX
  5
11699
  8
0
 10
-0.506329
 20
3.7993
 30
0.0
 70
    32
  0
VERTEX
  5
1169A
  8
0
 10
-0.516895
 20
3.77977
 30
0.0
 70
    32
  0
VERTEX
  5
1169B
  8
0
 10
-0.52715
 20
3.75984
 30
0.0
 70
    32
  0
VERTEX
  5
1169C
  8
0
 10
-0.537087
 20
3.73953
 30
0.0
 70
    32
  0
VERTEX
  5
1169D
  8
0
 10
-0.546701
 20
3.71884
 30
0.0
 70
    32
  0
VERTEX
  5
1169E
  8
0
 10
-0.555985
 20
3.69779
 30
0.0
 70
    32
  0
VERTEX
  5
1169F
  8
0
 10
-0.564935
 20
3.6764
 30
0.0
 70
    32
  0
VERTEX
  5
116A0
  8
0
 10
-0.573544
 20
3.65467
 30
0.0
 70
    32
  0
VERTEX
  5
116A1
  8
0
 10
-0.581808
 20
3.63261
 30
0.0
 70
    32
  0
VERTEX
  5
116A2
  8
0
 10
-0.589721
 20
3.61025
 30
0.0
 70
    32
  0
VERTEX
  5
116A3
  8
0
 10
-0.597279
 20
3.5876
 30
0.0
 70
    32
  0
VERTEX
  5
116A4
  8
0
 10
-0.604477
 20
3.56466
 30
0.0
 70
    32
  0
VERTEX
  5
116A5
  8
0
 10
-0.611312
 20
3.54145
 30
0.0
 70
    32
  0
VERTEX
  5
116A6
  8
0
 10
-0.617778
 20
3.51799
 30
0.0
 70
    32
  0
VERTEX
  5
116A7
  8
0
 10
-0.623871
 20
3.49429
 30
0.0
 70
    32
  0
VERTEX
  5
116A8
  8
0
 10
-0.629589
 20
3.47037
 30
0.0
 70
    32
  0
VERTEX
  5
116A9
  8
0
 10
-0.634928
 20
3.44623
 30
0.0
 70
    32
  0
VERTEX
  5
116AA
  8
0
 10
-0.639885
 20
3.4219
 30
0.0
 70
    32
  0
VERTEX
  5
116AB
  8
0
 10
-0.644456
 20
3.39738
 30
0.0
 70
    32
  0
VERTEX
  5
116AC
  8
0
 10
-0.648638
 20
3.3727
 30
0.0
 70
    32
  0
VERTEX
  5
116AD
  8
0
 10
-0.65243
 20
3.34787
 30
0.0
 70
    32
  0
VERTEX
  5
116AE
  8
0
 10
-0.655829
 20
3.32289
 30
0.0
 70
    32
  0
VERTEX
  5
116AF
  8
0
 10
-0.658833
 20
3.2978
 30
0.0
 70
    32
  0
VERTEX
  5
116B0
  8
0
 10
-0.66144
 20
3.2726
 30
0.0
 70
    32
  0
VERTEX
  5
116B1
  8
0
 10
-0.663649
 20
3.24731
 30
0.0
 70
    32
  0
VERTEX
  5
116B2
  8
0
 10
-0.665458
 20
3.22194
 30
0.0
 70
    32
  0
VERTEX
  5
116B3
  8
0
 10
-0.666866
 20
3.19651
 30
0.0
 70
    32
  0
VERTEX
  5
116B4
  8
0
 10
-0.667872
 20
3.17103
 30
0.0
 70
    32
  0
VERTEX
  5
116B5
  8
0
 10
-0.668476
 20
3.14552
 30
0.0
 70
    32
  0
VERTEX
  5
116B6
  8
0
 10
-0.668678
 20
3.12
 30
0.0
 70
    32
  0
VERTEX
  5
116B7
  8
0
 10
-0.668476
 20
3.09448
 30
0.0
 70
    32
  0
VERTEX
  5
116B8
  8
0
 10
-0.667872
 20
3.06897
 30
0.0
 70
    32
  0
VERTEX
  5
116B9
  8
0
 10
-0.666866
 20
3.04349
 30
0.0
 70
    32
  0
VERTEX
  5
116BA
  8
0
 10
-0.665458
 20
3.01806
 30
0.0
 70
    32
  0
VERTEX
  5
116BB
  8
0
 10
-0.663649
 20
2.99269
 30
0.0
 70
    32
  0
VERTEX
  5
116BC
  8
0
 10
-0.66144
 20
2.9674
 30
0.0
 70
    32
  0
VERTEX
  5
116BD
  8
0
 10
-0.658833
 20
2.9422
 30
0.0
 70
    32
  0
VERTEX
  5
116BE
  8
0
 10
-0.655829
 20
2.91711
 30
0.0
 70
    32
  0
VERTEX
  5
116BF
  8
0
 10
-0.65243
 20
2.89213
 30
0.0
 70
    32
  0
VERTEX
  5
116C0
  8
0
 10
-0.648638
 20
2.8673
 30
0.0
 70
    32
  0
VERTEX
  5
116C1
  8
0
 10
-0.644456
 20
2.84262
 30
0.0
 70
    32
  0
VERTEX
  5
116C2
  8
0
 10
-0.639885
 20
2.8181
 30
0.0
 70
    32
  0
VERTEX
  5
116C3
  8
0
 10
-0.634928
 20
2.79377
 30
0.0
 70
    32
  0
VERTEX
  5
116C4
  8
0
 10
-0.629589
 20
2.76963
 30
0.0
 70
    32
  0
VERTEX
  5
116C5
  8
0
 10
-0.623871
 20
2.74571
 30
0.0
 70
    32
  0
VERTEX
  5
116C6
  8
0
 10
-0.617778
 20
2.72201
 30
0.0
 70
    32
  0
VERTEX
  5
116C7
  8
0
 10
-0.611312
 20
2.69855
 30
0.0
 70
    32
  0
VERTEX
  5
116C8
  8
0
 10
-0.604477
 20
2.67534
 30
0.0
 70
    32
  0
VERTEX
  5
116C9
  8
0
 10
-0.597279
 20
2.6524
 30
0.0
 70
    32
  0
VERTEX
  5
116CA
  8
0
 10
-0.589721
 20
2.62975
 30
0.0
 70
    32
  0
VERTEX
  5
116CB
  8
0
 10
-0.581808
 20
2.60739
 30
0.0
 70
    32
  0
VERTEX
  5
116CC
  8
0
 10
-0.573544
 20
2.58533
 30
0.0
 70
    32
  0
VERTEX
  5
116CD
  8
0
 10
-0.564935
 20
2.5636
 30
0.0
 70
    32
  0
VERTEX
  5
116CE
  8
0
 10
-0.555985
 20
2.54221
 30
0.0
 70
    32
  0
VERTEX
  5
116CF
  8
0
 10
-0.546701
 20
2.52116
 30
0.0
 70
    32
  0
VERTEX
  5
116D0
  8
0
 10
-0.537087
 20
2.50047
 30
0.0
 70
    32
  0
VERTEX
  5
116D1
  8
0
 10
-0.52715
 20
2.48016
 30
0.0
 70
    32
  0
VERTEX
  5
116D2
  8
0
 10
-0.516895
 20
2.46023
 30
0.0
 70
    32
  0
VERTEX
  5
116D3
  8
0
 10
-0.506329
 20
2.4407
 30
0.0
 70
    32
  0
VERTEX
  5
116D4
  8
0
 10
-0.495457
 20
2.42158
 30
0.0
 70
    32
  0
VERTEX
  5
116D5
  8
0
 10
-0.484288
 20
2.40288
 30
0.0
 70
    32
  0
VERTEX
  5
116D6
  8
0
 10
-0.472826
 20
2.38461
 30
0.0
 70
    32
  0
VERTEX
  5
116D7
  8
0
 10
-0.46108
 20
2.36678
 30
0.0
 70
    32
  0
VERTEX
  5
116D8
  8
0
 10
-0.449056
 20
2.34941
 30
0.0
 70
    32
  0
VERTEX
  5
116D9
  8
0
 10
-0.436762
 20
2.3325
 30
0.0
 70
    32
  0
VERTEX
  5
116DA
  8
0
 10
-0.424205
 20
2.31607
 30
0.0
 70
    32
  0
VERTEX
  5
116DB
  8
0
 10
-0.411392
 20
2.30012
 30
0.0
 70
    32
  0
VERTEX
  5
116DC
  8
0
 10
-0.398331
 20
2.28466
 30
0.0
 70
    32
  0
VERTEX
  5
116DD
  8
0
 10
-0.38503
 20
2.26971
 30
0.0
 70
    32
  0
VERTEX
  5
116DE
  8
0
 10
-0.371497
 20
2.25527
 30
0.0
 70
    32
  0
VERTEX
  5
116DF
  8
0
 10
-0.357741
 20
2.24135
 30
0.0
 70
    32
  0
VERTEX
  5
116E0
  8
0
 10
-0.343769
 20
2.22796
 30
0.0
 70
    32
  0
VERTEX
  5
116E1
  8
0
 10
-0.32959
 20
2.21511
 30
0.0
 70
    32
  0
VERTEX
  5
116E2
  8
0
 10
-0.315212
 20
2.2028
 30
0.0
 70
    32
  0
VERTEX
  5
116E3
  8
0
 10
-0.300645
 20
2.19105
 30
0.0
 70
    32
  0
VERTEX
  5
116E4
  8
0
 10
-0.285897
 20
2.17985
 30
0.0
 70
    32
  0
VERTEX
  5
116E5
  8
0
 10
-0.270976
 20
2.16922
 30
0.0
 70
    32
  0
VERTEX
  5
116E6
  8
0
 10
-0.255892
 20
2.15917
 30
0.0
 70
    32
  0
VERTEX
  5
116E7
  8
0
 10
-0.240654
 20
2.14969
 30
0.0
 70
    32
  0
VERTEX
  5
116E8
  8
0
 10
-0.225271
 20
2.14079
 30
0.0
 70
    32
  0
VERTEX
  5
116E9
  8
0
 10
-0.209752
 20
2.13249
 30
0.0
 70
    32
  0
VERTEX
  5
116EA
  8
0
 10
-0.194107
 20
2.12478
 30
0.0
 70
    32
  0
VERTEX
  5
116EB
  8
0
 10
-0.178345
 20
2.11767
 30
0.0
 70
    32
  0
VERTEX
  5
116EC
  8
0
 10
-0.162475
 20
2.11117
 30
0.0
 70
    32
  0
VERTEX
  5
116ED
  8
0
 10
-0.146508
 20
2.10527
 30
0.0
 70
    32
  0
VERTEX
  5
116EE
  8
0
 10
-0.130453
 20
2.09998
 30
0.0
 70
    32
  0
VERTEX
  5
116EF
  8
0
 10
-0.114318
 20
2.09531
 30
0.0
 70
    32
  0
VERTEX
  5
116F0
  8
0
 10
-0.098115
 20
2.09126
 30
0.0
 70
    32
  0
VERTEX
  5
116F1
  8
0
 10
-0.081853
 20
2.08782
 30
0.0
 70
    32
  0
VERTEX
  5
116F2
  8
0
 10
-0.065542
 20
2.08501
 30
0.0
 70
    32
  0
VERTEX
  5
116F3
  8
0
 10
-0.049191
 20
2.08282
 30
0.0
 70
    32
  0
VERTEX
  5
116F4
  8
0
 10
-0.032811
 20
2.08125
 30
0.0
 70
    32
  0
VERTEX
  5
116F5
  8
0
 10
-0.01641
 20
2.08031
 30
0.0
 70
    32
  0
VERTEX
  5
116F6
  8
0
 10
0.0
 20
2.08
 30
0.0
 70
    32
  0
SEQEND
  5
116F7
  8
0
  0
POLYLINE
  5
116F8
  8
HIDDEN
 66
     1
 10
0.0
 20
0.0
 30
0.0
 70
     8
  0
VERTEX
  5
116F9
  8
0
 10
0.0
 20
0.0
 30
0.0
 70
    32
  0
VERTEX
  5
116FA
  8
0
 10
0.032811
 20
0.001253
 30
0.0
 70
    32
  0
VERTEX
  5
116FB
  8
0
 10
0.065542
 20
0.005008
 30
0.0
 70
    32
  0
VERTEX
  5
116FC
  8
0
 10
0.098115
 20
0.011256
 30
0.0
 70
    32
  0
VERTEX
  5
116FD
  8
0
 10
0.130453
 20
0.019983
 30
0.0
 70
    32
  0
VERTEX
  5
116FE
  8
0
 10
0.162475
 20
0.031168
 30
0.0
 70
    32
  0
VERTEX
  5
116FF
  8
0
 10
0.194107
 20
0.044782
 30
0.0
 70
    32
  0
VERTEX
  5
11700
  8
0
 10
0.225271
 20
0.060794
 30
0.0
 70
    32
  0
VERTEX
  5
11701
  8
0
 10
0.255892
 20
0.079165
 30
0.0
 70
    32
  0
VERTEX
  5
11702
  8
0
 10
0.285897
 20
0.099851
 30
0.0
 70
    32
  0
VERTEX
  5
11703
  8
0
 10
0.315212
 20
0.122802
 30
0.0
 70
    32
  0
VERTEX
  5
11704
  8
0
 10
0.343769
 20
0.147962
 30
0.0
 70
    32
  0
VERTEX
  5
11705
  8
0
 10
0.371497
 20
0.175272
 30
0.0
 70
    32
  0
VERTEX
  5
11706
  8
0
 10
0.398331
 20
0.204664
 30
0.0
 70
    32
  0
VERTEX
  5
11707
  8
0
 10
0.424205
 20
0.236069
 30
0.0
 70
    32
  0
VERTEX
  5
11708
  8
0
 10
0.449056
 20
0.269411
 30
0.0
 70
    32
  0
VERTEX
  5
11709
  8
0
 10
0.472826
 20
0.304609
 30
0.0
 70
    32
  0
VERTEX
  5
1170A
  8
0
 10
0.495457
 20
0.341579
 30
0.0
 70
    32
  0
VERTEX
  5
1170B
  8
0
 10
0.516895
 20
0.380231
 30
0.0
 70
    32
  0
VERTEX
  5
1170C
  8
0
 10
0.537087
 20
0.420473
 30
0.0
 70
    32
  0
VERTEX
  5
1170D
  8
0
 10
0.555985
 20
0.462207
 30
0.0
 70
    32
  0
VERTEX
  5
1170E
  8
0
 10
0.573544
 20
0.505333
 30
0.0
 70
    32
  0
VERTEX
  5
1170F
  8
0
 10
0.589721
 20
0.549747
 30
0.0
 70
    32
  0
VERTEX
  5
11710
  8
0
 10
0.604477
 20
0.595343
 30
0.0
 70
    32
  0
VERTEX
  5
11711
  8
0
 10
0.617778
 20
0.642009
 30
0.0
 70
    32
  0
VERTEX
  5
11712
  8
0
 10
0.629589
 20
0.689635
 30
0.0
 70
    32
  0
VERTEX
  5
11713
  8
0
 10
0.639885
 20
0.738104
 30
0.0
 70
    32
  0
VERTEX
  5
11714
  8
0
 10
0.648638
 20
0.787301
 30
0.0
 70
    32
  0
VERTEX
  5
11715
  8
0
 10
0.655829
 20
0.837106
 30
0.0
 70
    32
  0
VERTEX
  5
11716
  8
0
 10
0.66144
 20
0.8874
 30
0.0
 70
    32
  0
VERTEX
  5
11717
  8
0
 10
0.665458
 20
0.938062
 30
0.0
 70
    32
  0
VERTEX
  5
11718
  8
0
 10
0.667872
 20
0.98897
 30
0.0
 70
    32
  0
VERTEX
  5
11719
  8
0
 10
0.668678
 20
1.04
 30
0.0
 70
    32
  0
VERTEX
  5
1171A
  8
0
 10
0.667872
 20
1.09103
 30
0.0
 70
    32
  0
VERTEX
  5
1171B
  8
0
 10
0.665458
 20
1.14194
 30
0.0
 70
    32
  0
VERTEX
  5
1171C
  8
0
 10
0.66144
 20
1.1926
 30
0.0
 70
    32
  0
VERTEX
  5
1171D
  8
0
 10
0.655829
 20
1.24289
 30
0.0
 70
    32
  0
VERTEX
  5
1171E
  8
0
 10
0.648638
 20
1.2927
 30
0.0
 70
    32
  0
VERTEX
  5
1171F
  8
0
 10
0.639885
 20
1.3419
 30
0.0
 70
    32
  0
VERTEX
  5
11720
  8
0
 10
0.629589
 20
1.39037
 30
0.0
 70
    32
  0
VERTEX
  5
11721
  8
0
 10
0.617778
 20
1.43799
 30
0.0
 70
    32
  0
VERTEX
  5
11722
  8
0
 10
0.604477
 20
1.48466
 30
0.0
 70
    32
  0
VERTEX
  5
11723
  8
0
 10
0.589721
 20
1.53025
 30
0.0
 70
    32
  0
VERTEX
  5
11724
  8
0
 10
0.573544
 20
1.57467
 30
0.0
 70
    32
  0
VERTEX
  5
11725
  8
0
 10
0.555985
 20
1.61779
 30
0.0
 70
    32
  0
VERTEX
  5
11726
  8
0
 10
0.537087
 20
1.65953
 30
0.0
 70
    32
  0
VERTEX
  5
11727
  8
0
 10
0.516895
 20
1.69977
 30
0.0
 70
    32
  0
VERTEX
  5
11728
  8
0
 10
0.495457
 20
1.73842
 30
0.0
 70
    32
  0
VERTEX
  5
11729
  8
0
 10
0.472826
 20
1.77539
 30
0.0
 70
    32
  0
VERTEX
  5
1172A
  8
0
 10
0.449056
 20
1.81059
 30
0.0
 70
    32
  0
VERTEX
  5
1172B
  8
0
 10
0.424205
 20
1.84393
 30
0.0
 70
    32
  0
VERTEX
  5
1172C
  8
0
 10
0.398331
 20
1.87534
 30
0.0
 70
    32
  0
VERTEX
  5
1172D
  8
0
 10
0.371497
 20
1.90473
 30
0.0
 70
    32
  0
VERTEX
  5
1172E
  8
0
 10
0.343769
 20
1.93204
 30
0.0
 70
    32
  0
VERTEX
  5
1172F
  8
0
 10
0.315212
 20
1.9572
 30
0.0
 70
    32
  0
VERTEX
  5
11730
  8
0
 10
0.285897
 20
1.98015
 30
0.0
 70
    32
  0
VERTEX
  5
11731
  8
0
 10
0.255892
 20
2.00083
 30
0.0
 70
    32
  0
VERTEX
  5
11732
  8
0
 10
0.225271
 20
2.01921
 30
0.0
 70
    32
  0
VERTEX
  5
11733
  8
0
 10
0.194107
 20
2.03522
 30
0.0
 70
    32
  0
VERTEX
  5
11734
  8
0
 10
0.162475
 20
2.04883
 30
0.0
 70
    32
  0
VERTEX
  5
11735
  8
0
 10
0.130453
 20
2.06002
 30
0.0
 70
    32
  0
VERTEX
  5
11736
  8
0
 10
0.098115
 20
2.06874
 30
0.0
 70
    32
  0
VERTEX
  5
11737
  8
0
 10
0.065542
 20
2.07499
 30
0.0
 70
    32
  0
VERTEX
  5
11738
  8
0
 10
0.032811
 20
2.07875
 30
0.0
 70
    32
  0
VERTEX
  5
11739
  8
0
 10
0.0
 20
2.08
 30
0.0
 70
    32
  0
VERTEX
  5
1173A
  8
0
 10
-0.032811
 20
2.07875
 30
0.0
 70
    32
  0
VERTEX
  5
1173B
  8
0
 10
-0.065542
 20
2.07499
 30
0.0
 70
    32
  0
VERTEX
  5
1173C
  8
0
 10
-0.098115
 20
2.06874
 30
0.0
 70
    32
  0
VERTEX
  5
1173D
  8
0
 10
-0.130453
 20
2.06002
 30
0.0
 70
    32
  0
VERTEX
  5
1173E
  8
0
 10
-0.162475
 20
2.04883
 30
0.0
 70
    32
  0
VERTEX
  5
1173F
  8
0
 10
-0.194107
 20
2.03522
 30
0.0
 70
    32
  0
VERTEX
  5
11740
  8
0
 10
-0.225271
 20
2.01921
 30
0.0
 70
    32
  0
VERTEX
  5
11741
  8
0
 10
-0.255892
 20
2.00083
 30
0.0
 70
    32
  0
VERTEX
  5
11742
  8
0
 10
-0.285897
 20
1.98015
 30
0.0
 70
    32
  0
VERTEX
  5
11743
  8
0
 10
-0.315212
 20
1.9572
 30
0.0
 70
    32
  0
VERTEX
  5
11744
  8
0
 10
-0.343769
 20
1.93204
 30
0.0
 70
    32
  0
VERTEX
  5
11745
  8
0
 10
-0.371497
 20
1.90473
 30
0.0
 70
    32
  0
VERTEX
  5
11746
  8
0
 10
-0.398331
 20
1.87534
 30
0.0
 70
    32
  0
VERTEX
  5
11747
  8
0
 10
-0.424205
 20
1.84393
 30
0.0
 70
    32
  0
VERTEX
  5
11748
  8
0
 10
-0.449056
 20
1.81059
 30
0.0
 70
    32
  0
VERTEX
  5
11749
  8
0
 10
-0.472826
 20
1.77539
 30
0.0
 70
    32
  0
VERTEX
  5
1174A
  8
0
 10
-0.495457
 20
1.73842
 30
0.0
 70
    32
  0
VERTEX
  5
1174B
  8
0
 10
-0.516895
 20
1.69977
 30
0.0
 70
    32
  0
VERTEX
  5
1174C
  8
0
 10
-0.537087
 20
1.65953
 30
0.0
 70
    32
  0
VERTEX
  5
1174D
  8
0
 10
-0.555985
 20
1.61779
 30
0.0
 70
    32
  0
VERTEX
  5
1174E
  8
0
 10
-0.573544
 20
1.57467
 30
0.0
 70
    32
  0
VERTEX
  5
1174F
  8
0
 10
-0.589721
 20
1.53025
 30
0.0
 70
    32
  0
VERTEX
  5
11750
  8
0
 10
-0.604477
 20
1.48466
 30
0.0
 70
    32
  0
VERTEX
  5
11751
  8
0
 10
-0.617778
 20
1.43799
 30
0.0
 70
    32
  0
VERTEX
  5
11752
  8
0
 10
-0.629589
 20
1.39037
 30
0.0
 70
    32
  0
VERTEX
  5
11753
  8
0
 10
-0.639885
 20
1.3419
 30
0.0
 70
    32
  0
VERTEX
  5
11754
  8
0
 10
-0.648638
 20
1.2927
 30
0.0
 70
    32
  0
VERTEX
  5
11755
  8
0
 10
-0.655829
 20
1.24289
 30
0.0
 70
    32
  0
VERTEX
  5
11756
  8
0
 10
-0.66144
 20
1.1926
 30
0.0
 70
    32
  0
VERTEX
  5
11757
  8
0
 10
-0.665458
 20
1.14194
 30
0.0
 70
    32
  0
VERTEX
  5
11758
  8
0
 10
-0.667872
 20
1.09103
 30
0.0
 70
    32
  0
VERTEX
  5
11759
  8
0
 10
-0.668678
 20
1.04
 30
0.0
 70
    32
  0
VERTEX
  5
1175A
  8
0
 10
-0.667872
 20
0.98897
 30
0.0
 70
    32
  0
VERTEX
  5
1175B
  8
0
 10
-0.665458
 20
0.938062
 30
0.0
 70
    32
  0
VERTEX
  5
1175C
  8
0
 10
-0.66144
 20
0.8874
 30
0.0
 70
    32
  0
VERTEX
  5
1175D
  8
0
 10
-0.655829
 20
0.837106
 30
0.0
 70
    32
  0
VERTEX
  5
1175E
  8
0
 10
-0.648638
 20
0.787301
 30
0.0
 70
    32
  0
VERTEX
  5
1175F
  8
0
 10
-0.639885
 20
0.738104
 30
0.0
 70
    32
  0
VERTEX
  5
11760
  8
0
 10
-0.629589
 20
0.689635
 30
0.0
 70
    32
  0
VERTEX
  5
11761
  8
0
 10
-0.617778
 20
0.642009
 30
0.0
 70
    32
  0
VERTEX
  5
11762
  8
0
 10
-0.604477
 20
0.595343
 30
0.0
 70
    32
  0
VERTEX
  5
11763
  8
0
 10
-0.589721
 20
0.549747
 30
0.0
 70
    32
  0
VERTEX
  5
11764
  8
0
 10
-0.573544
 20
0.505333
 30
0.0
 70
    32
  0
VERTEX
  5
11765
  8
0
 10
-0.555985
 20
0.462207
 30
0.0
 70
    32
  0
VERTEX
  5
11766
  8
0
 10
-0.537087
 20
0.420473
 30
0.0
 70
    32
  0
VERTEX
  5
11767
  8
0
 10
-0.516895
 20
0.380231
 30
0.0
 70
    32
  0
VERTEX
  5
11768
  8
0
 10
-0.495457
 20
0.341579
 30
0.0
 70
    32
  0
VERTEX
  5
11769
  8
0
 10
-0.472826
 20
0.304609
 30
0.0
 70
    32
  0
VERTEX
  5
1176A
  8
0
 10
-0.449056
 20
0.269411
 30
0.0
 70
    32
  0
VERTEX
  5
1176B
  8
0
 10
-0.424205
 20
0.236069
 30
0.0
 70
    32
  0
VERTEX
  5
1176C
  8
0
 10
-0.398331
 20
0.204664
 30
0.0
 70
    32
  0
VERTEX
  5
1176D
  8
0
 10
-0.371497
 20
0.175272
 30
0.0
 70
    32
  0
VERTEX
  5
1176E
  8
0
 10
-0.343769
 20
0.147962
 30
0.0
 70
    32
  0
VERTEX
  5
1176F
  8
0
 10
-0.315212
 20
0.122802
 30
0.0
 70
    32
  0
VERTEX
  5
11770
  8
0
 10
-0.285897
 20
0.099851
 30
0.0
 70
    32
  0
VERTEX
  5
11771
  8
0
 10
-0.255892
 20
0.079165
 30
0.0
 70
    32
  0
VERTEX
  5
11772
  8
0
 10
-0.225271
 20
0.060794
 30
0.0
 70
    32
  0
VERTEX
  5
11773
  8
0
 10
-0.194107
 20
0.044782
 30
0.0
 70
    32
  0
VERTEX
  5
11774
  8
0
 10
-0.162475
 20
0.031168
 30
0.0
 70
    32
  0
VERTEX
  5
11775
  8
0
 10
-0.130453
 20
0.019983
 30
0.0
 70
    32
  0
VERTEX
  5
11776
  8
0
 10
-0.098115
 20
0.011256
 30
0.0
 70
    32
  0
VERTEX
  5
11777
  8
0
 10
-0.065542
 20
0.005008
 30
0.0
 70
    32
  0
VERTEX
  5
11778
  8
0
 10
-0.032811
 20
0.001253
 30
0.0
 70
    32
  0
VERTEX
  5
11779
  8
0
 10
0.0
 20
0.0
 30
0.0
 70
    32
  0
SEQEND
  5
1177A
  8
0
  0
ENDBLK
  5
1177B
  8
0
  0
ENDSEC
  0
SECTION
  2
ENTITIES
  0
TEXT
  5
11780
  8
0
  6
CONTINUOUS
 62
     7
 10
30.91406
 20
230.10834
 30
0.0
 40
8.466667
  1
HF-KP43B
  0
LINE
  5
11781
  8
CENTER
 10
289.719415
 20
162.72778
 30
0.0
 11
113.635239
 21
162.72778
 31
0.0
  0
LINE
  5
11782
  8
0
 62
     5
 10
257.944599
 20
192.72778
 30
0.0
 11
248.944599
 21
192.72778
 31
0.0
  0
LINE
  5
11783
  8
0
 62
     5
 10
257.944599
 20
132.72778
 30
0.0
 11
248.944599
 21
132.72778
 31
0.0
  0
LINE
  5
11784
  8
CENTER
 10
78.908006
 20
144.025298
 30
0.0
 11
90.649117
 21
132.284187
 31
0.0
  0
LINE
  5
11785
  8
CENTER
 10
78.908006
 20
181.430262
 30
0.0
 11
90.649117
 21
193.171373
 31
0.0
  0
LINE
  5
11786
  8
CENTER
 10
95.502213
 20
162.72778
 30
0.0
 11
24.908835
 21
162.72778
 31
0.0
  0
ARC
  5
11787
  8
0
 62
     5
 10
85.705524
 20
188.22778
 30
0.0
 40
4.5
 50
0.0
 51
90.0
  0
ARC
  5
11788
  8
0
 62
     5
 10
89.205524
 20
181.362083
 30
0.0
 40
1.0
 50
0.0
 51
85.611601
  0
ARC
  5
11789
  8
0
 62
     5
 10
89.205524
 20
174.22778
 30
0.0
 40
1.0
 50
0.0
 51
90.0
  0
ARC
  5
1178A
  8
0
 62
     5
 10
89.205524
 20
144.093477
 30
0.0
 40
1.0
 50
274.388399
 51
0.0
  0
ARC
  5
1178B
  8
0
 62
     5
 10
89.205524
 20
150.92778
 30
0.0
 40
1.0
 50
270.0
 51
0.0
  0
ARC
  5
1178C
  8
0
 62
     5
 10
85.705524
 20
137.22778
 30
0.0
 40
4.5
 50
270.0
 51
0.0
  0
LINE
  5
1178D
  8
CENTER
 10
60.205524
 20
196.445472
 30
0.0
 11
60.205524
 21
110.832274
 31
0.0
  0
LINE
  5
1178E
  8
0
 62
     5
 10
90.205524
 20
144.093477
 30
0.0
 11
90.205524
 21
181.362083
 31
0.0
  0
LINE
  5
1178F
  8
0
 62
     5
 10
29.93936
 20
143.847028
 30
0.0
 11
29.93936
 21
181.608532
 31
0.0
  0
LINE
  5
11790
  8
0
 62
     5
 10
30.205524
 20
181.362083
 30
0.0
 11
30.205524
 21
144.093477
 31
0.0
  0
LINE
  5
11791
  8
HIDDEN
 10
54.228841
 20
115.62778
 30
0.0
 11
48.639261
 21
115.62778
 31
0.0
  0
LINE
  5
11792
  8
0
 62
     5
 10
54.500716
 20
121.92778
 30
0.0
 11
45.316882
 21
121.92778
 31
0.0
  0
LINE
  5
11793
  8
HIDDEN
 10
54.440616
 20
116.731005
 30
0.0
 11
48.31692
 21
116.731006
 31
0.0
  0
LINE
  5
11794
  8
0
 62
     5
 10
46.840324
 20
128.52778
 30
0.0
 11
55.729519
 21
128.52778
 31
0.0
  0
LINE
  5
11795
  8
0
 62
     5
 10
56.867815
 20
125.22778
 30
0.0
 11
40.71697
 21
125.22778
 31
0.0
  0
LINE
  5
11796
  8
0
 62
     5
 10
38.015694
 20
129.72778
 30
0.0
 11
62.395354
 21
129.72778
 31
0.0
  0
LINE
  5
11797
  8
0
 62
     5
 10
36.705524
 20
130.72778
 30
0.0
 11
64.705524
 21
130.72778
 31
0.0
  0
ARC
  5
11798
  8
0
 62
     5
 10
38.916732
 20
135.72778
 30
0.0
 40
1.5
 50
270.0
 51
4.058402
  0
LINE
  5
11799
  8
CENTER
 10
41.503042
 20
144.025298
 30
0.0
 11
29.761931
 21
132.284187
 31
0.0
  0
LINE
  5
1179A
  8
0
 62
     5
 10
39.136961
 20
133.729332
 30
0.0
 11
39.110849
 21
134.228556
 31
0.0
  0
ARC
  5
1179B
  8
0
 62
     5
 10
37.005524
 20
133.72778
 30
0.0
 40
0.5
 50
90.0
 51
180.0
  0
ARC
  5
1179C
  8
0
 62
     5
 10
34.705524
 20
137.22778
 30
0.0
 40
4.5
 50
180.0
 51
270.0
  0
ARC
  5
1179D
  8
HIDDEN
 10
39.515689
 20
125.231005
 30
0.0
 40
1.5
 50
180.0
 51
270.0
  0
LINE
  5
1179E
  8
HIDDEN
 10
38.015689
 20
125.231005
 30
0.0
 11
38.015689
 21
127.981005
 31
0.0
  0
LINE
  5
1179F
  8
0
 62
     5
 10
38.015689
 20
129.72778
 30
0.0
 11
38.015689
 21
130.72778
 31
0.0
  0
LINE
  5
117A0
  8
0
 62
     5
 10
38.064936
 20
130.72778
 30
0.0
 11
38.064936
 21
129.72778
 31
0.0
  0
LINE
  5
117A1
  8
0
 62
     5
 10
36.505524
 20
132.72778
 30
0.0
 11
34.705524
 21
132.72778
 31
0.0
  0
ARC
  5
117A2
  8
0
 62
     5
 10
36.705524
 20
130.92778
 30
0.0
 40
0.2
 50
180.0
 51
270.0
  0
LINE
  5
117A3
  8
0
 62
     5
 10
36.505524
 20
130.92778
 30
0.0
 11
36.505524
 21
133.72778
 31
0.0
  0
LINE
  5
117A4
  8
0
 62
     5
 10
46.840324
 20
125.52778
 30
0.0
 11
46.840324
 21
128.52778
 31
0.0
  0
LINE
  5
117A5
  8
0
 62
     5
 10
40.115689
 20
129.72778
 30
0.0
 11
40.115689
 21
125.82778
 31
0.0
  0
LINE
  5
117A6
  8
0
 62
     5
 10
40.139081
 20
129.72778
 30
0.0
 11
40.139081
 21
125.82778
 31
0.0
  0
LINE
  5
117A7
  8
0
 62
     5
 10
41.703426
 20
125.82778
 30
0.0
 11
41.703426
 21
129.72778
 31
0.0
  0
LINE
  5
117A8
  8
0
 62
     5
 10
43.877259
 20
129.72778
 30
0.0
 11
43.877259
 21
125.82778
 31
0.0
  0
LINE
  5
117A9
  8
HIDDEN
 10
39.515651
 20
123.731005
 30
0.0
 11
44.300063
 21
123.731005
 31
0.0
  0
LINE
  5
117AA
  8
0
 62
     5
 10
41.421844
 20
125.82778
 30
0.0
 11
45.655098
 21
125.82778
 31
0.0
  0
LINE
  5
117AB
  8
HIDDEN
 10
43.915181
 20
123.095598
 30
0.0
 11
43.915181
 21
119.62778
 31
0.0
  0
LINE
  5
117AC
  8
0
 62
     5
 10
43.298452
 20
125.82778
 30
0.0
 11
43.298452
 21
125.22778
 31
0.0
  0
LINE
  5
117AD
  8
0
 62
     5
 10
40.71697
 20
125.22778
 30
0.0
 11
40.420663
 21
125.52778
 31
0.0
  0
LINE
  5
117AE
  8
0
 62
     5
 10
40.420663
 20
125.52778
 30
0.0
 11
41.421844
 21
125.52778
 31
0.0
  0
LINE
  5
117AF
  8
0
 62
     5
 10
40.420663
 20
125.82778
 30
0.0
 11
40.115738
 21
125.82778
 31
0.0
  0
LINE
  5
117B0
  8
0
 62
     5
 10
40.420663
 20
125.82778
 30
0.0
 11
40.420663
 21
125.52778
 31
0.0
  0
LINE
  5
117B1
  8
0
 62
     5
 10
41.421844
 20
125.52778
 30
0.0
 11
41.421844
 21
125.82778
 31
0.0
  0
LINE
  5
117B2
  8
0
 62
     5
 10
41.71815
 20
125.22778
 30
0.0
 11
41.421844
 21
125.52778
 31
0.0
  0
LINE
  5
117B3
  8
0
 62
     5
 10
44.996162
 20
122.22778
 30
0.0
 11
44.996162
 21
125.22778
 31
0.0
  0
LINE
  5
117B4
  8
0
 62
     5
 10
45.316882
 20
121.92778
 30
0.0
 11
44.996162
 21
122.22778
 31
0.0
  0
LINE
  5
117B5
  8
HIDDEN
 10
44.300063
 20
123.731005
 30
0.0
 11
44.300063
 21
121.11938
 31
0.0
  0
LINE
  5
117B6
  8
0
 62
     5
 10
45.655098
 20
125.52778
 30
0.0
 11
46.840324
 21
125.52778
 31
0.0
  0
LINE
  5
117B7
  8
0
 62
     5
 10
45.655098
 20
125.82778
 30
0.0
 11
45.655098
 21
125.52778
 31
0.0
  0
LINE
  5
117B8
  8
0
 62
     5
 10
45.608168
 20
125.22778
 30
0.0
 11
45.655098
 21
125.52778
 31
0.0
  0
LINE
  5
117B9
  8
0
 62
     5
 10
46.793394
 20
125.22778
 30
0.0
 11
46.840324
 21
125.52778
 31
0.0
  0
LINE
  5
117BA
  8
0
 62
     5
 10
45.357873
 20
125.22778
 30
0.0
 11
45.357873
 21
125.82778
 31
0.0
  0
LINE
  5
117BB
  8
0
 62
     5
 10
39.62928
 20
129.72778
 30
0.0
 11
39.62928
 21
130.72778
 31
0.0
  0
LINE
  5
117BC
  8
0
 62
     5
 10
39.136961
 20
133.729331
 30
0.0
 11
39.136961
 21
130.72778
 31
0.0
  0
LINE
  5
117BD
  8
0
 62
     5
 10
44.205772
 20
130.72778
 30
0.0
 11
44.205772
 21
129.72778
 31
0.0
  0
CIRCLE
  5
117BE
  8
0
 62
     5
 10
33.716816
 20
146.431818
 30
0.0
 40
2.75
  0
ARC
  5
117BF
  8
0
 62
     5
 10
33.716816
 20
146.431818
 30
0.0
 40
2.95
 50
276.813854
 51
263.186146
  0
CIRCLE
  5
117C0
  8
0
 62
     5
 10
33.716816
 20
146.431818
 30
0.0
 40
3.0
  0
ARC
  5
117C1
  8
0
 62
     5
 10
34.205524
 20
146.72778
 30
0.0
 40
3.5
 50
0.0
 51
90.0
  0
ARC
  5
117C2
  8
CENTER
 10
60.205524
 20
162.72778
 30
0.0
 40
35.0
 50
216.254023
 51
234.381034
  0
ARC
  5
117C3
  8
0
 62
     5
 10
35.456787
 20
137.979043
 30
0.0
 40
4.533836
 50
3.687572
 51
86.312428
  0
ARC
  5
117C4
  8
0
 62
     5
 10
35.456787
 20
137.979043
 30
0.0
 40
4.8
 50
3.687572
 51
86.312428
  0
LINE
  5
117C5
  8
0
 62
     5
 10
30.205524
 20
137.22778
 30
0.0
 11
30.205524
 21
143.168411
 31
0.0
  0
CIRCLE
  5
117C6
  8
0
 62
     5
 10
35.456787
 20
137.979043
 30
0.0
 40
2.9
  0
POLYLINE
  5
117C7
  8
0
 62
     5
 66
     1
 10
0.0
 20
0.0
 30
0.0
  0
VERTEX
  5
121E7
  8
0
 62
     5
 10
37.996467
 20
134.223502
 30
0.0
  0
VERTEX
  5
121E8
  8
0
 62
     5
 10
38.028628
 20
134.226709
 30
0.0
  0
VERTEX
  5
121E9
  8
0
 62
     5
 10
38.060926
 20
134.22778
 30
0.0
  0
SEQEND
  5
121EA
  8
0
 62
     5
  0
LINE
  5
117CC
  8
0
 62
     5
 10
38.916732
 20
134.22778
 30
0.0
 11
37.005524
 21
134.22778
 31
0.0
  0
LINE
  5
117CD
  8
0
 62
     5
 10
33.996816
 20
145.213729
 30
0.0
 11
33.856816
 21
145.416931
 31
0.0
  0
LINE
  5
117CE
  8
0
 62
     5
 10
34.177047
 20
146.892049
 30
0.0
 11
33.856816
 21
147.446706
 31
0.0
  0
LINE
  5
117CF
  8
0
 62
     5
 10
33.996816
 20
144.653729
 30
0.0
 11
33.856816
 21
145.360931
 31
0.0
  0
LINE
  5
117D0
  8
0
 62
     5
 10
33.996816
 20
148.209907
 30
0.0
 11
33.856816
 21
147.502706
 31
0.0
  0
LINE
  5
117D1
  8
0
 62
     5
 10
33.856816
 20
145.416931
 30
0.0
 11
34.177047
 21
145.971587
 31
0.0
  0
LINE
  5
117D2
  8
0
 62
     5
 10
33.996816
 20
147.649907
 30
0.0
 11
33.856816
 21
147.446706
 31
0.0
  0
ARC
  5
117D3
  8
0
 62
     5
 10
33.716816
 20
146.431818
 30
0.0
 40
1.8
 50
261.050982
 51
278.949018
  0
ARC
  5
117D4
  8
0
 62
     5
 10
33.716816
 20
146.431818
 30
0.0
 40
1.8
 50
81.050982
 51
98.949018
  0
LINE
  5
117D5
  8
0
 62
     5
 10
34.340181
 20
145.808454
 30
0.0
 11
33.093452
 21
147.055183
 31
0.0
  0
LINE
  5
117D6
  8
0
 62
     5
 10
32.645929
 20
146.571818
 30
0.0
 11
34.787704
 21
146.291818
 31
0.0
  0
LINE
  5
117D7
  8
0
 62
     5
 10
32.701929
 20
146.571818
 30
0.0
 11
34.731704
 21
146.291818
 31
0.0
  0
LINE
  5
117D8
  8
0
 62
     5
 10
32.645929
 20
146.291818
 30
0.0
 11
34.787704
 21
146.571818
 31
0.0
  0
LINE
  5
117D9
  8
0
 62
     5
 10
32.701929
 20
146.291818
 30
0.0
 11
34.731704
 21
146.571818
 31
0.0
  0
LINE
  5
117DA
  8
0
 62
     5
 10
33.093452
 20
145.808454
 30
0.0
 11
34.340181
 21
147.055183
 31
0.0
  0
ARC
  5
117DB
  8
0
 62
     5
 10
60.205524
 20
521.98235
 30
0.0
 40
380.266164
 50
265.574357
 51
266.312428
  0
ARC
  5
117DC
  8
0
 62
     5
 10
60.205524
 20
521.98235
 30
0.0
 40
380.0
 50
265.611601
 51
266.312428
  0
LINE
  5
117DD
  8
0
 62
     5
 10
32.498727
 20
146.711818
 30
0.0
 11
32.701929
 21
146.571818
 31
0.0
  0
LINE
  5
117DE
  8
0
 62
     5
 10
33.436816
 20
147.649907
 30
0.0
 11
33.576816
 21
147.446706
 31
0.0
  0
LINE
  5
117DF
  8
0
 62
     5
 10
33.436816
 20
145.213729
 30
0.0
 11
33.093452
 21
145.808454
 31
0.0
  0
LINE
  5
117E0
  8
0
 62
     5
 10
33.256585
 20
145.971587
 30
0.0
 11
33.576816
 21
145.416931
 31
0.0
  0
LINE
  5
117E1
  8
0
 62
     5
 10
33.436816
 20
148.209907
 30
0.0
 11
33.576816
 21
147.502706
 31
0.0
  0
LINE
  5
117E2
  8
0
 62
     5
 10
33.436816
 20
144.653729
 30
0.0
 11
33.436816
 21
145.213729
 31
0.0
  0
LINE
  5
117E3
  8
0
 62
     5
 10
33.436816
 20
147.649907
 30
0.0
 11
33.436816
 21
148.209907
 31
0.0
  0
LINE
  5
117E4
  8
0
 62
     5
 10
33.576816
 20
147.502706
 30
0.0
 11
33.576816
 21
147.446706
 31
0.0
  0
LINE
  5
117E5
  8
0
 62
     5
 10
33.576816
 20
145.416931
 30
0.0
 11
33.576816
 21
145.360931
 31
0.0
  0
LINE
  5
117E6
  8
0
 62
     5
 10
33.856816
 20
145.360931
 30
0.0
 11
33.856816
 21
145.416931
 31
0.0
  0
LINE
  5
117E7
  8
0
 62
     5
 10
33.856816
 20
147.446706
 30
0.0
 11
33.856816
 21
147.502706
 31
0.0
  0
LINE
  5
117E8
  8
0
 62
     5
 10
33.093452
 20
145.808454
 30
0.0
 11
32.498727
 21
146.151818
 31
0.0
  0
LINE
  5
117E9
  8
0
 62
     5
 10
32.701929
 20
146.291818
 30
0.0
 11
33.256585
 21
145.971587
 31
0.0
  0
LINE
  5
117EA
  8
0
 62
     5
 10
33.856816
 20
145.416931
 30
0.0
 11
33.576816
 21
147.446706
 31
0.0
  0
LINE
  5
117EB
  8
0
 62
     5
 10
33.856816
 20
145.360931
 30
0.0
 11
33.576816
 21
147.502706
 31
0.0
  0
LINE
  5
117EC
  8
0
 62
     5
 10
33.576816
 20
145.360931
 30
0.0
 11
33.856816
 21
147.502706
 31
0.0
  0
LINE
  5
117ED
  8
0
 62
     5
 10
33.576816
 20
145.416931
 30
0.0
 11
33.856816
 21
147.446706
 31
0.0
  0
LINE
  5
117EE
  8
0
 62
     5
 10
33.436816
 20
144.653729
 30
0.0
 11
33.576816
 21
145.360931
 31
0.0
  0
LINE
  5
117EF
  8
0
 62
     5
 10
31.938727
 20
146.711818
 30
0.0
 11
32.645929
 21
146.571818
 31
0.0
  0
LINE
  5
117F0
  8
0
 62
     5
 10
32.498727
 20
146.151818
 30
0.0
 11
31.938727
 21
146.151818
 31
0.0
  0
LINE
  5
117F1
  8
0
 62
     5
 10
32.645929
 20
146.291818
 30
0.0
 11
32.701929
 21
146.291818
 31
0.0
  0
LINE
  5
117F2
  8
0
 62
     5
 10
32.701929
 20
146.571818
 30
0.0
 11
32.645929
 21
146.571818
 31
0.0
  0
LINE
  5
117F3
  8
0
 62
     5
 10
31.938727
 20
146.711818
 30
0.0
 11
32.498727
 21
146.711818
 31
0.0
  0
LINE
  5
117F4
  8
0
 62
     5
 10
33.093452
 20
147.055183
 30
0.0
 11
33.436816
 21
147.649907
 31
0.0
  0
LINE
  5
117F5
  8
0
 62
     5
 10
33.576816
 20
147.446706
 30
0.0
 11
33.256585
 21
146.892049
 31
0.0
  0
LINE
  5
117F6
  8
0
 62
     5
 10
33.436816
 20
145.213729
 30
0.0
 11
33.576816
 21
145.416931
 31
0.0
  0
LINE
  5
117F7
  8
0
 62
     5
 10
31.938727
 20
146.151818
 30
0.0
 11
32.645929
 21
146.291818
 31
0.0
  0
LINE
  5
117F8
  8
0
 62
     5
 10
32.498727
 20
146.151818
 30
0.0
 11
32.701929
 21
146.291818
 31
0.0
  0
LINE
  5
117F9
  8
0
 62
     5
 10
32.498727
 20
146.711818
 30
0.0
 11
33.093452
 21
147.055183
 31
0.0
  0
LINE
  5
117FA
  8
0
 62
     5
 10
33.256585
 20
146.892049
 30
0.0
 11
32.701929
 21
146.571818
 31
0.0
  0
ARC
  5
117FB
  8
0
 62
     5
 10
33.716816
 20
146.431818
 30
0.0
 40
1.127721
 50
109.033269
 51
160.966731
  0
ARC
  5
117FC
  8
0
 62
     5
 10
33.716816
 20
146.431818
 30
0.0
 40
1.08
 50
172.551809
 51
187.448191
  0
ARC
  5
117FD
  8
0
 62
     5
 10
33.716816
 20
146.431818
 30
0.0
 40
1.08
 50
262.551809
 51
277.448191
  0
ARC
  5
117FE
  8
0
 62
     5
 10
33.716816
 20
146.431818
 30
0.0
 40
1.08
 50
82.551809
 51
97.448191
  0
ARC
  5
117FF
  8
0
 62
     5
 10
33.716816
 20
146.431818
 30
0.0
 40
1.127721
 50
199.033269
 51
250.966731
  0
ARC
  5
11800
  8
0
 62
     5
 10
33.716816
 20
146.431818
 30
0.0
 40
1.8
 50
171.050982
 51
188.949018
  0
LINE
  5
11801
  8
0
 62
     5
 10
33.366816
 20
143.706558
 30
0.0
 11
33.366816
 21
143.502655
 31
0.0
  0
ARC
  5
11802
  8
0
 62
     5
 10
31.205524
 20
144.093477
 30
0.0
 40
1.0
 50
180.0
 51
265.611601
  0
LINE
  5
11803
  8
0
 62
     5
 10
34.340181
 20
147.055183
 30
0.0
 11
34.934905
 21
146.711818
 31
0.0
  0
LINE
  5
11804
  8
0
 62
     5
 10
34.934905
 20
146.151818
 30
0.0
 11
34.731704
 21
146.291818
 31
0.0
  0
LINE
  5
11805
  8
0
 62
     5
 10
35.494905
 20
146.151818
 30
0.0
 11
34.787704
 21
146.291818
 31
0.0
  0
LINE
  5
11806
  8
0
 62
     5
 10
35.494905
 20
146.151818
 30
0.0
 11
34.934905
 21
146.151818
 31
0.0
  0
LINE
  5
11807
  8
0
 62
     5
 10
34.731704
 20
146.291818
 30
0.0
 11
34.787704
 21
146.291818
 31
0.0
  0
LINE
  5
11808
  8
0
 62
     5
 10
34.787704
 20
146.571818
 30
0.0
 11
34.731704
 21
146.571818
 31
0.0
  0
LINE
  5
11809
  8
0
 62
     5
 10
34.934905
 20
146.711818
 30
0.0
 11
35.494905
 21
146.711818
 31
0.0
  0
LINE
  5
1180A
  8
0
 62
     5
 10
35.494905
 20
146.711818
 30
0.0
 11
34.787704
 21
146.571818
 31
0.0
  0
LINE
  5
1180B
  8
0
 62
     5
 10
34.934905
 20
146.711818
 30
0.0
 11
34.731704
 21
146.571818
 31
0.0
  0
LINE
  5
1180C
  8
0
 62
     5
 10
34.934905
 20
146.151818
 30
0.0
 11
34.340181
 21
145.808454
 31
0.0
  0
ARC
  5
1180D
  8
0
 62
     5
 10
33.716816
 20
146.431818
 30
0.0
 40
1.08
 50
352.551809
 51
7.448191
  0
ARC
  5
1180E
  8
0
 62
     5
 10
33.716816
 20
146.431818
 30
0.0
 40
1.8
 50
351.050982
 51
8.949018
  0
LINE
  5
1180F
  8
0
 62
     5
 10
33.996816
 20
148.209907
 30
0.0
 11
33.996816
 21
147.649907
 31
0.0
  0
LINE
  5
11810
  8
0
 62
     5
 10
33.996816
 20
145.213729
 30
0.0
 11
33.996816
 21
144.653729
 31
0.0
  0
LINE
  5
11811
  8
0
 62
     5
 10
33.996816
 20
147.649907
 30
0.0
 11
34.340181
 21
147.055183
 31
0.0
  0
LINE
  5
11812
  8
0
 62
     5
 10
34.731704
 20
146.571818
 30
0.0
 11
34.177047
 21
146.892049
 31
0.0
  0
LINE
  5
11813
  8
0
 62
     5
 10
34.340181
 20
145.808454
 30
0.0
 11
33.996816
 21
145.213729
 31
0.0
  0
LINE
  5
11814
  8
0
 62
     5
 10
34.177047
 20
145.971587
 30
0.0
 11
34.731704
 21
146.291818
 31
0.0
  0
ARC
  5
11815
  8
0
 62
     5
 10
33.716816
 20
146.431818
 30
0.0
 40
1.127721
 50
289.033269
 51
340.966731
  0
ARC
  5
11816
  8
0
 62
     5
 10
33.716816
 20
146.431818
 30
0.0
 40
1.127721
 50
19.033269
 51
70.966731
  0
ARC
  5
11817
  8
0
 62
     5
 10
38.705524
 20
142.783801
 30
0.0
 40
1.0
 50
180.0
 51
235.93541
  0
LINE
  5
11818
  8
0
 62
     5
 10
34.066816
 20
143.502655
 30
0.0
 11
34.066816
 21
143.706558
 31
0.0
  0
LINE
  5
11819
  8
0
 62
     5
 10
37.705524
 20
146.72778
 30
0.0
 11
37.705524
 21
142.783801
 31
0.0
  0
ARC
  5
1181A
  8
0
 62
     5
 10
419.460094
 20
162.72778
 30
0.0
 40
380.266164
 50
183.687572
 51
184.186722
  0
ARC
  5
1181B
  8
0
 62
     5
 10
419.460094
 20
162.72778
 30
0.0
 40
380.0
 50
183.687572
 51
184.058402
  0
LINE
  5
1181C
  8
0
 62
     5
 10
31.205524
 20
150.22778
 30
0.0
 11
34.205524
 21
150.22778
 31
0.0
  0
ARC
  5
1181D
  8
0
 62
     5
 10
31.205524
 20
151.22778
 30
0.0
 40
1.0
 50
180.0
 51
270.0
  0
LINE
  5
1181E
  8
CENTER
 10
50.905524
 20
134.740308
 30
0.0
 11
50.905524
 21
114.381864
 31
0.0
  0
LINE
  5
1181F
  8
CENTER
 10
66.105524
 20
134.740308
 30
0.0
 11
66.105524
 21
113.672229
 31
0.0
  0
LINE
  5
11820
  8
CENTER
 10
50.205524
 20
134.740308
 30
0.0
 11
50.205524
 21
114.381864
 31
0.0
  0
ARC
  5
11821
  8
0
 62
     5
 10
-299.049046
 20
162.72778
 30
0.0
 40
380.0
 50
355.611601
 51
356.312428
  0
ARC
  5
11822
  8
0
 62
     5
 10
-299.049046
 20
162.72778
 30
0.0
 40
380.266164
 50
355.434883
 51
356.312428
  0
LINE
  5
11823
  8
0
 62
     5
 10
72.705524
 20
133.72778
 30
0.0
 11
72.705524
 21
136.72778
 31
0.0
  0
CIRCLE
  5
11824
  8
0
 62
     5
 10
76.501486
 20
136.239072
 30
0.0
 40
2.75
  0
ARC
  5
11825
  8
0
 62
     5
 10
76.501486
 20
136.239072
 30
0.0
 40
2.95
 50
276.813854
 51
263.186146
  0
CIRCLE
  5
11826
  8
0
 62
     5
 10
76.501486
 20
136.239072
 30
0.0
 40
3.0
  0
LINE
  5
11827
  8
HIDDEN
 10
60.655524
 20
115.62778
 30
0.0
 11
71.555524
 21
115.62778
 31
0.0
  0
LINE
  5
11828
  8
0
 62
     5
 10
65.405524
 20
132.72778
 30
0.0
 11
78.839827
 21
132.72778
 31
0.0
  0
LINE
  5
11829
  8
0
 62
     5
 10
58.747224
 20
123.92778
 30
0.0
 11
73.463824
 21
123.92778
 31
0.0
  0
LINE
  5
1182A
  8
0
 62
     5
 10
79.528216
 20
129.32778
 30
0.0
 11
61.295359
 21
129.32778
 31
0.0
  0
LINE
  5
1182B
  8
0
 62
     5
 10
80.010732
 20
132.461616
 30
0.0
 11
64.963627
 21
132.461616
 31
0.0
  0
ARC
  5
1182C
  8
HIDDEN
 10
60.655524
 20
119.62778
 30
0.0
 40
4.0
 50
226.903739
 51
270.0
  0
LINE
  5
1182D
  8
HIDDEN
 10
58.547986
 20
123.724648
 30
0.0
 11
60.895397
 21
123.731005
 31
0.0
  0
LINE
  5
1182E
  8
0
 62
     5
 10
59.694078
 20
125.22778
 30
0.0
 11
56.939214
 21
125.22778
 31
0.0
  0
LINE
  5
1182F
  8
0
 62
     5
 10
56.914745
 20
125.82778
 30
0.0
 11
60.29531
 21
125.82778
 31
0.0
  0
LINE
  5
11830
  8
0
 62
     5
 10
55.36972
 20
125.22778
 30
0.0
 11
55.36972
 21
128.52778
 31
0.0
  0
LINE
  5
11831
  8
0
 62
     5
 10
55.729519
 20
128.52778
 30
0.0
 11
55.729519
 21
125.52778
 31
0.0
  0
LINE
  5
11832
  8
0
 62
     5
 10
58.692584
 20
125.82778
 30
0.0
 11
58.692584
 21
129.72778
 31
0.0
  0
LINE
  5
11833
  8
0
 62
     5
 10
54.821436
 20
122.22778
 30
0.0
 11
54.500716
 21
121.92778
 31
0.0
  0
LINE
  5
11834
  8
0
 62
     5
 10
54.813795
 20
125.22778
 30
0.0
 11
54.821436
 21
122.22778
 31
0.0
  0
LINE
  5
11835
  8
0
 62
     5
 10
59.418006
 20
125.22778
 30
0.0
 11
59.434929
 21
123.92778
 31
0.0
  0
LINE
  5
11836
  8
0
 62
     5
 10
58.113777
 20
125.22778
 30
0.0
 11
58.113777
 21
125.82778
 31
0.0
  0
LINE
  5
11837
  8
0
 62
     5
 10
55.729519
 20
125.52778
 30
0.0
 11
56.914745
 21
125.52778
 31
0.0
  0
LINE
  5
11838
  8
0
 62
     5
 10
57.747224
 20
123.92778
 30
0.0
 11
57.70637
 21
125.22778
 31
0.0
  0
LINE
  5
11839
  8
0
 62
     5
 10
56.914745
 20
125.52778
 30
0.0
 11
56.914745
 21
125.82778
 31
0.0
  0
LINE
  5
1183A
  8
0
 62
     5
 10
55.729519
 20
125.52778
 30
0.0
 11
55.682589
 21
125.22778
 31
0.0
  0
LINE
  5
1183B
  8
0
 62
     5
 10
56.914745
 20
125.52778
 30
0.0
 11
56.867815
 21
125.22778
 31
0.0
  0
LINE
  5
1183C
  8
0
 62
     5
 10
59.021097
 20
129.72778
 30
0.0
 11
59.021097
 21
130.72778
 31
0.0
  0
LINE
  5
1183D
  8
HIDDEN
 10
62.395359
 20
125.231005
 30
0.0
 11
62.395359
 21
127.981005
 31
0.0
  0
LINE
  5
1183E
  8
0
 62
     5
 10
60.295359
 20
129.72778
 30
0.0
 11
60.295359
 21
125.82778
 31
0.0
  0
ARC
  5
1183F
  8
HIDDEN
 10
60.895359
 20
125.231005
 30
0.0
 40
1.5
 50
270.0
 51
0.0
  0
LINE
  5
11840
  8
0
 62
     5
 10
59.990385
 20
125.82778
 30
0.0
 11
59.990385
 21
125.52778
 31
0.0
  0
LINE
  5
11841
  8
0
 62
     5
 10
59.990385
 20
125.52778
 30
0.0
 11
59.694078
 21
125.22778
 31
0.0
  0
LINE
  5
11842
  8
0
 62
     5
 10
69.605524
 20
129.35081
 30
0.0
 11
62.605524
 21
129.35081
 31
0.0
  0
LINE
  5
11843
  8
0
 62
     5
 10
69.605524
 20
129.62778
 30
0.0
 11
62.605524
 21
129.62778
 31
0.0
  0
LINE
  5
11844
  8
0
 62
     5
 10
62.395359
 20
129.72778
 30
0.0
 11
62.395359
 21
130.72778
 31
0.0
  0
LINE
  5
11845
  8
0
 62
     5
 10
62.605524
 20
129.35081
 30
0.0
 11
62.605524
 21
129.62778
 31
0.0
  0
LINE
  5
11846
  8
0
 62
     5
 10
69.605524
 20
129.35081
 30
0.0
 11
69.605524
 21
129.62778
 31
0.0
  0
LINE
  5
11847
  8
0
 62
     5
 10
64.905524
 20
132.22778
 30
0.0
 11
64.905524
 21
130.92778
 31
0.0
  0
ARC
  5
11848
  8
0
 62
     5
 10
64.705524
 20
130.92778
 30
0.0
 40
0.2
 50
270.0
 51
0.0
  0
ARC
  5
11849
  8
0
 62
     5
 10
65.405524
 20
132.22778
 30
0.0
 40
0.5
 50
90.0
 51
180.0
  0
ARC
  5
1184A
  8
HIDDEN
 10
71.555524
 20
119.62778
 30
0.0
 40
4.0
 50
270.0
 51
0.0
  0
LINE
  5
1184B
  8
0
 62
     5
 10
85.705524
 20
132.72778
 30
0.0
 11
80.031642
 21
132.72778
 31
0.0
  0
LINE
  5
1184C
  8
HIDDEN
 10
75.555524
 20
119.62778
 30
0.0
 11
75.555524
 21
126.82778
 31
0.0
  0
LINE
  5
1184D
  8
0
 62
     5
 10
72.776119
 20
123.92778
 30
0.0
 11
72.846412
 21
129.32778
 31
0.0
  0
LINE
  5
1184E
  8
0
 62
     5
 10
73.633526
 20
129.32778
 30
0.0
 11
73.463824
 21
123.92778
 31
0.0
  0
ARC
  5
1184F
  8
0
 62
     5
 10
71.705524
 20
133.72778
 30
0.0
 40
1.0
 50
270.0
 51
0.0
  0
LINE
  5
11850
  8
HIDDEN
 10
77.855524
 20
126.82778
 30
0.0
 11
75.555524
 21
126.82778
 31
0.0
  0
ARC
  5
11851
  8
HIDDEN
 10
77.855524
 20
127.32778
 30
0.0
 40
0.5
 50
270.0
 51
0.0
  0
LINE
  5
11852
  8
HIDDEN
 10
78.355524
 20
127.87778
 30
0.0
 11
78.355524
 21
127.32778
 31
0.0
  0
LINE
  5
11853
  8
0
 62
     5
 10
80.028216
 20
132.684172
 30
0.0
 11
80.028216
 21
129.82778
 31
0.0
  0
LINE
  5
11854
  8
0
 62
     5
 10
76.151486
 20
133.513812
 30
0.0
 11
76.151486
 21
133.309909
 31
0.0
  0
LINE
  5
11855
  8
0
 62
     5
 10
76.851486
 20
133.309909
 30
0.0
 11
76.851486
 21
133.513812
 31
0.0
  0
ARC
  5
11856
  8
0
 62
     5
 10
78.839827
 20
133.72778
 30
0.0
 40
1.0
 50
270.0
 51
355.611601
  0
ARC
  5
11857
  8
0
 62
     5
 10
86.705524
 20
146.42778
 30
0.0
 40
3.5
 50
90.0
 51
180.0
  0
ARC
  5
11858
  8
0
 62
     5
 10
84.954261
 20
137.979043
 30
0.0
 40
4.533836
 50
93.687572
 51
176.312428
  0
LINE
  5
11859
  8
0
 62
     5
 10
76.205524
 20
140.22778
 30
0.0
 11
80.149503
 21
140.22778
 31
0.0
  0
ARC
  5
1185A
  8
0
 62
     5
 10
84.954261
 20
137.979043
 30
0.0
 40
4.8
 50
93.687572
 51
176.312428
  0
LINE
  5
1185B
  8
0
 62
     5
 10
75.283397
 20
135.959072
 30
0.0
 11
74.723397
 21
135.959072
 31
0.0
  0
LINE
  5
1185C
  8
0
 62
     5
 10
74.723397
 20
136.519072
 30
0.0
 11
75.283397
 21
136.519072
 31
0.0
  0
LINE
  5
1185D
  8
0
 62
     5
 10
74.723397
 20
135.959072
 30
0.0
 11
75.430598
 21
136.099072
 31
0.0
  0
LINE
  5
1185E
  8
0
 62
     5
 10
74.723397
 20
136.519072
 30
0.0
 11
75.430598
 21
136.379072
 31
0.0
  0
ARC
  5
1185F
  8
0
 62
     5
 10
76.205524
 20
136.72778
 30
0.0
 40
3.5
 50
90.0
 51
180.0
  0
ARC
  5
11860
  8
0
 62
     5
 10
76.501486
 20
136.239072
 30
0.0
 40
1.8
 50
171.050982
 51
188.949018
  0
LINE
  5
11861
  8
0
 62
     5
 10
78.279575
 20
136.519072
 30
0.0
 11
77.572373
 21
136.379072
 31
0.0
  0
LINE
  5
11862
  8
0
 62
     5
 10
75.486598
 20
136.099072
 30
0.0
 11
77.516373
 21
136.379072
 31
0.0
  0
LINE
  5
11863
  8
0
 62
     5
 10
75.430598
 20
136.099072
 30
0.0
 11
77.572373
 21
136.379072
 31
0.0
  0
LINE
  5
11864
  8
0
 62
     5
 10
78.279575
 20
135.959072
 30
0.0
 11
77.719575
 21
135.959072
 31
0.0
  0
LINE
  5
11865
  8
0
 62
     5
 10
75.430598
 20
136.099072
 30
0.0
 11
75.486598
 21
136.099072
 31
0.0
  0
LINE
  5
11866
  8
0
 62
     5
 10
77.516373
 20
136.099072
 30
0.0
 11
77.572373
 21
136.099072
 31
0.0
  0
LINE
  5
11867
  8
0
 62
     5
 10
77.572373
 20
136.379072
 30
0.0
 11
77.516373
 21
136.379072
 31
0.0
  0
LINE
  5
11868
  8
0
 62
     5
 10
75.486598
 20
136.379072
 30
0.0
 11
75.430598
 21
136.379072
 31
0.0
  0
LINE
  5
11869
  8
0
 62
     5
 10
77.719575
 20
136.519072
 30
0.0
 11
78.279575
 21
136.519072
 31
0.0
  0
LINE
  5
1186A
  8
0
 62
     5
 10
75.430598
 20
136.379072
 30
0.0
 11
77.572373
 21
136.099072
 31
0.0
  0
LINE
  5
1186B
  8
0
 62
     5
 10
75.486598
 20
136.379072
 30
0.0
 11
77.516373
 21
136.099072
 31
0.0
  0
LINE
  5
1186C
  8
0
 62
     5
 10
78.279575
 20
135.959072
 30
0.0
 11
77.572373
 21
136.099072
 31
0.0
  0
LINE
  5
1186D
  8
0
 62
     5
 10
75.486598
 20
136.099072
 30
0.0
 11
76.041255
 21
135.778841
 31
0.0
  0
LINE
  5
1186E
  8
0
 62
     5
 10
77.516373
 20
136.379072
 30
0.0
 11
76.961717
 21
136.699303
 31
0.0
  0
LINE
  5
1186F
  8
0
 62
     5
 10
77.12485
 20
136.862437
 30
0.0
 11
77.719575
 21
136.519072
 31
0.0
  0
LINE
  5
11870
  8
0
 62
     5
 10
77.719575
 20
135.959072
 30
0.0
 11
77.516373
 21
136.099072
 31
0.0
  0
LINE
  5
11871
  8
0
 62
     5
 10
77.12485
 20
135.615708
 30
0.0
 11
75.878121
 21
136.862437
 31
0.0
  0
LINE
  5
11872
  8
0
 62
     5
 10
76.781486
 20
135.020983
 30
0.0
 11
76.641486
 21
135.224185
 31
0.0
  0
LINE
  5
11873
  8
0
 62
     5
 10
76.221486
 20
137.457161
 30
0.0
 11
76.361486
 21
137.25396
 31
0.0
  0
LINE
  5
11874
  8
0
 62
     5
 10
76.221486
 20
135.020983
 30
0.0
 11
75.878121
 21
135.615708
 31
0.0
  0
LINE
  5
11875
  8
0
 62
     5
 10
76.041255
 20
135.778841
 30
0.0
 11
76.361486
 21
135.224185
 31
0.0
  0
LINE
  5
11876
  8
0
 62
     5
 10
76.961717
 20
136.699303
 30
0.0
 11
76.641486
 21
137.25396
 31
0.0
  0
LINE
  5
11877
  8
0
 62
     5
 10
76.781486
 20
137.457161
 30
0.0
 11
77.12485
 21
136.862437
 31
0.0
  0
LINE
  5
11878
  8
0
 62
     5
 10
76.781486
 20
134.460983
 30
0.0
 11
76.641486
 21
135.168185
 31
0.0
  0
LINE
  5
11879
  8
0
 62
     5
 10
76.221486
 20
138.017161
 30
0.0
 11
76.361486
 21
137.30996
 31
0.0
  0
LINE
  5
1187A
  8
0
 62
     5
 10
76.641486
 20
135.224185
 30
0.0
 11
76.361486
 21
137.25396
 31
0.0
  0
LINE
  5
1187B
  8
0
 62
     5
 10
76.641486
 20
135.168185
 30
0.0
 11
76.361486
 21
137.30996
 31
0.0
  0
LINE
  5
1187C
  8
0
 62
     5
 10
76.221486
 20
134.460983
 30
0.0
 11
76.221486
 21
135.020983
 31
0.0
  0
LINE
  5
1187D
  8
0
 62
     5
 10
76.221486
 20
137.457161
 30
0.0
 11
76.221486
 21
138.017161
 31
0.0
  0
LINE
  5
1187E
  8
0
 62
     5
 10
76.361486
 20
137.30996
 30
0.0
 11
76.361486
 21
137.25396
 31
0.0
  0
LINE
  5
1187F
  8
0
 62
     5
 10
76.361486
 20
135.224185
 30
0.0
 11
76.361486
 21
135.168185
 31
0.0
  0
LINE
  5
11880
  8
0
 62
     5
 10
76.641486
 20
135.168185
 30
0.0
 11
76.641486
 21
135.224185
 31
0.0
  0
LINE
  5
11881
  8
0
 62
     5
 10
76.641486
 20
137.25396
 30
0.0
 11
76.641486
 21
137.30996
 31
0.0
  0
LINE
  5
11882
  8
0
 62
     5
 10
76.781486
 20
138.017161
 30
0.0
 11
76.781486
 21
137.457161
 31
0.0
  0
LINE
  5
11883
  8
0
 62
     5
 10
76.781486
 20
135.020983
 30
0.0
 11
76.781486
 21
134.460983
 31
0.0
  0
LINE
  5
11884
  8
0
 62
     5
 10
76.361486
 20
135.168185
 30
0.0
 11
76.641486
 21
137.30996
 31
0.0
  0
LINE
  5
11885
  8
0
 62
     5
 10
76.361486
 20
135.224185
 30
0.0
 11
76.641486
 21
137.25396
 31
0.0
  0
LINE
  5
11886
  8
0
 62
     5
 10
76.781486
 20
138.017161
 30
0.0
 11
76.641486
 21
137.30996
 31
0.0
  0
LINE
  5
11887
  8
0
 62
     5
 10
76.221486
 20
134.460983
 30
0.0
 11
76.361486
 21
135.168185
 31
0.0
  0
LINE
  5
11888
  8
0
 62
     5
 10
75.878121
 20
136.862437
 30
0.0
 11
76.221486
 21
137.457161
 31
0.0
  0
LINE
  5
11889
  8
0
 62
     5
 10
76.361486
 20
137.25396
 30
0.0
 11
76.041255
 21
136.699303
 31
0.0
  0
LINE
  5
1188A
  8
0
 62
     5
 10
76.641486
 20
135.224185
 30
0.0
 11
76.961717
 21
135.778841
 31
0.0
  0
LINE
  5
1188B
  8
0
 62
     5
 10
77.12485
 20
135.615708
 30
0.0
 11
76.781486
 21
135.020983
 31
0.0
  0
LINE
  5
1188C
  8
0
 62
     5
 10
76.781486
 20
137.457161
 30
0.0
 11
76.641486
 21
137.25396
 31
0.0
  0
LINE
  5
1188D
  8
0
 62
     5
 10
76.221486
 20
135.020983
 30
0.0
 11
76.361486
 21
135.224185
 31
0.0
  0
LINE
  5
1188E
  8
0
 62
     5
 10
75.878121
 20
135.615708
 30
0.0
 11
77.12485
 21
136.862437
 31
0.0
  0
LINE
  5
1188F
  8
0
 62
     5
 10
77.719575
 20
136.519072
 30
0.0
 11
77.516373
 21
136.379072
 31
0.0
  0
LINE
  5
11890
  8
0
 62
     5
 10
76.041255
 20
136.699303
 30
0.0
 11
75.486598
 21
136.379072
 31
0.0
  0
LINE
  5
11891
  8
0
 62
     5
 10
76.961717
 20
135.778841
 30
0.0
 11
77.516373
 21
136.099072
 31
0.0
  0
LINE
  5
11892
  8
0
 62
     5
 10
77.719575
 20
135.959072
 30
0.0
 11
77.12485
 21
135.615708
 31
0.0
  0
ARC
  5
11893
  8
0
 62
     5
 10
76.501486
 20
136.239072
 30
0.0
 40
1.127721
 50
109.033269
 51
160.966731
  0
ARC
  5
11894
  8
0
 62
     5
 10
76.501486
 20
136.239072
 30
0.0
 40
1.127721
 50
289.033269
 51
340.966731
  0
ARC
  5
11895
  8
0
 62
     5
 10
76.501486
 20
136.239072
 30
0.0
 40
1.127721
 50
19.033269
 51
70.966731
  0
ARC
  5
11896
  8
0
 62
     5
 10
76.501486
 20
136.239072
 30
0.0
 40
1.08
 50
172.551809
 51
187.448191
  0
ARC
  5
11897
  8
0
 62
     5
 10
76.501486
 20
136.239072
 30
0.0
 40
1.08
 50
262.551809
 51
277.448191
  0
ARC
  5
11898
  8
0
 62
     5
 10
76.501486
 20
136.239072
 30
0.0
 40
1.08
 50
352.551809
 51
7.448191
  0
ARC
  5
11899
  8
0
 62
     5
 10
76.501486
 20
136.239072
 30
0.0
 40
1.08
 50
82.551809
 51
97.448191
  0
ARC
  5
1189A
  8
0
 62
     5
 10
76.501486
 20
136.239072
 30
0.0
 40
1.8
 50
261.050982
 51
278.949018
  0
ARC
  5
1189B
  8
0
 62
     5
 10
76.501486
 20
136.239072
 30
0.0
 40
1.127721
 50
199.033269
 51
250.966731
  0
ARC
  5
1189C
  8
0
 62
     5
 10
76.501486
 20
136.239072
 30
0.0
 40
1.8
 50
351.050982
 51
8.949018
  0
ARC
  5
1189D
  8
0
 62
     5
 10
76.501486
 20
136.239072
 30
0.0
 40
1.8
 50
81.050982
 51
98.949018
  0
LINE
  5
1189E
  8
0
 62
     5
 10
75.878121
 20
135.615708
 30
0.0
 11
75.283397
 21
135.959072
 31
0.0
  0
LINE
  5
1189F
  8
0
 62
     5
 10
75.283397
 20
136.519072
 30
0.0
 11
75.486598
 21
136.379072
 31
0.0
  0
LINE
  5
118A0
  8
0
 62
     5
 10
75.283397
 20
135.959072
 30
0.0
 11
75.486598
 21
136.099072
 31
0.0
  0
LINE
  5
118A1
  8
0
 62
     5
 10
75.283397
 20
136.519072
 30
0.0
 11
75.878121
 21
136.862437
 31
0.0
  0
ARC
  5
118A2
  8
CENTER
 10
60.205524
 20
162.72778
 30
0.0
 40
35.0
 50
306.254023
 51
324.381034
  0
LINE
  5
118A3
  8
0
 62
     5
 10
90.205524
 20
143.168411
 30
0.0
 11
90.205524
 21
137.22778
 31
0.0
  0
CIRCLE
  5
118A4
  8
0
 62
     5
 10
84.954261
 20
137.979043
 30
0.0
 40
2.9
  0
ARC
  5
118A5
  8
0
 62
     5
 10
80.149503
 20
141.22778
 30
0.0
 40
1.0
 50
270.0
 51
325.93541
  0
LINE
  5
118A6
  8
0
 62
     5
 10
84.645545
 20
142.769105
 30
0.0
 11
89.282041
 21
143.096409
 31
0.0
  0
ARC
  5
118A7
  8
0
 62
     5
 10
60.205524
 20
521.98235
 30
0.0
 40
380.266164
 50
273.687572
 51
274.425643
  0
ARC
  5
118A8
  8
0
 62
     5
 10
82.205524
 20
143.086336
 30
0.0
 40
1.0
 50
298.28907
 51
0.0
  0
LINE
  5
118A9
  8
0
 62
     5
 10
83.205524
 20
143.086336
 30
0.0
 11
83.205524
 21
146.42778
 31
0.0
  0
LINE
  5
118AA
  8
0
 62
     5
 10
86.705524
 20
149.92778
 30
0.0
 11
89.205524
 21
149.92778
 31
0.0
  0
LINE
  5
118AB
  8
0
 62
     5
 10
78.839827
 20
192.72778
 30
0.0
 11
41.571221
 21
192.72778
 31
0.0
  0
LINE
  5
118AC
  8
0
 62
     5
 10
41.324772
 20
192.993944
 30
0.0
 11
79.086276
 21
192.993944
 31
0.0
  0
LINE
  5
118AD
  8
CENTER
 10
41.503042
 20
181.430262
 30
0.0
 11
29.761931
 21
193.171373
 31
0.0
  0
ARC
  5
118AE
  8
0
 62
     5
 10
48.705524
 20
191.72778
 30
0.0
 40
1.0
 50
90.0
 51
180.0
  0
ARC
  5
118AF
  8
0
 62
     5
 10
41.571221
 20
191.72778
 30
0.0
 40
1.0
 50
90.0
 51
175.611601
  0
ARC
  5
118B0
  8
0
 62
     5
 10
34.705524
 20
188.22778
 30
0.0
 40
4.5
 50
90.0
 51
180.0
  0
ARC
  5
118B1
  8
0
 62
     5
 10
33.705524
 20
179.02778
 30
0.0
 40
3.5
 50
270.0
 51
0.0
  0
LINE
  5
118B2
  8
0
 62
     5
 10
33.705524
 20
175.52778
 30
0.0
 11
31.205524
 21
175.52778
 31
0.0
  0
ARC
  5
118B3
  8
0
 62
     5
 10
31.205524
 20
174.52778
 30
0.0
 40
1.0
 50
90.0
 51
180.0
  0
ARC
  5
118B4
  8
CENTER
 10
60.205524
 20
162.72778
 30
0.0
 40
35.0
 50
126.254023
 51
144.381034
  0
ARC
  5
118B5
  8
0
 62
     5
 10
35.456787
 20
187.476517
 30
0.0
 40
4.533836
 50
273.687572
 51
356.312428
  0
ARC
  5
118B6
  8
0
 62
     5
 10
35.456787
 20
187.476517
 30
0.0
 40
4.8
 50
273.687572
 51
356.312428
  0
LINE
  5
118B7
  8
0
 62
     5
 10
30.205524
 20
182.287149
 30
0.0
 11
30.205524
 21
188.22778
 31
0.0
  0
CIRCLE
  5
118B8
  8
0
 62
     5
 10
35.456787
 20
187.476517
 30
0.0
 40
2.9
  0
LINE
  5
118B9
  8
0
 62
     5
 10
31.129007
 20
182.359151
 30
0.0
 11
35.765503
 21
182.686455
 31
0.0
  0
ARC
  5
118BA
  8
0
 62
     5
 10
60.205524
 20
-196.52679
 30
0.0
 40
380.266164
 50
93.687572
 51
94.425643
  0
ARC
  5
118BB
  8
0
 62
     5
 10
31.205524
 20
181.362083
 30
0.0
 40
1.0
 50
94.388399
 51
180.0
  0
ARC
  5
118BC
  8
0
 62
     5
 10
38.205524
 20
182.369224
 30
0.0
 40
1.0
 50
118.28907
 51
180.0
  0
LINE
  5
118BD
  8
0
 62
     5
 10
37.205524
 20
182.369224
 30
0.0
 11
37.205524
 21
179.02778
 31
0.0
  0
ARC
  5
118BE
  8
0
 62
     5
 10
40.261545
 20
184.22778
 30
0.0
 40
1.0
 50
90.0
 51
145.93541
  0
ARC
  5
118BF
  8
0
 62
     5
 10
44.205524
 20
188.72778
 30
0.0
 40
3.5
 50
270.0
 51
0.0
  0
ARC
  5
118C0
  8
0
 62
     5
 10
43.909562
 20
189.216488
 30
0.0
 40
1.8
 50
81.050982
 51
98.949018
  0
LINE
  5
118C1
  8
0
 62
     5
 10
44.049562
 20
188.2016
 30
0.0
 11
44.369793
 21
188.756257
 31
0.0
  0
LINE
  5
118C2
  8
0
 62
     5
 10
44.189562
 20
190.434577
 30
0.0
 11
44.049562
 21
190.231375
 31
0.0
  0
LINE
  5
118C3
  8
0
 62
     5
 10
43.286198
 20
188.593123
 30
0.0
 11
44.532927
 21
189.839852
 31
0.0
  0
LINE
  5
118C4
  8
0
 62
     5
 10
44.189562
 20
187.438399
 30
0.0
 11
44.049562
 21
188.1456
 31
0.0
  0
LINE
  5
118C5
  8
0
 62
     5
 10
44.189562
 20
187.998399
 30
0.0
 11
44.049562
 21
188.2016
 31
0.0
  0
LINE
  5
118C6
  8
0
 62
     5
 10
44.369793
 20
189.676719
 30
0.0
 11
44.049562
 21
190.231375
 31
0.0
  0
LINE
  5
118C7
  8
0
 62
     5
 10
44.532927
 20
188.593123
 30
0.0
 11
43.286198
 21
189.839852
 31
0.0
  0
LINE
  5
118C8
  8
0
 62
     5
 10
42.838675
 20
189.356488
 30
0.0
 11
44.98045
 21
189.076488
 31
0.0
  0
LINE
  5
118C9
  8
0
 62
     5
 10
42.894675
 20
189.356488
 30
0.0
 11
44.92445
 21
189.076488
 31
0.0
  0
LINE
  5
118CA
  8
0
 62
     5
 10
42.894675
 20
189.076488
 30
0.0
 11
44.92445
 21
189.356488
 31
0.0
  0
LINE
  5
118CB
  8
0
 62
     5
 10
42.838675
 20
189.076488
 30
0.0
 11
44.98045
 21
189.356488
 31
0.0
  0
ARC
  5
118CC
  8
0
 62
     5
 10
43.909562
 20
189.216488
 30
0.0
 40
1.8
 50
261.050982
 51
278.949018
  0
LINE
  5
118CD
  8
0
 62
     5
 10
44.205524
 20
185.22778
 30
0.0
 11
40.261545
 21
185.22778
 31
0.0
  0
LINE
  5
118CE
  8
0
 62
     5
 10
44.189562
 20
190.994577
 30
0.0
 11
44.049562
 21
190.287375
 31
0.0
  0
CIRCLE
  5
118CF
  8
0
 62
     5
 10
43.909562
 20
189.216488
 30
0.0
 40
2.75
  0
ARC
  5
118D0
  8
0
 62
     5
 10
43.909562
 20
189.216488
 30
0.0
 40
2.95
 50
276.813854
 51
263.186146
  0
CIRCLE
  5
118D1
  8
0
 62
     5
 10
43.909562
 20
189.216488
 30
0.0
 40
3.0
  0
LINE
  5
118D2
  8
0
 62
     5
 10
42.691473
 20
188.936488
 30
0.0
 11
42.894675
 21
189.076488
 31
0.0
  0
LINE
  5
118D3
  8
0
 62
     5
 10
42.691473
 20
189.496488
 30
0.0
 11
43.286198
 21
189.839852
 31
0.0
  0
LINE
  5
118D4
  8
0
 62
     5
 10
43.449331
 20
189.676719
 30
0.0
 11
42.894675
 21
189.356488
 31
0.0
  0
LINE
  5
118D5
  8
0
 62
     5
 10
43.286198
 20
189.839852
 30
0.0
 11
43.629562
 21
190.434577
 31
0.0
  0
LINE
  5
118D6
  8
0
 62
     5
 10
43.769562
 20
190.231375
 30
0.0
 11
43.449331
 21
189.676719
 31
0.0
  0
LINE
  5
118D7
  8
0
 62
     5
 10
43.629562
 20
187.998399
 30
0.0
 11
43.769562
 21
188.2016
 31
0.0
  0
LINE
  5
118D8
  8
0
 62
     5
 10
43.769562
 20
188.1456
 30
0.0
 11
44.049562
 21
190.287375
 31
0.0
  0
LINE
  5
118D9
  8
0
 62
     5
 10
43.769562
 20
188.2016
 30
0.0
 11
44.049562
 21
190.231375
 31
0.0
  0
LINE
  5
118DA
  8
0
 62
     5
 10
43.629562
 20
187.438399
 30
0.0
 11
43.769562
 21
188.1456
 31
0.0
  0
LINE
  5
118DB
  8
0
 62
     5
 10
43.559562
 20
186.491227
 30
0.0
 11
43.559562
 21
186.287324
 31
0.0
  0
LINE
  5
118DC
  8
0
 62
     5
 10
43.629562
 20
187.438399
 30
0.0
 11
43.629562
 21
187.998399
 31
0.0
  0
LINE
  5
118DD
  8
0
 62
     5
 10
43.769562
 20
190.287375
 30
0.0
 11
43.769562
 21
190.231375
 31
0.0
  0
LINE
  5
118DE
  8
0
 62
     5
 10
43.769562
 20
188.2016
 30
0.0
 11
43.769562
 21
188.1456
 31
0.0
  0
LINE
  5
118DF
  8
0
 62
     5
 10
44.049562
 20
188.1456
 30
0.0
 11
44.049562
 21
188.2016
 31
0.0
  0
LINE
  5
118E0
  8
0
 62
     5
 10
44.049562
 20
190.231375
 30
0.0
 11
44.049562
 21
190.287375
 31
0.0
  0
LINE
  5
118E1
  8
0
 62
     5
 10
44.049562
 20
188.2016
 30
0.0
 11
43.769562
 21
190.231375
 31
0.0
  0
LINE
  5
118E2
  8
0
 62
     5
 10
44.049562
 20
188.1456
 30
0.0
 11
43.769562
 21
190.287375
 31
0.0
  0
LINE
  5
118E3
  8
0
 62
     5
 10
43.629562
 20
187.998399
 30
0.0
 11
43.286198
 21
188.593123
 31
0.0
  0
LINE
  5
118E4
  8
0
 62
     5
 10
43.449331
 20
188.756257
 30
0.0
 11
43.769562
 21
188.2016
 31
0.0
  0
LINE
  5
118E5
  8
0
 62
     5
 10
43.629562
 20
190.434577
 30
0.0
 11
43.769562
 21
190.231375
 31
0.0
  0
LINE
  5
118E6
  8
0
 62
     5
 10
42.691473
 20
189.496488
 30
0.0
 11
42.894675
 21
189.356488
 31
0.0
  0
LINE
  5
118E7
  8
0
 62
     5
 10
43.286198
 20
188.593123
 30
0.0
 11
42.691473
 21
188.936488
 31
0.0
  0
LINE
  5
118E8
  8
0
 62
     5
 10
42.894675
 20
189.076488
 30
0.0
 11
43.449331
 21
188.756257
 31
0.0
  0
LINE
  5
118E9
  8
0
 62
     5
 10
42.838675
 20
189.076488
 30
0.0
 11
42.894675
 21
189.076488
 31
0.0
  0
LINE
  5
118EA
  8
0
 62
     5
 10
42.894675
 20
189.356488
 30
0.0
 11
42.838675
 21
189.356488
 31
0.0
  0
ARC
  5
118EB
  8
0
 62
     5
 10
43.909562
 20
189.216488
 30
0.0
 40
1.127721
 50
109.033269
 51
160.966731
  0
ARC
  5
118EC
  8
0
 62
     5
 10
43.909562
 20
189.216488
 30
0.0
 40
1.08
 50
172.551809
 51
187.448191
  0
ARC
  5
118ED
  8
0
 62
     5
 10
43.909562
 20
189.216488
 30
0.0
 40
1.08
 50
262.551809
 51
277.448191
  0
ARC
  5
118EE
  8
0
 62
     5
 10
43.909562
 20
189.216488
 30
0.0
 40
1.08
 50
82.551809
 51
97.448191
  0
ARC
  5
118EF
  8
0
 62
     5
 10
43.909562
 20
189.216488
 30
0.0
 40
1.127721
 50
199.033269
 51
250.966731
  0
ARC
  5
118F0
  8
0
 62
     5
 10
43.909562
 20
189.216488
 30
0.0
 40
1.8
 50
171.050982
 51
188.949018
  0
LINE
  5
118F1
  8
0
 62
     5
 10
42.131473
 20
189.496488
 30
0.0
 11
42.838675
 21
189.356488
 31
0.0
  0
LINE
  5
118F2
  8
0
 62
     5
 10
42.691473
 20
188.936488
 30
0.0
 11
42.131473
 21
188.936488
 31
0.0
  0
LINE
  5
118F3
  8
0
 62
     5
 10
42.131473
 20
188.936488
 30
0.0
 11
42.838675
 21
189.076488
 31
0.0
  0
LINE
  5
118F4
  8
0
 62
     5
 10
42.131473
 20
189.496488
 30
0.0
 11
42.691473
 21
189.496488
 31
0.0
  0
LINE
  5
118F5
  8
0
 62
     5
 10
40.574153
 20
191.804297
 30
0.0
 11
40.246849
 21
187.167801
 31
0.0
  0
LINE
  5
118F6
  8
0
 62
     5
 10
43.629562
 20
190.434577
 30
0.0
 11
43.629562
 21
190.994577
 31
0.0
  0
LINE
  5
118F7
  8
0
 62
     5
 10
43.629562
 20
190.994577
 30
0.0
 11
43.769562
 21
190.287375
 31
0.0
  0
ARC
  5
118F8
  8
0
 62
     5
 10
419.460094
 20
162.72778
 30
0.0
 40
380.266164
 50
175.574357
 51
176.312428
  0
LINE
  5
118F9
  8
0
 62
     5
 10
47.705524
 20
191.72778
 30
0.0
 11
47.705524
 21
188.72778
 31
0.0
  0
LINE
  5
118FA
  8
0
 62
     5
 10
44.532927
 20
188.593123
 30
0.0
 11
44.189562
 21
187.998399
 31
0.0
  0
LINE
  5
118FB
  8
0
 62
     5
 10
45.127651
 20
189.496488
 30
0.0
 11
44.92445
 21
189.356488
 31
0.0
  0
LINE
  5
118FC
  8
0
 62
     5
 10
44.369793
 20
188.756257
 30
0.0
 11
44.92445
 21
189.076488
 31
0.0
  0
LINE
  5
118FD
  8
0
 62
     5
 10
45.127651
 20
188.936488
 30
0.0
 11
44.532927
 21
188.593123
 31
0.0
  0
LINE
  5
118FE
  8
0
 62
     5
 10
44.189562
 20
187.998399
 30
0.0
 11
44.189562
 21
187.438399
 31
0.0
  0
LINE
  5
118FF
  8
0
 62
     5
 10
44.259562
 20
186.287324
 30
0.0
 11
44.259562
 21
186.491227
 31
0.0
  0
LINE
  5
11900
  8
0
 62
     5
 10
44.189562
 20
190.434577
 30
0.0
 11
44.532927
 21
189.839852
 31
0.0
  0
LINE
  5
11901
  8
0
 62
     5
 10
45.127651
 20
188.936488
 30
0.0
 11
44.92445
 21
189.076488
 31
0.0
  0
LINE
  5
11902
  8
0
 62
     5
 10
44.92445
 20
189.356488
 30
0.0
 11
44.369793
 21
189.676719
 31
0.0
  0
LINE
  5
11903
  8
0
 62
     5
 10
44.532927
 20
189.839852
 30
0.0
 11
45.127651
 21
189.496488
 31
0.0
  0
LINE
  5
11904
  8
0
 62
     5
 10
45.687651
 20
188.936488
 30
0.0
 11
44.98045
 21
189.076488
 31
0.0
  0
LINE
  5
11905
  8
0
 62
     5
 10
45.687651
 20
188.936488
 30
0.0
 11
45.127651
 21
188.936488
 31
0.0
  0
LINE
  5
11906
  8
0
 62
     5
 10
45.687651
 20
189.496488
 30
0.0
 11
44.98045
 21
189.356488
 31
0.0
  0
LINE
  5
11907
  8
0
 62
     5
 10
44.92445
 20
189.076488
 30
0.0
 11
44.98045
 21
189.076488
 31
0.0
  0
LINE
  5
11908
  8
0
 62
     5
 10
44.98045
 20
189.356488
 30
0.0
 11
44.92445
 21
189.356488
 31
0.0
  0
LINE
  5
11909
  8
0
 62
     5
 10
45.127651
 20
189.496488
 30
0.0
 11
45.687651
 21
189.496488
 31
0.0
  0
ARC
  5
1190A
  8
0
 62
     5
 10
43.909562
 20
189.216488
 30
0.0
 40
1.127721
 50
289.033269
 51
340.966731
  0
ARC
  5
1190B
  8
0
 62
     5
 10
43.909562
 20
189.216488
 30
0.0
 40
1.127721
 50
19.033269
 51
70.966731
  0
ARC
  5
1190C
  8
0
 62
     5
 10
43.909562
 20
189.216488
 30
0.0
 40
1.08
 50
352.551809
 51
7.448191
  0
ARC
  5
1190D
  8
0
 62
     5
 10
43.909562
 20
189.216488
 30
0.0
 40
1.8
 50
351.050982
 51
8.949018
  0
LINE
  5
1190E
  8
0
 62
     5
 10
44.189562
 20
190.994577
 30
0.0
 11
44.189562
 21
190.434577
 31
0.0
  0
LINE
  5
1190F
  8
0
 62
     5
 10
34.705524
 20
192.72778
 30
0.0
 11
40.646155
 21
192.72778
 31
0.0
  0
ARC
  5
11910
  8
0
 62
     5
 10
72.005524
 20
191.72778
 30
0.0
 40
1.0
 50
0.0
 51
90.0
  0
ARC
  5
11911
  8
0
 62
     5
 10
78.839827
 20
191.72778
 30
0.0
 40
1.0
 50
4.388399
 51
90.0
  0
LINE
  5
11912
  8
0
 62
     5
 10
86.414232
 20
177.245653
 30
0.0
 11
86.554232
 21
177.952854
 31
0.0
  0
LINE
  5
11913
  8
0
 62
     5
 10
86.414232
 20
177.245653
 30
0.0
 11
86.414232
 21
177.805653
 31
0.0
  0
LINE
  5
11914
  8
0
 62
     5
 10
86.974232
 20
177.805653
 30
0.0
 11
86.974232
 21
177.245653
 31
0.0
  0
LINE
  5
11915
  8
0
 62
     5
 10
86.974232
 20
177.245653
 30
0.0
 11
86.834232
 21
177.952854
 31
0.0
  0
ARC
  5
11916
  8
0
 62
     5
 10
86.205524
 20
178.72778
 30
0.0
 40
3.5
 50
180.0
 51
270.0
  0
CIRCLE
  5
11917
  8
0
 62
     5
 10
86.694232
 20
179.023742
 30
0.0
 40
2.75
  0
ARC
  5
11918
  8
0
 62
     5
 10
86.694232
 20
179.023742
 30
0.0
 40
2.95
 50
276.813854
 51
263.186146
  0
CIRCLE
  5
11919
  8
0
 62
     5
 10
86.694232
 20
179.023742
 30
0.0
 40
3.0
  0
LINE
  5
1191A
  8
0
 62
     5
 10
86.344232
 20
176.298481
 30
0.0
 11
86.344232
 21
176.094578
 31
0.0
  0
LINE
  5
1191B
  8
0
 62
     5
 10
87.044232
 20
176.094578
 30
0.0
 11
87.044232
 21
176.298481
 31
0.0
  0
ARC
  5
1191C
  8
0
 62
     5
 10
86.694232
 20
179.023742
 30
0.0
 40
1.8
 50
261.050982
 51
278.949018
  0
LINE
  5
1191D
  8
0
 62
     5
 10
89.205524
 20
175.22778
 30
0.0
 11
86.205524
 21
175.22778
 31
0.0
  0
ARC
  5
1191E
  8
0
 62
     5
 10
79.846968
 20
184.72778
 30
0.0
 40
1.0
 50
28.28907
 51
90.0
  0
LINE
  5
1191F
  8
0
 62
     5
 10
79.836895
 20
191.804297
 30
0.0
 11
80.164199
 21
187.167801
 31
0.0
  0
ARC
  5
11920
  8
0
 62
     5
 10
84.954261
 20
187.476517
 30
0.0
 40
4.533836
 50
183.687572
 51
266.312428
  0
ARC
  5
11921
  8
0
 62
     5
 10
84.954261
 20
187.476517
 30
0.0
 40
4.8
 50
183.687572
 51
266.312428
  0
ARC
  5
11922
  8
0
 62
     5
 10
76.505524
 20
189.22778
 30
0.0
 40
3.5
 50
180.0
 51
270.0
  0
LINE
  5
11923
  8
0
 62
     5
 10
73.005524
 20
189.22778
 30
0.0
 11
73.005524
 21
191.72778
 31
0.0
  0
LINE
  5
11924
  8
0
 62
     5
 10
79.846968
 20
185.72778
 30
0.0
 11
76.505524
 21
185.72778
 31
0.0
  0
ARC
  5
11925
  8
CENTER
 10
60.205524
 20
162.72778
 30
0.0
 40
35.0
 50
36.254023
 51
54.381034
  0
LINE
  5
11926
  8
0
 62
     5
 10
90.205524
 20
188.22778
 30
0.0
 11
90.205524
 21
182.287149
 31
0.0
  0
CIRCLE
  5
11927
  8
0
 62
     5
 10
84.954261
 20
187.476517
 30
0.0
 40
2.9
  0
LINE
  5
11928
  8
0
 62
     5
 10
84.916143
 20
179.303742
 30
0.0
 11
85.476143
 21
179.303742
 31
0.0
  0
LINE
  5
11929
  8
0
 62
     5
 10
84.916143
 20
179.303742
 30
0.0
 11
85.623344
 21
179.163742
 31
0.0
  0
LINE
  5
1192A
  8
0
 62
     5
 10
84.916143
 20
178.743742
 30
0.0
 11
85.623344
 21
178.883742
 31
0.0
  0
LINE
  5
1192B
  8
0
 62
     5
 10
85.476143
 20
178.743742
 30
0.0
 11
84.916143
 21
178.743742
 31
0.0
  0
ARC
  5
1192C
  8
0
 62
     5
 10
60.205524
 20
-196.52679
 30
0.0
 40
380.266164
 50
85.574357
 51
86.312428
  0
ARC
  5
1192D
  8
0
 62
     5
 10
60.205524
 20
-196.52679
 30
0.0
 40
380.0
 50
85.611601
 51
86.312428
  0
ARC
  5
1192E
  8
0
 62
     5
 10
81.705524
 20
182.671759
 30
0.0
 40
1.0
 50
0.0
 51
55.93541
  0
LINE
  5
1192F
  8
0
 62
     5
 10
82.705524
 20
178.72778
 30
0.0
 11
82.705524
 21
182.671759
 31
0.0
  0
ARC
  5
11930
  8
0
 62
     5
 10
86.694232
 20
179.023742
 30
0.0
 40
1.8
 50
171.050982
 51
188.949018
  0
LINE
  5
11931
  8
0
 62
     5
 10
87.912321
 20
179.303742
 30
0.0
 11
87.709119
 21
179.163742
 31
0.0
  0
LINE
  5
11932
  8
0
 62
     5
 10
88.472321
 20
179.303742
 30
0.0
 11
87.765119
 21
179.163742
 31
0.0
  0
LINE
  5
11933
  8
0
 62
     5
 10
87.765119
 20
179.163742
 30
0.0
 11
87.709119
 21
179.163742
 31
0.0
  0
LINE
  5
11934
  8
0
 62
     5
 10
87.912321
 20
179.303742
 30
0.0
 11
88.472321
 21
179.303742
 31
0.0
  0
LINE
  5
11935
  8
0
 62
     5
 10
88.472321
 20
178.743742
 30
0.0
 11
87.912321
 21
178.743742
 31
0.0
  0
LINE
  5
11936
  8
0
 62
     5
 10
87.709119
 20
178.883742
 30
0.0
 11
87.765119
 21
178.883742
 31
0.0
  0
LINE
  5
11937
  8
0
 62
     5
 10
88.472321
 20
178.743742
 30
0.0
 11
87.765119
 21
178.883742
 31
0.0
  0
LINE
  5
11938
  8
0
 62
     5
 10
87.912321
 20
178.743742
 30
0.0
 11
87.709119
 21
178.883742
 31
0.0
  0
ARC
  5
11939
  8
0
 62
     5
 10
86.694232
 20
179.023742
 30
0.0
 40
1.08
 50
352.551809
 51
7.448191
  0
ARC
  5
1193A
  8
0
 62
     5
 10
86.694232
 20
179.023742
 30
0.0
 40
1.8
 50
351.050982
 51
8.949018
  0
LINE
  5
1193B
  8
0
 62
     5
 10
85.476143
 20
179.303742
 30
0.0
 11
86.070867
 21
179.647106
 31
0.0
  0
LINE
  5
1193C
  8
0
 62
     5
 10
86.234001
 20
179.483973
 30
0.0
 11
85.679344
 21
179.163742
 31
0.0
  0
LINE
  5
1193D
  8
0
 62
     5
 10
86.974232
 20
180.241831
 30
0.0
 11
86.834232
 21
180.038629
 31
0.0
  0
LINE
  5
1193E
  8
0
 62
     5
 10
86.070867
 20
179.647106
 30
0.0
 11
86.414232
 21
180.241831
 31
0.0
  0
LINE
  5
1193F
  8
0
 62
     5
 10
86.554232
 20
180.038629
 30
0.0
 11
86.234001
 21
179.483973
 31
0.0
  0
LINE
  5
11940
  8
0
 62
     5
 10
85.679344
 20
179.163742
 30
0.0
 11
85.623344
 21
179.163742
 31
0.0
  0
LINE
  5
11941
  8
0
 62
     5
 10
86.974232
 20
180.801831
 30
0.0
 11
86.834232
 21
180.094629
 31
0.0
  0
LINE
  5
11942
  8
0
 62
     5
 10
86.414232
 20
180.241831
 30
0.0
 11
86.414232
 21
180.801831
 31
0.0
  0
LINE
  5
11943
  8
0
 62
     5
 10
86.554232
 20
180.094629
 30
0.0
 11
86.554232
 21
180.038629
 31
0.0
  0
LINE
  5
11944
  8
0
 62
     5
 10
86.834232
 20
180.038629
 30
0.0
 11
86.834232
 21
180.094629
 31
0.0
  0
LINE
  5
11945
  8
0
 62
     5
 10
86.974232
 20
180.801831
 30
0.0
 11
86.974232
 21
180.241831
 31
0.0
  0
LINE
  5
11946
  8
0
 62
     5
 10
85.476143
 20
179.303742
 30
0.0
 11
85.679344
 21
179.163742
 31
0.0
  0
LINE
  5
11947
  8
0
 62
     5
 10
86.414232
 20
180.801831
 30
0.0
 11
86.554232
 21
180.094629
 31
0.0
  0
LINE
  5
11948
  8
0
 62
     5
 10
86.414232
 20
180.241831
 30
0.0
 11
86.554232
 21
180.038629
 31
0.0
  0
LINE
  5
11949
  8
0
 62
     5
 10
87.154463
 20
179.483973
 30
0.0
 11
86.834232
 21
180.038629
 31
0.0
  0
LINE
  5
1194A
  8
0
 62
     5
 10
86.974232
 20
180.241831
 30
0.0
 11
87.317596
 21
179.647106
 31
0.0
  0
ARC
  5
1194B
  8
0
 62
     5
 10
86.694232
 20
179.023742
 30
0.0
 40
1.127721
 50
109.033269
 51
160.966731
  0
ARC
  5
1194C
  8
0
 62
     5
 10
86.694232
 20
179.023742
 30
0.0
 40
1.08
 50
82.551809
 51
97.448191
  0
ARC
  5
1194D
  8
0
 62
     5
 10
86.694232
 20
179.023742
 30
0.0
 40
1.8
 50
81.050982
 51
98.949018
  0
LINE
  5
1194E
  8
0
 62
     5
 10
85.476143
 20
178.743742
 30
0.0
 11
85.679344
 21
178.883742
 31
0.0
  0
LINE
  5
1194F
  8
0
 62
     5
 10
86.834232
 20
178.008854
 30
0.0
 11
87.154463
 21
178.563511
 31
0.0
  0
LINE
  5
11950
  8
0
 62
     5
 10
87.317596
 20
178.400377
 30
0.0
 11
86.974232
 21
177.805653
 31
0.0
  0
LINE
  5
11951
  8
0
 62
     5
 10
86.414232
 20
177.805653
 30
0.0
 11
86.554232
 21
178.008854
 31
0.0
  0
LINE
  5
11952
  8
0
 62
     5
 10
85.623344
 20
178.883742
 30
0.0
 11
85.679344
 21
178.883742
 31
0.0
  0
LINE
  5
11953
  8
0
 62
     5
 10
86.554232
 20
178.008854
 30
0.0
 11
86.554232
 21
177.952854
 31
0.0
  0
LINE
  5
11954
  8
0
 62
     5
 10
86.834232
 20
177.952854
 30
0.0
 11
86.834232
 21
178.008854
 31
0.0
  0
LINE
  5
11955
  8
0
 62
     5
 10
86.070867
 20
178.400377
 30
0.0
 11
85.476143
 21
178.743742
 31
0.0
  0
LINE
  5
11956
  8
0
 62
     5
 10
85.679344
 20
178.883742
 30
0.0
 11
86.234001
 21
178.563511
 31
0.0
  0
LINE
  5
11957
  8
0
 62
     5
 10
86.974232
 20
177.805653
 30
0.0
 11
86.834232
 21
178.008854
 31
0.0
  0
LINE
  5
11958
  8
0
 62
     5
 10
86.414232
 20
177.805653
 30
0.0
 11
86.070867
 21
178.400377
 31
0.0
  0
LINE
  5
11959
  8
0
 62
     5
 10
86.234001
 20
178.563511
 30
0.0
 11
86.554232
 21
178.008854
 31
0.0
  0
ARC
  5
1195A
  8
0
 62
     5
 10
86.694232
 20
179.023742
 30
0.0
 40
1.08
 50
262.551809
 51
277.448191
  0
ARC
  5
1195B
  8
0
 62
     5
 10
86.694232
 20
179.023742
 30
0.0
 40
1.127721
 50
199.033269
 51
250.966731
  0
LINE
  5
1195C
  8
0
 62
     5
 10
86.070867
 20
178.400377
 30
0.0
 11
87.317596
 21
179.647106
 31
0.0
  0
LINE
  5
1195D
  8
0
 62
     5
 10
86.554232
 20
177.952854
 30
0.0
 11
86.834232
 21
180.094629
 31
0.0
  0
LINE
  5
1195E
  8
0
 62
     5
 10
86.554232
 20
178.008854
 30
0.0
 11
86.834232
 21
180.038629
 31
0.0
  0
LINE
  5
1195F
  8
0
 62
     5
 10
87.317596
 20
178.400377
 30
0.0
 11
86.070867
 21
179.647106
 31
0.0
  0
LINE
  5
11960
  8
0
 62
     5
 10
86.834232
 20
178.008854
 30
0.0
 11
86.554232
 21
180.038629
 31
0.0
  0
LINE
  5
11961
  8
0
 62
     5
 10
86.834232
 20
177.952854
 30
0.0
 11
86.554232
 21
180.094629
 31
0.0
  0
ARC
  5
11962
  8
0
 62
     5
 10
86.694232
 20
179.023742
 30
0.0
 40
1.08
 50
172.551809
 51
187.448191
  0
LINE
  5
11963
  8
0
 62
     5
 10
87.154463
 20
178.563511
 30
0.0
 11
87.709119
 21
178.883742
 31
0.0
  0
LINE
  5
11964
  8
0
 62
     5
 10
87.912321
 20
178.743742
 30
0.0
 11
87.317596
 21
178.400377
 31
0.0
  0
LINE
  5
11965
  8
0
 62
     5
 10
85.679344
 20
178.883742
 30
0.0
 11
87.709119
 21
179.163742
 31
0.0
  0
LINE
  5
11966
  8
0
 62
     5
 10
85.623344
 20
178.883742
 30
0.0
 11
87.765119
 21
179.163742
 31
0.0
  0
LINE
  5
11967
  8
0
 62
     5
 10
85.623344
 20
179.163742
 30
0.0
 11
87.765119
 21
178.883742
 31
0.0
  0
LINE
  5
11968
  8
0
 62
     5
 10
85.679344
 20
179.163742
 30
0.0
 11
87.709119
 21
178.883742
 31
0.0
  0
LINE
  5
11969
  8
0
 62
     5
 10
87.709119
 20
179.163742
 30
0.0
 11
87.154463
 21
179.483973
 31
0.0
  0
LINE
  5
1196A
  8
0
 62
     5
 10
87.317596
 20
179.647106
 30
0.0
 11
87.912321
 21
179.303742
 31
0.0
  0
ARC
  5
1196B
  8
0
 62
     5
 10
86.694232
 20
179.023742
 30
0.0
 40
1.127721
 50
289.033269
 51
340.966731
  0
ARC
  5
1196C
  8
0
 62
     5
 10
86.694232
 20
179.023742
 30
0.0
 40
1.127721
 50
19.033269
 51
70.966731
  0
ARC
  5
1196D
  8
0
 62
     5
 10
-299.049046
 20
162.72778
 30
0.0
 40
380.266164
 50
3.687572
 51
4.425643
  0
LINE
  5
1196E
  8
0
 62
     5
 10
79.764893
 20
192.72778
 30
0.0
 11
85.705524
 21
192.72778
 31
0.0
  0
LINE
  5
1196F
  8
0
 62
     5
 10
187.153626
 20
127.42778
 30
0.0
 11
167.790921
 21
127.42778
 31
0.0
  0
LINE
  5
11970
  8
0
 62
     5
 10
187.615842
 20
130.72778
 30
0.0
 11
167.873357
 21
130.72778
 31
0.0
  0
LINE
  5
11971
  8
0
 62
     5
 10
144.144599
 20
192.72778
 30
0.0
 11
187.744599
 21
192.72778
 31
0.0
  0
LINE
  5
11972
  8
0
 62
     5
 10
144.144599
 20
182.686455
 30
0.0
 11
187.744599
 21
182.686455
 31
0.0
  0
LINE
  5
11973
  8
0
 62
     5
 10
143.944599
 20
142.769105
 30
0.0
 11
187.806403
 21
142.778873
 31
0.0
  0
LINE
  5
11974
  8
0
 62
     5
 10
187.744599
 20
132.72778
 30
0.0
 11
144.144599
 21
132.72778
 31
0.0
  0
LINE
  5
11975
  8
0
 62
     5
 10
143.944599
 20
192.52778
 30
0.0
 11
143.944599
 21
132.72778
 31
0.0
  0
LINE
  5
11976
  8
0
 62
     5
 10
119.944599
 20
130.92778
 30
0.0
 11
119.944599
 21
191.72778
 31
0.0
  0
LINE
  5
11977
  8
0
 62
     5
 10
90.471688
 20
181.608532
 30
0.0
 11
90.471688
 21
143.847028
 31
0.0
  0
LINE
  5
11978
  8
HIDDEN
 10
147.966312
 20
116.72778
 30
0.0
 11
128.29094
 21
116.727782
 31
0.0
  0
LINE
  5
11979
  8
0
 62
     5
 10
119.944599
 20
143.086336
 30
0.0
 11
135.945493
 21
143.086336
 31
0.0
  0
LINE
  5
1197A
  8
0
 62
     5
 10
120.944599
 20
149.92778
 30
0.0
 11
135.944599
 21
149.92778
 31
0.0
  0
LINE
  5
1197B
  8
0
 62
     5
 10
139.155019
 20
125.22778
 30
0.0
 11
124.33418
 21
125.22778
 31
0.0
  0
LINE
  5
1197C
  8
0
 62
     5
 10
130.054481
 20
125.52778
 30
0.0
 11
136.375686
 21
125.52778
 31
0.0
  0
LINE
  5
1197D
  8
0
 62
     5
 10
121.632904
 20
129.72778
 30
0.0
 11
141.856295
 21
129.72778
 31
0.0
  0
LINE
  5
1197E
  8
0
 62
     5
 10
120.144599
 20
130.72778
 30
0.0
 11
143.244599
 21
130.72778
 31
0.0
  0
LINE
  5
1197F
  8
0
 62
     5
 10
120.944599
 20
132.72778
 30
0.0
 11
143.944599
 21
132.72778
 31
0.0
  0
LINE
  5
11980
  8
0
 62
     5
 10
138.944599
 20
140.22778
 30
0.0
 11
120.944599
 21
140.22778
 31
0.0
  0
ARC
  5
11981
  8
HIDDEN
 10
128.178603
 20
123.515988
 30
0.0
 40
6.789135
 50
195.389534
 51
270.948097
  0
POLYLINE
  5
11982
  8
0
 62
     5
 66
     1
 10
0.0
 20
0.0
 30
0.0
 70
     8
  0
VERTEX
  5
11983
  8
0
 62
     5
 10
119.945
 20
133.673
 30
0.0
 70
    32
  0
VERTEX
  5
11984
  8
0
 62
     5
 10
119.945
 20
133.673
 30
0.0
 70
    32
  0
VERTEX
  5
11985
  8
0
 62
     5
 10
119.945
 20
133.674
 30
0.0
 70
    32
  0
VERTEX
  5
11986
  8
0
 62
     5
 10
119.945
 20
133.674
 30
0.0
 70
    32
  0
VERTEX
  5
11987
  8
0
 62
     5
 10
119.945
 20
133.674
 30
0.0
 70
    32
  0
VERTEX
  5
11988
  8
0
 62
     5
 10
119.945
 20
133.675
 30
0.0
 70
    32
  0
VERTEX
  5
11989
  8
0
 62
     5
 10
119.945
 20
133.675
 30
0.0
 70
    32
  0
VERTEX
  5
1198A
  8
0
 62
     5
 10
119.945
 20
133.676
 30
0.0
 70
    32
  0
VERTEX
  5
1198B
  8
0
 62
     5
 10
119.945
 20
133.676
 30
0.0
 70
    32
  0
VERTEX
  5
1198C
  8
0
 62
     5
 10
119.945
 20
133.677
 30
0.0
 70
    32
  0
VERTEX
  5
1198D
  8
0
 62
     5
 10
119.945
 20
133.677
 30
0.0
 70
    32
  0
VERTEX
  5
1198E
  8
0
 62
     5
 10
119.945
 20
133.678
 30
0.0
 70
    32
  0
VERTEX
  5
1198F
  8
0
 62
     5
 10
119.945
 20
133.678
 30
0.0
 70
    32
  0
VERTEX
  5
11990
  8
0
 62
     5
 10
119.945
 20
133.678
 30
0.0
 70
    32
  0
VERTEX
  5
11991
  8
0
 62
     5
 10
119.945
 20
133.679
 30
0.0
 70
    32
  0
VERTEX
  5
11992
  8
0
 62
     5
 10
119.945
 20
133.679
 30
0.0
 70
    32
  0
VERTEX
  5
11993
  8
0
 62
     5
 10
119.945
 20
133.68
 30
0.0
 70
    32
  0
VERTEX
  5
11994
  8
0
 62
     5
 10
119.945
 20
133.68
 30
0.0
 70
    32
  0
VERTEX
  5
11995
  8
0
 62
     5
 10
119.945
 20
133.681
 30
0.0
 70
    32
  0
VERTEX
  5
11996
  8
0
 62
     5
 10
119.945
 20
133.681
 30
0.0
 70
    32
  0
VERTEX
  5
11997
  8
0
 62
     5
 10
119.945
 20
133.681
 30
0.0
 70
    32
  0
VERTEX
  5
11998
  8
0
 62
     5
 10
119.945
 20
133.682
 30
0.0
 70
    32
  0
VERTEX
  5
11999
  8
0
 62
     5
 10
119.945
 20
133.682
 30
0.0
 70
    32
  0
VERTEX
  5
1199A
  8
0
 62
     5
 10
119.945
 20
133.683
 30
0.0
 70
    32
  0
VERTEX
  5
1199B
  8
0
 62
     5
 10
119.945
 20
133.683
 30
0.0
 70
    32
  0
VERTEX
  5
1199C
  8
0
 62
     5
 10
119.945
 20
133.684
 30
0.0
 70
    32
  0
VERTEX
  5
1199D
  8
0
 62
     5
 10
119.945
 20
133.684
 30
0.0
 70
    32
  0
VERTEX
  5
1199E
  8
0
 62
     5
 10
119.945
 20
133.684
 30
0.0
 70
    32
  0
VERTEX
  5
1199F
  8
0
 62
     5
 10
119.945
 20
133.685
 30
0.0
 70
    32
  0
VERTEX
  5
119A0
  8
0
 62
     5
 10
119.945
 20
133.685
 30
0.0
 70
    32
  0
VERTEX
  5
119A1
  8
0
 62
     5
 10
119.945
 20
133.686
 30
0.0
 70
    32
  0
VERTEX
  5
119A2
  8
0
 62
     5
 10
119.945
 20
133.686
 30
0.0
 70
    32
  0
VERTEX
  5
119A3
  8
0
 62
     5
 10
119.945
 20
133.687
 30
0.0
 70
    32
  0
VERTEX
  5
119A4
  8
0
 62
     5
 10
119.945
 20
133.687
 30
0.0
 70
    32
  0
VERTEX
  5
119A5
  8
0
 62
     5
 10
119.945
 20
133.687
 30
0.0
 70
    32
  0
VERTEX
  5
119A6
  8
0
 62
     5
 10
119.945
 20
133.688
 30
0.0
 70
    32
  0
VERTEX
  5
119A7
  8
0
 62
     5
 10
119.945
 20
133.688
 30
0.0
 70
    32
  0
VERTEX
  5
119A8
  8
0
 62
     5
 10
119.945
 20
133.689
 30
0.0
 70
    32
  0
VERTEX
  5
119A9
  8
0
 62
     5
 10
119.945
 20
133.689
 30
0.0
 70
    32
  0
VERTEX
  5
119AA
  8
0
 62
     5
 10
119.945
 20
133.69
 30
0.0
 70
    32
  0
VERTEX
  5
119AB
  8
0
 62
     5
 10
119.945
 20
133.69
 30
0.0
 70
    32
  0
VERTEX
  5
119AC
  8
0
 62
     5
 10
119.945
 20
133.691
 30
0.0
 70
    32
  0
VERTEX
  5
119AD
  8
0
 62
     5
 10
119.945
 20
133.691
 30
0.0
 70
    32
  0
VERTEX
  5
119AE
  8
0
 62
     5
 10
119.945
 20
133.691
 30
0.0
 70
    32
  0
VERTEX
  5
119AF
  8
0
 62
     5
 10
119.945
 20
133.692
 30
0.0
 70
    32
  0
VERTEX
  5
119B0
  8
0
 62
     5
 10
119.945
 20
133.692
 30
0.0
 70
    32
  0
VERTEX
  5
119B1
  8
0
 62
     5
 10
119.945
 20
133.693
 30
0.0
 70
    32
  0
VERTEX
  5
119B2
  8
0
 62
     5
 10
119.945
 20
133.693
 30
0.0
 70
    32
  0
VERTEX
  5
119B3
  8
0
 62
     5
 10
119.945
 20
133.694
 30
0.0
 70
    32
  0
VERTEX
  5
119B4
  8
0
 62
     5
 10
119.945
 20
133.694
 30
0.0
 70
    32
  0
VERTEX
  5
119B5
  8
0
 62
     5
 10
119.945
 20
133.694
 30
0.0
 70
    32
  0
VERTEX
  5
119B6
  8
0
 62
     5
 10
119.945
 20
133.695
 30
0.0
 70
    32
  0
VERTEX
  5
119B7
  8
0
 62
     5
 10
119.945
 20
133.695
 30
0.0
 70
    32
  0
VERTEX
  5
119B8
  8
0
 62
     5
 10
119.945
 20
133.696
 30
0.0
 70
    32
  0
VERTEX
  5
119B9
  8
0
 62
     5
 10
119.945
 20
133.696
 30
0.0
 70
    32
  0
VERTEX
  5
119BA
  8
0
 62
     5
 10
119.945
 20
133.697
 30
0.0
 70
    32
  0
VERTEX
  5
119BB
  8
0
 62
     5
 10
119.945
 20
133.697
 30
0.0
 70
    32
  0
VERTEX
  5
119BC
  8
0
 62
     5
 10
119.945
 20
133.697
 30
0.0
 70
    32
  0
VERTEX
  5
119BD
  8
0
 62
     5
 10
119.945
 20
133.698
 30
0.0
 70
    32
  0
VERTEX
  5
119BE
  8
0
 62
     5
 10
119.945
 20
133.698
 30
0.0
 70
    32
  0
VERTEX
  5
119BF
  8
0
 62
     5
 10
119.945
 20
133.699
 30
0.0
 70
    32
  0
VERTEX
  5
119C0
  8
0
 62
     5
 10
119.945
 20
133.699
 30
0.0
 70
    32
  0
VERTEX
  5
119C1
  8
0
 62
     5
 10
119.945
 20
133.7
 30
0.0
 70
    32
  0
VERTEX
  5
119C2
  8
0
 62
     5
 10
119.945
 20
133.7
 30
0.0
 70
    32
  0
VERTEX
  5
119C3
  8
0
 62
     5
 10
119.945
 20
133.7
 30
0.0
 70
    32
  0
VERTEX
  5
119C4
  8
0
 62
     5
 10
119.945
 20
133.701
 30
0.0
 70
    32
  0
VERTEX
  5
119C5
  8
0
 62
     5
 10
119.945
 20
133.701
 30
0.0
 70
    32
  0
VERTEX
  5
119C6
  8
0
 62
     5
 10
119.945
 20
133.702
 30
0.0
 70
    32
  0
VERTEX
  5
119C7
  8
0
 62
     5
 10
119.945
 20
133.702
 30
0.0
 70
    32
  0
VERTEX
  5
119C8
  8
0
 62
     5
 10
119.945
 20
133.703
 30
0.0
 70
    32
  0
VERTEX
  5
119C9
  8
0
 62
     5
 10
119.945
 20
133.703
 30
0.0
 70
    32
  0
VERTEX
  5
119CA
  8
0
 62
     5
 10
119.945
 20
133.704
 30
0.0
 70
    32
  0
VERTEX
  5
119CB
  8
0
 62
     5
 10
119.945
 20
133.704
 30
0.0
 70
    32
  0
VERTEX
  5
119CC
  8
0
 62
     5
 10
119.945
 20
133.704
 30
0.0
 70
    32
  0
VERTEX
  5
119CD
  8
0
 62
     5
 10
119.945
 20
133.705
 30
0.0
 70
    32
  0
VERTEX
  5
119CE
  8
0
 62
     5
 10
119.945
 20
133.705
 30
0.0
 70
    32
  0
VERTEX
  5
119CF
  8
0
 62
     5
 10
119.945
 20
133.706
 30
0.0
 70
    32
  0
VERTEX
  5
119D0
  8
0
 62
     5
 10
119.945
 20
133.706
 30
0.0
 70
    32
  0
VERTEX
  5
119D1
  8
0
 62
     5
 10
119.945
 20
133.707
 30
0.0
 70
    32
  0
VERTEX
  5
119D2
  8
0
 62
     5
 10
119.945
 20
133.707
 30
0.0
 70
    32
  0
VERTEX
  5
119D3
  8
0
 62
     5
 10
119.945
 20
133.707
 30
0.0
 70
    32
  0
VERTEX
  5
119D4
  8
0
 62
     5
 10
119.945
 20
133.708
 30
0.0
 70
    32
  0
VERTEX
  5
119D5
  8
0
 62
     5
 10
119.945
 20
133.708
 30
0.0
 70
    32
  0
VERTEX
  5
119D6
  8
0
 62
     5
 10
119.945
 20
133.709
 30
0.0
 70
    32
  0
VERTEX
  5
119D7
  8
0
 62
     5
 10
119.945
 20
133.709
 30
0.0
 70
    32
  0
VERTEX
  5
119D8
  8
0
 62
     5
 10
119.945
 20
133.71
 30
0.0
 70
    32
  0
VERTEX
  5
119D9
  8
0
 62
     5
 10
119.945
 20
133.71
 30
0.0
 70
    32
  0
VERTEX
  5
119DA
  8
0
 62
     5
 10
119.945
 20
133.71
 30
0.0
 70
    32
  0
VERTEX
  5
119DB
  8
0
 62
     5
 10
119.945
 20
133.711
 30
0.0
 70
    32
  0
VERTEX
  5
119DC
  8
0
 62
     5
 10
119.945
 20
133.711
 30
0.0
 70
    32
  0
VERTEX
  5
119DD
  8
0
 62
     5
 10
119.945
 20
133.712
 30
0.0
 70
    32
  0
VERTEX
  5
119DE
  8
0
 62
     5
 10
119.945
 20
133.712
 30
0.0
 70
    32
  0
VERTEX
  5
119DF
  8
0
 62
     5
 10
119.945
 20
133.713
 30
0.0
 70
    32
  0
VERTEX
  5
119E0
  8
0
 62
     5
 10
119.945
 20
133.713
 30
0.0
 70
    32
  0
VERTEX
  5
119E1
  8
0
 62
     5
 10
119.945
 20
133.713
 30
0.0
 70
    32
  0
VERTEX
  5
119E2
  8
0
 62
     5
 10
119.945
 20
133.714
 30
0.0
 70
    32
  0
VERTEX
  5
119E3
  8
0
 62
     5
 10
119.945
 20
133.714
 30
0.0
 70
    32
  0
VERTEX
  5
119E4
  8
0
 62
     5
 10
119.945
 20
133.715
 30
0.0
 70
    32
  0
VERTEX
  5
119E5
  8
0
 62
     5
 10
119.945
 20
133.715
 30
0.0
 70
    32
  0
VERTEX
  5
119E6
  8
0
 62
     5
 10
119.945
 20
133.716
 30
0.0
 70
    32
  0
VERTEX
  5
119E7
  8
0
 62
     5
 10
119.945
 20
133.716
 30
0.0
 70
    32
  0
VERTEX
  5
119E8
  8
0
 62
     5
 10
119.945
 20
133.717
 30
0.0
 70
    32
  0
VERTEX
  5
119E9
  8
0
 62
     5
 10
119.945
 20
133.717
 30
0.0
 70
    32
  0
VERTEX
  5
119EA
  8
0
 62
     5
 10
119.945
 20
133.717
 30
0.0
 70
    32
  0
VERTEX
  5
119EB
  8
0
 62
     5
 10
119.945
 20
133.718
 30
0.0
 70
    32
  0
VERTEX
  5
119EC
  8
0
 62
     5
 10
119.945
 20
133.718
 30
0.0
 70
    32
  0
VERTEX
  5
119ED
  8
0
 62
     5
 10
119.945
 20
133.719
 30
0.0
 70
    32
  0
VERTEX
  5
119EE
  8
0
 62
     5
 10
119.945
 20
133.719
 30
0.0
 70
    32
  0
VERTEX
  5
119EF
  8
0
 62
     5
 10
119.945
 20
133.72
 30
0.0
 70
    32
  0
VERTEX
  5
119F0
  8
0
 62
     5
 10
119.945
 20
133.72
 30
0.0
 70
    32
  0
VERTEX
  5
119F1
  8
0
 62
     5
 10
119.945
 20
133.72
 30
0.0
 70
    32
  0
VERTEX
  5
119F2
  8
0
 62
     5
 10
119.945
 20
133.721
 30
0.0
 70
    32
  0
VERTEX
  5
119F3
  8
0
 62
     5
 10
119.945
 20
133.721
 30
0.0
 70
    32
  0
VERTEX
  5
119F4
  8
0
 62
     5
 10
119.945
 20
133.722
 30
0.0
 70
    32
  0
VERTEX
  5
119F5
  8
0
 62
     5
 10
119.945
 20
133.722
 30
0.0
 70
    32
  0
VERTEX
  5
119F6
  8
0
 62
     5
 10
119.945
 20
133.723
 30
0.0
 70
    32
  0
VERTEX
  5
119F7
  8
0
 62
     5
 10
119.945
 20
133.723
 30
0.0
 70
    32
  0
VERTEX
  5
119F8
  8
0
 62
     5
 10
119.945
 20
133.723
 30
0.0
 70
    32
  0
VERTEX
  5
119F9
  8
0
 62
     5
 10
119.945
 20
133.724
 30
0.0
 70
    32
  0
VERTEX
  5
119FA
  8
0
 62
     5
 10
119.945
 20
133.724
 30
0.0
 70
    32
  0
VERTEX
  5
119FB
  8
0
 62
     5
 10
119.945
 20
133.725
 30
0.0
 70
    32
  0
VERTEX
  5
119FC
  8
0
 62
     5
 10
119.945
 20
133.725
 30
0.0
 70
    32
  0
VERTEX
  5
119FD
  8
0
 62
     5
 10
119.945
 20
133.726
 30
0.0
 70
    32
  0
VERTEX
  5
119FE
  8
0
 62
     5
 10
119.945
 20
133.726
 30
0.0
 70
    32
  0
VERTEX
  5
119FF
  8
0
 62
     5
 10
119.945
 20
133.726
 30
0.0
 70
    32
  0
VERTEX
  5
11A00
  8
0
 62
     5
 10
119.945
 20
133.727
 30
0.0
 70
    32
  0
VERTEX
  5
11A01
  8
0
 62
     5
 10
119.945
 20
133.727
 30
0.0
 70
    32
  0
VERTEX
  5
11A02
  8
0
 62
     5
 10
119.945
 20
133.728
 30
0.0
 70
    32
  0
SEQEND
  5
11A03
  8
0
 62
     5
  0
ARC
  5
11A04
  8
0
 62
     5
 10
120.144599
 20
130.92778
 30
0.0
 40
0.2
 50
180.0
 51
270.0
  0
ARC
  5
11A05
  8
0
 62
     5
 10
120.944599
 20
133.72778
 30
0.0
 40
1.0
 50
180.0
 51
270.0
  0
LINE
  5
11A06
  8
HIDDEN
 10
121.632899
 20
121.714288
 30
0.0
 11
121.632899
 21
130.72778
 31
0.0
  0
LINE
  5
11A07
  8
0
 62
     5
 10
123.732899
 20
129.72778
 30
0.0
 11
123.732899
 21
125.82778
 31
0.0
  0
LINE
  5
11A08
  8
0
 62
     5
 10
123.756291
 20
129.72778
 30
0.0
 11
123.756291
 21
125.82778
 31
0.0
  0
LINE
  5
11A09
  8
0
 62
     5
 10
124.225595
 20
125.52778
 30
0.0
 11
124.225595
 21
128.52778
 31
0.0
  0
LINE
  5
11A0A
  8
0
 62
     5
 10
125.633505
 20
128.52778
 30
0.0
 11
125.633505
 21
125.52778
 31
0.0
  0
LINE
  5
11A0B
  8
0
 62
     5
 10
126.102808
 20
125.82778
 30
0.0
 11
126.102808
 21
129.72778
 31
0.0
  0
LINE
  5
11A0C
  8
0
 62
     5
 10
128.276642
 20
129.72778
 30
0.0
 11
128.276642
 21
125.82778
 31
0.0
  0
LINE
  5
11A0D
  8
0
 62
     5
 10
125.821226
 20
125.82778
 30
0.0
 11
130.054481
 21
125.82778
 31
0.0
  0
LINE
  5
11A0E
  8
0
 62
     5
 10
124.33418
 20
125.22778
 30
0.0
 11
124.037873
 21
125.52778
 31
0.0
  0
LINE
  5
11A0F
  8
0
 62
     5
 10
124.521901
 20
125.22778
 30
0.0
 11
124.225595
 21
125.52778
 31
0.0
  0
LINE
  5
11A10
  8
0
 62
     5
 10
125.633505
 20
125.52778
 30
0.0
 11
125.929811
 21
125.22778
 31
0.0
  0
LINE
  5
11A11
  8
0
 62
     5
 10
125.821226
 20
125.52778
 30
0.0
 11
126.117533
 21
125.22778
 31
0.0
  0
LINE
  5
11A12
  8
0
 62
     5
 10
124.037873
 20
125.82778
 30
0.0
 11
124.037873
 21
125.52778
 31
0.0
  0
LINE
  5
11A13
  8
0
 62
     5
 10
125.821226
 20
125.52778
 30
0.0
 11
125.821226
 21
125.82778
 31
0.0
  0
LINE
  5
11A14
  8
0
 62
     5
 10
124.037873
 20
125.52778
 30
0.0
 11
124.225595
 21
125.52778
 31
0.0
  0
LINE
  5
11A15
  8
0
 62
     5
 10
125.633505
 20
125.52778
 30
0.0
 11
125.821226
 21
125.52778
 31
0.0
  0
LINE
  5
11A16
  8
0
 62
     5
 10
123.732948
 20
125.82778
 30
0.0
 11
124.037873
 21
125.82778
 31
0.0
  0
LINE
  5
11A17
  8
0
 62
     5
 10
129.757255
 20
125.22778
 30
0.0
 11
129.757255
 21
125.82778
 31
0.0
  0
LINE
  5
11A18
  8
0
 62
     5
 10
130.054481
 20
125.82778
 30
0.0
 11
130.054481
 21
125.52778
 31
0.0
  0
LINE
  5
11A19
  8
0
 62
     5
 10
130.054481
 20
125.52778
 30
0.0
 11
130.00755
 21
125.22778
 31
0.0
  0
LINE
  5
11A1A
  8
0
 62
     5
 10
127.697834
 20
125.82778
 30
0.0
 11
127.697834
 21
125.22778
 31
0.0
  0
LINE
  5
11A1B
  8
0
  6
CONTINUOUS
 62
     5
 10
121.632899
 20
130.32778
 30
0.0
 11
121.632899
 21
130.72778
 31
0.0
  0
LINE
  5
11A1C
  8
0
 62
     5
 10
124.225595
 20
128.52778
 30
0.0
 11
125.633505
 21
128.52778
 31
0.0
  0
LINE
  5
11A1D
  8
0
 62
     5
 10
121.632899
 20
129.72778
 30
0.0
 11
121.632899
 21
130.72778
 31
0.0
  0
ARC
  5
11A1E
  8
0
 62
     5
 10
120.944599
 20
141.22778
 30
0.0
 40
1.0
 50
180.0
 51
270.0
  0
ARC
  5
11A1F
  8
0
 62
     5
 10
120.944599
 20
150.92778
 30
0.0
 40
1.0
 50
180.0
 51
270.0
  0
LINE
  5
11A20
  8
CENTER
 10
131.744599
 20
118.941182
 30
0.0
 11
131.744599
 21
135.942937
 31
0.0
  0
ARC
  5
11A21
  8
0
 62
     5
 10
138.244599
 20
135.422896
 30
0.0
 40
1.933824
 50
210.580287
 51
270.0
  0
LINE
  5
11A22
  8
0
 62
     5
 10
138.244599
 20
133.309909
 30
0.0
 11
138.244599
 21
139.18727
 31
0.0
  0
LINE
  5
11A23
  8
0
 62
     5
 10
138.944599
 20
139.236267
 30
0.0
 11
138.944599
 21
133.241877
 31
0.0
  0
LINE
  5
11A24
  8
0
 62
     5
 10
139.444599
 20
132.92778
 30
0.0
 11
139.444599
 21
139.732783
 31
0.0
  0
LINE
  5
11A25
  8
HIDDEN
 10
151.498366
 20
117.92778
 30
0.0
 11
150.115603
 21
117.92778
 31
0.0
  0
LINE
  5
11A26
  8
HIDDEN
 10
150.164727
 20
117.92778
 30
0.0
 11
148.934814
 21
117.043239
 31
0.0
  0
LINE
  5
11A27
  8
0
 62
     5
 10
138.153525
 20
125.82778
 30
0.0
 11
138.153525
 21
129.72778
 31
0.0
  0
LINE
  5
11A28
  8
0
 62
     5
 10
139.7563
 20
129.72778
 30
0.0
 11
139.7563
 21
125.82778
 31
0.0
  0
LINE
  5
11A29
  8
0
 62
     5
 10
139.756251
 20
125.82778
 30
0.0
 11
136.375686
 21
125.82778
 31
0.0
  0
LINE
  5
11A2A
  8
0
 62
     5
 10
136.375686
 20
125.52778
 30
0.0
 11
136.375686
 21
125.82778
 31
0.0
  0
LINE
  5
11A2B
  8
0
 62
     5
 10
136.328756
 20
125.22778
 30
0.0
 11
136.375686
 21
125.52778
 31
0.0
  0
LINE
  5
11A2C
  8
0
 62
     5
 10
137.574718
 20
125.22778
 30
0.0
 11
137.574718
 21
125.82778
 31
0.0
  0
LINE
  5
11A2D
  8
0
 62
     5
 10
139.451325
 20
125.82778
 30
0.0
 11
139.451325
 21
125.52778
 31
0.0
  0
LINE
  5
11A2E
  8
0
 62
     5
 10
139.155019
 20
125.22778
 30
0.0
 11
139.451325
 21
125.52778
 31
0.0
  0
LINE
  5
11A2F
  8
0
 62
     5
 10
138.944599
 20
133.239072
 30
0.0
 11
139.444599
 21
133.239072
 31
0.0
  0
LINE
  5
11A30
  8
0
 62
     5
 10
138.944599
 20
133.309909
 30
0.0
 11
138.244599
 21
133.309909
 31
0.0
  0
ARC
  5
11A31
  8
0
 62
     5
 10
139.644599
 20
132.92778
 30
0.0
 40
0.2
 50
180.0
 51
270.0
  0
LINE
  5
11A32
  8
HIDDEN
 10
147.966312
 20
130.32778
 30
0.0
 11
141.8563
 21
130.32778
 31
0.0
  0
ARC
  5
11A33
  8
0
 62
     5
 10
144.144599
 20
132.92778
 30
0.0
 40
0.2
 50
180.0
 51
270.0
  0
LINE
  5
11A34
  8
0
 62
     5
 10
141.8563
 20
129.72778
 30
0.0
 11
141.8563
 21
130.72778
 31
0.0
  0
ARC
  5
11A35
  8
0
 62
     5
 10
143.244599
 20
130.92778
 30
0.0
 40
0.2
 50
270.0
 51
0.0
  0
LINE
  5
11A36
  8
0
 62
     5
 10
143.444599
 20
132.72778
 30
0.0
 11
143.444599
 21
130.92778
 31
0.0
  0
LINE
  5
11A37
  8
HIDDEN
 10
150.164727
 20
129.12778
 30
0.0
 11
148.934814
 21
130.012321
 31
0.0
  0
LINE
  5
11A38
  8
HIDDEN
 10
151.498366
 20
129.12778
 30
0.0
 11
150.115603
 21
129.12778
 31
0.0
  0
LINE
  5
11A39
  8
HIDDEN
 10
152.94601
 20
119.82778
 30
0.0
 11
161.37525
 21
119.82778
 31
0.0
  0
LINE
  5
11A3A
  8
HIDDEN
 10
152.948832
 20
127.22778
 30
0.0
 11
161.37525
 21
127.22778
 31
0.0
  0
LINE
  5
11A3B
  8
HIDDEN
 10
170.39693
 20
127.42778
 30
0.0
 11
170.39693
 21
120.031878
 31
0.0
  0
LINE
  5
11A3C
  8
0
 62
     5
 10
167.790921
 20
127.42778
 30
0.0
 11
167.790921
 21
130.72778
 31
0.0
  0
ARC
  5
11A3D
  8
0
 62
     5
 10
167.873355
 20
130.92778
 30
0.0
 40
0.2
 50
180.0
 51
270.0
  0
LINE
  5
11A3E
  8
0
 62
     5
 10
167.673355
 20
130.92778
 30
0.0
 11
167.673355
 21
132.72778
 31
0.0
  0
ARC
  5
11A3F
  8
0
 62
     5
 10
142.505479
 20
148.181818
 30
0.0
 40
1.0
 50
90.000014
 51
163.042285
  0
LINE
  5
11A40
  8
0
 62
     5
 10
136.444599
 20
143.129834
 30
0.0
 11
136.444599
 21
149.42778
 31
0.0
  0
LINE
  5
11A41
  8
0
 62
     5
 10
139.444599
 20
149.62778
 30
0.0
 11
139.444599
 21
143.077186
 31
0.0
  0
LINE
  5
11A42
  8
0
 62
     5
 10
143.244599
 20
143.502655
 30
0.0
 11
143.244599
 21
149.380016
 31
0.0
  0
LINE
  5
11A43
  8
0
 62
     5
 10
139.444599
 20
143.086336
 30
0.0
 11
143.944599
 21
143.086336
 31
0.0
  0
ARC
  5
11A44
  8
0
 62
     5
 10
142.505479
 20
144.681818
 30
0.0
 40
1.0
 50
196.957715
 51
269.999986
  0
LINE
  5
11A45
  8
0
 62
     5
 10
136.579738
 20
135.959072
 30
0.0
 11
136.360032
 21
135.959072
 31
0.0
  0
LINE
  5
11A46
  8
0
 62
     5
 10
136.360032
 20
136.519072
 30
0.0
 11
136.579738
 21
136.519072
 31
0.0
  0
ARC
  5
11A47
  8
0
 62
     5
 10
138.244599
 20
137.055249
 30
0.0
 40
1.933824
 50
90.0
 51
149.419713
  0
LINE
  5
11A48
  8
0
 62
     5
 10
136.336036
 20
135.871303
 30
0.0
 11
136.336036
 21
135.173004
 31
0.0
  0
LINE
  5
11A49
  8
0
 62
     5
 10
136.336036
 20
136.606842
 30
0.0
 11
136.336036
 21
137.30514
 31
0.0
  0
LINE
  5
11A4A
  8
0
 62
     5
 10
138.944599
 20
139.239072
 30
0.0
 11
138.944599
 21
140.231115
 31
0.0
  0
LINE
  5
11A4B
  8
0
 62
     5
 10
138.944599
 20
139.189072
 30
0.0
 11
138.244599
 21
139.189072
 31
0.0
  0
LINE
  5
11A4C
  8
0
 62
     5
 10
138.944599
 20
139.239072
 30
0.0
 11
139.444599
 21
139.239072
 31
0.0
  0
ARC
  5
11A4D
  8
0
 62
     5
 10
138.944599
 20
139.72778
 30
0.0
 40
0.5
 50
0.0
 51
90.0
  0
LINE
  5
11A4E
  8
0
 62
     5
 10
136.579738
 20
138.039072
 30
0.0
 11
136.579738
 21
138.017161
 31
0.0
  0
LINE
  5
11A4F
  8
0
 62
     5
 10
136.579738
 20
136.519072
 30
0.0
 11
136.579738
 21
135.959072
 31
0.0
  0
LINE
  5
11A50
  8
0
 62
     5
 10
136.579738
 20
134.460983
 30
0.0
 11
136.579738
 21
134.439072
 31
0.0
  0
POLYLINE
  5
11A51
  8
0
 62
     5
 66
     1
 10
0.0
 20
0.0
 30
0.0
  0
VERTEX
  5
121EB
  8
0
 62
     5
 10
136.444599
 20
143.594943
 30
0.0
  0
VERTEX
  5
121EC
  8
0
 62
     5
 10
136.44567
 20
143.562338
 30
0.0
  0
VERTEX
  5
121ED
  8
0
 62
     5
 10
136.448877
 20
143.529872
 30
0.0
  0
VERTEX
  5
121EE
  8
0
 62
     5
 10
136.454207
 20
143.497684
 30
0.0
  0
VERTEX
  5
121EF
  8
0
 62
     5
 10
136.461637
 20
143.465913
 30
0.0
  0
VERTEX
  5
121F0
  8
0
 62
     5
 10
136.471134
 20
143.434695
 30
0.0
  0
VERTEX
  5
121F1
  8
0
 62
     5
 10
136.48266
 20
143.404163
 30
0.0
  0
VERTEX
  5
121F2
  8
0
 62
     5
 10
136.496163
 20
143.374447
 30
0.0
  0
VERTEX
  5
121F3
  8
0
 62
     5
 10
136.511587
 20
143.345676
 30
0.0
  0
VERTEX
  5
121F4
  8
0
 62
     5
 10
136.528865
 20
143.317973
 30
0.0
  0
VERTEX
  5
121F5
  8
0
 62
     5
 10
136.547923
 20
143.291455
 30
0.0
  0
VERTEX
  5
121F6
  8
0
 62
     5
 10
136.568679
 20
143.266237
 30
0.0
  0
VERTEX
  5
121F7
  8
0
 62
     5
 10
136.591046
 20
143.242426
 30
0.0
  0
VERTEX
  5
121F8
  8
0
 62
     5
 10
136.614926
 20
143.220125
 30
0.0
  0
VERTEX
  5
121F9
  8
0
 62
     5
 10
136.640219
 20
143.19943
 30
0.0
  0
VERTEX
  5
121FA
  8
0
 62
     5
 10
136.666814
 20
143.180427
 30
0.0
  0
VERTEX
  5
121FB
  8
0
 62
     5
 10
136.694599
 20
143.1632
 30
0.0
  0
VERTEX
  5
121FC
  8
0
 62
     5
 10
136.723455
 20
143.147822
 30
0.0
  0
VERTEX
  5
121FD
  8
0
 62
     5
 10
136.753258
 20
143.134358
 30
0.0
  0
VERTEX
  5
121FE
  8
0
 62
     5
 10
136.78388
 20
143.122866
 30
0.0
  0
VERTEX
  5
121FF
  8
0
 62
     5
 10
136.81519
 20
143.113396
 30
0.0
  0
VERTEX
  5
12200
  8
0
 62
     5
 10
136.847054
 20
143.105988
 30
0.0
  0
VERTEX
  5
12201
  8
0
 62
     5
 10
136.879336
 20
143.100674
 30
0.0
  0
VERTEX
  5
12202
  8
0
 62
     5
 10
136.911898
 20
143.097477
 30
0.0
  0
VERTEX
  5
12203
  8
0
 62
     5
 10
136.944599
 20
143.096409
 30
0.0
  0
SEQEND
  5
12204
  8
0
 62
     5
  0
POLYLINE
  5
11A6C
  8
0
 62
     5
 66
     1
 10
0.0
 20
0.0
 30
0.0
 70
     8
  0
VERTEX
  5
11A6D
  8
0
 62
     5
 10
136.445
 20
143.107
 30
0.0
 70
    32
  0
VERTEX
  5
11A6E
  8
0
 62
     5
 10
136.445
 20
143.107
 30
0.0
 70
    32
  0
VERTEX
  5
11A6F
  8
0
 62
     5
 10
136.445
 20
143.107
 30
0.0
 70
    32
  0
VERTEX
  5
11A70
  8
0
 62
     5
 10
136.445
 20
143.107
 30
0.0
 70
    32
  0
VERTEX
  5
11A71
  8
0
 62
     5
 10
136.445
 20
143.107
 30
0.0
 70
    32
  0
VERTEX
  5
11A72
  8
0
 62
     5
 10
136.445
 20
143.108
 30
0.0
 70
    32
  0
VERTEX
  5
11A73
  8
0
 62
     5
 10
136.445
 20
143.108
 30
0.0
 70
    32
  0
VERTEX
  5
11A74
  8
0
 62
     5
 10
136.445
 20
143.108
 30
0.0
 70
    32
  0
VERTEX
  5
11A75
  8
0
 62
     5
 10
136.445
 20
143.108
 30
0.0
 70
    32
  0
VERTEX
  5
11A76
  8
0
 62
     5
 10
136.445
 20
143.108
 30
0.0
 70
    32
  0
VERTEX
  5
11A77
  8
0
 62
     5
 10
136.445
 20
143.108
 30
0.0
 70
    32
  0
VERTEX
  5
11A78
  8
0
 62
     5
 10
136.445
 20
143.108
 30
0.0
 70
    32
  0
VERTEX
  5
11A79
  8
0
 62
     5
 10
136.445
 20
143.109
 30
0.0
 70
    32
  0
VERTEX
  5
11A7A
  8
0
 62
     5
 10
136.445
 20
143.109
 30
0.0
 70
    32
  0
VERTEX
  5
11A7B
  8
0
 62
     5
 10
136.445
 20
143.109
 30
0.0
 70
    32
  0
VERTEX
  5
11A7C
  8
0
 62
     5
 10
136.445
 20
143.109
 30
0.0
 70
    32
  0
VERTEX
  5
11A7D
  8
0
 62
     5
 10
136.445
 20
143.109
 30
0.0
 70
    32
  0
VERTEX
  5
11A7E
  8
0
 62
     5
 10
136.445
 20
143.109
 30
0.0
 70
    32
  0
VERTEX
  5
11A7F
  8
0
 62
     5
 10
136.445
 20
143.109
 30
0.0
 70
    32
  0
VERTEX
  5
11A80
  8
0
 62
     5
 10
136.445
 20
143.11
 30
0.0
 70
    32
  0
VERTEX
  5
11A81
  8
0
 62
     5
 10
136.445
 20
143.11
 30
0.0
 70
    32
  0
VERTEX
  5
11A82
  8
0
 62
     5
 10
136.445
 20
143.11
 30
0.0
 70
    32
  0
VERTEX
  5
11A83
  8
0
 62
     5
 10
136.445
 20
143.11
 30
0.0
 70
    32
  0
VERTEX
  5
11A84
  8
0
 62
     5
 10
136.445
 20
143.11
 30
0.0
 70
    32
  0
VERTEX
  5
11A85
  8
0
 62
     5
 10
136.445
 20
143.11
 30
0.0
 70
    32
  0
VERTEX
  5
11A86
  8
0
 62
     5
 10
136.445
 20
143.11
 30
0.0
 70
    32
  0
VERTEX
  5
11A87
  8
0
 62
     5
 10
136.445
 20
143.111
 30
0.0
 70
    32
  0
VERTEX
  5
11A88
  8
0
 62
     5
 10
136.445
 20
143.111
 30
0.0
 70
    32
  0
VERTEX
  5
11A89
  8
0
 62
     5
 10
136.445
 20
143.111
 30
0.0
 70
    32
  0
VERTEX
  5
11A8A
  8
0
 62
     5
 10
136.445
 20
143.111
 30
0.0
 70
    32
  0
VERTEX
  5
11A8B
  8
0
 62
     5
 10
136.445
 20
143.111
 30
0.0
 70
    32
  0
VERTEX
  5
11A8C
  8
0
 62
     5
 10
136.445
 20
143.111
 30
0.0
 70
    32
  0
VERTEX
  5
11A8D
  8
0
 62
     5
 10
136.445
 20
143.111
 30
0.0
 70
    32
  0
VERTEX
  5
11A8E
  8
0
 62
     5
 10
136.445
 20
143.112
 30
0.0
 70
    32
  0
VERTEX
  5
11A8F
  8
0
 62
     5
 10
136.445
 20
143.112
 30
0.0
 70
    32
  0
VERTEX
  5
11A90
  8
0
 62
     5
 10
136.445
 20
143.112
 30
0.0
 70
    32
  0
VERTEX
  5
11A91
  8
0
 62
     5
 10
136.445
 20
143.112
 30
0.0
 70
    32
  0
VERTEX
  5
11A92
  8
0
 62
     5
 10
136.445
 20
143.112
 30
0.0
 70
    32
  0
VERTEX
  5
11A93
  8
0
 62
     5
 10
136.445
 20
143.112
 30
0.0
 70
    32
  0
VERTEX
  5
11A94
  8
0
 62
     5
 10
136.445
 20
143.112
 30
0.0
 70
    32
  0
VERTEX
  5
11A95
  8
0
 62
     5
 10
136.445
 20
143.113
 30
0.0
 70
    32
  0
VERTEX
  5
11A96
  8
0
 62
     5
 10
136.445
 20
143.113
 30
0.0
 70
    32
  0
VERTEX
  5
11A97
  8
0
 62
     5
 10
136.445
 20
143.113
 30
0.0
 70
    32
  0
VERTEX
  5
11A98
  8
0
 62
     5
 10
136.445
 20
143.113
 30
0.0
 70
    32
  0
VERTEX
  5
11A99
  8
0
 62
     5
 10
136.445
 20
143.113
 30
0.0
 70
    32
  0
VERTEX
  5
11A9A
  8
0
 62
     5
 10
136.445
 20
143.113
 30
0.0
 70
    32
  0
VERTEX
  5
11A9B
  8
0
 62
     5
 10
136.445
 20
143.114
 30
0.0
 70
    32
  0
VERTEX
  5
11A9C
  8
0
 62
     5
 10
136.445
 20
143.114
 30
0.0
 70
    32
  0
VERTEX
  5
11A9D
  8
0
 62
     5
 10
136.445
 20
143.114
 30
0.0
 70
    32
  0
VERTEX
  5
11A9E
  8
0
 62
     5
 10
136.445
 20
143.114
 30
0.0
 70
    32
  0
VERTEX
  5
11A9F
  8
0
 62
     5
 10
136.445
 20
143.114
 30
0.0
 70
    32
  0
VERTEX
  5
11AA0
  8
0
 62
     5
 10
136.445
 20
143.114
 30
0.0
 70
    32
  0
VERTEX
  5
11AA1
  8
0
 62
     5
 10
136.445
 20
143.114
 30
0.0
 70
    32
  0
VERTEX
  5
11AA2
  8
0
 62
     5
 10
136.445
 20
143.115
 30
0.0
 70
    32
  0
VERTEX
  5
11AA3
  8
0
 62
     5
 10
136.445
 20
143.115
 30
0.0
 70
    32
  0
VERTEX
  5
11AA4
  8
0
 62
     5
 10
136.445
 20
143.115
 30
0.0
 70
    32
  0
VERTEX
  5
11AA5
  8
0
 62
     5
 10
136.445
 20
143.115
 30
0.0
 70
    32
  0
VERTEX
  5
11AA6
  8
0
 62
     5
 10
136.445
 20
143.115
 30
0.0
 70
    32
  0
VERTEX
  5
11AA7
  8
0
 62
     5
 10
136.445
 20
143.115
 30
0.0
 70
    32
  0
VERTEX
  5
11AA8
  8
0
 62
     5
 10
136.445
 20
143.115
 30
0.0
 70
    32
  0
VERTEX
  5
11AA9
  8
0
 62
     5
 10
136.445
 20
143.116
 30
0.0
 70
    32
  0
VERTEX
  5
11AAA
  8
0
 62
     5
 10
136.445
 20
143.116
 30
0.0
 70
    32
  0
VERTEX
  5
11AAB
  8
0
 62
     5
 10
136.445
 20
143.116
 30
0.0
 70
    32
  0
VERTEX
  5
11AAC
  8
0
 62
     5
 10
136.445
 20
143.116
 30
0.0
 70
    32
  0
VERTEX
  5
11AAD
  8
0
 62
     5
 10
136.445
 20
143.116
 30
0.0
 70
    32
  0
VERTEX
  5
11AAE
  8
0
 62
     5
 10
136.445
 20
143.116
 30
0.0
 70
    32
  0
VERTEX
  5
11AAF
  8
0
 62
     5
 10
136.445
 20
143.116
 30
0.0
 70
    32
  0
VERTEX
  5
11AB0
  8
0
 62
     5
 10
136.445
 20
143.117
 30
0.0
 70
    32
  0
VERTEX
  5
11AB1
  8
0
 62
     5
 10
136.445
 20
143.117
 30
0.0
 70
    32
  0
VERTEX
  5
11AB2
  8
0
 62
     5
 10
136.445
 20
143.117
 30
0.0
 70
    32
  0
VERTEX
  5
11AB3
  8
0
 62
     5
 10
136.445
 20
143.117
 30
0.0
 70
    32
  0
VERTEX
  5
11AB4
  8
0
 62
     5
 10
136.445
 20
143.117
 30
0.0
 70
    32
  0
VERTEX
  5
11AB5
  8
0
 62
     5
 10
136.445
 20
143.117
 30
0.0
 70
    32
  0
VERTEX
  5
11AB6
  8
0
 62
     5
 10
136.445
 20
143.117
 30
0.0
 70
    32
  0
VERTEX
  5
11AB7
  8
0
 62
     5
 10
136.445
 20
143.118
 30
0.0
 70
    32
  0
VERTEX
  5
11AB8
  8
0
 62
     5
 10
136.445
 20
143.118
 30
0.0
 70
    32
  0
VERTEX
  5
11AB9
  8
0
 62
     5
 10
136.445
 20
143.118
 30
0.0
 70
    32
  0
VERTEX
  5
11ABA
  8
0
 62
     5
 10
136.445
 20
143.118
 30
0.0
 70
    32
  0
VERTEX
  5
11ABB
  8
0
 62
     5
 10
136.445
 20
143.118
 30
0.0
 70
    32
  0
VERTEX
  5
11ABC
  8
0
 62
     5
 10
136.445
 20
143.118
 30
0.0
 70
    32
  0
VERTEX
  5
11ABD
  8
0
 62
     5
 10
136.445
 20
143.118
 30
0.0
 70
    32
  0
VERTEX
  5
11ABE
  8
0
 62
     5
 10
136.445
 20
143.119
 30
0.0
 70
    32
  0
VERTEX
  5
11ABF
  8
0
 62
     5
 10
136.445
 20
143.119
 30
0.0
 70
    32
  0
VERTEX
  5
11AC0
  8
0
 62
     5
 10
136.445
 20
143.119
 30
0.0
 70
    32
  0
VERTEX
  5
11AC1
  8
0
 62
     5
 10
136.445
 20
143.119
 30
0.0
 70
    32
  0
VERTEX
  5
11AC2
  8
0
 62
     5
 10
136.445
 20
143.119
 30
0.0
 70
    32
  0
VERTEX
  5
11AC3
  8
0
 62
     5
 10
136.445
 20
143.119
 30
0.0
 70
    32
  0
VERTEX
  5
11AC4
  8
0
 62
     5
 10
136.445
 20
143.119
 30
0.0
 70
    32
  0
VERTEX
  5
11AC5
  8
0
 62
     5
 10
136.445
 20
143.12
 30
0.0
 70
    32
  0
VERTEX
  5
11AC6
  8
0
 62
     5
 10
136.445
 20
143.12
 30
0.0
 70
    32
  0
VERTEX
  5
11AC7
  8
0
 62
     5
 10
136.445
 20
143.12
 30
0.0
 70
    32
  0
VERTEX
  5
11AC8
  8
0
 62
     5
 10
136.445
 20
143.12
 30
0.0
 70
    32
  0
VERTEX
  5
11AC9
  8
0
 62
     5
 10
136.445
 20
143.12
 30
0.0
 70
    32
  0
VERTEX
  5
11ACA
  8
0
 62
     5
 10
136.445
 20
143.12
 30
0.0
 70
    32
  0
VERTEX
  5
11ACB
  8
0
 62
     5
 10
136.445
 20
143.12
 30
0.0
 70
    32
  0
VERTEX
  5
11ACC
  8
0
 62
     5
 10
136.445
 20
143.121
 30
0.0
 70
    32
  0
VERTEX
  5
11ACD
  8
0
 62
     5
 10
136.445
 20
143.121
 30
0.0
 70
    32
  0
VERTEX
  5
11ACE
  8
0
 62
     5
 10
136.445
 20
143.121
 30
0.0
 70
    32
  0
VERTEX
  5
11ACF
  8
0
 62
     5
 10
136.445
 20
143.121
 30
0.0
 70
    32
  0
VERTEX
  5
11AD0
  8
0
 62
     5
 10
136.445
 20
143.121
 30
0.0
 70
    32
  0
VERTEX
  5
11AD1
  8
0
 62
     5
 10
136.445
 20
143.121
 30
0.0
 70
    32
  0
VERTEX
  5
11AD2
  8
0
 62
     5
 10
136.445
 20
143.121
 30
0.0
 70
    32
  0
VERTEX
  5
11AD3
  8
0
 62
     5
 10
136.445
 20
143.122
 30
0.0
 70
    32
  0
VERTEX
  5
11AD4
  8
0
 62
     5
 10
136.445
 20
143.122
 30
0.0
 70
    32
  0
VERTEX
  5
11AD5
  8
0
 62
     5
 10
136.445
 20
143.122
 30
0.0
 70
    32
  0
VERTEX
  5
11AD6
  8
0
 62
     5
 10
136.445
 20
143.122
 30
0.0
 70
    32
  0
VERTEX
  5
11AD7
  8
0
 62
     5
 10
136.445
 20
143.122
 30
0.0
 70
    32
  0
VERTEX
  5
11AD8
  8
0
 62
     5
 10
136.445
 20
143.122
 30
0.0
 70
    32
  0
VERTEX
  5
11AD9
  8
0
 62
     5
 10
136.445
 20
143.122
 30
0.0
 70
    32
  0
VERTEX
  5
11ADA
  8
0
 62
     5
 10
136.445
 20
143.123
 30
0.0
 70
    32
  0
VERTEX
  5
11ADB
  8
0
 62
     5
 10
136.445
 20
143.123
 30
0.0
 70
    32
  0
VERTEX
  5
11ADC
  8
0
 62
     5
 10
136.445
 20
143.123
 30
0.0
 70
    32
  0
VERTEX
  5
11ADD
  8
0
 62
     5
 10
136.445
 20
143.123
 30
0.0
 70
    32
  0
VERTEX
  5
11ADE
  8
0
 62
     5
 10
136.445
 20
143.123
 30
0.0
 70
    32
  0
VERTEX
  5
11ADF
  8
0
 62
     5
 10
136.445
 20
143.123
 30
0.0
 70
    32
  0
VERTEX
  5
11AE0
  8
0
 62
     5
 10
136.445
 20
143.123
 30
0.0
 70
    32
  0
VERTEX
  5
11AE1
  8
0
 62
     5
 10
136.445
 20
143.124
 30
0.0
 70
    32
  0
VERTEX
  5
11AE2
  8
0
 62
     5
 10
136.445
 20
143.124
 30
0.0
 70
    32
  0
VERTEX
  5
11AE3
  8
0
 62
     5
 10
136.445
 20
143.124
 30
0.0
 70
    32
  0
VERTEX
  5
11AE4
  8
0
 62
     5
 10
136.445
 20
143.124
 30
0.0
 70
    32
  0
VERTEX
  5
11AE5
  8
0
 62
     5
 10
136.445
 20
143.124
 30
0.0
 70
    32
  0
VERTEX
  5
11AE6
  8
0
 62
     5
 10
136.445
 20
143.124
 30
0.0
 70
    32
  0
VERTEX
  5
11AE7
  8
0
 62
     5
 10
136.445
 20
143.124
 30
0.0
 70
    32
  0
VERTEX
  5
11AE8
  8
0
 62
     5
 10
136.445
 20
143.125
 30
0.0
 70
    32
  0
VERTEX
  5
11AE9
  8
0
 62
     5
 10
136.445
 20
143.125
 30
0.0
 70
    32
  0
VERTEX
  5
11AEA
  8
0
 62
     5
 10
136.445
 20
143.125
 30
0.0
 70
    32
  0
VERTEX
  5
11AEB
  8
0
 62
     5
 10
136.445
 20
143.125
 30
0.0
 70
    32
  0
VERTEX
  5
11AEC
  8
0
 62
     5
 10
136.445
 20
143.125
 30
0.0
 70
    32
  0
VERTEX
  5
11AED
  8
0
 62
     5
 10
136.445
 20
143.125
 30
0.0
 70
    32
  0
VERTEX
  5
11AEE
  8
0
 62
     5
 10
136.445
 20
143.125
 30
0.0
 70
    32
  0
VERTEX
  5
11AEF
  8
0
 62
     5
 10
136.445
 20
143.126
 30
0.0
 70
    32
  0
VERTEX
  5
11AF0
  8
0
 62
     5
 10
136.445
 20
143.126
 30
0.0
 70
    32
  0
VERTEX
  5
11AF1
  8
0
 62
     5
 10
136.445
 20
143.126
 30
0.0
 70
    32
  0
VERTEX
  5
11AF2
  8
0
 62
     5
 10
136.445
 20
143.126
 30
0.0
 70
    32
  0
VERTEX
  5
11AF3
  8
0
 62
     5
 10
136.445
 20
143.126
 30
0.0
 70
    32
  0
VERTEX
  5
11AF4
  8
0
 62
     5
 10
136.445
 20
143.126
 30
0.0
 70
    32
  0
VERTEX
  5
11AF5
  8
0
 62
     5
 10
136.445
 20
143.127
 30
0.0
 70
    32
  0
VERTEX
  5
11AF6
  8
0
 62
     5
 10
136.445
 20
143.127
 30
0.0
 70
    32
  0
VERTEX
  5
11AF7
  8
0
 62
     5
 10
136.445
 20
143.127
 30
0.0
 70
    32
  0
VERTEX
  5
11AF8
  8
0
 62
     5
 10
136.445
 20
143.127
 30
0.0
 70
    32
  0
VERTEX
  5
11AF9
  8
0
 62
     5
 10
136.445
 20
143.127
 30
0.0
 70
    32
  0
VERTEX
  5
11AFA
  8
0
 62
     5
 10
136.445
 20
143.127
 30
0.0
 70
    32
  0
VERTEX
  5
11AFB
  8
0
 62
     5
 10
136.445
 20
143.127
 30
0.0
 70
    32
  0
VERTEX
  5
11AFC
  8
0
 62
     5
 10
136.445
 20
143.128
 30
0.0
 70
    32
  0
VERTEX
  5
11AFD
  8
0
 62
     5
 10
136.445
 20
143.128
 30
0.0
 70
    32
  0
VERTEX
  5
11AFE
  8
0
 62
     5
 10
136.445
 20
143.128
 30
0.0
 70
    32
  0
VERTEX
  5
11AFF
  8
0
 62
     5
 10
136.445
 20
143.128
 30
0.0
 70
    32
  0
VERTEX
  5
11B00
  8
0
 62
     5
 10
136.445
 20
143.128
 30
0.0
 70
    32
  0
VERTEX
  5
11B01
  8
0
 62
     5
 10
136.445
 20
143.128
 30
0.0
 70
    32
  0
VERTEX
  5
11B02
  8
0
 62
     5
 10
136.445
 20
143.128
 30
0.0
 70
    32
  0
VERTEX
  5
11B03
  8
0
 62
     5
 10
136.445
 20
143.129
 30
0.0
 70
    32
  0
VERTEX
  5
11B04
  8
0
 62
     5
 10
136.445
 20
143.129
 30
0.0
 70
    32
  0
VERTEX
  5
11B05
  8
0
 62
     5
 10
136.445
 20
143.129
 30
0.0
 70
    32
  0
VERTEX
  5
11B06
  8
0
 62
     5
 10
136.445
 20
143.129
 30
0.0
 70
    32
  0
VERTEX
  5
11B07
  8
0
 62
     5
 10
136.445
 20
143.129
 30
0.0
 70
    32
  0
VERTEX
  5
11B08
  8
0
 62
     5
 10
136.445
 20
143.129
 30
0.0
 70
    32
  0
VERTEX
  5
11B09
  8
0
 62
     5
 10
136.445
 20
143.129
 30
0.0
 70
    32
  0
VERTEX
  5
11B0A
  8
0
 62
     5
 10
136.445
 20
143.13
 30
0.0
 70
    32
  0
VERTEX
  5
11B0B
  8
0
 62
     5
 10
136.445
 20
143.13
 30
0.0
 70
    32
  0
VERTEX
  5
11B0C
  8
0
 62
     5
 10
136.445
 20
143.13
 30
0.0
 70
    32
  0
SEQEND
  5
11B0D
  8
0
 62
     5
  0
LINE
  5
11B0E
  8
0
 62
     5
 10
136.445046
 20
143.106863
 30
0.0
 11
135.945493
 21
143.086336
 31
0.0
  0
LINE
  5
11B0F
  8
0
 62
     5
 10
141.493488
 20
144.581818
 30
0.0
 11
141.548959
 21
144.390152
 31
0.0
  0
LINE
  5
11B10
  8
0
 62
     5
 10
141.493488
 20
148.281818
 30
0.0
 11
141.493488
 21
148.260506
 31
0.0
  0
LINE
  5
11B11
  8
0
 62
     5
 10
141.493488
 20
146.711818
 30
0.0
 11
141.493488
 21
146.151818
 31
0.0
  0
LINE
  5
11B12
  8
0
 62
     5
 10
141.493488
 20
144.60313
 30
0.0
 11
141.493488
 21
144.581818
 31
0.0
  0
LINE
  5
11B13
  8
0
 62
     5
 10
141.493488
 20
148.281818
 30
0.0
 11
141.548959
 21
148.473484
 31
0.0
  0
LINE
  5
11B14
  8
0
 62
     5
 10
141.493488
 20
146.151818
 30
0.0
 11
141.366225
 21
146.151818
 31
0.0
  0
LINE
  5
11B15
  8
0
 62
     5
 10
141.366225
 20
146.711818
 30
0.0
 11
141.493488
 21
146.711818
 31
0.0
  0
POLYLINE
  5
11B16
  8
0
 62
     5
 66
     1
 10
0.0
 20
0.0
 30
0.0
  0
VERTEX
  5
12205
  8
0
 62
     5
 10
139.444599
 20
143.594943
 30
0.0
  0
VERTEX
  5
12206
  8
0
 62
     5
 10
139.443529
 20
143.562338
 30
0.0
  0
VERTEX
  5
12207
  8
0
 62
     5
 10
139.440322
 20
143.529871
 30
0.0
  0
VERTEX
  5
12208
  8
0
 62
     5
 10
139.434992
 20
143.497684
 30
0.0
  0
VERTEX
  5
12209
  8
0
 62
     5
 10
139.427562
 20
143.465913
 30
0.0
  0
VERTEX
  5
1220A
  8
0
 62
     5
 10
139.418065
 20
143.434695
 30
0.0
  0
VERTEX
  5
1220B
  8
0
 62
     5
 10
139.406539
 20
143.404162
 30
0.0
  0
VERTEX
  5
1220C
  8
0
 62
     5
 10
139.393036
 20
143.374447
 30
0.0
  0
VERTEX
  5
1220D
  8
0
 62
     5
 10
139.377612
 20
143.345676
 30
0.0
  0
VERTEX
  5
1220E
  8
0
 62
     5
 10
139.360334
 20
143.317973
 30
0.0
  0
VERTEX
  5
1220F
  8
0
 62
     5
 10
139.341276
 20
143.291455
 30
0.0
  0
VERTEX
  5
12210
  8
0
 62
     5
 10
139.320519
 20
143.266237
 30
0.0
  0
VERTEX
  5
12211
  8
0
 62
     5
 10
139.298153
 20
143.242426
 30
0.0
  0
VERTEX
  5
12212
  8
0
 62
     5
 10
139.274272
 20
143.220125
 30
0.0
  0
VERTEX
  5
12213
  8
0
 62
     5
 10
139.24898
 20
143.19943
 30
0.0
  0
VERTEX
  5
12214
  8
0
 62
     5
 10
139.222385
 20
143.180427
 30
0.0
  0
VERTEX
  5
12215
  8
0
 62
     5
 10
139.194599
 20
143.1632
 30
0.0
  0
VERTEX
  5
12216
  8
0
 62
     5
 10
139.165744
 20
143.147822
 30
0.0
  0
VERTEX
  5
12217
  8
0
 62
     5
 10
139.135941
 20
143.134358
 30
0.0
  0
VERTEX
  5
12218
  8
0
 62
     5
 10
139.105319
 20
143.122866
 30
0.0
  0
VERTEX
  5
12219
  8
0
 62
     5
 10
139.074009
 20
143.113396
 30
0.0
  0
VERTEX
  5
1221A
  8
0
 62
     5
 10
139.042145
 20
143.105988
 30
0.0
  0
VERTEX
  5
1221B
  8
0
 62
     5
 10
139.009863
 20
143.100674
 30
0.0
  0
VERTEX
  5
1221C
  8
0
 62
     5
 10
138.977301
 20
143.097477
 30
0.0
  0
VERTEX
  5
1221D
  8
0
 62
     5
 10
138.944599
 20
143.096409
 30
0.0
  0
SEQEND
  5
1221E
  8
0
 62
     5
  0
LINE
  5
11B31
  8
0
 62
     5
 10
136.944599
 20
143.096409
 30
0.0
 11
138.944599
 21
143.096409
 31
0.0
  0
LINE
  5
11B32
  8
0
 62
     5
 10
143.944599
 20
143.502655
 30
0.0
 11
143.244599
 21
143.502655
 31
0.0
  0
LINE
  5
11B33
  8
0
 62
     5
 10
142.505479
 20
143.681818
 30
0.0
 11
143.244599
 21
143.681818
 31
0.0
  0
LINE
  5
11B34
  8
0
 62
     5
 10
143.944599
 20
149.92778
 30
0.0
 11
139.744599
 21
149.92778
 31
0.0
  0
ARC
  5
11B35
  8
0
 62
     5
 10
135.944599
 20
149.42778
 30
0.0
 40
0.5
 50
0.0
 51
90.0
  0
ARC
  5
11B36
  8
0
 62
     5
 10
139.744599
 20
149.62778
 30
0.0
 40
0.3
 50
90.0
 51
180.0
  0
LINE
  5
11B37
  8
0
 62
     5
 10
142.505479
 20
149.181818
 30
0.0
 11
143.244599
 21
149.181818
 31
0.0
  0
LINE
  5
11B38
  8
0
 62
     5
 10
143.944599
 20
149.381818
 30
0.0
 11
143.244599
 21
149.381818
 31
0.0
  0
LINE
  5
11B39
  8
0
 62
     5
 10
120.944599
 20
185.72778
 30
0.0
 11
135.945493
 21
185.72778
 31
0.0
  0
LINE
  5
11B3A
  8
0
 62
     5
 10
138.944599
 20
175.22778
 30
0.0
 11
120.944599
 21
175.22778
 31
0.0
  0
LINE
  5
11B3B
  8
0
 62
     5
 10
119.944599
 20
182.671759
 30
0.0
 11
139.444599
 21
182.671759
 31
0.0
  0
LINE
  5
11B3C
  8
0
 62
     5
 10
120.944599
 20
192.72778
 30
0.0
 11
143.944599
 21
192.72778
 31
0.0
  0
ARC
  5
11B3D
  8
0
 62
     5
 10
120.944599
 20
191.72778
 30
0.0
 40
1.0
 50
90.0
 51
180.0
  0
ARC
  5
11B3E
  8
0
 62
     5
 10
120.944599
 20
174.22778
 30
0.0
 40
1.0
 50
90.0
 51
180.0
  0
ARC
  5
11B3F
  8
0
 62
     5
 10
120.944599
 20
184.72778
 30
0.0
 40
1.0
 50
90.0
 51
180.0
  0
LINE
  5
11B40
  8
0
 62
     5
 10
143.444599
 20
192.72778
 30
0.0
 11
143.444599
 21
192.166488
 31
0.0
  0
ARC
  5
11B41
  8
0
 62
     5
 10
136.944599
 20
192.22778
 30
0.0
 40
0.5
 50
90.0
 51
180.0
  0
ARC
  5
11B42
  8
0
 62
     5
 10
138.944599
 20
192.22778
 30
0.0
 40
0.5
 50
0.0
 51
90.0
  0
LINE
  5
11B43
  8
0
 62
     5
 10
139.444599
 20
175.72778
 30
0.0
 11
139.444599
 21
182.671759
 31
0.0
  0
LINE
  5
11B44
  8
0
 62
     5
 10
138.244599
 20
176.094578
 30
0.0
 11
138.244599
 21
181.97194
 31
0.0
  0
LINE
  5
11B45
  8
0
 62
     5
 10
138.944599
 20
182.020937
 30
0.0
 11
138.944599
 21
176.026547
 31
0.0
  0
ARC
  5
11B46
  8
0
 62
     5
 10
138.244599
 20
178.207565
 30
0.0
 40
1.933824
 50
210.580287
 51
270.0
  0
LINE
  5
11B47
  8
0
 62
     5
 10
136.579738
 20
177.245653
 30
0.0
 11
136.579738
 21
177.223742
 31
0.0
  0
LINE
  5
11B48
  8
0
 62
     5
 10
138.944599
 20
176.023742
 30
0.0
 11
139.444599
 21
176.023742
 31
0.0
  0
LINE
  5
11B49
  8
0
 62
     5
 10
138.944599
 20
176.094578
 30
0.0
 11
138.244599
 21
176.094578
 31
0.0
  0
ARC
  5
11B4A
  8
0
 62
     5
 10
138.944599
 20
175.72778
 30
0.0
 40
0.5
 50
270.0
 51
0.0
  0
ARC
  5
11B4B
  8
0
 62
     5
 10
142.505479
 20
190.966488
 30
0.0
 40
1.0
 50
90.000014
 51
163.042285
  0
ARC
  5
11B4C
  8
0
 62
     5
 10
142.505479
 20
187.466488
 30
0.0
 40
1.0
 50
196.957715
 51
269.999986
  0
LINE
  5
11B4D
  8
0
 62
     5
 10
139.744599
 20
185.72778
 30
0.0
 11
143.444599
 21
185.72778
 31
0.0
  0
LINE
  5
11B4E
  8
0
 62
     5
 10
143.444599
 20
182.686455
 30
0.0
 11
139.644599
 21
182.686455
 31
0.0
  0
LINE
  5
11B4F
  8
0
 62
     5
 10
136.360032
 20
179.303742
 30
0.0
 11
136.579738
 21
179.303742
 31
0.0
  0
ARC
  5
11B50
  8
0
 62
     5
 10
138.244599
 20
179.839918
 30
0.0
 40
1.933824
 50
90.0
 51
149.419713
  0
LINE
  5
11B51
  8
0
 62
     5
 10
136.579738
 20
178.743742
 30
0.0
 11
136.360032
 21
178.743742
 31
0.0
  0
LINE
  5
11B52
  8
0
 62
     5
 10
136.336036
 20
179.391511
 30
0.0
 11
136.336036
 21
180.08981
 31
0.0
  0
LINE
  5
11B53
  8
0
 62
     5
 10
136.336036
 20
178.655972
 30
0.0
 11
136.336036
 21
177.957674
 31
0.0
  0
LINE
  5
11B54
  8
0
 62
     5
 10
136.579738
 20
180.823742
 30
0.0
 11
136.579738
 21
180.801831
 31
0.0
  0
LINE
  5
11B55
  8
0
 62
     5
 10
138.944599
 20
181.973742
 30
0.0
 11
138.244599
 21
181.973742
 31
0.0
  0
LINE
  5
11B56
  8
0
 62
     5
 10
138.944599
 20
182.023742
 30
0.0
 11
139.444599
 21
182.023742
 31
0.0
  0
LINE
  5
11B57
  8
0
 62
     5
 10
136.579738
 20
179.303742
 30
0.0
 11
136.579738
 21
178.743742
 31
0.0
  0
ARC
  5
11B58
  8
0
 62
     5
 10
135.944599
 20
186.22778
 30
0.0
 40
0.5
 50
270.0
 51
0.0
  0
POLYLINE
  5
11B59
  8
0
 62
     5
 66
     1
 10
0.0
 20
0.0
 30
0.0
 70
     8
  0
VERTEX
  5
11B5A
  8
0
 62
     5
 10
136.445
 20
186.223
 30
0.0
 70
    32
  0
VERTEX
  5
11B5B
  8
0
 62
     5
 10
136.445
 20
186.223
 30
0.0
 70
    32
  0
VERTEX
  5
11B5C
  8
0
 62
     5
 10
136.445
 20
186.223
 30
0.0
 70
    32
  0
VERTEX
  5
11B5D
  8
0
 62
     5
 10
136.445
 20
186.223
 30
0.0
 70
    32
  0
VERTEX
  5
11B5E
  8
0
 62
     5
 10
136.445
 20
186.223
 30
0.0
 70
    32
  0
VERTEX
  5
11B5F
  8
0
 62
     5
 10
136.445
 20
186.223
 30
0.0
 70
    32
  0
VERTEX
  5
11B60
  8
0
 62
     5
 10
136.445
 20
186.223
 30
0.0
 70
    32
  0
VERTEX
  5
11B61
  8
0
 62
     5
 10
136.445
 20
186.223
 30
0.0
 70
    32
  0
VERTEX
  5
11B62
  8
0
 62
     5
 10
136.445
 20
186.223
 30
0.0
 70
    32
  0
VERTEX
  5
11B63
  8
0
 62
     5
 10
136.445
 20
186.223
 30
0.0
 70
    32
  0
VERTEX
  5
11B64
  8
0
 62
     5
 10
136.445
 20
186.223
 30
0.0
 70
    32
  0
VERTEX
  5
11B65
  8
0
 62
     5
 10
136.445
 20
186.223
 30
0.0
 70
    32
  0
VERTEX
  5
11B66
  8
0
 62
     5
 10
136.445
 20
186.223
 30
0.0
 70
    32
  0
VERTEX
  5
11B67
  8
0
 62
     5
 10
136.445
 20
186.223
 30
0.0
 70
    32
  0
VERTEX
  5
11B68
  8
0
 62
     5
 10
136.445
 20
186.223
 30
0.0
 70
    32
  0
VERTEX
  5
11B69
  8
0
 62
     5
 10
136.445
 20
186.223
 30
0.0
 70
    32
  0
VERTEX
  5
11B6A
  8
0
 62
     5
 10
136.445
 20
186.223
 30
0.0
 70
    32
  0
VERTEX
  5
11B6B
  8
0
 62
     5
 10
136.445
 20
186.223
 30
0.0
 70
    32
  0
VERTEX
  5
11B6C
  8
0
 62
     5
 10
136.445
 20
186.223
 30
0.0
 70
    32
  0
VERTEX
  5
11B6D
  8
0
 62
     5
 10
136.445
 20
186.223
 30
0.0
 70
    32
  0
VERTEX
  5
11B6E
  8
0
 62
     5
 10
136.445
 20
186.223
 30
0.0
 70
    32
  0
VERTEX
  5
11B6F
  8
0
 62
     5
 10
136.445
 20
186.223
 30
0.0
 70
    32
  0
VERTEX
  5
11B70
  8
0
 62
     5
 10
136.445
 20
186.223
 30
0.0
 70
    32
  0
VERTEX
  5
11B71
  8
0
 62
     5
 10
136.445
 20
186.223
 30
0.0
 70
    32
  0
VERTEX
  5
11B72
  8
0
 62
     5
 10
136.445
 20
186.224
 30
0.0
 70
    32
  0
VERTEX
  5
11B73
  8
0
 62
     5
 10
136.445
 20
186.224
 30
0.0
 70
    32
  0
VERTEX
  5
11B74
  8
0
 62
     5
 10
136.445
 20
186.224
 30
0.0
 70
    32
  0
VERTEX
  5
11B75
  8
0
 62
     5
 10
136.445
 20
186.224
 30
0.0
 70
    32
  0
VERTEX
  5
11B76
  8
0
 62
     5
 10
136.445
 20
186.224
 30
0.0
 70
    32
  0
VERTEX
  5
11B77
  8
0
 62
     5
 10
136.445
 20
186.224
 30
0.0
 70
    32
  0
VERTEX
  5
11B78
  8
0
 62
     5
 10
136.445
 20
186.224
 30
0.0
 70
    32
  0
VERTEX
  5
11B79
  8
0
 62
     5
 10
136.445
 20
186.224
 30
0.0
 70
    32
  0
VERTEX
  5
11B7A
  8
0
 62
     5
 10
136.445
 20
186.224
 30
0.0
 70
    32
  0
VERTEX
  5
11B7B
  8
0
 62
     5
 10
136.445
 20
186.224
 30
0.0
 70
    32
  0
VERTEX
  5
11B7C
  8
0
 62
     5
 10
136.445
 20
186.224
 30
0.0
 70
    32
  0
VERTEX
  5
11B7D
  8
0
 62
     5
 10
136.445
 20
186.224
 30
0.0
 70
    32
  0
VERTEX
  5
11B7E
  8
0
 62
     5
 10
136.445
 20
186.224
 30
0.0
 70
    32
  0
VERTEX
  5
11B7F
  8
0
 62
     5
 10
136.445
 20
186.224
 30
0.0
 70
    32
  0
VERTEX
  5
11B80
  8
0
 62
     5
 10
136.445
 20
186.224
 30
0.0
 70
    32
  0
VERTEX
  5
11B81
  8
0
 62
     5
 10
136.445
 20
186.224
 30
0.0
 70
    32
  0
VERTEX
  5
11B82
  8
0
 62
     5
 10
136.445
 20
186.224
 30
0.0
 70
    32
  0
VERTEX
  5
11B83
  8
0
 62
     5
 10
136.445
 20
186.224
 30
0.0
 70
    32
  0
VERTEX
  5
11B84
  8
0
 62
     5
 10
136.445
 20
186.224
 30
0.0
 70
    32
  0
VERTEX
  5
11B85
  8
0
 62
     5
 10
136.445
 20
186.224
 30
0.0
 70
    32
  0
VERTEX
  5
11B86
  8
0
 62
     5
 10
136.445
 20
186.224
 30
0.0
 70
    32
  0
VERTEX
  5
11B87
  8
0
 62
     5
 10
136.445
 20
186.224
 30
0.0
 70
    32
  0
VERTEX
  5
11B88
  8
0
 62
     5
 10
136.445
 20
186.224
 30
0.0
 70
    32
  0
VERTEX
  5
11B89
  8
0
 62
     5
 10
136.445
 20
186.224
 30
0.0
 70
    32
  0
VERTEX
  5
11B8A
  8
0
 62
     5
 10
136.445
 20
186.224
 30
0.0
 70
    32
  0
VERTEX
  5
11B8B
  8
0
 62
     5
 10
136.445
 20
186.224
 30
0.0
 70
    32
  0
VERTEX
  5
11B8C
  8
0
 62
     5
 10
136.445
 20
186.224
 30
0.0
 70
    32
  0
VERTEX
  5
11B8D
  8
0
 62
     5
 10
136.445
 20
186.224
 30
0.0
 70
    32
  0
VERTEX
  5
11B8E
  8
0
 62
     5
 10
136.445
 20
186.224
 30
0.0
 70
    32
  0
VERTEX
  5
11B8F
  8
0
 62
     5
 10
136.445
 20
186.224
 30
0.0
 70
    32
  0
VERTEX
  5
11B90
  8
0
 62
     5
 10
136.445
 20
186.224
 30
0.0
 70
    32
  0
VERTEX
  5
11B91
  8
0
 62
     5
 10
136.445
 20
186.224
 30
0.0
 70
    32
  0
VERTEX
  5
11B92
  8
0
 62
     5
 10
136.445
 20
186.225
 30
0.0
 70
    32
  0
VERTEX
  5
11B93
  8
0
 62
     5
 10
136.445
 20
186.225
 30
0.0
 70
    32
  0
VERTEX
  5
11B94
  8
0
 62
     5
 10
136.445
 20
186.225
 30
0.0
 70
    32
  0
VERTEX
  5
11B95
  8
0
 62
     5
 10
136.445
 20
186.225
 30
0.0
 70
    32
  0
VERTEX
  5
11B96
  8
0
 62
     5
 10
136.445
 20
186.225
 30
0.0
 70
    32
  0
VERTEX
  5
11B97
  8
0
 62
     5
 10
136.445
 20
186.225
 30
0.0
 70
    32
  0
VERTEX
  5
11B98
  8
0
 62
     5
 10
136.445
 20
186.225
 30
0.0
 70
    32
  0
VERTEX
  5
11B99
  8
0
 62
     5
 10
136.445
 20
186.225
 30
0.0
 70
    32
  0
VERTEX
  5
11B9A
  8
0
 62
     5
 10
136.445
 20
186.225
 30
0.0
 70
    32
  0
VERTEX
  5
11B9B
  8
0
 62
     5
 10
136.445
 20
186.225
 30
0.0
 70
    32
  0
VERTEX
  5
11B9C
  8
0
 62
     5
 10
136.445
 20
186.225
 30
0.0
 70
    32
  0
VERTEX
  5
11B9D
  8
0
 62
     5
 10
136.445
 20
186.225
 30
0.0
 70
    32
  0
VERTEX
  5
11B9E
  8
0
 62
     5
 10
136.445
 20
186.225
 30
0.0
 70
    32
  0
VERTEX
  5
11B9F
  8
0
 62
     5
 10
136.445
 20
186.225
 30
0.0
 70
    32
  0
VERTEX
  5
11BA0
  8
0
 62
     5
 10
136.445
 20
186.225
 30
0.0
 70
    32
  0
VERTEX
  5
11BA1
  8
0
 62
     5
 10
136.445
 20
186.225
 30
0.0
 70
    32
  0
VERTEX
  5
11BA2
  8
0
 62
     5
 10
136.445
 20
186.225
 30
0.0
 70
    32
  0
VERTEX
  5
11BA3
  8
0
 62
     5
 10
136.445
 20
186.225
 30
0.0
 70
    32
  0
VERTEX
  5
11BA4
  8
0
 62
     5
 10
136.445
 20
186.225
 30
0.0
 70
    32
  0
VERTEX
  5
11BA5
  8
0
 62
     5
 10
136.445
 20
186.225
 30
0.0
 70
    32
  0
VERTEX
  5
11BA6
  8
0
 62
     5
 10
136.445
 20
186.225
 30
0.0
 70
    32
  0
VERTEX
  5
11BA7
  8
0
 62
     5
 10
136.445
 20
186.225
 30
0.0
 70
    32
  0
VERTEX
  5
11BA8
  8
0
 62
     5
 10
136.445
 20
186.225
 30
0.0
 70
    32
  0
VERTEX
  5
11BA9
  8
0
 62
     5
 10
136.445
 20
186.225
 30
0.0
 70
    32
  0
VERTEX
  5
11BAA
  8
0
 62
     5
 10
136.445
 20
186.225
 30
0.0
 70
    32
  0
VERTEX
  5
11BAB
  8
0
 62
     5
 10
136.445
 20
186.225
 30
0.0
 70
    32
  0
VERTEX
  5
11BAC
  8
0
 62
     5
 10
136.445
 20
186.225
 30
0.0
 70
    32
  0
VERTEX
  5
11BAD
  8
0
 62
     5
 10
136.445
 20
186.225
 30
0.0
 70
    32
  0
VERTEX
  5
11BAE
  8
0
 62
     5
 10
136.445
 20
186.225
 30
0.0
 70
    32
  0
VERTEX
  5
11BAF
  8
0
 62
     5
 10
136.445
 20
186.225
 30
0.0
 70
    32
  0
VERTEX
  5
11BB0
  8
0
 62
     5
 10
136.445
 20
186.225
 30
0.0
 70
    32
  0
VERTEX
  5
11BB1
  8
0
 62
     5
 10
136.445
 20
186.225
 30
0.0
 70
    32
  0
VERTEX
  5
11BB2
  8
0
 62
     5
 10
136.445
 20
186.226
 30
0.0
 70
    32
  0
VERTEX
  5
11BB3
  8
0
 62
     5
 10
136.445
 20
186.226
 30
0.0
 70
    32
  0
VERTEX
  5
11BB4
  8
0
 62
     5
 10
136.445
 20
186.226
 30
0.0
 70
    32
  0
VERTEX
  5
11BB5
  8
0
 62
     5
 10
136.445
 20
186.226
 30
0.0
 70
    32
  0
VERTEX
  5
11BB6
  8
0
 62
     5
 10
136.445
 20
186.226
 30
0.0
 70
    32
  0
VERTEX
  5
11BB7
  8
0
 62
     5
 10
136.445
 20
186.226
 30
0.0
 70
    32
  0
VERTEX
  5
11BB8
  8
0
 62
     5
 10
136.445
 20
186.226
 30
0.0
 70
    32
  0
VERTEX
  5
11BB9
  8
0
 62
     5
 10
136.445
 20
186.226
 30
0.0
 70
    32
  0
VERTEX
  5
11BBA
  8
0
 62
     5
 10
136.445
 20
186.226
 30
0.0
 70
    32
  0
VERTEX
  5
11BBB
  8
0
 62
     5
 10
136.445
 20
186.226
 30
0.0
 70
    32
  0
VERTEX
  5
11BBC
  8
0
 62
     5
 10
136.445
 20
186.226
 30
0.0
 70
    32
  0
VERTEX
  5
11BBD
  8
0
 62
     5
 10
136.445
 20
186.226
 30
0.0
 70
    32
  0
VERTEX
  5
11BBE
  8
0
 62
     5
 10
136.445
 20
186.226
 30
0.0
 70
    32
  0
VERTEX
  5
11BBF
  8
0
 62
     5
 10
136.445
 20
186.226
 30
0.0
 70
    32
  0
VERTEX
  5
11BC0
  8
0
 62
     5
 10
136.445
 20
186.226
 30
0.0
 70
    32
  0
VERTEX
  5
11BC1
  8
0
 62
     5
 10
136.445
 20
186.226
 30
0.0
 70
    32
  0
VERTEX
  5
11BC2
  8
0
 62
     5
 10
136.445
 20
186.226
 30
0.0
 70
    32
  0
VERTEX
  5
11BC3
  8
0
 62
     5
 10
136.445
 20
186.226
 30
0.0
 70
    32
  0
VERTEX
  5
11BC4
  8
0
 62
     5
 10
136.445
 20
186.226
 30
0.0
 70
    32
  0
VERTEX
  5
11BC5
  8
0
 62
     5
 10
136.445
 20
186.226
 30
0.0
 70
    32
  0
VERTEX
  5
11BC6
  8
0
 62
     5
 10
136.445
 20
186.226
 30
0.0
 70
    32
  0
VERTEX
  5
11BC7
  8
0
 62
     5
 10
136.445
 20
186.226
 30
0.0
 70
    32
  0
VERTEX
  5
11BC8
  8
0
 62
     5
 10
136.445
 20
186.226
 30
0.0
 70
    32
  0
VERTEX
  5
11BC9
  8
0
 62
     5
 10
136.445
 20
186.226
 30
0.0
 70
    32
  0
VERTEX
  5
11BCA
  8
0
 62
     5
 10
136.445
 20
186.226
 30
0.0
 70
    32
  0
VERTEX
  5
11BCB
  8
0
 62
     5
 10
136.445
 20
186.226
 30
0.0
 70
    32
  0
VERTEX
  5
11BCC
  8
0
 62
     5
 10
136.445
 20
186.226
 30
0.0
 70
    32
  0
VERTEX
  5
11BCD
  8
0
 62
     5
 10
136.445
 20
186.226
 30
0.0
 70
    32
  0
VERTEX
  5
11BCE
  8
0
 62
     5
 10
136.445
 20
186.226
 30
0.0
 70
    32
  0
VERTEX
  5
11BCF
  8
0
 62
     5
 10
136.445
 20
186.226
 30
0.0
 70
    32
  0
VERTEX
  5
11BD0
  8
0
 62
     5
 10
136.445
 20
186.226
 30
0.0
 70
    32
  0
VERTEX
  5
11BD1
  8
0
 62
     5
 10
136.445
 20
186.227
 30
0.0
 70
    32
  0
VERTEX
  5
11BD2
  8
0
 62
     5
 10
136.445
 20
186.227
 30
0.0
 70
    32
  0
VERTEX
  5
11BD3
  8
0
 62
     5
 10
136.445
 20
186.227
 30
0.0
 70
    32
  0
VERTEX
  5
11BD4
  8
0
 62
     5
 10
136.445
 20
186.227
 30
0.0
 70
    32
  0
VERTEX
  5
11BD5
  8
0
 62
     5
 10
136.445
 20
186.227
 30
0.0
 70
    32
  0
VERTEX
  5
11BD6
  8
0
 62
     5
 10
136.445
 20
186.227
 30
0.0
 70
    32
  0
VERTEX
  5
11BD7
  8
0
 62
     5
 10
136.445
 20
186.227
 30
0.0
 70
    32
  0
VERTEX
  5
11BD8
  8
0
 62
     5
 10
136.445
 20
186.227
 30
0.0
 70
    32
  0
VERTEX
  5
11BD9
  8
0
 62
     5
 10
136.445
 20
186.227
 30
0.0
 70
    32
  0
VERTEX
  5
11BDA
  8
0
 62
     5
 10
136.445
 20
186.227
 30
0.0
 70
    32
  0
VERTEX
  5
11BDB
  8
0
 62
     5
 10
136.445
 20
186.227
 30
0.0
 70
    32
  0
VERTEX
  5
11BDC
  8
0
 62
     5
 10
136.445
 20
186.227
 30
0.0
 70
    32
  0
VERTEX
  5
11BDD
  8
0
 62
     5
 10
136.445
 20
186.227
 30
0.0
 70
    32
  0
VERTEX
  5
11BDE
  8
0
 62
     5
 10
136.445
 20
186.227
 30
0.0
 70
    32
  0
VERTEX
  5
11BDF
  8
0
 62
     5
 10
136.445
 20
186.227
 30
0.0
 70
    32
  0
VERTEX
  5
11BE0
  8
0
 62
     5
 10
136.445
 20
186.227
 30
0.0
 70
    32
  0
VERTEX
  5
11BE1
  8
0
 62
     5
 10
136.445
 20
186.227
 30
0.0
 70
    32
  0
VERTEX
  5
11BE2
  8
0
 62
     5
 10
136.445
 20
186.227
 30
0.0
 70
    32
  0
VERTEX
  5
11BE3
  8
0
 62
     5
 10
136.445
 20
186.227
 30
0.0
 70
    32
  0
VERTEX
  5
11BE4
  8
0
 62
     5
 10
136.445
 20
186.227
 30
0.0
 70
    32
  0
VERTEX
  5
11BE5
  8
0
 62
     5
 10
136.445
 20
186.227
 30
0.0
 70
    32
  0
VERTEX
  5
11BE6
  8
0
 62
     5
 10
136.445
 20
186.227
 30
0.0
 70
    32
  0
VERTEX
  5
11BE7
  8
0
 62
     5
 10
136.445
 20
186.227
 30
0.0
 70
    32
  0
VERTEX
  5
11BE8
  8
0
 62
     5
 10
136.445
 20
186.227
 30
0.0
 70
    32
  0
VERTEX
  5
11BE9
  8
0
 62
     5
 10
136.445
 20
186.227
 30
0.0
 70
    32
  0
VERTEX
  5
11BEA
  8
0
 62
     5
 10
136.445
 20
186.227
 30
0.0
 70
    32
  0
VERTEX
  5
11BEB
  8
0
 62
     5
 10
136.445
 20
186.227
 30
0.0
 70
    32
  0
VERTEX
  5
11BEC
  8
0
 62
     5
 10
136.445
 20
186.227
 30
0.0
 70
    32
  0
VERTEX
  5
11BED
  8
0
 62
     5
 10
136.445
 20
186.227
 30
0.0
 70
    32
  0
VERTEX
  5
11BEE
  8
0
 62
     5
 10
136.445
 20
186.227
 30
0.0
 70
    32
  0
VERTEX
  5
11BEF
  8
0
 62
     5
 10
136.445
 20
186.227
 30
0.0
 70
    32
  0
VERTEX
  5
11BF0
  8
0
 62
     5
 10
136.445
 20
186.227
 30
0.0
 70
    32
  0
VERTEX
  5
11BF1
  8
0
 62
     5
 10
136.445
 20
186.228
 30
0.0
 70
    32
  0
VERTEX
  5
11BF2
  8
0
 62
     5
 10
136.445
 20
186.228
 30
0.0
 70
    32
  0
VERTEX
  5
11BF3
  8
0
 62
     5
 10
136.445
 20
186.228
 30
0.0
 70
    32
  0
VERTEX
  5
11BF4
  8
0
 62
     5
 10
136.445
 20
186.228
 30
0.0
 70
    32
  0
VERTEX
  5
11BF5
  8
0
 62
     5
 10
136.445
 20
186.228
 30
0.0
 70
    32
  0
VERTEX
  5
11BF6
  8
0
 62
     5
 10
136.445
 20
186.228
 30
0.0
 70
    32
  0
VERTEX
  5
11BF7
  8
0
 62
     5
 10
136.445
 20
186.228
 30
0.0
 70
    32
  0
VERTEX
  5
11BF8
  8
0
 62
     5
 10
136.445
 20
186.228
 30
0.0
 70
    32
  0
VERTEX
  5
11BF9
  8
0
 62
     5
 10
136.445
 20
186.228
 30
0.0
 70
    32
  0
SEQEND
  5
11BFA
  8
0
 62
     5
  0
LINE
  5
11BFB
  8
0
 62
     5
 10
136.444599
 20
186.22778
 30
0.0
 11
136.444599
 21
192.22778
 31
0.0
  0
LINE
  5
11BFC
  8
0
 62
     5
 10
141.493488
 20
191.066488
 30
0.0
 11
141.548959
 21
191.258154
 31
0.0
  0
LINE
  5
11BFD
  8
0
 62
     5
 10
141.493488
 20
191.066488
 30
0.0
 11
141.493488
 21
191.045176
 31
0.0
  0
LINE
  5
11BFE
  8
0
 62
     5
 10
141.493488
 20
189.496488
 30
0.0
 11
141.493488
 21
188.936488
 31
0.0
  0
LINE
  5
11BFF
  8
0
 62
     5
 10
141.493488
 20
187.3878
 30
0.0
 11
141.493488
 21
187.366488
 31
0.0
  0
LINE
  5
11C00
  8
0
 62
     5
 10
141.493488
 20
187.366488
 30
0.0
 11
141.548959
 21
187.174822
 31
0.0
  0
LINE
  5
11C01
  8
0
 62
     5
 10
141.493488
 20
188.936488
 30
0.0
 11
141.366225
 21
188.936488
 31
0.0
  0
LINE
  5
11C02
  8
0
 62
     5
 10
141.366225
 20
189.496488
 30
0.0
 11
141.493488
 21
189.496488
 31
0.0
  0
ARC
  5
11C03
  8
0
 62
     5
 10
139.744599
 20
186.02778
 30
0.0
 40
0.3
 50
180.0
 51
270.0
  0
LINE
  5
11C04
  8
0
 62
     5
 10
139.444599
 20
186.027748
 30
0.0
 11
139.444599
 21
192.22778
 31
0.0
  0
LINE
  5
11C05
  8
0
 62
     5
 10
143.444599
 20
182.614391
 30
0.0
 11
143.444599
 21
186.287324
 31
0.0
  0
POLYLINE
  5
11C06
  8
0
 62
     5
 66
     1
 10
0.0
 20
0.0
 30
0.0
  0
VERTEX
  5
1221F
  8
0
 62
     5
 10
144.144599
 20
182.686455
 30
0.0
  0
VERTEX
  5
12220
  8
0
 62
     5
 10
144.128908
 20
182.68584
 30
0.0
  0
VERTEX
  5
12221
  8
0
 62
     5
 10
144.113313
 20
182.683998
 30
0.0
  0
VERTEX
  5
12222
  8
0
 62
     5
 10
144.09791
 20
182.680941
 30
0.0
  0
VERTEX
  5
12223
  8
0
 62
     5
 10
144.082796
 20
182.676687
 30
0.0
  0
VERTEX
  5
12224
  8
0
 62
     5
 10
144.068063
 20
182.671263
 30
0.0
  0
VERTEX
  5
12225
  8
0
 62
     5
 10
144.053801
 20
182.664702
 30
0.0
  0
VERTEX
  5
12226
  8
0
 62
     5
 10
144.0401
 20
182.657044
 30
0.0
  0
VERTEX
  5
12227
  8
0
 62
     5
 10
144.027042
 20
182.648338
 30
0.0
  0
VERTEX
  5
12228
  8
0
 62
     5
 10
144.01471
 20
182.638636
 30
0.0
  0
VERTEX
  5
12229
  8
0
 62
     5
 10
144.003178
 20
182.627998
 30
0.0
  0
VERTEX
  5
1222A
  8
0
 62
     5
 10
143.992518
 20
182.61649
 30
0.0
  0
VERTEX
  5
1222B
  8
0
 62
     5
 10
143.982796
 20
182.604183
 30
0.0
  0
VERTEX
  5
1222C
  8
0
 62
     5
 10
143.974071
 20
182.591153
 30
0.0
  0
VERTEX
  5
1222D
  8
0
 62
     5
 10
143.966398
 20
182.577479
 30
0.0
  0
VERTEX
  5
1222E
  8
0
 62
     5
 10
143.959824
 20
182.563248
 30
0.0
  0
VERTEX
  5
1222F
  8
0
 62
     5
 10
143.954388
 20
182.548545
 30
0.0
  0
VERTEX
  5
12230
  8
0
 62
     5
 10
143.950125
 20
182.533462
 30
0.0
  0
VERTEX
  5
12231
  8
0
 62
     5
 10
143.947062
 20
182.518091
 30
0.0
  0
VERTEX
  5
12232
  8
0
 62
     5
 10
143.945216
 20
182.502529
 30
0.0
  0
VERTEX
  5
12233
  8
0
 62
     5
 10
143.944599
 20
182.486869
 30
0.0
  0
SEQEND
  5
12234
  8
0
 62
     5
  0
LINE
  5
11C1D
  8
0
 62
     5
 10
143.944599
 20
182.614391
 30
0.0
 11
143.444599
 21
182.614391
 31
0.0
  0
LINE
  5
11C1E
  8
0
 62
     5
 10
143.944599
 20
182.615521
 30
0.0
 11
143.444599
 21
182.615521
 31
0.0
  0
LINE
  5
11C1F
  8
0
 62
     5
 10
142.505479
 20
191.966488
 30
0.0
 11
143.244599
 21
191.966488
 31
0.0
  0
LINE
  5
11C20
  8
0
 62
     5
 10
143.944599
 20
192.166488
 30
0.0
 11
143.244599
 21
192.166488
 31
0.0
  0
LINE
  5
11C21
  8
0
 62
     5
 10
143.944599
 20
186.287324
 30
0.0
 11
143.244599
 21
186.287324
 31
0.0
  0
LINE
  5
11C22
  8
0
 62
     5
 10
142.505479
 20
186.466488
 30
0.0
 11
143.244599
 21
186.466488
 31
0.0
  0
LINE
  5
11C23
  8
0
 62
     5
 10
143.244599
 20
186.287324
 30
0.0
 11
143.244599
 21
192.164686
 31
0.0
  0
LINE
  5
11C24
  8
0
 62
     5
 10
143.944599
 20
192.72778
 30
0.0
 11
143.944599
 21
192.536138
 31
0.0
  0
ARC
  5
11C25
  8
0
 62
     5
 10
144.144599
 20
192.52778
 30
0.0
 40
0.2
 50
90.0
 51
180.0
  0
LINE
  5
11C26
  8
0
 62
     5
 10
248.944599
 20
132.72778
 30
0.0
 11
248.944599
 21
192.72778
 31
0.0
  0
LINE
  5
11C27
  8
0
 62
     5
 10
187.944599
 20
132.461616
 30
0.0
 11
187.944599
 21
192.993944
 31
0.0
  0
LINE
  5
11C28
  8
HIDDEN
 10
215.446387
 20
126.56671
 30
0.0
 11
211.741866
 21
128.727014
 31
0.0
  0
LINE
  5
11C29
  8
HIDDEN
 10
215.446387
 20
117.78885
 30
0.0
 11
211.740552
 21
115.62778
 31
0.0
  0
LINE
  5
11C2A
  8
0
 62
     5
 10
248.944599
 20
132.72778
 30
0.0
 11
206.742418
 21
132.543637
 31
0.0
  0
POLYLINE
  5
11C2B
  8
0
 62
     5
 66
     1
 10
0.0
 20
0.0
 30
0.0
 70
     8
  0
VERTEX
  5
11C2C
  8
0
 62
     5
 10
187.945
 20
142.85
 30
0.0
 70
    32
  0
VERTEX
  5
11C2D
  8
0
 62
     5
 10
188.264
 20
142.851
 30
0.0
 70
    32
  0
VERTEX
  5
11C2E
  8
0
 62
     5
 10
188.583
 20
142.853
 30
0.0
 70
    32
  0
VERTEX
  5
11C2F
  8
0
 62
     5
 10
188.903
 20
142.854
 30
0.0
 70
    32
  0
VERTEX
  5
11C30
  8
0
 62
     5
 10
189.222
 20
142.855
 30
0.0
 70
    32
  0
VERTEX
  5
11C31
  8
0
 62
     5
 10
189.541
 20
142.856
 30
0.0
 70
    32
  0
VERTEX
  5
11C32
  8
0
 62
     5
 10
189.861
 20
142.858
 30
0.0
 70
    32
  0
VERTEX
  5
11C33
  8
0
 62
     5
 10
190.18
 20
142.859
 30
0.0
 70
    32
  0
VERTEX
  5
11C34
  8
0
 62
     5
 10
190.5
 20
142.86
 30
0.0
 70
    32
  0
VERTEX
  5
11C35
  8
0
 62
     5
 10
190.819
 20
142.862
 30
0.0
 70
    32
  0
VERTEX
  5
11C36
  8
0
 62
     5
 10
191.138
 20
142.863
 30
0.0
 70
    32
  0
VERTEX
  5
11C37
  8
0
 62
     5
 10
191.458
 20
142.864
 30
0.0
 70
    32
  0
VERTEX
  5
11C38
  8
0
 62
     5
 10
191.777
 20
142.865
 30
0.0
 70
    32
  0
VERTEX
  5
11C39
  8
0
 62
     5
 10
192.096
 20
142.867
 30
0.0
 70
    32
  0
VERTEX
  5
11C3A
  8
0
 62
     5
 10
192.416
 20
142.868
 30
0.0
 70
    32
  0
VERTEX
  5
11C3B
  8
0
 62
     5
 10
192.735
 20
142.869
 30
0.0
 70
    32
  0
VERTEX
  5
11C3C
  8
0
 62
     5
 10
193.055
 20
142.871
 30
0.0
 70
    32
  0
VERTEX
  5
11C3D
  8
0
 62
     5
 10
193.374
 20
142.872
 30
0.0
 70
    32
  0
VERTEX
  5
11C3E
  8
0
 62
     5
 10
193.693
 20
142.873
 30
0.0
 70
    32
  0
VERTEX
  5
11C3F
  8
0
 62
     5
 10
194.013
 20
142.875
 30
0.0
 70
    32
  0
VERTEX
  5
11C40
  8
0
 62
     5
 10
194.332
 20
142.876
 30
0.0
 70
    32
  0
VERTEX
  5
11C41
  8
0
 62
     5
 10
194.651
 20
142.877
 30
0.0
 70
    32
  0
VERTEX
  5
11C42
  8
0
 62
     5
 10
194.971
 20
142.878
 30
0.0
 70
    32
  0
VERTEX
  5
11C43
  8
0
 62
     5
 10
195.29
 20
142.88
 30
0.0
 70
    32
  0
VERTEX
  5
11C44
  8
0
 62
     5
 10
195.61
 20
142.881
 30
0.0
 70
    32
  0
VERTEX
  5
11C45
  8
0
 62
     5
 10
195.929
 20
142.882
 30
0.0
 70
    32
  0
VERTEX
  5
11C46
  8
0
 62
     5
 10
196.248
 20
142.884
 30
0.0
 70
    32
  0
VERTEX
  5
11C47
  8
0
 62
     5
 10
196.568
 20
142.885
 30
0.0
 70
    32
  0
VERTEX
  5
11C48
  8
0
 62
     5
 10
196.887
 20
142.886
 30
0.0
 70
    32
  0
VERTEX
  5
11C49
  8
0
 62
     5
 10
197.206
 20
142.887
 30
0.0
 70
    32
  0
VERTEX
  5
11C4A
  8
0
 62
     5
 10
197.526
 20
142.889
 30
0.0
 70
    32
  0
VERTEX
  5
11C4B
  8
0
 62
     5
 10
197.845
 20
142.89
 30
0.0
 70
    32
  0
VERTEX
  5
11C4C
  8
0
 62
     5
 10
198.164
 20
142.891
 30
0.0
 70
    32
  0
VERTEX
  5
11C4D
  8
0
 62
     5
 10
198.484
 20
142.893
 30
0.0
 70
    32
  0
VERTEX
  5
11C4E
  8
0
 62
     5
 10
198.803
 20
142.894
 30
0.0
 70
    32
  0
VERTEX
  5
11C4F
  8
0
 62
     5
 10
199.123
 20
142.895
 30
0.0
 70
    32
  0
VERTEX
  5
11C50
  8
0
 62
     5
 10
199.442
 20
142.896
 30
0.0
 70
    32
  0
VERTEX
  5
11C51
  8
0
 62
     5
 10
199.761
 20
142.898
 30
0.0
 70
    32
  0
VERTEX
  5
11C52
  8
0
 62
     5
 10
200.081
 20
142.899
 30
0.0
 70
    32
  0
VERTEX
  5
11C53
  8
0
 62
     5
 10
200.4
 20
142.9
 30
0.0
 70
    32
  0
VERTEX
  5
11C54
  8
0
 62
     5
 10
200.719
 20
142.902
 30
0.0
 70
    32
  0
VERTEX
  5
11C55
  8
0
 62
     5
 10
201.039
 20
142.903
 30
0.0
 70
    32
  0
VERTEX
  5
11C56
  8
0
 62
     5
 10
201.358
 20
142.904
 30
0.0
 70
    32
  0
VERTEX
  5
11C57
  8
0
 62
     5
 10
201.678
 20
142.905
 30
0.0
 70
    32
  0
VERTEX
  5
11C58
  8
0
 62
     5
 10
201.997
 20
142.907
 30
0.0
 70
    32
  0
VERTEX
  5
11C59
  8
0
 62
     5
 10
202.316
 20
142.908
 30
0.0
 70
    32
  0
VERTEX
  5
11C5A
  8
0
 62
     5
 10
202.636
 20
142.909
 30
0.0
 70
    32
  0
VERTEX
  5
11C5B
  8
0
 62
     5
 10
202.955
 20
142.911
 30
0.0
 70
    32
  0
VERTEX
  5
11C5C
  8
0
 62
     5
 10
203.274
 20
142.912
 30
0.0
 70
    32
  0
VERTEX
  5
11C5D
  8
0
 62
     5
 10
203.594
 20
142.913
 30
0.0
 70
    32
  0
VERTEX
  5
11C5E
  8
0
 62
     5
 10
203.913
 20
142.915
 30
0.0
 70
    32
  0
VERTEX
  5
11C5F
  8
0
 62
     5
 10
204.233
 20
142.916
 30
0.0
 70
    32
  0
VERTEX
  5
11C60
  8
0
 62
     5
 10
204.552
 20
142.917
 30
0.0
 70
    32
  0
VERTEX
  5
11C61
  8
0
 62
     5
 10
204.871
 20
142.918
 30
0.0
 70
    32
  0
VERTEX
  5
11C62
  8
0
 62
     5
 10
205.191
 20
142.92
 30
0.0
 70
    32
  0
VERTEX
  5
11C63
  8
0
 62
     5
 10
205.51
 20
142.921
 30
0.0
 70
    32
  0
VERTEX
  5
11C64
  8
0
 62
     5
 10
205.829
 20
142.922
 30
0.0
 70
    32
  0
VERTEX
  5
11C65
  8
0
 62
     5
 10
206.149
 20
142.924
 30
0.0
 70
    32
  0
VERTEX
  5
11C66
  8
0
 62
     5
 10
206.468
 20
142.925
 30
0.0
 70
    32
  0
VERTEX
  5
11C67
  8
0
 62
     5
 10
206.788
 20
142.926
 30
0.0
 70
    32
  0
VERTEX
  5
11C68
  8
0
 62
     5
 10
207.107
 20
142.927
 30
0.0
 70
    32
  0
VERTEX
  5
11C69
  8
0
 62
     5
 10
207.426
 20
142.929
 30
0.0
 70
    32
  0
VERTEX
  5
11C6A
  8
0
 62
     5
 10
207.746
 20
142.93
 30
0.0
 70
    32
  0
VERTEX
  5
11C6B
  8
0
 62
     5
 10
208.065
 20
142.931
 30
0.0
 70
    32
  0
VERTEX
  5
11C6C
  8
0
 62
     5
 10
208.384
 20
142.933
 30
0.0
 70
    32
  0
VERTEX
  5
11C6D
  8
0
 62
     5
 10
208.704
 20
142.934
 30
0.0
 70
    32
  0
VERTEX
  5
11C6E
  8
0
 62
     5
 10
209.023
 20
142.935
 30
0.0
 70
    32
  0
VERTEX
  5
11C6F
  8
0
 62
     5
 10
209.343
 20
142.936
 30
0.0
 70
    32
  0
VERTEX
  5
11C70
  8
0
 62
     5
 10
209.662
 20
142.938
 30
0.0
 70
    32
  0
VERTEX
  5
11C71
  8
0
 62
     5
 10
209.981
 20
142.939
 30
0.0
 70
    32
  0
VERTEX
  5
11C72
  8
0
 62
     5
 10
210.301
 20
142.94
 30
0.0
 70
    32
  0
VERTEX
  5
11C73
  8
0
 62
     5
 10
210.62
 20
142.942
 30
0.0
 70
    32
  0
VERTEX
  5
11C74
  8
0
 62
     5
 10
210.939
 20
142.943
 30
0.0
 70
    32
  0
VERTEX
  5
11C75
  8
0
 62
     5
 10
211.259
 20
142.944
 30
0.0
 70
    32
  0
VERTEX
  5
11C76
  8
0
 62
     5
 10
211.578
 20
142.945
 30
0.0
 70
    32
  0
VERTEX
  5
11C77
  8
0
 62
     5
 10
211.897
 20
142.947
 30
0.0
 70
    32
  0
VERTEX
  5
11C78
  8
0
 62
     5
 10
212.217
 20
142.948
 30
0.0
 70
    32
  0
VERTEX
  5
11C79
  8
0
 62
     5
 10
212.536
 20
142.949
 30
0.0
 70
    32
  0
VERTEX
  5
11C7A
  8
0
 62
     5
 10
212.856
 20
142.951
 30
0.0
 70
    32
  0
VERTEX
  5
11C7B
  8
0
 62
     5
 10
213.175
 20
142.952
 30
0.0
 70
    32
  0
VERTEX
  5
11C7C
  8
0
 62
     5
 10
213.494
 20
142.953
 30
0.0
 70
    32
  0
VERTEX
  5
11C7D
  8
0
 62
     5
 10
213.814
 20
142.954
 30
0.0
 70
    32
  0
VERTEX
  5
11C7E
  8
0
 62
     5
 10
214.133
 20
142.956
 30
0.0
 70
    32
  0
VERTEX
  5
11C7F
  8
0
 62
     5
 10
214.452
 20
142.957
 30
0.0
 70
    32
  0
VERTEX
  5
11C80
  8
0
 62
     5
 10
214.772
 20
142.958
 30
0.0
 70
    32
  0
VERTEX
  5
11C81
  8
0
 62
     5
 10
215.091
 20
142.96
 30
0.0
 70
    32
  0
VERTEX
  5
11C82
  8
0
 62
     5
 10
215.411
 20
142.961
 30
0.0
 70
    32
  0
VERTEX
  5
11C83
  8
0
 62
     5
 10
215.73
 20
142.962
 30
0.0
 70
    32
  0
VERTEX
  5
11C84
  8
0
 62
     5
 10
216.049
 20
142.964
 30
0.0
 70
    32
  0
VERTEX
  5
11C85
  8
0
 62
     5
 10
216.369
 20
142.965
 30
0.0
 70
    32
  0
VERTEX
  5
11C86
  8
0
 62
     5
 10
216.688
 20
142.966
 30
0.0
 70
    32
  0
VERTEX
  5
11C87
  8
0
 62
     5
 10
217.007
 20
142.967
 30
0.0
 70
    32
  0
VERTEX
  5
11C88
  8
0
 62
     5
 10
217.327
 20
142.969
 30
0.0
 70
    32
  0
VERTEX
  5
11C89
  8
0
 62
     5
 10
217.646
 20
142.97
 30
0.0
 70
    32
  0
VERTEX
  5
11C8A
  8
0
 62
     5
 10
217.966
 20
142.971
 30
0.0
 70
    32
  0
VERTEX
  5
11C8B
  8
0
 62
     5
 10
218.285
 20
142.973
 30
0.0
 70
    32
  0
VERTEX
  5
11C8C
  8
0
 62
     5
 10
218.604
 20
142.974
 30
0.0
 70
    32
  0
VERTEX
  5
11C8D
  8
0
 62
     5
 10
218.924
 20
142.975
 30
0.0
 70
    32
  0
VERTEX
  5
11C8E
  8
0
 62
     5
 10
219.243
 20
142.976
 30
0.0
 70
    32
  0
VERTEX
  5
11C8F
  8
0
 62
     5
 10
219.562
 20
142.978
 30
0.0
 70
    32
  0
VERTEX
  5
11C90
  8
0
 62
     5
 10
219.882
 20
142.979
 30
0.0
 70
    32
  0
VERTEX
  5
11C91
  8
0
 62
     5
 10
220.201
 20
142.98
 30
0.0
 70
    32
  0
VERTEX
  5
11C92
  8
0
 62
     5
 10
220.521
 20
142.982
 30
0.0
 70
    32
  0
VERTEX
  5
11C93
  8
0
 62
     5
 10
220.84
 20
142.983
 30
0.0
 70
    32
  0
VERTEX
  5
11C94
  8
0
 62
     5
 10
221.159
 20
142.984
 30
0.0
 70
    32
  0
VERTEX
  5
11C95
  8
0
 62
     5
 10
221.479
 20
142.985
 30
0.0
 70
    32
  0
VERTEX
  5
11C96
  8
0
 62
     5
 10
221.798
 20
142.987
 30
0.0
 70
    32
  0
VERTEX
  5
11C97
  8
0
 62
     5
 10
222.117
 20
142.988
 30
0.0
 70
    32
  0
VERTEX
  5
11C98
  8
0
 62
     5
 10
222.437
 20
142.989
 30
0.0
 70
    32
  0
VERTEX
  5
11C99
  8
0
 62
     5
 10
222.756
 20
142.991
 30
0.0
 70
    32
  0
VERTEX
  5
11C9A
  8
0
 62
     5
 10
223.075
 20
142.992
 30
0.0
 70
    32
  0
VERTEX
  5
11C9B
  8
0
 62
     5
 10
223.395
 20
142.993
 30
0.0
 70
    32
  0
VERTEX
  5
11C9C
  8
0
 62
     5
 10
223.714
 20
142.994
 30
0.0
 70
    32
  0
VERTEX
  5
11C9D
  8
0
 62
     5
 10
224.034
 20
142.996
 30
0.0
 70
    32
  0
VERTEX
  5
11C9E
  8
0
 62
     5
 10
224.353
 20
142.997
 30
0.0
 70
    32
  0
VERTEX
  5
11C9F
  8
0
 62
     5
 10
224.672
 20
142.998
 30
0.0
 70
    32
  0
VERTEX
  5
11CA0
  8
0
 62
     5
 10
224.992
 20
143.0
 30
0.0
 70
    32
  0
VERTEX
  5
11CA1
  8
0
 62
     5
 10
225.311
 20
143.001
 30
0.0
 70
    32
  0
VERTEX
  5
11CA2
  8
0
 62
     5
 10
225.63
 20
143.002
 30
0.0
 70
    32
  0
VERTEX
  5
11CA3
  8
0
 62
     5
 10
225.95
 20
143.004
 30
0.0
 70
    32
  0
VERTEX
  5
11CA4
  8
0
 62
     5
 10
226.269
 20
143.005
 30
0.0
 70
    32
  0
VERTEX
  5
11CA5
  8
0
 62
     5
 10
226.589
 20
143.006
 30
0.0
 70
    32
  0
VERTEX
  5
11CA6
  8
0
 62
     5
 10
226.908
 20
143.007
 30
0.0
 70
    32
  0
VERTEX
  5
11CA7
  8
0
 62
     5
 10
227.227
 20
143.009
 30
0.0
 70
    32
  0
VERTEX
  5
11CA8
  8
0
 62
     5
 10
227.547
 20
143.01
 30
0.0
 70
    32
  0
VERTEX
  5
11CA9
  8
0
 62
     5
 10
227.866
 20
143.011
 30
0.0
 70
    32
  0
VERTEX
  5
11CAA
  8
0
 62
     5
 10
228.185
 20
143.013
 30
0.0
 70
    32
  0
VERTEX
  5
11CAB
  8
0
 62
     5
 10
228.505
 20
143.014
 30
0.0
 70
    32
  0
VERTEX
  5
11CAC
  8
0
 62
     5
 10
228.824
 20
143.015
 30
0.0
 70
    32
  0
VERTEX
  5
11CAD
  8
0
 62
     5
 10
229.144
 20
143.016
 30
0.0
 70
    32
  0
VERTEX
  5
11CAE
  8
0
 62
     5
 10
229.463
 20
143.018
 30
0.0
 70
    32
  0
VERTEX
  5
11CAF
  8
0
 62
     5
 10
229.782
 20
143.019
 30
0.0
 70
    32
  0
VERTEX
  5
11CB0
  8
0
 62
     5
 10
230.102
 20
143.02
 30
0.0
 70
    32
  0
VERTEX
  5
11CB1
  8
0
 62
     5
 10
230.421
 20
143.022
 30
0.0
 70
    32
  0
VERTEX
  5
11CB2
  8
0
 62
     5
 10
230.74
 20
143.023
 30
0.0
 70
    32
  0
VERTEX
  5
11CB3
  8
0
 62
     5
 10
231.06
 20
143.024
 30
0.0
 70
    32
  0
VERTEX
  5
11CB4
  8
0
 62
     5
 10
231.379
 20
143.025
 30
0.0
 70
    32
  0
VERTEX
  5
11CB5
  8
0
 62
     5
 10
231.699
 20
143.027
 30
0.0
 70
    32
  0
VERTEX
  5
11CB6
  8
0
 62
     5
 10
232.018
 20
143.028
 30
0.0
 70
    32
  0
VERTEX
  5
11CB7
  8
0
 62
     5
 10
232.337
 20
143.029
 30
0.0
 70
    32
  0
VERTEX
  5
11CB8
  8
0
 62
     5
 10
232.657
 20
143.031
 30
0.0
 70
    32
  0
VERTEX
  5
11CB9
  8
0
 62
     5
 10
232.976
 20
143.032
 30
0.0
 70
    32
  0
VERTEX
  5
11CBA
  8
0
 62
     5
 10
233.295
 20
143.033
 30
0.0
 70
    32
  0
VERTEX
  5
11CBB
  8
0
 62
     5
 10
233.615
 20
143.034
 30
0.0
 70
    32
  0
VERTEX
  5
11CBC
  8
0
 62
     5
 10
233.934
 20
143.036
 30
0.0
 70
    32
  0
VERTEX
  5
11CBD
  8
0
 62
     5
 10
234.254
 20
143.037
 30
0.0
 70
    32
  0
VERTEX
  5
11CBE
  8
0
 62
     5
 10
234.573
 20
143.038
 30
0.0
 70
    32
  0
VERTEX
  5
11CBF
  8
0
 62
     5
 10
234.892
 20
143.04
 30
0.0
 70
    32
  0
VERTEX
  5
11CC0
  8
0
 62
     5
 10
235.212
 20
143.041
 30
0.0
 70
    32
  0
VERTEX
  5
11CC1
  8
0
 62
     5
 10
235.531
 20
143.042
 30
0.0
 70
    32
  0
VERTEX
  5
11CC2
  8
0
 62
     5
 10
235.85
 20
143.044
 30
0.0
 70
    32
  0
VERTEX
  5
11CC3
  8
0
 62
     5
 10
236.17
 20
143.045
 30
0.0
 70
    32
  0
VERTEX
  5
11CC4
  8
0
 62
     5
 10
236.489
 20
143.046
 30
0.0
 70
    32
  0
VERTEX
  5
11CC5
  8
0
 62
     5
 10
236.808
 20
143.047
 30
0.0
 70
    32
  0
VERTEX
  5
11CC6
  8
0
 62
     5
 10
237.128
 20
143.049
 30
0.0
 70
    32
  0
VERTEX
  5
11CC7
  8
0
 62
     5
 10
237.447
 20
143.05
 30
0.0
 70
    32
  0
VERTEX
  5
11CC8
  8
0
 62
     5
 10
237.767
 20
143.051
 30
0.0
 70
    32
  0
VERTEX
  5
11CC9
  8
0
 62
     5
 10
238.086
 20
143.053
 30
0.0
 70
    32
  0
VERTEX
  5
11CCA
  8
0
 62
     5
 10
238.405
 20
143.054
 30
0.0
 70
    32
  0
VERTEX
  5
11CCB
  8
0
 62
     5
 10
238.725
 20
143.055
 30
0.0
 70
    32
  0
VERTEX
  5
11CCC
  8
0
 62
     5
 10
239.044
 20
143.056
 30
0.0
 70
    32
  0
VERTEX
  5
11CCD
  8
0
 62
     5
 10
239.363
 20
143.058
 30
0.0
 70
    32
  0
VERTEX
  5
11CCE
  8
0
 62
     5
 10
239.683
 20
143.059
 30
0.0
 70
    32
  0
VERTEX
  5
11CCF
  8
0
 62
     5
 10
240.002
 20
143.06
 30
0.0
 70
    32
  0
VERTEX
  5
11CD0
  8
0
 62
     5
 10
240.322
 20
143.062
 30
0.0
 70
    32
  0
VERTEX
  5
11CD1
  8
0
 62
     5
 10
240.641
 20
143.063
 30
0.0
 70
    32
  0
VERTEX
  5
11CD2
  8
0
 62
     5
 10
240.96
 20
143.064
 30
0.0
 70
    32
  0
VERTEX
  5
11CD3
  8
0
 62
     5
 10
241.28
 20
143.065
 30
0.0
 70
    32
  0
VERTEX
  5
11CD4
  8
0
 62
     5
 10
241.599
 20
143.067
 30
0.0
 70
    32
  0
VERTEX
  5
11CD5
  8
0
 62
     5
 10
241.918
 20
143.068
 30
0.0
 70
    32
  0
VERTEX
  5
11CD6
  8
0
 62
     5
 10
242.238
 20
143.069
 30
0.0
 70
    32
  0
VERTEX
  5
11CD7
  8
0
 62
     5
 10
242.557
 20
143.071
 30
0.0
 70
    32
  0
VERTEX
  5
11CD8
  8
0
 62
     5
 10
242.877
 20
143.072
 30
0.0
 70
    32
  0
VERTEX
  5
11CD9
  8
0
 62
     5
 10
243.196
 20
143.073
 30
0.0
 70
    32
  0
VERTEX
  5
11CDA
  8
0
 62
     5
 10
243.515
 20
143.074
 30
0.0
 70
    32
  0
VERTEX
  5
11CDB
  8
0
 62
     5
 10
243.835
 20
143.076
 30
0.0
 70
    32
  0
VERTEX
  5
11CDC
  8
0
 62
     5
 10
244.154
 20
143.077
 30
0.0
 70
    32
  0
VERTEX
  5
11CDD
  8
0
 62
     5
 10
244.473
 20
143.078
 30
0.0
 70
    32
  0
VERTEX
  5
11CDE
  8
0
 62
     5
 10
244.793
 20
143.08
 30
0.0
 70
    32
  0
VERTEX
  5
11CDF
  8
0
 62
     5
 10
245.112
 20
143.081
 30
0.0
 70
    32
  0
VERTEX
  5
11CE0
  8
0
 62
     5
 10
245.432
 20
143.082
 30
0.0
 70
    32
  0
VERTEX
  5
11CE1
  8
0
 62
     5
 10
245.751
 20
143.084
 30
0.0
 70
    32
  0
VERTEX
  5
11CE2
  8
0
 62
     5
 10
246.07
 20
143.085
 30
0.0
 70
    32
  0
VERTEX
  5
11CE3
  8
0
 62
     5
 10
246.39
 20
143.086
 30
0.0
 70
    32
  0
VERTEX
  5
11CE4
  8
0
 62
     5
 10
246.709
 20
143.087
 30
0.0
 70
    32
  0
VERTEX
  5
11CE5
  8
0
 62
     5
 10
247.028
 20
143.089
 30
0.0
 70
    32
  0
VERTEX
  5
11CE6
  8
0
 62
     5
 10
247.348
 20
143.09
 30
0.0
 70
    32
  0
VERTEX
  5
11CE7
  8
0
 62
     5
 10
247.667
 20
143.091
 30
0.0
 70
    32
  0
VERTEX
  5
11CE8
  8
0
 62
     5
 10
247.986
 20
143.093
 30
0.0
 70
    32
  0
VERTEX
  5
11CE9
  8
0
 62
     5
 10
248.306
 20
143.094
 30
0.0
 70
    32
  0
VERTEX
  5
11CEA
  8
0
 62
     5
 10
248.625
 20
143.095
 30
0.0
 70
    32
  0
VERTEX
  5
11CEB
  8
0
 62
     5
 10
248.945
 20
143.096
 30
0.0
 70
    32
  0
SEQEND
  5
11CEC
  8
0
 62
     5
  0
LINE
  5
11CED
  8
CENTER
 10
177.744599
 20
134.703165
 30
0.0
 11
177.744599
 21
120.231037
 31
0.0
  0
LINE
  5
11CEE
  8
CENTER
 10
196.744599
 20
121.243186
 30
0.0
 11
196.744599
 21
137.018171
 31
0.0
  0
LINE
  5
11CEF
  8
HIDDEN
 10
192.953514
 20
116.712606
 30
0.0
 11
191.462586
 21
115.818731
 31
0.0
  0
ARC
  5
11CF0
  8
HIDDEN
 10
196.394599
 20
121.62778
 30
0.0
 40
6.0
 50
180.0
 51
270.0
  0
LINE
  5
11CF1
  8
0
 62
     5
 10
205.744599
 20
129.32778
 30
0.0
 11
188.594599
 21
129.32778
 31
0.0
  0
LINE
  5
11CF2
  8
0
 62
     5
 10
188.596781
 20
132.717371
 30
0.0
 11
205.922053
 21
132.720359
 31
0.0
  0
LINE
  5
11CF3
  8
HIDDEN
 10
185.698643
 20
115.62778
 30
0.0
 11
176.879018
 21
115.62778
 31
0.0
  0
LINE
  5
11CF4
  8
HIDDEN
 10
186.102475
 20
115.818731
 30
0.0
 11
191.462586
 21
115.818731
 31
0.0
  0
POLYLINE
  5
11CF5
  8
HIDDEN
 66
     1
 10
0.0
 20
0.0
 30
0.0
  0
VERTEX
  5
12235
  8
HIDDEN
 10
186.088821
 20
115.830103
 30
0.0
  0
VERTEX
  5
12236
  8
HIDDEN
 10
186.042348
 20
115.774307
 30
0.0
  0
VERTEX
  5
12237
  8
HIDDEN
 10
185.984404
 20
115.723263
 30
0.0
  0
VERTEX
  5
12238
  8
HIDDEN
 10
185.919298
 20
115.682369
 30
0.0
  0
VERTEX
  5
12239
  8
HIDDEN
 10
185.848863
 20
115.652245
 30
0.0
  0
VERTEX
  5
1223A
  8
HIDDEN
 10
185.775588
 20
115.634194
 30
0.0
  0
VERTEX
  5
1223B
  8
HIDDEN
 10
185.698643
 20
115.62778
 30
0.0
  0
SEQEND
  5
1223C
  8
HIDDEN
  0
LINE
  5
11CFE
  8
0
 62
     5
 10
182.195408
 20
122.22778
 30
0.0
 11
182.195408
 21
127.42778
 31
0.0
  0
LINE
  5
11CFF
  8
0
 62
     5
 10
173.29379
 20
122.22778
 30
0.0
 11
173.29379
 21
127.42778
 31
0.0
  0
LINE
  5
11D00
  8
0
 62
     5
 10
181.874689
 20
121.92778
 30
0.0
 11
173.61451
 21
121.92778
 31
0.0
  0
LINE
  5
11D01
  8
0
 62
     5
 10
173.29379
 20
122.22778
 30
0.0
 11
182.195408
 21
122.22778
 31
0.0
  0
LINE
  5
11D02
  8
0
  6
CONTINUOUS
 62
     5
 10
173.29379
 20
122.22778
 30
0.0
 11
173.61451
 21
121.92778
 31
0.0
  0
LINE
  5
11D03
  8
0
 62
     5
 10
181.874689
 20
121.92778
 30
0.0
 11
182.195408
 21
122.22778
 31
0.0
  0
LINE
  5
11D04
  8
HIDDEN
 10
190.394599
 20
121.62778
 30
0.0
 11
190.394599
 21
126.82778
 31
0.0
  0
LINE
  5
11D05
  8
0
 62
     5
 10
183.504194
 20
129.62778
 30
0.0
 11
187.814233
 21
129.62778
 31
0.0
  0
LINE
  5
11D06
  8
HIDDEN
 10
187.153626
 20
127.42778
 30
0.0
 11
187.815844
 21
127.42778
 31
0.0
  0
LINE
  5
11D07
  8
0
 62
     5
 10
187.515844
 20
130.72778
 30
0.0
 11
187.815844
 21
130.42778
 31
0.0
  0
ARC
  5
11D08
  8
0
 62
     5
 10
187.615844
 20
130.92778
 30
0.0
 40
0.2
 50
270.0
 51
0.0
  0
LINE
  5
11D09
  8
0
 62
     5
 10
183.504194
 20
129.62778
 30
0.0
 11
183.504194
 21
127.42778
 31
0.0
  0
LINE
  5
11D0A
  8
0
 62
     5
 10
184.47738
 20
127.732184
 30
0.0
 11
185.456115
 21
127.732184
 31
0.0
  0
ARC
  5
11D0B
  8
0
 62
     5
 10
184.617701
 20
128.328317
 30
0.0
 40
0.6125
 50
185.0
 51
254.499559
  0
LINE
  5
11D0C
  8
0
 62
     5
 10
185.507214
 20
127.732184
 30
0.0
 11
186.485949
 21
127.732184
 31
0.0
  0
ARC
  5
11D0D
  8
0
 62
     5
 10
186.345629
 20
128.328317
 30
0.0
 40
0.6125
 50
285.500442
 51
355.0
  0
LINE
  5
11D0E
  8
0
 62
     5
 10
186.955798
 20
128.274934
 30
0.0
 11
187.012915
 21
128.92778
 31
0.0
  0
LINE
  5
11D0F
  8
0
 62
     5
 10
187.406665
 20
128.92778
 30
0.0
 11
187.406665
 21
129.62778
 31
0.0
  0
LINE
  5
11D10
  8
0
 62
     5
 10
183.557615
 20
128.92778
 30
0.0
 11
187.405914
 21
128.92778
 31
0.0
  0
LINE
  5
11D11
  8
0
 62
     5
 10
183.556665
 20
128.92778
 30
0.0
 11
183.556665
 21
129.62778
 31
0.0
  0
LINE
  5
11D12
  8
0
 62
     5
 10
184.007531
 20
128.274934
 30
0.0
 11
183.950415
 21
128.92778
 31
0.0
  0
LINE
  5
11D13
  8
0
 62
     5
 10
187.153626
 20
127.42778
 30
0.0
 11
187.153626
 21
128.936653
 31
0.0
  0
LINE
  5
11D14
  8
HIDDEN
 10
187.815844
 20
127.036829
 30
0.0
 11
187.815844
 21
127.42778
 31
0.0
  0
LINE
  5
11D15
  8
HIDDEN
 10
188.83797
 20
127.036829
 30
0.0
 11
187.815844
 21
127.036829
 31
0.0
  0
LINE
  5
11D16
  8
0
  6
CONTINUOUS
 62
     5
 10
187.814233
 20
129.62778
 30
0.0
 11
187.815844
 21
129.62778
 31
0.0
  0
LINE
  5
11D17
  8
0
 62
     5
 10
187.815844
 20
130.42778
 30
0.0
 11
187.815844
 21
129.62778
 31
0.0
  0
LINE
  5
11D18
  8
0
 62
     5
 10
187.815844
 20
130.92778
 30
0.0
 11
187.815844
 21
132.72778
 31
0.0
  0
LINE
  5
11D19
  8
HIDDEN
 10
189.244599
 20
126.82778
 30
0.0
 11
190.394599
 21
126.82778
 31
0.0
  0
ARC
  5
11D1A
  8
HIDDEN
 10
189.244599
 20
127.32778
 30
0.0
 40
0.5
 50
180.0
 51
270.0
  0
LINE
  5
11D1B
  8
HIDDEN
 10
188.744599
 20
127.32778
 30
0.0
 11
188.744599
 21
128.42778
 31
0.0
  0
ARC
  5
11D1C
  8
0
 62
     5
 10
187.744599
 20
132.92778
 30
0.0
 40
0.2
 50
270.0
 51
0.0
  0
LINE
  5
11D1D
  8
0
 62
     5
 10
188.094599
 20
132.46227
 30
0.0
 11
188.094599
 21
129.82778
 31
0.0
  0
LINE
  5
11D1E
  8
0
 62
     5
 10
188.456168
 20
132.463848
 30
0.0
 11
187.944599
 21
132.461616
 31
0.0
  0
ARC
  5
11D1F
  8
0
 62
     5
 10
188.594599
 20
129.82778
 30
0.0
 40
0.5
 50
180.0
 51
270.0
  0
LINE
  5
11D20
  8
HIDDEN
 10
211.740552
 20
115.62778
 30
0.0
 11
196.394599
 21
115.62778
 31
0.0
  0
LINE
  5
11D21
  8
0
 62
     5
 10
193.2113
 20
123.92778
 30
0.0
 11
193.041598
 21
129.32778
 31
0.0
  0
LINE
  5
11D22
  8
0
 62
     5
 10
193.828711
 20
129.32778
 30
0.0
 11
193.899004
 21
123.92778
 31
0.0
  0
LINE
  5
11D23
  8
0
 62
     5
 10
199.590195
 20
123.92778
 30
0.0
 11
199.660487
 21
129.32778
 31
0.0
  0
LINE
  5
11D24
  8
0
 62
     5
 10
200.447601
 20
129.32778
 30
0.0
 11
200.277899
 21
123.92778
 31
0.0
  0
LINE
  5
11D25
  8
0
 62
     5
 10
193.2113
 20
123.92778
 30
0.0
 11
200.277899
 21
123.92778
 31
0.0
  0
LINE
  5
11D26
  8
HIDDEN
 10
211.741866
 20
128.727014
 30
0.0
 11
205.698302
 21
128.727014
 31
0.0
  0
LINE
  5
11D27
  8
0
 62
     5
 10
206.244599
 20
132.110561
 30
0.0
 11
206.244599
 21
129.82778
 31
0.0
  0
ARC
  5
11D28
  8
0
 62
     5
 10
206.744599
 20
132.043642
 30
0.0
 40
0.5
 50
90.25
 51
180.0
  0
ARC
  5
11D29
  8
0
 62
     5
 10
205.744599
 20
129.82778
 30
0.0
 40
0.5
 50
270.0
 51
0.0
  0
POLYLINE
  5
11D2A
  8
0
 62
     5
 66
     1
 10
0.0
 20
0.0
 30
0.0
  0
VERTEX
  5
1223D
  8
0
 62
     5
 10
187.744599
 20
142.769105
 30
0.0
  0
VERTEX
  5
1223E
  8
0
 62
     5
 10
187.760291
 20
142.76972
 30
0.0
  0
VERTEX
  5
1223F
  8
0
 62
     5
 10
187.775886
 20
142.771562
 30
0.0
  0
VERTEX
  5
12240
  8
0
 62
     5
 10
187.791289
 20
142.774619
 30
0.0
  0
VERTEX
  5
12241
  8
0
 62
     5
 10
187.806403
 20
142.778873
 30
0.0
  0
VERTEX
  5
12242
  8
0
 62
     5
 10
187.821136
 20
142.784297
 30
0.0
  0
VERTEX
  5
12243
  8
0
 62
     5
 10
187.835398
 20
142.790858
 30
0.0
  0
VERTEX
  5
12244
  8
0
 62
     5
 10
187.849099
 20
142.798516
 30
0.0
  0
VERTEX
  5
12245
  8
0
 62
     5
 10
187.862156
 20
142.807222
 30
0.0
  0
VERTEX
  5
12246
  8
0
 62
     5
 10
187.874489
 20
142.816924
 30
0.0
  0
VERTEX
  5
12247
  8
0
 62
     5
 10
187.886021
 20
142.827562
 30
0.0
  0
VERTEX
  5
12248
  8
0
 62
     5
 10
187.896681
 20
142.83907
 30
0.0
  0
VERTEX
  5
12249
  8
0
 62
     5
 10
187.906403
 20
142.851377
 30
0.0
  0
VERTEX
  5
1224A
  8
0
 62
     5
 10
187.915127
 20
142.864407
 30
0.0
  0
VERTEX
  5
1224B
  8
0
 62
     5
 10
187.922801
 20
142.878081
 30
0.0
  0
VERTEX
  5
1224C
  8
0
 62
     5
 10
187.929375
 20
142.892312
 30
0.0
  0
VERTEX
  5
1224D
  8
0
 62
     5
 10
187.934811
 20
142.907015
 30
0.0
  0
VERTEX
  5
1224E
  8
0
 62
     5
 10
187.939073
 20
142.922098
 30
0.0
  0
VERTEX
  5
1224F
  8
0
 62
     5
 10
187.942137
 20
142.937469
 30
0.0
  0
VERTEX
  5
12250
  8
0
 62
     5
 10
187.943983
 20
142.953031
 30
0.0
  0
VERTEX
  5
12251
  8
0
 62
     5
 10
187.944599
 20
142.968691
 30
0.0
  0
SEQEND
  5
12252
  8
0
 62
     5
  0
LINE
  5
11D41
  8
0
 62
     5
 10
250.944599
 20
132.72778
 30
0.0
 11
250.944599
 21
143.168411
 31
0.0
  0
INSERT
  5
11D42
  8
1
  2
A$C3C4259C2
 10
228.662917
 20
118.931618
 30
0.0
 41
-1.561577
 42
1.561577
 43
1.561578
  0
POLYLINE
  5
11D43
  8
HIDDEN
 66
     1
 10
0.0
 20
0.0
 30
0.0
  0
VERTEX
  5
12253
  8
HIDDEN
 10
215.459613
 20
117.797914
 30
0.0
  0
VERTEX
  5
12254
  8
HIDDEN
 10
215.515127
 20
117.865856
 30
0.0
  0
VERTEX
  5
12255
  8
HIDDEN
 10
215.571255
 20
117.98568
 30
0.0
  0
VERTEX
  5
12256
  8
HIDDEN
 10
215.625478
 20
118.154543
 30
0.0
  0
VERTEX
  5
12257
  8
HIDDEN
 10
215.67554
 20
118.362795
 30
0.0
  0
VERTEX
  5
12258
  8
HIDDEN
 10
215.724189
 20
118.621869
 30
0.0
  0
VERTEX
  5
12259
  8
HIDDEN
 10
215.944599
 20
122.179699
 30
0.0
  0
SEQEND
  5
1225A
  8
HIDDEN
  0
LINE
  5
11D4C
  8
HIDDEN
 10
215.743141
 20
118.92778
 30
0.0
 11
228.662015
 21
118.931618
 31
0.0
  0
LINE
  5
11D4D
  8
HIDDEN
 10
215.744439
 20
125.42778
 30
0.0
 11
228.662917
 21
125.42778
 31
0.0
  0
POLYLINE
  5
11D4E
  8
HIDDEN
 66
     1
 10
0.0
 20
0.0
 30
0.0
  0
VERTEX
  5
1225B
  8
HIDDEN
 10
215.944599
 20
122.179699
 30
0.0
  0
VERTEX
  5
1225C
  8
HIDDEN
 10
215.72641
 20
125.720343
 30
0.0
  0
VERTEX
  5
1225D
  8
HIDDEN
 10
215.677923
 20
125.981462
 30
0.0
  0
VERTEX
  5
1225E
  8
HIDDEN
 10
215.626283
 20
126.198086
 30
0.0
  0
VERTEX
  5
1225F
  8
HIDDEN
 10
215.573875
 20
126.362965
 30
0.0
  0
VERTEX
  5
12260
  8
HIDDEN
 10
215.517823
 20
126.485151
 30
0.0
  0
VERTEX
  5
12261
  8
HIDDEN
 10
215.459613
 20
126.557646
 30
0.0
  0
SEQEND
  5
12262
  8
HIDDEN
  0
LINE
  5
11D57
  8
0
 62
     5
 10
250.944599
 20
143.168411
 30
0.0
 11
248.944599
 21
143.168411
 31
0.0
  0
LINE
  5
11D58
  8
0
 62
     5
 10
248.944599
 20
192.72778
 30
0.0
 11
187.944599
 21
192.993944
 31
0.0
  0
POLYLINE
  5
11D59
  8
0
 62
     5
 66
     1
 10
0.0
 20
0.0
 30
0.0
 70
     8
  0
VERTEX
  5
11D5A
  8
0
 62
     5
 10
248.945
 20
182.359
 30
0.0
 70
    32
  0
VERTEX
  5
11D5B
  8
0
 62
     5
 10
248.625
 20
182.36
 30
0.0
 70
    32
  0
VERTEX
  5
11D5C
  8
0
 62
     5
 10
248.306
 20
182.362
 30
0.0
 70
    32
  0
VERTEX
  5
11D5D
  8
0
 62
     5
 10
247.986
 20
182.363
 30
0.0
 70
    32
  0
VERTEX
  5
11D5E
  8
0
 62
     5
 10
247.667
 20
182.364
 30
0.0
 70
    32
  0
VERTEX
  5
11D5F
  8
0
 62
     5
 10
247.348
 20
182.366
 30
0.0
 70
    32
  0
VERTEX
  5
11D60
  8
0
 62
     5
 10
247.028
 20
182.367
 30
0.0
 70
    32
  0
VERTEX
  5
11D61
  8
0
 62
     5
 10
246.709
 20
182.368
 30
0.0
 70
    32
  0
VERTEX
  5
11D62
  8
0
 62
     5
 10
246.39
 20
182.369
 30
0.0
 70
    32
  0
VERTEX
  5
11D63
  8
0
 62
     5
 10
246.07
 20
182.371
 30
0.0
 70
    32
  0
VERTEX
  5
11D64
  8
0
 62
     5
 10
245.751
 20
182.372
 30
0.0
 70
    32
  0
VERTEX
  5
11D65
  8
0
 62
     5
 10
245.432
 20
182.373
 30
0.0
 70
    32
  0
VERTEX
  5
11D66
  8
0
 62
     5
 10
245.112
 20
182.375
 30
0.0
 70
    32
  0
VERTEX
  5
11D67
  8
0
 62
     5
 10
244.793
 20
182.376
 30
0.0
 70
    32
  0
VERTEX
  5
11D68
  8
0
 62
     5
 10
244.473
 20
182.377
 30
0.0
 70
    32
  0
VERTEX
  5
11D69
  8
0
 62
     5
 10
244.154
 20
182.379
 30
0.0
 70
    32
  0
VERTEX
  5
11D6A
  8
0
 62
     5
 10
243.835
 20
182.38
 30
0.0
 70
    32
  0
VERTEX
  5
11D6B
  8
0
 62
     5
 10
243.515
 20
182.381
 30
0.0
 70
    32
  0
VERTEX
  5
11D6C
  8
0
 62
     5
 10
243.196
 20
182.382
 30
0.0
 70
    32
  0
VERTEX
  5
11D6D
  8
0
 62
     5
 10
242.877
 20
182.384
 30
0.0
 70
    32
  0
VERTEX
  5
11D6E
  8
0
 62
     5
 10
242.557
 20
182.385
 30
0.0
 70
    32
  0
VERTEX
  5
11D6F
  8
0
 62
     5
 10
242.238
 20
182.386
 30
0.0
 70
    32
  0
VERTEX
  5
11D70
  8
0
 62
     5
 10
241.918
 20
182.388
 30
0.0
 70
    32
  0
VERTEX
  5
11D71
  8
0
 62
     5
 10
241.599
 20
182.389
 30
0.0
 70
    32
  0
VERTEX
  5
11D72
  8
0
 62
     5
 10
241.28
 20
182.39
 30
0.0
 70
    32
  0
VERTEX
  5
11D73
  8
0
 62
     5
 10
240.96
 20
182.391
 30
0.0
 70
    32
  0
VERTEX
  5
11D74
  8
0
 62
     5
 10
240.641
 20
182.393
 30
0.0
 70
    32
  0
VERTEX
  5
11D75
  8
0
 62
     5
 10
240.322
 20
182.394
 30
0.0
 70
    32
  0
VERTEX
  5
11D76
  8
0
 62
     5
 10
240.002
 20
182.395
 30
0.0
 70
    32
  0
VERTEX
  5
11D77
  8
0
 62
     5
 10
239.683
 20
182.397
 30
0.0
 70
    32
  0
VERTEX
  5
11D78
  8
0
 62
     5
 10
239.363
 20
182.398
 30
0.0
 70
    32
  0
VERTEX
  5
11D79
  8
0
 62
     5
 10
239.044
 20
182.399
 30
0.0
 70
    32
  0
VERTEX
  5
11D7A
  8
0
 62
     5
 10
238.725
 20
182.4
 30
0.0
 70
    32
  0
VERTEX
  5
11D7B
  8
0
 62
     5
 10
238.405
 20
182.402
 30
0.0
 70
    32
  0
VERTEX
  5
11D7C
  8
0
 62
     5
 10
238.086
 20
182.403
 30
0.0
 70
    32
  0
VERTEX
  5
11D7D
  8
0
 62
     5
 10
237.767
 20
182.404
 30
0.0
 70
    32
  0
VERTEX
  5
11D7E
  8
0
 62
     5
 10
237.447
 20
182.406
 30
0.0
 70
    32
  0
VERTEX
  5
11D7F
  8
0
 62
     5
 10
237.128
 20
182.407
 30
0.0
 70
    32
  0
VERTEX
  5
11D80
  8
0
 62
     5
 10
236.808
 20
182.408
 30
0.0
 70
    32
  0
VERTEX
  5
11D81
  8
0
 62
     5
 10
236.489
 20
182.409
 30
0.0
 70
    32
  0
VERTEX
  5
11D82
  8
0
 62
     5
 10
236.17
 20
182.411
 30
0.0
 70
    32
  0
VERTEX
  5
11D83
  8
0
 62
     5
 10
235.85
 20
182.412
 30
0.0
 70
    32
  0
VERTEX
  5
11D84
  8
0
 62
     5
 10
235.531
 20
182.413
 30
0.0
 70
    32
  0
VERTEX
  5
11D85
  8
0
 62
     5
 10
235.212
 20
182.415
 30
0.0
 70
    32
  0
VERTEX
  5
11D86
  8
0
 62
     5
 10
234.892
 20
182.416
 30
0.0
 70
    32
  0
VERTEX
  5
11D87
  8
0
 62
     5
 10
234.573
 20
182.417
 30
0.0
 70
    32
  0
VERTEX
  5
11D88
  8
0
 62
     5
 10
234.254
 20
182.419
 30
0.0
 70
    32
  0
VERTEX
  5
11D89
  8
0
 62
     5
 10
233.934
 20
182.42
 30
0.0
 70
    32
  0
VERTEX
  5
11D8A
  8
0
 62
     5
 10
233.615
 20
182.421
 30
0.0
 70
    32
  0
VERTEX
  5
11D8B
  8
0
 62
     5
 10
233.295
 20
182.422
 30
0.0
 70
    32
  0
VERTEX
  5
11D8C
  8
0
 62
     5
 10
232.976
 20
182.424
 30
0.0
 70
    32
  0
VERTEX
  5
11D8D
  8
0
 62
     5
 10
232.657
 20
182.425
 30
0.0
 70
    32
  0
VERTEX
  5
11D8E
  8
0
 62
     5
 10
232.337
 20
182.426
 30
0.0
 70
    32
  0
VERTEX
  5
11D8F
  8
0
 62
     5
 10
232.018
 20
182.428
 30
0.0
 70
    32
  0
VERTEX
  5
11D90
  8
0
 62
     5
 10
231.699
 20
182.429
 30
0.0
 70
    32
  0
VERTEX
  5
11D91
  8
0
 62
     5
 10
231.379
 20
182.43
 30
0.0
 70
    32
  0
VERTEX
  5
11D92
  8
0
 62
     5
 10
231.06
 20
182.431
 30
0.0
 70
    32
  0
VERTEX
  5
11D93
  8
0
 62
     5
 10
230.74
 20
182.433
 30
0.0
 70
    32
  0
VERTEX
  5
11D94
  8
0
 62
     5
 10
230.421
 20
182.434
 30
0.0
 70
    32
  0
VERTEX
  5
11D95
  8
0
 62
     5
 10
230.102
 20
182.435
 30
0.0
 70
    32
  0
VERTEX
  5
11D96
  8
0
 62
     5
 10
229.782
 20
182.437
 30
0.0
 70
    32
  0
VERTEX
  5
11D97
  8
0
 62
     5
 10
229.463
 20
182.438
 30
0.0
 70
    32
  0
VERTEX
  5
11D98
  8
0
 62
     5
 10
229.144
 20
182.439
 30
0.0
 70
    32
  0
VERTEX
  5
11D99
  8
0
 62
     5
 10
228.824
 20
182.44
 30
0.0
 70
    32
  0
VERTEX
  5
11D9A
  8
0
 62
     5
 10
228.505
 20
182.442
 30
0.0
 70
    32
  0
VERTEX
  5
11D9B
  8
0
 62
     5
 10
228.185
 20
182.443
 30
0.0
 70
    32
  0
VERTEX
  5
11D9C
  8
0
 62
     5
 10
227.866
 20
182.444
 30
0.0
 70
    32
  0
VERTEX
  5
11D9D
  8
0
 62
     5
 10
227.547
 20
182.446
 30
0.0
 70
    32
  0
VERTEX
  5
11D9E
  8
0
 62
     5
 10
227.227
 20
182.447
 30
0.0
 70
    32
  0
VERTEX
  5
11D9F
  8
0
 62
     5
 10
226.908
 20
182.448
 30
0.0
 70
    32
  0
VERTEX
  5
11DA0
  8
0
 62
     5
 10
226.589
 20
182.449
 30
0.0
 70
    32
  0
VERTEX
  5
11DA1
  8
0
 62
     5
 10
226.269
 20
182.451
 30
0.0
 70
    32
  0
VERTEX
  5
11DA2
  8
0
 62
     5
 10
225.95
 20
182.452
 30
0.0
 70
    32
  0
VERTEX
  5
11DA3
  8
0
 62
     5
 10
225.63
 20
182.453
 30
0.0
 70
    32
  0
VERTEX
  5
11DA4
  8
0
 62
     5
 10
225.311
 20
182.455
 30
0.0
 70
    32
  0
VERTEX
  5
11DA5
  8
0
 62
     5
 10
224.992
 20
182.456
 30
0.0
 70
    32
  0
VERTEX
  5
11DA6
  8
0
 62
     5
 10
224.672
 20
182.457
 30
0.0
 70
    32
  0
VERTEX
  5
11DA7
  8
0
 62
     5
 10
224.353
 20
182.459
 30
0.0
 70
    32
  0
VERTEX
  5
11DA8
  8
0
 62
     5
 10
224.034
 20
182.46
 30
0.0
 70
    32
  0
VERTEX
  5
11DA9
  8
0
 62
     5
 10
223.714
 20
182.461
 30
0.0
 70
    32
  0
VERTEX
  5
11DAA
  8
0
 62
     5
 10
223.395
 20
182.462
 30
0.0
 70
    32
  0
VERTEX
  5
11DAB
  8
0
 62
     5
 10
223.075
 20
182.464
 30
0.0
 70
    32
  0
VERTEX
  5
11DAC
  8
0
 62
     5
 10
222.756
 20
182.465
 30
0.0
 70
    32
  0
VERTEX
  5
11DAD
  8
0
 62
     5
 10
222.437
 20
182.466
 30
0.0
 70
    32
  0
VERTEX
  5
11DAE
  8
0
 62
     5
 10
222.117
 20
182.468
 30
0.0
 70
    32
  0
VERTEX
  5
11DAF
  8
0
 62
     5
 10
221.798
 20
182.469
 30
0.0
 70
    32
  0
VERTEX
  5
11DB0
  8
0
 62
     5
 10
221.479
 20
182.47
 30
0.0
 70
    32
  0
VERTEX
  5
11DB1
  8
0
 62
     5
 10
221.159
 20
182.471
 30
0.0
 70
    32
  0
VERTEX
  5
11DB2
  8
0
 62
     5
 10
220.84
 20
182.473
 30
0.0
 70
    32
  0
VERTEX
  5
11DB3
  8
0
 62
     5
 10
220.521
 20
182.474
 30
0.0
 70
    32
  0
VERTEX
  5
11DB4
  8
0
 62
     5
 10
220.201
 20
182.475
 30
0.0
 70
    32
  0
VERTEX
  5
11DB5
  8
0
 62
     5
 10
219.882
 20
182.477
 30
0.0
 70
    32
  0
VERTEX
  5
11DB6
  8
0
 62
     5
 10
219.562
 20
182.478
 30
0.0
 70
    32
  0
VERTEX
  5
11DB7
  8
0
 62
     5
 10
219.243
 20
182.479
 30
0.0
 70
    32
  0
VERTEX
  5
11DB8
  8
0
 62
     5
 10
218.924
 20
182.48
 30
0.0
 70
    32
  0
VERTEX
  5
11DB9
  8
0
 62
     5
 10
218.604
 20
182.482
 30
0.0
 70
    32
  0
VERTEX
  5
11DBA
  8
0
 62
     5
 10
218.285
 20
182.483
 30
0.0
 70
    32
  0
VERTEX
  5
11DBB
  8
0
 62
     5
 10
217.966
 20
182.484
 30
0.0
 70
    32
  0
VERTEX
  5
11DBC
  8
0
 62
     5
 10
217.646
 20
182.486
 30
0.0
 70
    32
  0
VERTEX
  5
11DBD
  8
0
 62
     5
 10
217.327
 20
182.487
 30
0.0
 70
    32
  0
VERTEX
  5
11DBE
  8
0
 62
     5
 10
217.007
 20
182.488
 30
0.0
 70
    32
  0
VERTEX
  5
11DBF
  8
0
 62
     5
 10
216.688
 20
182.489
 30
0.0
 70
    32
  0
VERTEX
  5
11DC0
  8
0
 62
     5
 10
216.369
 20
182.491
 30
0.0
 70
    32
  0
VERTEX
  5
11DC1
  8
0
 62
     5
 10
216.049
 20
182.492
 30
0.0
 70
    32
  0
VERTEX
  5
11DC2
  8
0
 62
     5
 10
215.73
 20
182.493
 30
0.0
 70
    32
  0
VERTEX
  5
11DC3
  8
0
 62
     5
 10
215.411
 20
182.495
 30
0.0
 70
    32
  0
VERTEX
  5
11DC4
  8
0
 62
     5
 10
215.091
 20
182.496
 30
0.0
 70
    32
  0
VERTEX
  5
11DC5
  8
0
 62
     5
 10
214.772
 20
182.497
 30
0.0
 70
    32
  0
VERTEX
  5
11DC6
  8
0
 62
     5
 10
214.452
 20
182.498
 30
0.0
 70
    32
  0
VERTEX
  5
11DC7
  8
0
 62
     5
 10
214.133
 20
182.5
 30
0.0
 70
    32
  0
VERTEX
  5
11DC8
  8
0
 62
     5
 10
213.814
 20
182.501
 30
0.0
 70
    32
  0
VERTEX
  5
11DC9
  8
0
 62
     5
 10
213.494
 20
182.502
 30
0.0
 70
    32
  0
VERTEX
  5
11DCA
  8
0
 62
     5
 10
213.175
 20
182.504
 30
0.0
 70
    32
  0
VERTEX
  5
11DCB
  8
0
 62
     5
 10
212.856
 20
182.505
 30
0.0
 70
    32
  0
VERTEX
  5
11DCC
  8
0
 62
     5
 10
212.536
 20
182.506
 30
0.0
 70
    32
  0
VERTEX
  5
11DCD
  8
0
 62
     5
 10
212.217
 20
182.508
 30
0.0
 70
    32
  0
VERTEX
  5
11DCE
  8
0
 62
     5
 10
211.897
 20
182.509
 30
0.0
 70
    32
  0
VERTEX
  5
11DCF
  8
0
 62
     5
 10
211.578
 20
182.51
 30
0.0
 70
    32
  0
VERTEX
  5
11DD0
  8
0
 62
     5
 10
211.259
 20
182.511
 30
0.0
 70
    32
  0
VERTEX
  5
11DD1
  8
0
 62
     5
 10
210.939
 20
182.513
 30
0.0
 70
    32
  0
VERTEX
  5
11DD2
  8
0
 62
     5
 10
210.62
 20
182.514
 30
0.0
 70
    32
  0
VERTEX
  5
11DD3
  8
0
 62
     5
 10
210.301
 20
182.515
 30
0.0
 70
    32
  0
VERTEX
  5
11DD4
  8
0
 62
     5
 10
209.981
 20
182.517
 30
0.0
 70
    32
  0
VERTEX
  5
11DD5
  8
0
 62
     5
 10
209.662
 20
182.518
 30
0.0
 70
    32
  0
VERTEX
  5
11DD6
  8
0
 62
     5
 10
209.343
 20
182.519
 30
0.0
 70
    32
  0
VERTEX
  5
11DD7
  8
0
 62
     5
 10
209.023
 20
182.52
 30
0.0
 70
    32
  0
VERTEX
  5
11DD8
  8
0
 62
     5
 10
208.704
 20
182.522
 30
0.0
 70
    32
  0
VERTEX
  5
11DD9
  8
0
 62
     5
 10
208.384
 20
182.523
 30
0.0
 70
    32
  0
VERTEX
  5
11DDA
  8
0
 62
     5
 10
208.065
 20
182.524
 30
0.0
 70
    32
  0
VERTEX
  5
11DDB
  8
0
 62
     5
 10
207.746
 20
182.526
 30
0.0
 70
    32
  0
VERTEX
  5
11DDC
  8
0
 62
     5
 10
207.426
 20
182.527
 30
0.0
 70
    32
  0
VERTEX
  5
11DDD
  8
0
 62
     5
 10
207.107
 20
182.528
 30
0.0
 70
    32
  0
VERTEX
  5
11DDE
  8
0
 62
     5
 10
206.788
 20
182.529
 30
0.0
 70
    32
  0
VERTEX
  5
11DDF
  8
0
 62
     5
 10
206.468
 20
182.531
 30
0.0
 70
    32
  0
VERTEX
  5
11DE0
  8
0
 62
     5
 10
206.149
 20
182.532
 30
0.0
 70
    32
  0
VERTEX
  5
11DE1
  8
0
 62
     5
 10
205.829
 20
182.533
 30
0.0
 70
    32
  0
VERTEX
  5
11DE2
  8
0
 62
     5
 10
205.51
 20
182.535
 30
0.0
 70
    32
  0
VERTEX
  5
11DE3
  8
0
 62
     5
 10
205.191
 20
182.536
 30
0.0
 70
    32
  0
VERTEX
  5
11DE4
  8
0
 62
     5
 10
204.871
 20
182.537
 30
0.0
 70
    32
  0
VERTEX
  5
11DE5
  8
0
 62
     5
 10
204.552
 20
182.538
 30
0.0
 70
    32
  0
VERTEX
  5
11DE6
  8
0
 62
     5
 10
204.233
 20
182.54
 30
0.0
 70
    32
  0
VERTEX
  5
11DE7
  8
0
 62
     5
 10
203.913
 20
182.541
 30
0.0
 70
    32
  0
VERTEX
  5
11DE8
  8
0
 62
     5
 10
203.594
 20
182.542
 30
0.0
 70
    32
  0
VERTEX
  5
11DE9
  8
0
 62
     5
 10
203.274
 20
182.544
 30
0.0
 70
    32
  0
VERTEX
  5
11DEA
  8
0
 62
     5
 10
202.955
 20
182.545
 30
0.0
 70
    32
  0
VERTEX
  5
11DEB
  8
0
 62
     5
 10
202.636
 20
182.546
 30
0.0
 70
    32
  0
VERTEX
  5
11DEC
  8
0
 62
     5
 10
202.316
 20
182.548
 30
0.0
 70
    32
  0
VERTEX
  5
11DED
  8
0
 62
     5
 10
201.997
 20
182.549
 30
0.0
 70
    32
  0
VERTEX
  5
11DEE
  8
0
 62
     5
 10
201.678
 20
182.55
 30
0.0
 70
    32
  0
VERTEX
  5
11DEF
  8
0
 62
     5
 10
201.358
 20
182.551
 30
0.0
 70
    32
  0
VERTEX
  5
11DF0
  8
0
 62
     5
 10
201.039
 20
182.553
 30
0.0
 70
    32
  0
VERTEX
  5
11DF1
  8
0
 62
     5
 10
200.719
 20
182.554
 30
0.0
 70
    32
  0
VERTEX
  5
11DF2
  8
0
 62
     5
 10
200.4
 20
182.555
 30
0.0
 70
    32
  0
VERTEX
  5
11DF3
  8
0
 62
     5
 10
200.081
 20
182.557
 30
0.0
 70
    32
  0
VERTEX
  5
11DF4
  8
0
 62
     5
 10
199.761
 20
182.558
 30
0.0
 70
    32
  0
VERTEX
  5
11DF5
  8
0
 62
     5
 10
199.442
 20
182.559
 30
0.0
 70
    32
  0
VERTEX
  5
11DF6
  8
0
 62
     5
 10
199.123
 20
182.56
 30
0.0
 70
    32
  0
VERTEX
  5
11DF7
  8
0
 62
     5
 10
198.803
 20
182.562
 30
0.0
 70
    32
  0
VERTEX
  5
11DF8
  8
0
 62
     5
 10
198.484
 20
182.563
 30
0.0
 70
    32
  0
VERTEX
  5
11DF9
  8
0
 62
     5
 10
198.164
 20
182.564
 30
0.0
 70
    32
  0
VERTEX
  5
11DFA
  8
0
 62
     5
 10
197.845
 20
182.566
 30
0.0
 70
    32
  0
VERTEX
  5
11DFB
  8
0
 62
     5
 10
197.526
 20
182.567
 30
0.0
 70
    32
  0
VERTEX
  5
11DFC
  8
0
 62
     5
 10
197.206
 20
182.568
 30
0.0
 70
    32
  0
VERTEX
  5
11DFD
  8
0
 62
     5
 10
196.887
 20
182.569
 30
0.0
 70
    32
  0
VERTEX
  5
11DFE
  8
0
 62
     5
 10
196.568
 20
182.571
 30
0.0
 70
    32
  0
VERTEX
  5
11DFF
  8
0
 62
     5
 10
196.248
 20
182.572
 30
0.0
 70
    32
  0
VERTEX
  5
11E00
  8
0
 62
     5
 10
195.929
 20
182.573
 30
0.0
 70
    32
  0
VERTEX
  5
11E01
  8
0
 62
     5
 10
195.61
 20
182.575
 30
0.0
 70
    32
  0
VERTEX
  5
11E02
  8
0
 62
     5
 10
195.29
 20
182.576
 30
0.0
 70
    32
  0
VERTEX
  5
11E03
  8
0
 62
     5
 10
194.971
 20
182.577
 30
0.0
 70
    32
  0
VERTEX
  5
11E04
  8
0
 62
     5
 10
194.651
 20
182.578
 30
0.0
 70
    32
  0
VERTEX
  5
11E05
  8
0
 62
     5
 10
194.332
 20
182.58
 30
0.0
 70
    32
  0
VERTEX
  5
11E06
  8
0
 62
     5
 10
194.013
 20
182.581
 30
0.0
 70
    32
  0
VERTEX
  5
11E07
  8
0
 62
     5
 10
193.693
 20
182.582
 30
0.0
 70
    32
  0
VERTEX
  5
11E08
  8
0
 62
     5
 10
193.374
 20
182.584
 30
0.0
 70
    32
  0
VERTEX
  5
11E09
  8
0
 62
     5
 10
193.055
 20
182.585
 30
0.0
 70
    32
  0
VERTEX
  5
11E0A
  8
0
 62
     5
 10
192.735
 20
182.586
 30
0.0
 70
    32
  0
VERTEX
  5
11E0B
  8
0
 62
     5
 10
192.416
 20
182.587
 30
0.0
 70
    32
  0
VERTEX
  5
11E0C
  8
0
 62
     5
 10
192.096
 20
182.589
 30
0.0
 70
    32
  0
VERTEX
  5
11E0D
  8
0
 62
     5
 10
191.777
 20
182.59
 30
0.0
 70
    32
  0
VERTEX
  5
11E0E
  8
0
 62
     5
 10
191.458
 20
182.591
 30
0.0
 70
    32
  0
VERTEX
  5
11E0F
  8
0
 62
     5
 10
191.138
 20
182.593
 30
0.0
 70
    32
  0
VERTEX
  5
11E10
  8
0
 62
     5
 10
190.819
 20
182.594
 30
0.0
 70
    32
  0
VERTEX
  5
11E11
  8
0
 62
     5
 10
190.5
 20
182.595
 30
0.0
 70
    32
  0
VERTEX
  5
11E12
  8
0
 62
     5
 10
190.18
 20
182.597
 30
0.0
 70
    32
  0
VERTEX
  5
11E13
  8
0
 62
     5
 10
189.861
 20
182.598
 30
0.0
 70
    32
  0
VERTEX
  5
11E14
  8
0
 62
     5
 10
189.541
 20
182.599
 30
0.0
 70
    32
  0
VERTEX
  5
11E15
  8
0
 62
     5
 10
189.222
 20
182.6
 30
0.0
 70
    32
  0
VERTEX
  5
11E16
  8
0
 62
     5
 10
188.903
 20
182.602
 30
0.0
 70
    32
  0
VERTEX
  5
11E17
  8
0
 62
     5
 10
188.583
 20
182.603
 30
0.0
 70
    32
  0
VERTEX
  5
11E18
  8
0
 62
     5
 10
188.264
 20
182.604
 30
0.0
 70
    32
  0
VERTEX
  5
11E19
  8
0
 62
     5
 10
187.945
 20
182.606
 30
0.0
 70
    32
  0
SEQEND
  5
11E1A
  8
0
 62
     5
  0
POLYLINE
  5
11E1B
  8
0
 62
     5
 66
     1
 10
0.0
 20
0.0
 30
0.0
  0
VERTEX
  5
12263
  8
0
 62
     5
 10
187.744599
 20
182.686455
 30
0.0
  0
VERTEX
  5
12264
  8
0
 62
     5
 10
187.760291
 20
182.68584
 30
0.0
  0
VERTEX
  5
12265
  8
0
 62
     5
 10
187.775886
 20
182.683998
 30
0.0
  0
VERTEX
  5
12266
  8
0
 62
     5
 10
187.791289
 20
182.680941
 30
0.0
  0
VERTEX
  5
12267
  8
0
 62
     5
 10
187.806403
 20
182.676687
 30
0.0
  0
VERTEX
  5
12268
  8
0
 62
     5
 10
187.821136
 20
182.671263
 30
0.0
  0
VERTEX
  5
12269
  8
0
 62
     5
 10
187.835398
 20
182.664702
 30
0.0
  0
VERTEX
  5
1226A
  8
0
 62
     5
 10
187.849099
 20
182.657044
 30
0.0
  0
VERTEX
  5
1226B
  8
0
 62
     5
 10
187.862156
 20
182.648338
 30
0.0
  0
VERTEX
  5
1226C
  8
0
 62
     5
 10
187.874489
 20
182.638636
 30
0.0
  0
VERTEX
  5
1226D
  8
0
 62
     5
 10
187.886021
 20
182.627998
 30
0.0
  0
VERTEX
  5
1226E
  8
0
 62
     5
 10
187.896681
 20
182.61649
 30
0.0
  0
VERTEX
  5
1226F
  8
0
 62
     5
 10
187.906403
 20
182.604183
 30
0.0
  0
VERTEX
  5
12270
  8
0
 62
     5
 10
187.915127
 20
182.591153
 30
0.0
  0
VERTEX
  5
12271
  8
0
 62
     5
 10
187.922801
 20
182.577479
 30
0.0
  0
VERTEX
  5
12272
  8
0
 62
     5
 10
187.929375
 20
182.563248
 30
0.0
  0
VERTEX
  5
12273
  8
0
 62
     5
 10
187.934811
 20
182.548545
 30
0.0
  0
VERTEX
  5
12274
  8
0
 62
     5
 10
187.939073
 20
182.533462
 30
0.0
  0
VERTEX
  5
12275
  8
0
 62
     5
 10
187.942137
 20
182.518091
 30
0.0
  0
VERTEX
  5
12276
  8
0
 62
     5
 10
187.943983
 20
182.502529
 30
0.0
  0
VERTEX
  5
12277
  8
0
 62
     5
 10
187.944599
 20
182.486869
 30
0.0
  0
SEQEND
  5
12278
  8
0
 62
     5
  0
ARC
  5
11E32
  8
0
 62
     5
 10
187.744599
 20
192.52778
 30
0.0
 40
0.2
 50
0.0
 51
90.0
  0
LINE
  5
11E33
  8
0
 62
     5
 10
250.944599
 20
182.287149
 30
0.0
 11
250.944599
 21
192.72778
 31
0.0
  0
LINE
  5
11E34
  8
0
 62
     5
 10
250.944599
 20
182.287149
 30
0.0
 11
248.944599
 21
182.287149
 31
0.0
  0
LINE
  5
11E35
  8
0
 62
     5
 10
335.088047
 20
192.993944
 30
0.0
 11
372.849551
 21
192.993944
 31
0.0
  0
LINE
  5
11E36
  8
HIDDEN
 10
336.318799
 20
126.82778
 30
0.0
 11
338.618799
 21
126.82778
 31
0.0
  0
LINE
  5
11E37
  8
CENTER
 10
319.625898
 20
162.72778
 30
0.0
 11
388.3117
 21
162.72778
 31
0.0
  0
LINE
  5
11E38
  8
0
 62
     5
 10
334.646107
 20
129.32778
 30
0.0
 11
361.40943
 21
129.32778
 31
0.0
  0
LINE
  5
11E39
  8
0
 62
     5
 10
328.468799
 20
132.72778
 30
0.0
 11
379.468799
 21
132.72778
 31
0.0
  0
LINE
  5
11E3A
  8
0
 62
     5
 10
379.468799
 20
192.72778
 30
0.0
 11
328.468799
 21
192.72778
 31
0.0
  0
CIRCLE
  5
11E3B
  8
0
 62
     5
 10
353.968799
 20
162.72778
 30
0.0
 40
25.0
  0
LINE
  5
11E3C
  8
0
 62
     5
 10
323.702635
 20
143.847028
 30
0.0
 11
323.702635
 21
181.608532
 31
0.0
  0
LINE
  5
11E3D
  8
0
 62
     5
 10
323.968799
 20
188.22778
 30
0.0
 11
323.968799
 21
137.22778
 31
0.0
  0
LINE
  5
11E3E
  8
0
 62
     5
 10
257.944599
 20
192.72778
 30
0.0
 11
257.944599
 21
132.72778
 31
0.0
  0
LINE
  5
11E3F
  8
0
 62
     5
 10
260.744599
 20
187.72778
 30
0.0
 11
260.744599
 21
137.72778
 31
0.0
  0
LINE
  5
11E40
  8
0
 62
     5
 10
260.944599
 20
187.52778
 30
0.0
 11
260.944599
 21
137.92778
 31
0.0
  0
LINE
  5
11E41
  8
0
 62
     5
 10
287.544599
 20
169.72778
 30
0.0
 11
287.544599
 21
155.72778
 31
0.0
  0
LINE
  5
11E42
  8
0
 62
     5
 10
287.944599
 20
169.327777
 30
0.0
 11
287.944599
 21
156.127783
 31
0.0
  0
LINE
  5
11E43
  8
0
 62
     5
 10
261.344599
 20
155.72778
 30
0.0
 11
287.544599
 21
155.72778
 31
0.0
  0
LINE
  5
11E44
  8
0
 62
     5
 10
258.144599
 20
137.72778
 30
0.0
 11
260.744599
 21
137.72778
 31
0.0
  0
ARC
  5
11E45
  8
0
 62
     5
 10
258.144599
 20
137.52778
 30
0.0
 40
0.2
 50
90.0
 51
180.0
  0
LINE
  5
11E46
  8
0
 62
     5
 10
260.744599
 20
137.72778
 30
0.0
 11
260.944599
 21
137.92778
 31
0.0
  0
ARC
  5
11E47
  8
0
 62
     5
 10
261.344599
 20
155.32778
 30
0.0
 40
0.4
 50
90.0
 51
180.0
  0
LINE
  5
11E48
  8
0
 62
     5
 10
287.544599
 20
155.72778
 30
0.0
 11
287.944599
 21
156.12778
 31
0.0
  0
LINE
  5
11E49
  8
CENTER
 10
335.266317
 20
144.025298
 30
0.0
 11
323.525206
 21
132.284187
 31
0.0
  0
ARC
  5
11E4A
  8
0
 62
     5
 10
328.468799
 20
137.22778
 30
0.0
 40
4.5
 50
180.0
 51
270.0
  0
ARC
  5
11E4B
  8
HIDDEN
 10
336.318799
 20
127.32778
 30
0.0
 40
0.5
 50
180.0
 51
270.0
  0
LINE
  5
11E4C
  8
HIDDEN
 10
335.818799
 20
128.42778
 30
0.0
 11
335.818799
 21
127.32778
 31
0.0
  0
LINE
  5
11E4D
  8
0
 62
     5
 10
334.146112
 20
132.717371
 30
0.0
 11
334.146107
 21
132.717126
 31
0.0
  0
LINE
  5
11E4E
  8
0
 62
     5
 10
334.146313
 20
132.72778
 30
0.0
 11
334.146107
 21
129.82778
 31
0.0
  0
ARC
  5
11E4F
  8
CENTER
 10
353.968799
 20
162.72778
 30
0.0
 40
35.0
 50
216.254023
 51
234.381034
  0
CIRCLE
  5
11E50
  8
0
 62
     5
 10
329.220062
 20
137.979043
 30
0.0
 40
2.9
  0
CIRCLE
  5
11E51
  8
0
 62
     5
 10
327.480091
 20
146.431818
 30
0.0
 40
1.25
  0
LINE
  5
11E52
  8
0
 62
     5
 10
261.344599
 20
169.72778
 30
0.0
 11
287.544599
 21
169.72778
 31
0.0
  0
ARC
  5
11E53
  8
0
 62
     5
 10
261.344599
 20
170.12778
 30
0.0
 40
0.4
 50
180.0
 51
270.0
  0
LINE
  5
11E54
  8
0
 62
     5
 10
258.144599
 20
187.72778
 30
0.0
 11
260.744599
 21
187.72778
 31
0.0
  0
ARC
  5
11E55
  8
0
 62
     5
 10
258.144599
 20
187.92778
 30
0.0
 40
0.2
 50
180.0
 51
270.0
  0
LINE
  5
11E56
  8
0
 62
     5
 10
260.744599
 20
187.72778
 30
0.0
 11
260.944599
 21
187.52778
 31
0.0
  0
LINE
  5
11E57
  8
0
 62
     5
 10
287.544599
 20
169.72778
 30
0.0
 11
287.944599
 21
169.32778
 31
0.0
  0
LINE
  5
11E58
  8
CENTER
 10
335.266317
 20
181.430262
 30
0.0
 11
323.525206
 21
193.171373
 31
0.0
  0
ARC
  5
11E59
  8
0
 62
     5
 10
328.468799
 20
188.22778
 30
0.0
 40
4.5
 50
90.0
 51
180.0
  0
ARC
  5
11E5A
  8
CENTER
 10
353.968799
 20
162.72778
 30
0.0
 40
35.0
 50
126.254023
 51
144.381034
  0
CIRCLE
  5
11E5B
  8
0
 62
     5
 10
329.220062
 20
187.476517
 30
0.0
 40
2.9
  0
LINE
  5
11E5C
  8
0
 62
     5
 10
384.234963
 20
181.608532
 30
0.0
 11
384.234963
 21
143.847028
 31
0.0
  0
LINE
  5
11E5D
  8
CENTER
 10
353.968799
 20
199.365472
 30
0.0
 11
353.968799
 21
114.583781
 31
0.0
  0
LINE
  5
11E5E
  8
0
 62
     5
 10
383.968799
 20
137.22778
 30
0.0
 11
383.968799
 21
188.22778
 31
0.0
  0
CIRCLE
  5
11E5F
  8
0
 62
     5
 10
353.968799
 20
162.72778
 30
0.0
 40
8.5
  0
CIRCLE
  5
11E60
  8
0
 62
     5
 10
353.968799
 20
162.72778
 30
0.0
 40
7.0
  0
LINE
  5
11E61
  8
0
  6
CONTINUOUS
 62
     5
 10
361.90943
 20
130.72778
 30
0.0
 11
377.468799
 21
130.72778
 31
0.0
  0
ARC
  5
11E62
  8
CENTER
 10
353.968799
 20
162.72778
 30
0.0
 40
35.0
 50
306.254023
 51
324.381034
  0
LINE
  5
11E63
  8
CENTER
 10
372.671281
 20
144.025298
 30
0.0
 11
384.412392
 21
132.284187
 31
0.0
  0
LINE
  5
11E64
  8
0
 62
     5
 10
361.90943
 20
130.72778
 30
0.0
 11
377.468799
 21
130.72778
 31
0.0
  0
CIRCLE
  5
11E65
  8
0
 62
     5
 10
378.717536
 20
137.979043
 30
0.0
 40
2.9
  0
LINE
  5
11E66
  8
CENTER
 10
363.268799
 20
134.298577
 30
0.0
 11
363.268799
 21
115.061152
 31
0.0
  0
LINE
  5
11E67
  8
CENTER
 10
363.968799
 20
134.298577
 30
0.0
 11
363.968799
 21
115.061152
 31
0.0
  0
LINE
  5
11E68
  8
CENTER
 10
348.068799
 20
134.298577
 30
0.0
 11
348.068799
 21
111.984461
 31
0.0
  0
LINE
  5
11E69
  8
0
  6
CONTINUOUS
 62
     5
 10
374.07894
 20
127.42778
 30
0.0
 11
355.537091
 21
127.42778
 31
0.0
  0
LINE
  5
11E6A
  8
0
 62
     5
 10
358.371443
 20
125.22778
 30
0.0
 11
355.467953
 21
125.22778
 31
0.0
  0
ARC
  5
11E6B
  8
HIDDEN
 10
353.518799
 20
119.62778
 30
0.0
 40
4.0
 50
270.0
 51
360.0
  0
LINE
  5
11E6C
  8
0
 62
     5
 10
355.486809
 20
125.82778
 30
0.0
 11
358.366741
 21
125.82778
 31
0.0
  0
ARC
  5
11E6D
  8
HIDDEN
 10
342.620132
 20
119.629113
 30
0.0
 40
4.001333
 50
180.019082
 51
269.980918
  0
LINE
  5
11E6E
  8
HIDDEN
 10
342.618799
 20
115.62778
 30
0.0
 11
353.518799
 21
115.62778
 31
0.0
  0
LINE
  5
11E6F
  8
0
 62
     5
 10
351.578187
 20
129.62778
 30
0.0
 11
344.559411
 21
129.62778
 31
0.0
  0
LINE
  5
11E70
  8
0
 62
     5
 10
340.710499
 20
123.92778
 30
0.0
 11
355.427099
 21
123.92778
 31
0.0
  0
LINE
  5
11E71
  8
HIDDEN
 10
338.618799
 20
126.82778
 30
0.0
 11
338.618799
 21
119.62778
 31
0.0
  0
LINE
  5
11E72
  8
0
 62
     5
 10
340.710499
 20
123.92778
 30
0.0
 11
340.540797
 21
129.32778
 31
0.0
  0
LINE
  5
11E73
  8
0
 62
     5
 10
341.327911
 20
129.32778
 30
0.0
 11
341.398204
 21
123.92778
 31
0.0
  0
LINE
  5
11E74
  8
0
 62
     5
 10
344.568799
 20
129.52778
 30
0.0
 11
344.568799
 21
129.62778
 31
0.0
  0
ARC
  5
11E75
  8
0
 62
     5
 10
344.368799
 20
129.52778
 30
0.0
 40
0.2
 50
270.0
 51
0.0
  0
LINE
  5
11E76
  8
0
 62
     5
 10
355.596801
 20
129.32778
 30
0.0
 11
355.427099
 21
123.92778
 31
0.0
  0
LINE
  5
11E77
  8
0
 62
     5
 10
354.739394
 20
123.92778
 30
0.0
 11
354.809687
 21
129.32778
 31
0.0
  0
LINE
  5
11E78
  8
0
 62
     5
 10
351.568799
 20
129.52778
 30
0.0
 11
351.568799
 21
129.62778
 31
0.0
  0
ARC
  5
11E79
  8
0
 62
     5
 10
351.768799
 20
129.52778
 30
0.0
 40
0.2
 50
180.0
 51
270.0
  0
LINE
  5
11E7A
  8
HIDDEN
 10
359.948757
 20
115.62778
 30
0.0
 11
365.538337
 21
115.62778
 31
0.0
  0
LINE
  5
11E7B
  8
0
 62
     5
 10
358.676882
 20
121.92778
 30
0.0
 11
367.860716
 21
121.92778
 31
0.0
  0
LINE
  5
11E7C
  8
0
 62
     5
 10
362.407286
 20
132.464452
 30
0.0
 11
372.849551
 21
132.461616
 31
0.0
  0
LINE
  5
11E7D
  8
0
 62
     5
 10
358.371443
 20
127.42778
 30
0.0
 11
358.356162
 21
122.22778
 31
0.0
  0
LINE
  5
11E7E
  8
HIDDEN
 10
357.518799
 20
126.82778
 30
0.0
 11
357.518799
 21
119.62778
 31
0.0
  0
LINE
  5
11E7F
  8
0
 62
     5
 10
358.356162
 20
122.22778
 30
0.0
 11
358.676882
 21
121.92778
 31
0.0
  0
LINE
  5
11E80
  8
HIDDEN
 10
357.518799
 20
126.82778
 30
0.0
 11
359.818799
 21
126.82778
 31
0.0
  0
ARC
  5
11E81
  8
HIDDEN
 10
359.818799
 20
127.32778
 30
0.0
 40
0.5
 50
270.0
 51
0.0
  0
LINE
  5
11E82
  8
0
 62
     5
 10
361.90943
 20
131.964447
 30
0.0
 11
361.90943
 21
129.82778
 31
0.0
  0
ARC
  5
11E83
  8
0
 62
     5
 10
361.40943
 20
129.82778
 30
0.0
 40
0.5
 50
270.0
 51
0.0
  0
POLYLINE
  5
11E84
  8
0
 62
     5
 66
     1
 10
0.0
 20
0.0
 30
0.0
 70
     8
  0
VERTEX
  5
11E85
  8
0
 62
     5
 10
361.949
 20
132.16
 30
0.0
 70
    32
  0
VERTEX
  5
11E86
  8
0
 62
     5
 10
361.949
 20
132.159
 30
0.0
 70
    32
  0
VERTEX
  5
11E87
  8
0
 62
     5
 10
361.949
 20
132.159
 30
0.0
 70
    32
  0
VERTEX
  5
11E88
  8
0
 62
     5
 10
361.948
 20
132.158
 30
0.0
 70
    32
  0
VERTEX
  5
11E89
  8
0
 62
     5
 10
361.948
 20
132.157
 30
0.0
 70
    32
  0
VERTEX
  5
11E8A
  8
0
 62
     5
 10
361.948
 20
132.157
 30
0.0
 70
    32
  0
VERTEX
  5
11E8B
  8
0
 62
     5
 10
361.948
 20
132.156
 30
0.0
 70
    32
  0
VERTEX
  5
11E8C
  8
0
 62
     5
 10
361.948
 20
132.156
 30
0.0
 70
    32
  0
VERTEX
  5
11E8D
  8
0
 62
     5
 10
361.947
 20
132.155
 30
0.0
 70
    32
  0
VERTEX
  5
11E8E
  8
0
 62
     5
 10
361.947
 20
132.155
 30
0.0
 70
    32
  0
VERTEX
  5
11E8F
  8
0
 62
     5
 10
361.947
 20
132.154
 30
0.0
 70
    32
  0
VERTEX
  5
11E90
  8
0
 62
     5
 10
361.947
 20
132.154
 30
0.0
 70
    32
  0
VERTEX
  5
11E91
  8
0
 62
     5
 10
361.946
 20
132.153
 30
0.0
 70
    32
  0
VERTEX
  5
11E92
  8
0
 62
     5
 10
361.946
 20
132.153
 30
0.0
 70
    32
  0
VERTEX
  5
11E93
  8
0
 62
     5
 10
361.946
 20
132.152
 30
0.0
 70
    32
  0
VERTEX
  5
11E94
  8
0
 62
     5
 10
361.946
 20
132.152
 30
0.0
 70
    32
  0
VERTEX
  5
11E95
  8
0
 62
     5
 10
361.946
 20
132.151
 30
0.0
 70
    32
  0
VERTEX
  5
11E96
  8
0
 62
     5
 10
361.945
 20
132.151
 30
0.0
 70
    32
  0
VERTEX
  5
11E97
  8
0
 62
     5
 10
361.945
 20
132.15
 30
0.0
 70
    32
  0
VERTEX
  5
11E98
  8
0
 62
     5
 10
361.945
 20
132.15
 30
0.0
 70
    32
  0
VERTEX
  5
11E99
  8
0
 62
     5
 10
361.945
 20
132.149
 30
0.0
 70
    32
  0
VERTEX
  5
11E9A
  8
0
 62
     5
 10
361.945
 20
132.149
 30
0.0
 70
    32
  0
VERTEX
  5
11E9B
  8
0
 62
     5
 10
361.944
 20
132.148
 30
0.0
 70
    32
  0
VERTEX
  5
11E9C
  8
0
 62
     5
 10
361.944
 20
132.148
 30
0.0
 70
    32
  0
VERTEX
  5
11E9D
  8
0
 62
     5
 10
361.944
 20
132.147
 30
0.0
 70
    32
  0
VERTEX
  5
11E9E
  8
0
 62
     5
 10
361.944
 20
132.147
 30
0.0
 70
    32
  0
VERTEX
  5
11E9F
  8
0
 62
     5
 10
361.944
 20
132.146
 30
0.0
 70
    32
  0
VERTEX
  5
11EA0
  8
0
 62
     5
 10
361.943
 20
132.146
 30
0.0
 70
    32
  0
VERTEX
  5
11EA1
  8
0
 62
     5
 10
361.943
 20
132.145
 30
0.0
 70
    32
  0
VERTEX
  5
11EA2
  8
0
 62
     5
 10
361.943
 20
132.145
 30
0.0
 70
    32
  0
VERTEX
  5
11EA3
  8
0
 62
     5
 10
361.943
 20
132.144
 30
0.0
 70
    32
  0
VERTEX
  5
11EA4
  8
0
 62
     5
 10
361.943
 20
132.144
 30
0.0
 70
    32
  0
VERTEX
  5
11EA5
  8
0
 62
     5
 10
361.942
 20
132.143
 30
0.0
 70
    32
  0
VERTEX
  5
11EA6
  8
0
 62
     5
 10
361.942
 20
132.143
 30
0.0
 70
    32
  0
VERTEX
  5
11EA7
  8
0
 62
     5
 10
361.942
 20
132.142
 30
0.0
 70
    32
  0
VERTEX
  5
11EA8
  8
0
 62
     5
 10
361.942
 20
132.141
 30
0.0
 70
    32
  0
VERTEX
  5
11EA9
  8
0
 62
     5
 10
361.942
 20
132.141
 30
0.0
 70
    32
  0
VERTEX
  5
11EAA
  8
0
 62
     5
 10
361.941
 20
132.14
 30
0.0
 70
    32
  0
VERTEX
  5
11EAB
  8
0
 62
     5
 10
361.941
 20
132.14
 30
0.0
 70
    32
  0
VERTEX
  5
11EAC
  8
0
 62
     5
 10
361.941
 20
132.139
 30
0.0
 70
    32
  0
VERTEX
  5
11EAD
  8
0
 62
     5
 10
361.941
 20
132.139
 30
0.0
 70
    32
  0
VERTEX
  5
11EAE
  8
0
 62
     5
 10
361.941
 20
132.138
 30
0.0
 70
    32
  0
VERTEX
  5
11EAF
  8
0
 62
     5
 10
361.94
 20
132.138
 30
0.0
 70
    32
  0
VERTEX
  5
11EB0
  8
0
 62
     5
 10
361.94
 20
132.137
 30
0.0
 70
    32
  0
VERTEX
  5
11EB1
  8
0
 62
     5
 10
361.94
 20
132.137
 30
0.0
 70
    32
  0
VERTEX
  5
11EB2
  8
0
 62
     5
 10
361.94
 20
132.136
 30
0.0
 70
    32
  0
VERTEX
  5
11EB3
  8
0
 62
     5
 10
361.94
 20
132.136
 30
0.0
 70
    32
  0
VERTEX
  5
11EB4
  8
0
 62
     5
 10
361.939
 20
132.135
 30
0.0
 70
    32
  0
VERTEX
  5
11EB5
  8
0
 62
     5
 10
361.939
 20
132.135
 30
0.0
 70
    32
  0
VERTEX
  5
11EB6
  8
0
 62
     5
 10
361.939
 20
132.134
 30
0.0
 70
    32
  0
VERTEX
  5
11EB7
  8
0
 62
     5
 10
361.939
 20
132.134
 30
0.0
 70
    32
  0
VERTEX
  5
11EB8
  8
0
 62
     5
 10
361.939
 20
132.133
 30
0.0
 70
    32
  0
VERTEX
  5
11EB9
  8
0
 62
     5
 10
361.939
 20
132.133
 30
0.0
 70
    32
  0
VERTEX
  5
11EBA
  8
0
 62
     5
 10
361.938
 20
132.132
 30
0.0
 70
    32
  0
VERTEX
  5
11EBB
  8
0
 62
     5
 10
361.938
 20
132.132
 30
0.0
 70
    32
  0
VERTEX
  5
11EBC
  8
0
 62
     5
 10
361.938
 20
132.131
 30
0.0
 70
    32
  0
VERTEX
  5
11EBD
  8
0
 62
     5
 10
361.938
 20
132.13
 30
0.0
 70
    32
  0
VERTEX
  5
11EBE
  8
0
 62
     5
 10
361.938
 20
132.13
 30
0.0
 70
    32
  0
VERTEX
  5
11EBF
  8
0
 62
     5
 10
361.937
 20
132.129
 30
0.0
 70
    32
  0
VERTEX
  5
11EC0
  8
0
 62
     5
 10
361.937
 20
132.129
 30
0.0
 70
    32
  0
VERTEX
  5
11EC1
  8
0
 62
     5
 10
361.937
 20
132.128
 30
0.0
 70
    32
  0
VERTEX
  5
11EC2
  8
0
 62
     5
 10
361.937
 20
132.128
 30
0.0
 70
    32
  0
VERTEX
  5
11EC3
  8
0
 62
     5
 10
361.937
 20
132.127
 30
0.0
 70
    32
  0
VERTEX
  5
11EC4
  8
0
 62
     5
 10
361.937
 20
132.127
 30
0.0
 70
    32
  0
VERTEX
  5
11EC5
  8
0
 62
     5
 10
361.936
 20
132.126
 30
0.0
 70
    32
  0
VERTEX
  5
11EC6
  8
0
 62
     5
 10
361.936
 20
132.126
 30
0.0
 70
    32
  0
VERTEX
  5
11EC7
  8
0
 62
     5
 10
361.936
 20
132.125
 30
0.0
 70
    32
  0
VERTEX
  5
11EC8
  8
0
 62
     5
 10
361.936
 20
132.125
 30
0.0
 70
    32
  0
VERTEX
  5
11EC9
  8
0
 62
     5
 10
361.936
 20
132.124
 30
0.0
 70
    32
  0
VERTEX
  5
11ECA
  8
0
 62
     5
 10
361.935
 20
132.124
 30
0.0
 70
    32
  0
VERTEX
  5
11ECB
  8
0
 62
     5
 10
361.935
 20
132.123
 30
0.0
 70
    32
  0
VERTEX
  5
11ECC
  8
0
 62
     5
 10
361.935
 20
132.123
 30
0.0
 70
    32
  0
VERTEX
  5
11ECD
  8
0
 62
     5
 10
361.935
 20
132.122
 30
0.0
 70
    32
  0
VERTEX
  5
11ECE
  8
0
 62
     5
 10
361.935
 20
132.122
 30
0.0
 70
    32
  0
VERTEX
  5
11ECF
  8
0
 62
     5
 10
361.935
 20
132.121
 30
0.0
 70
    32
  0
VERTEX
  5
11ED0
  8
0
 62
     5
 10
361.934
 20
132.12
 30
0.0
 70
    32
  0
VERTEX
  5
11ED1
  8
0
 62
     5
 10
361.934
 20
132.12
 30
0.0
 70
    32
  0
VERTEX
  5
11ED2
  8
0
 62
     5
 10
361.934
 20
132.119
 30
0.0
 70
    32
  0
VERTEX
  5
11ED3
  8
0
 62
     5
 10
361.934
 20
132.119
 30
0.0
 70
    32
  0
VERTEX
  5
11ED4
  8
0
 62
     5
 10
361.934
 20
132.118
 30
0.0
 70
    32
  0
VERTEX
  5
11ED5
  8
0
 62
     5
 10
361.934
 20
132.118
 30
0.0
 70
    32
  0
VERTEX
  5
11ED6
  8
0
 62
     5
 10
361.933
 20
132.117
 30
0.0
 70
    32
  0
VERTEX
  5
11ED7
  8
0
 62
     5
 10
361.933
 20
132.117
 30
0.0
 70
    32
  0
VERTEX
  5
11ED8
  8
0
 62
     5
 10
361.933
 20
132.116
 30
0.0
 70
    32
  0
VERTEX
  5
11ED9
  8
0
 62
     5
 10
361.933
 20
132.116
 30
0.0
 70
    32
  0
VERTEX
  5
11EDA
  8
0
 62
     5
 10
361.933
 20
132.115
 30
0.0
 70
    32
  0
VERTEX
  5
11EDB
  8
0
 62
     5
 10
361.933
 20
132.115
 30
0.0
 70
    32
  0
VERTEX
  5
11EDC
  8
0
 62
     5
 10
361.932
 20
132.114
 30
0.0
 70
    32
  0
VERTEX
  5
11EDD
  8
0
 62
     5
 10
361.932
 20
132.114
 30
0.0
 70
    32
  0
VERTEX
  5
11EDE
  8
0
 62
     5
 10
361.932
 20
132.113
 30
0.0
 70
    32
  0
VERTEX
  5
11EDF
  8
0
 62
     5
 10
361.932
 20
132.113
 30
0.0
 70
    32
  0
VERTEX
  5
11EE0
  8
0
 62
     5
 10
361.932
 20
132.112
 30
0.0
 70
    32
  0
VERTEX
  5
11EE1
  8
0
 62
     5
 10
361.932
 20
132.111
 30
0.0
 70
    32
  0
VERTEX
  5
11EE2
  8
0
 62
     5
 10
361.931
 20
132.111
 30
0.0
 70
    32
  0
VERTEX
  5
11EE3
  8
0
 62
     5
 10
361.931
 20
132.11
 30
0.0
 70
    32
  0
VERTEX
  5
11EE4
  8
0
 62
     5
 10
361.931
 20
132.11
 30
0.0
 70
    32
  0
VERTEX
  5
11EE5
  8
0
 62
     5
 10
361.931
 20
132.109
 30
0.0
 70
    32
  0
VERTEX
  5
11EE6
  8
0
 62
     5
 10
361.931
 20
132.109
 30
0.0
 70
    32
  0
VERTEX
  5
11EE7
  8
0
 62
     5
 10
361.931
 20
132.108
 30
0.0
 70
    32
  0
VERTEX
  5
11EE8
  8
0
 62
     5
 10
361.93
 20
132.108
 30
0.0
 70
    32
  0
VERTEX
  5
11EE9
  8
0
 62
     5
 10
361.93
 20
132.107
 30
0.0
 70
    32
  0
VERTEX
  5
11EEA
  8
0
 62
     5
 10
361.93
 20
132.107
 30
0.0
 70
    32
  0
VERTEX
  5
11EEB
  8
0
 62
     5
 10
361.93
 20
132.106
 30
0.0
 70
    32
  0
VERTEX
  5
11EEC
  8
0
 62
     5
 10
361.93
 20
132.106
 30
0.0
 70
    32
  0
VERTEX
  5
11EED
  8
0
 62
     5
 10
361.93
 20
132.105
 30
0.0
 70
    32
  0
VERTEX
  5
11EEE
  8
0
 62
     5
 10
361.929
 20
132.105
 30
0.0
 70
    32
  0
VERTEX
  5
11EEF
  8
0
 62
     5
 10
361.929
 20
132.104
 30
0.0
 70
    32
  0
VERTEX
  5
11EF0
  8
0
 62
     5
 10
361.929
 20
132.103
 30
0.0
 70
    32
  0
VERTEX
  5
11EF1
  8
0
 62
     5
 10
361.929
 20
132.103
 30
0.0
 70
    32
  0
VERTEX
  5
11EF2
  8
0
 62
     5
 10
361.929
 20
132.102
 30
0.0
 70
    32
  0
VERTEX
  5
11EF3
  8
0
 62
     5
 10
361.929
 20
132.102
 30
0.0
 70
    32
  0
VERTEX
  5
11EF4
  8
0
 62
     5
 10
361.929
 20
132.101
 30
0.0
 70
    32
  0
VERTEX
  5
11EF5
  8
0
 62
     5
 10
361.928
 20
132.101
 30
0.0
 70
    32
  0
VERTEX
  5
11EF6
  8
0
 62
     5
 10
361.928
 20
132.1
 30
0.0
 70
    32
  0
VERTEX
  5
11EF7
  8
0
 62
     5
 10
361.928
 20
132.1
 30
0.0
 70
    32
  0
VERTEX
  5
11EF8
  8
0
 62
     5
 10
361.928
 20
132.099
 30
0.0
 70
    32
  0
VERTEX
  5
11EF9
  8
0
 62
     5
 10
361.928
 20
132.099
 30
0.0
 70
    32
  0
VERTEX
  5
11EFA
  8
0
 62
     5
 10
361.928
 20
132.098
 30
0.0
 70
    32
  0
VERTEX
  5
11EFB
  8
0
 62
     5
 10
361.927
 20
132.098
 30
0.0
 70
    32
  0
VERTEX
  5
11EFC
  8
0
 62
     5
 10
361.927
 20
132.097
 30
0.0
 70
    32
  0
VERTEX
  5
11EFD
  8
0
 62
     5
 10
361.927
 20
132.096
 30
0.0
 70
    32
  0
VERTEX
  5
11EFE
  8
0
 62
     5
 10
361.927
 20
132.096
 30
0.0
 70
    32
  0
VERTEX
  5
11EFF
  8
0
 62
     5
 10
361.927
 20
132.095
 30
0.0
 70
    32
  0
VERTEX
  5
11F00
  8
0
 62
     5
 10
361.927
 20
132.095
 30
0.0
 70
    32
  0
VERTEX
  5
11F01
  8
0
 62
     5
 10
361.927
 20
132.094
 30
0.0
 70
    32
  0
VERTEX
  5
11F02
  8
0
 62
     5
 10
361.926
 20
132.094
 30
0.0
 70
    32
  0
VERTEX
  5
11F03
  8
0
 62
     5
 10
361.926
 20
132.093
 30
0.0
 70
    32
  0
VERTEX
  5
11F04
  8
0
 62
     5
 10
361.926
 20
132.093
 30
0.0
 70
    32
  0
VERTEX
  5
11F05
  8
0
 62
     5
 10
361.926
 20
132.092
 30
0.0
 70
    32
  0
VERTEX
  5
11F06
  8
0
 62
     5
 10
361.926
 20
132.092
 30
0.0
 70
    32
  0
VERTEX
  5
11F07
  8
0
 62
     5
 10
361.926
 20
132.091
 30
0.0
 70
    32
  0
VERTEX
  5
11F08
  8
0
 62
     5
 10
361.926
 20
132.091
 30
0.0
 70
    32
  0
VERTEX
  5
11F09
  8
0
 62
     5
 10
361.925
 20
132.09
 30
0.0
 70
    32
  0
VERTEX
  5
11F0A
  8
0
 62
     5
 10
361.925
 20
132.089
 30
0.0
 70
    32
  0
VERTEX
  5
11F0B
  8
0
 62
     5
 10
361.925
 20
132.089
 30
0.0
 70
    32
  0
VERTEX
  5
11F0C
  8
0
 62
     5
 10
361.925
 20
132.088
 30
0.0
 70
    32
  0
VERTEX
  5
11F0D
  8
0
 62
     5
 10
361.925
 20
132.088
 30
0.0
 70
    32
  0
VERTEX
  5
11F0E
  8
0
 62
     5
 10
361.925
 20
132.087
 30
0.0
 70
    32
  0
VERTEX
  5
11F0F
  8
0
 62
     5
 10
361.925
 20
132.087
 30
0.0
 70
    32
  0
VERTEX
  5
11F10
  8
0
 62
     5
 10
361.924
 20
132.086
 30
0.0
 70
    32
  0
VERTEX
  5
11F11
  8
0
 62
     5
 10
361.924
 20
132.086
 30
0.0
 70
    32
  0
VERTEX
  5
11F12
  8
0
 62
     5
 10
361.924
 20
132.085
 30
0.0
 70
    32
  0
VERTEX
  5
11F13
  8
0
 62
     5
 10
361.924
 20
132.085
 30
0.0
 70
    32
  0
VERTEX
  5
11F14
  8
0
 62
     5
 10
361.924
 20
132.084
 30
0.0
 70
    32
  0
VERTEX
  5
11F15
  8
0
 62
     5
 10
361.924
 20
132.084
 30
0.0
 70
    32
  0
VERTEX
  5
11F16
  8
0
 62
     5
 10
361.924
 20
132.083
 30
0.0
 70
    32
  0
VERTEX
  5
11F17
  8
0
 62
     5
 10
361.924
 20
132.082
 30
0.0
 70
    32
  0
VERTEX
  5
11F18
  8
0
 62
     5
 10
361.923
 20
132.082
 30
0.0
 70
    32
  0
VERTEX
  5
11F19
  8
0
 62
     5
 10
361.923
 20
132.081
 30
0.0
 70
    32
  0
VERTEX
  5
11F1A
  8
0
 62
     5
 10
361.923
 20
132.081
 30
0.0
 70
    32
  0
VERTEX
  5
11F1B
  8
0
 62
     5
 10
361.923
 20
132.08
 30
0.0
 70
    32
  0
VERTEX
  5
11F1C
  8
0
 62
     5
 10
361.923
 20
132.08
 30
0.0
 70
    32
  0
VERTEX
  5
11F1D
  8
0
 62
     5
 10
361.923
 20
132.079
 30
0.0
 70
    32
  0
VERTEX
  5
11F1E
  8
0
 62
     5
 10
361.923
 20
132.079
 30
0.0
 70
    32
  0
VERTEX
  5
11F1F
  8
0
 62
     5
 10
361.922
 20
132.078
 30
0.0
 70
    32
  0
VERTEX
  5
11F20
  8
0
 62
     5
 10
361.922
 20
132.078
 30
0.0
 70
    32
  0
VERTEX
  5
11F21
  8
0
 62
     5
 10
361.922
 20
132.077
 30
0.0
 70
    32
  0
VERTEX
  5
11F22
  8
0
 62
     5
 10
361.922
 20
132.077
 30
0.0
 70
    32
  0
VERTEX
  5
11F23
  8
0
 62
     5
 10
361.922
 20
132.076
 30
0.0
 70
    32
  0
VERTEX
  5
11F24
  8
0
 62
     5
 10
361.922
 20
132.075
 30
0.0
 70
    32
  0
VERTEX
  5
11F25
  8
0
 62
     5
 10
361.922
 20
132.075
 30
0.0
 70
    32
  0
VERTEX
  5
11F26
  8
0
 62
     5
 10
361.922
 20
132.074
 30
0.0
 70
    32
  0
VERTEX
  5
11F27
  8
0
 62
     5
 10
361.922
 20
132.074
 30
0.0
 70
    32
  0
VERTEX
  5
11F28
  8
0
 62
     5
 10
361.921
 20
132.073
 30
0.0
 70
    32
  0
VERTEX
  5
11F29
  8
0
 62
     5
 10
361.921
 20
132.073
 30
0.0
 70
    32
  0
VERTEX
  5
11F2A
  8
0
 62
     5
 10
361.921
 20
132.072
 30
0.0
 70
    32
  0
VERTEX
  5
11F2B
  8
0
 62
     5
 10
361.921
 20
132.072
 30
0.0
 70
    32
  0
VERTEX
  5
11F2C
  8
0
 62
     5
 10
361.921
 20
132.071
 30
0.0
 70
    32
  0
VERTEX
  5
11F2D
  8
0
 62
     5
 10
361.921
 20
132.071
 30
0.0
 70
    32
  0
VERTEX
  5
11F2E
  8
0
 62
     5
 10
361.921
 20
132.07
 30
0.0
 70
    32
  0
VERTEX
  5
11F2F
  8
0
 62
     5
 10
361.921
 20
132.069
 30
0.0
 70
    32
  0
VERTEX
  5
11F30
  8
0
 62
     5
 10
361.92
 20
132.069
 30
0.0
 70
    32
  0
VERTEX
  5
11F31
  8
0
 62
     5
 10
361.92
 20
132.068
 30
0.0
 70
    32
  0
VERTEX
  5
11F32
  8
0
 62
     5
 10
361.92
 20
132.068
 30
0.0
 70
    32
  0
VERTEX
  5
11F33
  8
0
 62
     5
 10
361.92
 20
132.067
 30
0.0
 70
    32
  0
VERTEX
  5
11F34
  8
0
 62
     5
 10
361.92
 20
132.067
 30
0.0
 70
    32
  0
VERTEX
  5
11F35
  8
0
 62
     5
 10
361.92
 20
132.066
 30
0.0
 70
    32
  0
VERTEX
  5
11F36
  8
0
 62
     5
 10
361.92
 20
132.066
 30
0.0
 70
    32
  0
VERTEX
  5
11F37
  8
0
 62
     5
 10
361.92
 20
132.065
 30
0.0
 70
    32
  0
VERTEX
  5
11F38
  8
0
 62
     5
 10
361.92
 20
132.065
 30
0.0
 70
    32
  0
VERTEX
  5
11F39
  8
0
 62
     5
 10
361.919
 20
132.064
 30
0.0
 70
    32
  0
VERTEX
  5
11F3A
  8
0
 62
     5
 10
361.919
 20
132.063
 30
0.0
 70
    32
  0
VERTEX
  5
11F3B
  8
0
 62
     5
 10
361.919
 20
132.063
 30
0.0
 70
    32
  0
VERTEX
  5
11F3C
  8
0
 62
     5
 10
361.919
 20
132.062
 30
0.0
 70
    32
  0
VERTEX
  5
11F3D
  8
0
 62
     5
 10
361.919
 20
132.062
 30
0.0
 70
    32
  0
VERTEX
  5
11F3E
  8
0
 62
     5
 10
361.919
 20
132.061
 30
0.0
 70
    32
  0
VERTEX
  5
11F3F
  8
0
 62
     5
 10
361.919
 20
132.061
 30
0.0
 70
    32
  0
VERTEX
  5
11F40
  8
0
 62
     5
 10
361.919
 20
132.06
 30
0.0
 70
    32
  0
VERTEX
  5
11F41
  8
0
 62
     5
 10
361.919
 20
132.06
 30
0.0
 70
    32
  0
VERTEX
  5
11F42
  8
0
 62
     5
 10
361.918
 20
132.059
 30
0.0
 70
    32
  0
VERTEX
  5
11F43
  8
0
 62
     5
 10
361.918
 20
132.059
 30
0.0
 70
    32
  0
VERTEX
  5
11F44
  8
0
 62
     5
 10
361.918
 20
132.058
 30
0.0
 70
    32
  0
VERTEX
  5
11F45
  8
0
 62
     5
 10
361.918
 20
132.057
 30
0.0
 70
    32
  0
VERTEX
  5
11F46
  8
0
 62
     5
 10
361.918
 20
132.057
 30
0.0
 70
    32
  0
VERTEX
  5
11F47
  8
0
 62
     5
 10
361.918
 20
132.056
 30
0.0
 70
    32
  0
VERTEX
  5
11F48
  8
0
 62
     5
 10
361.918
 20
132.056
 30
0.0
 70
    32
  0
VERTEX
  5
11F49
  8
0
 62
     5
 10
361.918
 20
132.055
 30
0.0
 70
    32
  0
VERTEX
  5
11F4A
  8
0
 62
     5
 10
361.918
 20
132.055
 30
0.0
 70
    32
  0
VERTEX
  5
11F4B
  8
0
 62
     5
 10
361.918
 20
132.054
 30
0.0
 70
    32
  0
VERTEX
  5
11F4C
  8
0
 62
     5
 10
361.917
 20
132.054
 30
0.0
 70
    32
  0
VERTEX
  5
11F4D
  8
0
 62
     5
 10
361.917
 20
132.053
 30
0.0
 70
    32
  0
VERTEX
  5
11F4E
  8
0
 62
     5
 10
361.917
 20
132.053
 30
0.0
 70
    32
  0
VERTEX
  5
11F4F
  8
0
 62
     5
 10
361.917
 20
132.052
 30
0.0
 70
    32
  0
VERTEX
  5
11F50
  8
0
 62
     5
 10
361.917
 20
132.051
 30
0.0
 70
    32
  0
VERTEX
  5
11F51
  8
0
 62
     5
 10
361.917
 20
132.051
 30
0.0
 70
    32
  0
VERTEX
  5
11F52
  8
0
 62
     5
 10
361.917
 20
132.05
 30
0.0
 70
    32
  0
VERTEX
  5
11F53
  8
0
 62
     5
 10
361.917
 20
132.05
 30
0.0
 70
    32
  0
VERTEX
  5
11F54
  8
0
 62
     5
 10
361.917
 20
132.049
 30
0.0
 70
    32
  0
VERTEX
  5
11F55
  8
0
 62
     5
 10
361.917
 20
132.049
 30
0.0
 70
    32
  0
VERTEX
  5
11F56
  8
0
 62
     5
 10
361.917
 20
132.048
 30
0.0
 70
    32
  0
VERTEX
  5
11F57
  8
0
 62
     5
 10
361.916
 20
132.048
 30
0.0
 70
    32
  0
VERTEX
  5
11F58
  8
0
 62
     5
 10
361.916
 20
132.047
 30
0.0
 70
    32
  0
VERTEX
  5
11F59
  8
0
 62
     5
 10
361.916
 20
132.046
 30
0.0
 70
    32
  0
VERTEX
  5
11F5A
  8
0
 62
     5
 10
361.916
 20
132.046
 30
0.0
 70
    32
  0
VERTEX
  5
11F5B
  8
0
 62
     5
 10
361.916
 20
132.045
 30
0.0
 70
    32
  0
VERTEX
  5
11F5C
  8
0
 62
     5
 10
361.916
 20
132.045
 30
0.0
 70
    32
  0
VERTEX
  5
11F5D
  8
0
 62
     5
 10
361.916
 20
132.044
 30
0.0
 70
    32
  0
VERTEX
  5
11F5E
  8
0
 62
     5
 10
361.916
 20
132.044
 30
0.0
 70
    32
  0
VERTEX
  5
11F5F
  8
0
 62
     5
 10
361.916
 20
132.043
 30
0.0
 70
    32
  0
VERTEX
  5
11F60
  8
0
 62
     5
 10
361.916
 20
132.043
 30
0.0
 70
    32
  0
VERTEX
  5
11F61
  8
0
 62
     5
 10
361.916
 20
132.042
 30
0.0
 70
    32
  0
VERTEX
  5
11F62
  8
0
 62
     5
 10
361.915
 20
132.042
 30
0.0
 70
    32
  0
VERTEX
  5
11F63
  8
0
 62
     5
 10
361.915
 20
132.041
 30
0.0
 70
    32
  0
VERTEX
  5
11F64
  8
0
 62
     5
 10
361.915
 20
132.04
 30
0.0
 70
    32
  0
SEQEND
  5
11F65
  8
0
 62
     5
  0
POLYLINE
  5
11F66
  8
0
 62
     5
 66
     1
 10
0.0
 20
0.0
 30
0.0
 70
     8
  0
VERTEX
  5
11F67
  8
0
 62
     5
 10
361.915
 20
132.037
 30
0.0
 70
    32
  0
VERTEX
  5
11F68
  8
0
 62
     5
 10
361.915
 20
132.037
 30
0.0
 70
    32
  0
VERTEX
  5
11F69
  8
0
 62
     5
 10
361.915
 20
132.036
 30
0.0
 70
    32
  0
VERTEX
  5
11F6A
  8
0
 62
     5
 10
361.915
 20
132.036
 30
0.0
 70
    32
  0
VERTEX
  5
11F6B
  8
0
 62
     5
 10
361.915
 20
132.035
 30
0.0
 70
    32
  0
VERTEX
  5
11F6C
  8
0
 62
     5
 10
361.914
 20
132.035
 30
0.0
 70
    32
  0
VERTEX
  5
11F6D
  8
0
 62
     5
 10
361.914
 20
132.035
 30
0.0
 70
    32
  0
VERTEX
  5
11F6E
  8
0
 62
     5
 10
361.914
 20
132.034
 30
0.0
 70
    32
  0
VERTEX
  5
11F6F
  8
0
 62
     5
 10
361.914
 20
132.034
 30
0.0
 70
    32
  0
VERTEX
  5
11F70
  8
0
 62
     5
 10
361.914
 20
132.033
 30
0.0
 70
    32
  0
VERTEX
  5
11F71
  8
0
 62
     5
 10
361.914
 20
132.033
 30
0.0
 70
    32
  0
VERTEX
  5
11F72
  8
0
 62
     5
 10
361.914
 20
132.032
 30
0.0
 70
    32
  0
VERTEX
  5
11F73
  8
0
 62
     5
 10
361.914
 20
132.032
 30
0.0
 70
    32
  0
VERTEX
  5
11F74
  8
0
 62
     5
 10
361.914
 20
132.031
 30
0.0
 70
    32
  0
VERTEX
  5
11F75
  8
0
 62
     5
 10
361.914
 20
132.031
 30
0.0
 70
    32
  0
VERTEX
  5
11F76
  8
0
 62
     5
 10
361.914
 20
132.03
 30
0.0
 70
    32
  0
VERTEX
  5
11F77
  8
0
 62
     5
 10
361.914
 20
132.03
 30
0.0
 70
    32
  0
VERTEX
  5
11F78
  8
0
 62
     5
 10
361.914
 20
132.03
 30
0.0
 70
    32
  0
VERTEX
  5
11F79
  8
0
 62
     5
 10
361.914
 20
132.029
 30
0.0
 70
    32
  0
VERTEX
  5
11F7A
  8
0
 62
     5
 10
361.914
 20
132.029
 30
0.0
 70
    32
  0
VERTEX
  5
11F7B
  8
0
 62
     5
 10
361.914
 20
132.028
 30
0.0
 70
    32
  0
VERTEX
  5
11F7C
  8
0
 62
     5
 10
361.913
 20
132.028
 30
0.0
 70
    32
  0
VERTEX
  5
11F7D
  8
0
 62
     5
 10
361.913
 20
132.027
 30
0.0
 70
    32
  0
VERTEX
  5
11F7E
  8
0
 62
     5
 10
361.913
 20
132.027
 30
0.0
 70
    32
  0
VERTEX
  5
11F7F
  8
0
 62
     5
 10
361.913
 20
132.026
 30
0.0
 70
    32
  0
VERTEX
  5
11F80
  8
0
 62
     5
 10
361.913
 20
132.026
 30
0.0
 70
    32
  0
VERTEX
  5
11F81
  8
0
 62
     5
 10
361.913
 20
132.025
 30
0.0
 70
    32
  0
VERTEX
  5
11F82
  8
0
 62
     5
 10
361.913
 20
132.025
 30
0.0
 70
    32
  0
VERTEX
  5
11F83
  8
0
 62
     5
 10
361.913
 20
132.025
 30
0.0
 70
    32
  0
VERTEX
  5
11F84
  8
0
 62
     5
 10
361.913
 20
132.024
 30
0.0
 70
    32
  0
VERTEX
  5
11F85
  8
0
 62
     5
 10
361.913
 20
132.024
 30
0.0
 70
    32
  0
VERTEX
  5
11F86
  8
0
 62
     5
 10
361.913
 20
132.023
 30
0.0
 70
    32
  0
VERTEX
  5
11F87
  8
0
 62
     5
 10
361.913
 20
132.023
 30
0.0
 70
    32
  0
VERTEX
  5
11F88
  8
0
 62
     5
 10
361.913
 20
132.022
 30
0.0
 70
    32
  0
VERTEX
  5
11F89
  8
0
 62
     5
 10
361.913
 20
132.022
 30
0.0
 70
    32
  0
VERTEX
  5
11F8A
  8
0
 62
     5
 10
361.913
 20
132.021
 30
0.0
 70
    32
  0
VERTEX
  5
11F8B
  8
0
 62
     5
 10
361.913
 20
132.021
 30
0.0
 70
    32
  0
VERTEX
  5
11F8C
  8
0
 62
     5
 10
361.913
 20
132.02
 30
0.0
 70
    32
  0
VERTEX
  5
11F8D
  8
0
 62
     5
 10
361.913
 20
132.02
 30
0.0
 70
    32
  0
VERTEX
  5
11F8E
  8
0
 62
     5
 10
361.912
 20
132.02
 30
0.0
 70
    32
  0
VERTEX
  5
11F8F
  8
0
 62
     5
 10
361.912
 20
132.019
 30
0.0
 70
    32
  0
VERTEX
  5
11F90
  8
0
 62
     5
 10
361.912
 20
132.019
 30
0.0
 70
    32
  0
VERTEX
  5
11F91
  8
0
 62
     5
 10
361.912
 20
132.018
 30
0.0
 70
    32
  0
VERTEX
  5
11F92
  8
0
 62
     5
 10
361.912
 20
132.018
 30
0.0
 70
    32
  0
VERTEX
  5
11F93
  8
0
 62
     5
 10
361.912
 20
132.017
 30
0.0
 70
    32
  0
VERTEX
  5
11F94
  8
0
 62
     5
 10
361.912
 20
132.017
 30
0.0
 70
    32
  0
VERTEX
  5
11F95
  8
0
 62
     5
 10
361.912
 20
132.016
 30
0.0
 70
    32
  0
VERTEX
  5
11F96
  8
0
 62
     5
 10
361.912
 20
132.016
 30
0.0
 70
    32
  0
VERTEX
  5
11F97
  8
0
 62
     5
 10
361.912
 20
132.015
 30
0.0
 70
    32
  0
VERTEX
  5
11F98
  8
0
 62
     5
 10
361.912
 20
132.015
 30
0.0
 70
    32
  0
VERTEX
  5
11F99
  8
0
 62
     5
 10
361.912
 20
132.014
 30
0.0
 70
    32
  0
VERTEX
  5
11F9A
  8
0
 62
     5
 10
361.912
 20
132.014
 30
0.0
 70
    32
  0
VERTEX
  5
11F9B
  8
0
 62
     5
 10
361.912
 20
132.014
 30
0.0
 70
    32
  0
VERTEX
  5
11F9C
  8
0
 62
     5
 10
361.912
 20
132.013
 30
0.0
 70
    32
  0
VERTEX
  5
11F9D
  8
0
 62
     5
 10
361.912
 20
132.013
 30
0.0
 70
    32
  0
VERTEX
  5
11F9E
  8
0
 62
     5
 10
361.912
 20
132.012
 30
0.0
 70
    32
  0
VERTEX
  5
11F9F
  8
0
 62
     5
 10
361.912
 20
132.012
 30
0.0
 70
    32
  0
VERTEX
  5
11FA0
  8
0
 62
     5
 10
361.912
 20
132.011
 30
0.0
 70
    32
  0
VERTEX
  5
11FA1
  8
0
 62
     5
 10
361.912
 20
132.011
 30
0.0
 70
    32
  0
VERTEX
  5
11FA2
  8
0
 62
     5
 10
361.912
 20
132.01
 30
0.0
 70
    32
  0
VERTEX
  5
11FA3
  8
0
 62
     5
 10
361.912
 20
132.01
 30
0.0
 70
    32
  0
VERTEX
  5
11FA4
  8
0
 62
     5
 10
361.911
 20
132.009
 30
0.0
 70
    32
  0
VERTEX
  5
11FA5
  8
0
 62
     5
 10
361.911
 20
132.009
 30
0.0
 70
    32
  0
VERTEX
  5
11FA6
  8
0
 62
     5
 10
361.911
 20
132.009
 30
0.0
 70
    32
  0
VERTEX
  5
11FA7
  8
0
 62
     5
 10
361.911
 20
132.008
 30
0.0
 70
    32
  0
VERTEX
  5
11FA8
  8
0
 62
     5
 10
361.911
 20
132.008
 30
0.0
 70
    32
  0
VERTEX
  5
11FA9
  8
0
 62
     5
 10
361.911
 20
132.007
 30
0.0
 70
    32
  0
VERTEX
  5
11FAA
  8
0
 62
     5
 10
361.911
 20
132.007
 30
0.0
 70
    32
  0
VERTEX
  5
11FAB
  8
0
 62
     5
 10
361.911
 20
132.006
 30
0.0
 70
    32
  0
VERTEX
  5
11FAC
  8
0
 62
     5
 10
361.911
 20
132.006
 30
0.0
 70
    32
  0
VERTEX
  5
11FAD
  8
0
 62
     5
 10
361.911
 20
132.005
 30
0.0
 70
    32
  0
VERTEX
  5
11FAE
  8
0
 62
     5
 10
361.911
 20
132.005
 30
0.0
 70
    32
  0
VERTEX
  5
11FAF
  8
0
 62
     5
 10
361.911
 20
132.004
 30
0.0
 70
    32
  0
VERTEX
  5
11FB0
  8
0
 62
     5
 10
361.911
 20
132.004
 30
0.0
 70
    32
  0
VERTEX
  5
11FB1
  8
0
 62
     5
 10
361.911
 20
132.003
 30
0.0
 70
    32
  0
VERTEX
  5
11FB2
  8
0
 62
     5
 10
361.911
 20
132.003
 30
0.0
 70
    32
  0
VERTEX
  5
11FB3
  8
0
 62
     5
 10
361.911
 20
132.003
 30
0.0
 70
    32
  0
VERTEX
  5
11FB4
  8
0
 62
     5
 10
361.911
 20
132.002
 30
0.0
 70
    32
  0
VERTEX
  5
11FB5
  8
0
 62
     5
 10
361.911
 20
132.002
 30
0.0
 70
    32
  0
VERTEX
  5
11FB6
  8
0
 62
     5
 10
361.911
 20
132.001
 30
0.0
 70
    32
  0
VERTEX
  5
11FB7
  8
0
 62
     5
 10
361.911
 20
132.001
 30
0.0
 70
    32
  0
VERTEX
  5
11FB8
  8
0
 62
     5
 10
361.911
 20
132.0
 30
0.0
 70
    32
  0
VERTEX
  5
11FB9
  8
0
 62
     5
 10
361.911
 20
132.0
 30
0.0
 70
    32
  0
VERTEX
  5
11FBA
  8
0
 62
     5
 10
361.911
 20
131.999
 30
0.0
 70
    32
  0
VERTEX
  5
11FBB
  8
0
 62
     5
 10
361.911
 20
131.999
 30
0.0
 70
    32
  0
VERTEX
  5
11FBC
  8
0
 62
     5
 10
361.911
 20
131.998
 30
0.0
 70
    32
  0
VERTEX
  5
11FBD
  8
0
 62
     5
 10
361.911
 20
131.998
 30
0.0
 70
    32
  0
VERTEX
  5
11FBE
  8
0
 62
     5
 10
361.911
 20
131.998
 30
0.0
 70
    32
  0
VERTEX
  5
11FBF
  8
0
 62
     5
 10
361.911
 20
131.997
 30
0.0
 70
    32
  0
VERTEX
  5
11FC0
  8
0
 62
     5
 10
361.911
 20
131.997
 30
0.0
 70
    32
  0
VERTEX
  5
11FC1
  8
0
 62
     5
 10
361.911
 20
131.996
 30
0.0
 70
    32
  0
VERTEX
  5
11FC2
  8
0
 62
     5
 10
361.911
 20
131.996
 30
0.0
 70
    32
  0
VERTEX
  5
11FC3
  8
0
 62
     5
 10
361.91
 20
131.995
 30
0.0
 70
    32
  0
VERTEX
  5
11FC4
  8
0
 62
     5
 10
361.91
 20
131.995
 30
0.0
 70
    32
  0
VERTEX
  5
11FC5
  8
0
 62
     5
 10
361.91
 20
131.994
 30
0.0
 70
    32
  0
VERTEX
  5
11FC6
  8
0
 62
     5
 10
361.91
 20
131.994
 30
0.0
 70
    32
  0
VERTEX
  5
11FC7
  8
0
 62
     5
 10
361.91
 20
131.993
 30
0.0
 70
    32
  0
VERTEX
  5
11FC8
  8
0
 62
     5
 10
361.91
 20
131.993
 30
0.0
 70
    32
  0
VERTEX
  5
11FC9
  8
0
 62
     5
 10
361.91
 20
131.992
 30
0.0
 70
    32
  0
VERTEX
  5
11FCA
  8
0
 62
     5
 10
361.91
 20
131.992
 30
0.0
 70
    32
  0
VERTEX
  5
11FCB
  8
0
 62
     5
 10
361.91
 20
131.992
 30
0.0
 70
    32
  0
VERTEX
  5
11FCC
  8
0
 62
     5
 10
361.91
 20
131.991
 30
0.0
 70
    32
  0
VERTEX
  5
11FCD
  8
0
 62
     5
 10
361.91
 20
131.991
 30
0.0
 70
    32
  0
VERTEX
  5
11FCE
  8
0
 62
     5
 10
361.91
 20
131.99
 30
0.0
 70
    32
  0
VERTEX
  5
11FCF
  8
0
 62
     5
 10
361.91
 20
131.99
 30
0.0
 70
    32
  0
VERTEX
  5
11FD0
  8
0
 62
     5
 10
361.91
 20
131.989
 30
0.0
 70
    32
  0
VERTEX
  5
11FD1
  8
0
 62
     5
 10
361.91
 20
131.989
 30
0.0
 70
    32
  0
VERTEX
  5
11FD2
  8
0
 62
     5
 10
361.91
 20
131.988
 30
0.0
 70
    32
  0
VERTEX
  5
11FD3
  8
0
 62
     5
 10
361.91
 20
131.988
 30
0.0
 70
    32
  0
VERTEX
  5
11FD4
  8
0
 62
     5
 10
361.91
 20
131.987
 30
0.0
 70
    32
  0
VERTEX
  5
11FD5
  8
0
 62
     5
 10
361.91
 20
131.987
 30
0.0
 70
    32
  0
VERTEX
  5
11FD6
  8
0
 62
     5
 10
361.91
 20
131.987
 30
0.0
 70
    32
  0
VERTEX
  5
11FD7
  8
0
 62
     5
 10
361.91
 20
131.986
 30
0.0
 70
    32
  0
VERTEX
  5
11FD8
  8
0
 62
     5
 10
361.91
 20
131.986
 30
0.0
 70
    32
  0
VERTEX
  5
11FD9
  8
0
 62
     5
 10
361.91
 20
131.985
 30
0.0
 70
    32
  0
VERTEX
  5
11FDA
  8
0
 62
     5
 10
361.91
 20
131.985
 30
0.0
 70
    32
  0
VERTEX
  5
11FDB
  8
0
 62
     5
 10
361.91
 20
131.984
 30
0.0
 70
    32
  0
VERTEX
  5
11FDC
  8
0
 62
     5
 10
361.91
 20
131.984
 30
0.0
 70
    32
  0
VERTEX
  5
11FDD
  8
0
 62
     5
 10
361.91
 20
131.983
 30
0.0
 70
    32
  0
VERTEX
  5
11FDE
  8
0
 62
     5
 10
361.91
 20
131.983
 30
0.0
 70
    32
  0
VERTEX
  5
11FDF
  8
0
 62
     5
 10
361.91
 20
131.982
 30
0.0
 70
    32
  0
VERTEX
  5
11FE0
  8
0
 62
     5
 10
361.91
 20
131.982
 30
0.0
 70
    32
  0
VERTEX
  5
11FE1
  8
0
 62
     5
 10
361.91
 20
131.981
 30
0.0
 70
    32
  0
VERTEX
  5
11FE2
  8
0
 62
     5
 10
361.91
 20
131.981
 30
0.0
 70
    32
  0
VERTEX
  5
11FE3
  8
0
 62
     5
 10
361.91
 20
131.981
 30
0.0
 70
    32
  0
VERTEX
  5
11FE4
  8
0
 62
     5
 10
361.91
 20
131.98
 30
0.0
 70
    32
  0
VERTEX
  5
11FE5
  8
0
 62
     5
 10
361.91
 20
131.98
 30
0.0
 70
    32
  0
VERTEX
  5
11FE6
  8
0
 62
     5
 10
361.91
 20
131.979
 30
0.0
 70
    32
  0
VERTEX
  5
11FE7
  8
0
 62
     5
 10
361.91
 20
131.979
 30
0.0
 70
    32
  0
VERTEX
  5
11FE8
  8
0
 62
     5
 10
361.91
 20
131.978
 30
0.0
 70
    32
  0
VERTEX
  5
11FE9
  8
0
 62
     5
 10
361.91
 20
131.978
 30
0.0
 70
    32
  0
VERTEX
  5
11FEA
  8
0
 62
     5
 10
361.91
 20
131.977
 30
0.0
 70
    32
  0
VERTEX
  5
11FEB
  8
0
 62
     5
 10
361.91
 20
131.977
 30
0.0
 70
    32
  0
VERTEX
  5
11FEC
  8
0
 62
     5
 10
361.91
 20
131.976
 30
0.0
 70
    32
  0
VERTEX
  5
11FED
  8
0
 62
     5
 10
361.91
 20
131.976
 30
0.0
 70
    32
  0
VERTEX
  5
11FEE
  8
0
 62
     5
 10
361.91
 20
131.975
 30
0.0
 70
    32
  0
VERTEX
  5
11FEF
  8
0
 62
     5
 10
361.91
 20
131.975
 30
0.0
 70
    32
  0
VERTEX
  5
11FF0
  8
0
 62
     5
 10
361.91
 20
131.975
 30
0.0
 70
    32
  0
VERTEX
  5
11FF1
  8
0
 62
     5
 10
361.91
 20
131.974
 30
0.0
 70
    32
  0
VERTEX
  5
11FF2
  8
0
 62
     5
 10
361.91
 20
131.974
 30
0.0
 70
    32
  0
VERTEX
  5
11FF3
  8
0
 62
     5
 10
361.91
 20
131.973
 30
0.0
 70
    32
  0
VERTEX
  5
11FF4
  8
0
 62
     5
 10
361.91
 20
131.973
 30
0.0
 70
    32
  0
VERTEX
  5
11FF5
  8
0
 62
     5
 10
361.91
 20
131.972
 30
0.0
 70
    32
  0
VERTEX
  5
11FF6
  8
0
 62
     5
 10
361.91
 20
131.972
 30
0.0
 70
    32
  0
VERTEX
  5
11FF7
  8
0
 62
     5
 10
361.91
 20
131.971
 30
0.0
 70
    32
  0
VERTEX
  5
11FF8
  8
0
 62
     5
 10
361.91
 20
131.971
 30
0.0
 70
    32
  0
VERTEX
  5
11FF9
  8
0
 62
     5
 10
361.91
 20
131.97
 30
0.0
 70
    32
  0
VERTEX
  5
11FFA
  8
0
 62
     5
 10
361.91
 20
131.97
 30
0.0
 70
    32
  0
VERTEX
  5
11FFB
  8
0
 62
     5
 10
361.91
 20
131.97
 30
0.0
 70
    32
  0
VERTEX
  5
11FFC
  8
0
 62
     5
 10
361.91
 20
131.969
 30
0.0
 70
    32
  0
VERTEX
  5
11FFD
  8
0
 62
     5
 10
361.91
 20
131.969
 30
0.0
 70
    32
  0
VERTEX
  5
11FFE
  8
0
 62
     5
 10
361.91
 20
131.968
 30
0.0
 70
    32
  0
VERTEX
  5
11FFF
  8
0
 62
     5
 10
361.91
 20
131.968
 30
0.0
 70
    32
  0
VERTEX
  5
12000
  8
0
 62
     5
 10
361.909
 20
131.967
 30
0.0
 70
    32
  0
VERTEX
  5
12001
  8
0
 62
     5
 10
361.909
 20
131.967
 30
0.0
 70
    32
  0
VERTEX
  5
12002
  8
0
 62
     5
 10
361.909
 20
131.966
 30
0.0
 70
    32
  0
VERTEX
  5
12003
  8
0
 62
     5
 10
361.909
 20
131.966
 30
0.0
 70
    32
  0
VERTEX
  5
12004
  8
0
 62
     5
 10
361.909
 20
131.965
 30
0.0
 70
    32
  0
VERTEX
  5
12005
  8
0
 62
     5
 10
361.909
 20
131.965
 30
0.0
 70
    32
  0
VERTEX
  5
12006
  8
0
 62
     5
 10
361.909
 20
131.964
 30
0.0
 70
    32
  0
SEQEND
  5
12007
  8
0
 62
     5
  0
LINE
  5
12008
  8
0
 62
     5
 10
362.40943
 20
132.464461
 30
0.0
 11
362.407286
 21
132.464452
 31
0.0
  0
LINE
  5
12009
  8
0
 62
     5
 10
368.181436
 20
122.22778
 30
0.0
 11
368.181436
 21
127.42778
 31
0.0
  0
LINE
  5
1200A
  8
HIDDEN
 10
375.158634
 20
125.22778
 30
0.0
 11
375.158634
 21
130.72778
 31
0.0
  0
LINE
  5
1200B
  8
0
 62
     5
 10
374.058634
 20
127.42778
 30
0.0
 11
374.058634
 21
125.82778
 31
0.0
  0
LINE
  5
1200C
  8
0
 62
     5
 10
369.492794
 20
127.42778
 30
0.0
 11
369.492794
 21
125.52778
 31
0.0
  0
LINE
  5
1200D
  8
HIDDEN
 10
370.438605
 20
123.72778
 30
0.0
 11
373.658672
 21
123.72778
 31
0.0
  0
LINE
  5
1200E
  8
0
 62
     5
 10
373.457353
 20
125.22778
 30
0.0
 11
370.702489
 21
125.22778
 31
0.0
  0
LINE
  5
1200F
  8
0
 62
     5
 10
370.67802
 20
125.82778
 30
0.0
 11
374.058585
 21
125.82778
 31
0.0
  0
LINE
  5
12010
  8
0
 62
     5
 10
367.860716
 20
121.92778
 30
0.0
 11
368.181436
 21
122.22778
 31
0.0
  0
ARC
  5
12011
  8
HIDDEN
 10
366.169133
 20
120.986061
 30
0.0
 40
4.271453
 50
343.393119
 51
1.74531
  0
LINE
  5
12012
  8
HIDDEN
 10
370.438605
 20
123.72778
 30
0.0
 11
370.438605
 21
121.116155
 31
0.0
  0
LINE
  5
12013
  8
0
 62
     5
 10
369.492794
 20
125.52778
 30
0.0
 11
370.67802
 21
125.52778
 31
0.0
  0
LINE
  5
12014
  8
0
 62
     5
 10
370.67802
 20
125.52778
 30
0.0
 11
370.67802
 21
125.82778
 31
0.0
  0
LINE
  5
12015
  8
0
 62
     5
 10
369.492794
 20
125.52778
 30
0.0
 11
369.445864
 21
125.22778
 31
0.0
  0
LINE
  5
12016
  8
0
 62
     5
 10
370.67802
 20
125.52778
 30
0.0
 11
370.63109
 21
125.22778
 31
0.0
  0
LINE
  5
12017
  8
0
 62
     5
 10
370.63109
 20
125.22778
 30
0.0
 11
368.181436
 21
125.22778
 31
0.0
  0
ARC
  5
12018
  8
HIDDEN
 10
373.658634
 20
125.22778
 30
0.0
 40
1.5
 50
270.0
 51
0.0
  0
LINE
  5
12019
  8
0
 62
     5
 10
373.75366
 20
125.82778
 30
0.0
 11
373.75366
 21
125.52778
 31
0.0
  0
LINE
  5
1201A
  8
0
 62
     5
 10
373.457353
 20
125.22778
 30
0.0
 11
373.75366
 21
125.52778
 31
0.0
  0
ARC
  5
1201B
  8
0
  6
CONTINUOUS
 62
     5
 10
374.878968
 20
130.92778
 30
0.0
 40
0.2
 50
270.0
 51
0.0
  0
LINE
  5
1201C
  8
0
  6
CONTINUOUS
 62
     5
 10
375.078968
 20
130.92778
 30
0.0
 11
375.078968
 21
132.72778
 31
0.0
  0
LINE
  5
1201D
  8
0
 62
     5
 10
374.078968
 20
127.42778
 30
0.0
 11
374.078968
 21
130.72778
 31
0.0
  0
LINE
  5
1201E
  8
0
 62
     5
 10
376.158634
 20
129.72778
 30
0.0
 11
376.158634
 21
130.72778
 31
0.0
  0
LINE
  5
1201F
  8
0
 62
     5
 10
374.078968
 20
129.72778
 30
0.0
 11
376.158629
 21
129.72778
 31
0.0
  0
CIRCLE
  5
12020
  8
0
 62
     5
 10
370.264761
 20
136.239072
 30
0.0
 40
1.25
  0
ARC
  5
12021
  8
0
 62
     5
 10
379.468799
 20
137.22778
 30
0.0
 40
4.5
 50
270.0
 51
0.0
  0
ARC
  5
12022
  8
0
 62
     5
 10
377.468799
 20
130.92778
 30
0.0
 40
0.2
 50
270.0
 51
0.0
  0
LINE
  5
12023
  8
0
 62
     5
 10
377.668799
 20
132.72778
 30
0.0
 11
377.668799
 21
130.92778
 31
0.0
  0
LINE
  5
12024
  8
CENTER
 10
372.671281
 20
181.430262
 30
0.0
 11
384.412392
 21
193.171373
 31
0.0
  0
ARC
  5
12025
  8
CENTER
 10
353.968799
 20
162.72778
 30
0.0
 40
35.0
 50
36.254023
 51
54.381034
  0
CIRCLE
  5
12026
  8
0
 62
     5
 10
378.717536
 20
187.476517
 30
0.0
 40
2.9
  0
CIRCLE
  5
12027
  8
0
 62
     5
 10
337.672837
 20
189.216488
 30
0.0
 40
1.25
  0
LINE
  5
12028
  8
0
 62
     5
 10
376.309186
 20
185.861928
 30
0.0
 11
376.310296
 21
185.863078
 31
0.0
  0
ARC
  5
12029
  8
0
 62
     5
 10
379.468799
 20
188.22778
 30
0.0
 40
4.5
 50
0.0
 51
90.0
  0
CIRCLE
  5
1202A
  8
0
 62
     5
 10
380.457507
 20
179.023742
 30
0.0
 40
1.25
  0
POLYLINE
  5
1202B
  8
HIDDEN
  6
CONTINUOUS
 66
     1
 10
0.0
 20
0.0
 30
0.0
 70
     2
  0
VERTEX
  5
1202C
  8
HIDDEN
  6
CONTINUOUS
 10
44.300063
 20
121.11938
 30
0.0
 42
0.014763
  0
VERTEX
  5
1202D
  8
HIDDEN
  6
CONTINUOUS
 10
44.498895
 20
120.280958
 30
0.0
 42
0.023492
 70
     1
  0
VERTEX
  5
1202E
  8
HIDDEN
  6
CONTINUOUS
 10
44.6638
 20
119.765
 30
0.0
 42
0.003006
  0
VERTEX
  5
1202F
  8
HIDDEN
  6
CONTINUOUS
 10
44.991584
 20
118.900295
 30
0.0
 42
0.014622
 70
     1
  0
VERTEX
  5
12030
  8
HIDDEN
  6
CONTINUOUS
 10
45.0652
 20
118.725
 30
0.0
 42
0.025865
  0
VERTEX
  5
12031
  8
HIDDEN
  6
CONTINUOUS
 10
45.281825
 20
118.307426
 30
0.0
 42
0.029712
 70
     1
  0
VERTEX
  5
12032
  8
HIDDEN
  6
CONTINUOUS
 10
45.5096
 20
117.967
 30
0.0
 42
0.03014
  0
VERTEX
  5
12033
  8
HIDDEN
  6
CONTINUOUS
 10
45.695893
 20
117.749974
 30
0.0
 42
0.031373
 70
     1
  0
VERTEX
  5
12034
  8
HIDDEN
  6
CONTINUOUS
 10
45.8991
 20
117.565
 30
0.0
 42
0.033549
  0
VERTEX
  5
12035
  8
HIDDEN
  6
CONTINUOUS
 10
46.168382
 20
117.377328
 30
0.0
 42
0.033282
 70
     1
  0
VERTEX
  5
12036
  8
HIDDEN
  6
CONTINUOUS
 10
46.4626
 20
117.226
 30
0.0
 42
0.02108
  0
VERTEX
  5
12037
  8
HIDDEN
  6
CONTINUOUS
 10
46.617502
 20
117.166567
 30
0.0
 42
0.004755
 70
     1
  0
VERTEX
  5
12038
  8
HIDDEN
  6
CONTINUOUS
 10
47.3166
 20
116.939
 30
0.0
 42
0.025048
  0
VERTEX
  5
12039
  8
HIDDEN
  6
CONTINUOUS
 10
47.699946
 20
116.83903
 30
0.0
 42
0.015837
 70
     1
  0
VERTEX
  5
1203A
  8
HIDDEN
  6
CONTINUOUS
 10
48.3169
 20
116.731
 30
0.0
  0
SEQEND
  5
1203B
  8
HIDDEN
  6
CONTINUOUS
  0
POLYLINE
  5
1203C
  8
HIDDEN
  6
CONTINUOUS
 66
     1
 10
0.0
 20
0.0
 30
0.0
 70
     2
  0
VERTEX
  5
1203D
  8
HIDDEN
  6
CONTINUOUS
 10
43.9152
 20
119.628
 30
0.0
 42
0.021854
  0
VERTEX
  5
1203E
  8
HIDDEN
  6
CONTINUOUS
 10
43.93843
 20
119.101393
 30
0.0
 42
0.040262
 70
     1
  0
VERTEX
  5
1203F
  8
HIDDEN
  6
CONTINUOUS
 10
43.9864
 20
118.819
 30
0.0
 42
0.008496
  0
VERTEX
  5
12040
  8
HIDDEN
  6
CONTINUOUS
 10
44.163514
 20
118.168261
 30
0.0
 42
0.01766
 70
     1
  0
VERTEX
  5
12041
  8
HIDDEN
  6
CONTINUOUS
 10
44.265
 20
117.86
 30
0.0
 42
0.025666
  0
VERTEX
  5
12042
  8
HIDDEN
  6
CONTINUOUS
 10
44.436344
 20
117.459962
 30
0.0
 42
0.04172
 70
     1
  0
VERTEX
  5
12043
  8
HIDDEN
  6
CONTINUOUS
 10
44.574
 20
117.23
 30
0.0
 42
0.06133
  0
VERTEX
  5
12044
  8
HIDDEN
  6
CONTINUOUS
 10
44.782574
 20
117.003985
 30
0.0
 42
0.031634
 70
     1
  0
VERTEX
  5
12045
  8
HIDDEN
  6
CONTINUOUS
 10
45.2596
 20
116.649
 30
0.0
 42
0.017876
  0
VERTEX
  5
12046
  8
HIDDEN
  6
CONTINUOUS
 10
45.806863
 20
116.320389
 30
0.0
 42
0.025031
 70
     1
  0
VERTEX
  5
12047
  8
HIDDEN
  6
CONTINUOUS
 10
46.2165
 20
116.12
 30
0.0
 42
0.021822
  0
VERTEX
  5
12048
  8
HIDDEN
  6
CONTINUOUS
 10
46.808988
 20
115.896125
 30
0.0
 42
0.031151
 70
     1
  0
VERTEX
  5
12049
  8
HIDDEN
  6
CONTINUOUS
 10
47.2385
 20
115.784
 30
0.0
 42
0.012674
  0
VERTEX
  5
1204A
  8
HIDDEN
  6
CONTINUOUS
 10
47.510185
 20
115.738
 30
0.0
 42
0.00545
 70
     1
  0
VERTEX
  5
1204B
  8
HIDDEN
  6
CONTINUOUS
 10
48.1454
 20
115.654
 30
0.0
 42
0.016885
  0
VERTEX
  5
1204C
  8
HIDDEN
  6
CONTINUOUS
 10
48.301522
 20
115.640413
 30
0.0
 42
0.007828
 70
     1
  0
VERTEX
  5
1204D
  8
HIDDEN
  6
CONTINUOUS
 10
48.639261
 20
115.62778
 30
0.0
  0
SEQEND
  5
1204E
  8
HIDDEN
  6
CONTINUOUS
  0
POLYLINE
  5
1204F
  8
HIDDEN
 66
     1
 10
0.0
 20
0.0
 30
0.0
 70
     2
  0
VERTEX
  5
12050
  8
HIDDEN
 10
54.2468
 20
115.629
 30
0.0
 42
0.020391
  0
VERTEX
  5
12051
  8
HIDDEN
 10
54.740832
 20
115.649609
 30
0.0
 42
0.034121
 70
     1
  0
VERTEX
  5
12052
  8
HIDDEN
 10
55.0332
 20
115.694
 30
0.0
 42
0.006198
  0
VERTEX
  5
12053
  8
HIDDEN
 10
55.580475
 20
115.822888
 30
0.0
 42
0.016694
 70
     1
  0
VERTEX
  5
12054
  8
HIDDEN
 10
55.7813
 20
115.88
 30
0.0
 42
0.030231
  0
VERTEX
  5
12055
  8
HIDDEN
 10
56.252688
 20
116.063323
 30
0.0
 42
0.039142
 70
     1
  0
VERTEX
  5
12056
  8
HIDDEN
 10
56.5939
 20
116.254
 30
0.0
 42
0.024061
  0
VERTEX
  5
12057
  8
HIDDEN
 10
56.791109
 20
116.399592
 30
0.0
 42
0.008181
 70
     1
  0
VERTEX
  5
12058
  8
HIDDEN
 10
57.342
 20
116.864
 30
0.0
 42
0.018516
  0
VERTEX
  5
12059
  8
HIDDEN
 10
57.478293
 20
116.991944
 30
0.0
 42
0.009639
 70
     1
  0
VERTEX
  5
1205A
  8
HIDDEN
 10
57.7258
 20
117.252
 30
0.0
  0
SEQEND
  5
1205B
  8
HIDDEN
  0
POLYLINE
  5
1205C
  8
HIDDEN
 66
     1
 10
0.0
 20
0.0
 30
0.0
 70
     2
  0
VERTEX
  5
1205D
  8
HIDDEN
 10
54.4701
 20
116.733
 30
0.0
 42
0.024072
  0
VERTEX
  5
1205E
  8
HIDDEN
 10
54.935433
 20
116.755644
 30
0.0
 42
0.041503
 70
     1
  0
VERTEX
  5
1205F
  8
HIDDEN
 10
55.2016
 20
116.804
 30
0.0
 42
0.012444
  0
VERTEX
  5
12060
  8
HIDDEN
 10
55.785732
 20
116.976762
 30
0.0
 42
0.025084
 70
     1
  0
VERTEX
  5
12061
  8
HIDDEN
 10
56.0684
 20
117.084
 30
0.0
 42
0.036313
  0
VERTEX
  5
12062
  8
HIDDEN
 10
56.558088
 20
117.342279
 30
0.0
 42
0.039652
 70
     1
  0
VERTEX
  5
12063
  8
HIDDEN
 10
56.9657
 20
117.644
 30
0.0
 42
0.027757
  0
VERTEX
  5
12064
  8
HIDDEN
 10
57.217369
 20
117.889001
 30
0.0
 42
0.029634
 70
     1
  0
VERTEX
  5
12065
  8
HIDDEN
 10
57.4253
 20
118.144
 30
0.0
 42
0.037602
  0
VERTEX
  5
12066
  8
HIDDEN
 10
57.689448
 20
118.57517
 30
0.0
 42
0.03711
 70
     1
  0
VERTEX
  5
12067
  8
HIDDEN
 10
57.8891
 20
119.047
 30
0.0
 42
0.019819
  0
VERTEX
  5
12068
  8
HIDDEN
 10
58.054087
 20
119.607073
 30
0.0
 42
0.026862
 70
     1
  0
VERTEX
  5
12069
  8
HIDDEN
 10
58.1368
 20
120.03
 30
0.0
 42
0.008885
  0
VERTEX
  5
1206A
  8
HIDDEN
 10
58.180563
 20
120.387952
 30
0.0
 42
0.002906
 70
     1
  0
VERTEX
  5
1206B
  8
HIDDEN
 10
58.2885
 20
121.485
 30
0.0
 42
0.010056
  0
VERTEX
  5
1206C
  8
HIDDEN
 10
58.304015
 20
121.699675
 30
0.0
 42
0.004279
 70
     1
  0
VERTEX
  5
1206D
  8
HIDDEN
 10
58.326
 20
122.205
 30
0.0
  0
SEQEND
  5
1206E
  8
HIDDEN
  0
ARC
  5
1206F
  8
HIDDEN
  6
CONTINUOUS
 10
147.965761
 20
128.682423
 30
0.0
 40
1.645357
 50
53.908577
 51
89.991672
  0
ARC
  5
12070
  8
HIDDEN
  6
CONTINUOUS
 10
147.976289
 20
118.343145
 30
0.0
 40
1.615396
 50
269.646131
 51
306.404609
  0
POLYLINE
  5
12071
  8
HIDDEN
  6
CONTINUOUS
 66
     1
 10
0.0
 20
0.0
 30
0.0
 70
     2
  0
VERTEX
  5
12072
  8
HIDDEN
  6
CONTINUOUS
 10
151.498
 20
129.128
 30
0.0
 42
-0.038666
  0
VERTEX
  5
12073
  8
HIDDEN
  6
CONTINUOUS
 10
151.713594
 20
129.11064
 30
0.0
 42
-0.061759
 70
     1
  0
VERTEX
  5
12074
  8
HIDDEN
  6
CONTINUOUS
 10
151.844
 20
129.073
 30
0.0
 42
-0.025523
  0
VERTEX
  5
12075
  8
HIDDEN
  6
CONTINUOUS
 10
152.098283
 20
128.948469
 30
0.0
 42
-0.046093
 70
     1
  0
VERTEX
  5
12076
  8
HIDDEN
  6
CONTINUOUS
 10
152.228
 20
128.86
 30
0.0
 42
-0.038793
  0
VERTEX
  5
12077
  8
HIDDEN
  6
CONTINUOUS
 10
152.378981
 20
128.714117
 30
0.0
 42
-0.040424
 70
     1
  0
VERTEX
  5
12078
  8
HIDDEN
  6
CONTINUOUS
 10
152.5
 20
128.553
 30
0.0
 42
-0.038025
  0
VERTEX
  5
12079
  8
HIDDEN
  6
CONTINUOUS
 10
152.664248
 20
128.243131
 30
0.0
 42
-0.035183
 70
     1
  0
VERTEX
  5
1207A
  8
HIDDEN
  6
CONTINUOUS
 10
152.791
 20
127.886
 30
0.0
 42
-0.009209
  0
VERTEX
  5
1207B
  8
HIDDEN
  6
CONTINUOUS
 10
152.89231
 20
127.492999
 30
0.0
 42
-0.012742
 70
     1
  0
VERTEX
  5
1207C
  8
HIDDEN
  6
CONTINUOUS
 10
152.953
 20
127.206
 30
0.0
 42
-0.008374
  0
VERTEX
  5
1207D
  8
HIDDEN
  6
CONTINUOUS
 10
153.042435
 20
126.672724
 30
0.0
 42
-0.011322
 70
     1
  0
VERTEX
  5
1207E
  8
HIDDEN
  6
CONTINUOUS
 10
153.093
 20
126.276
 30
0.0
 42
-0.010274
  0
VERTEX
  5
1207F
  8
HIDDEN
  6
CONTINUOUS
 10
153.154946
 20
125.536581
 30
0.0
 42
-0.009745
 70
     1
  0
VERTEX
  5
12080
  8
HIDDEN
  6
CONTINUOUS
 10
153.189
 20
124.755
 30
0.0
 42
-0.002071
  0
VERTEX
  5
12081
  8
HIDDEN
  6
CONTINUOUS
 10
153.199983
 20
124.203553
 30
0.0
 42
-0.002858
 70
     1
  0
VERTEX
  5
12082
  8
HIDDEN
  6
CONTINUOUS
 10
153.204
 20
123.804
 30
0.0
 42
-0.004489
  0
VERTEX
  5
12083
  8
HIDDEN
  6
CONTINUOUS
 10
153.200879
 20
123.13148
 30
0.0
 42
-0.003471
 70
     1
  0
VERTEX
  5
12084
  8
HIDDEN
  6
CONTINUOUS
 10
153.183
 20
122.262
 30
0.0
 42
-0.007972
  0
VERTEX
  5
12085
  8
HIDDEN
  6
CONTINUOUS
 10
153.159428
 20
121.719795
 30
0.0
 42
-0.005733
 70
     1
  0
VERTEX
  5
12086
  8
HIDDEN
  6
CONTINUOUS
 10
153.106
 20
120.967
 30
0.0
 42
-0.014342
  0
VERTEX
  5
12087
  8
HIDDEN
  6
CONTINUOUS
 10
153.054552
 20
120.505415
 30
0.0
 42
-0.009722
 70
     1
  0
VERTEX
  5
12088
  8
HIDDEN
  6
CONTINUOUS
 10
152.946
 20
119.829
 30
0.0
 42
-0.022662
  0
VERTEX
  5
12089
  8
HIDDEN
  6
CONTINUOUS
 10
152.807535
 20
119.220897
 30
0.0
 42
-0.033717
 70
     1
  0
VERTEX
  5
1208A
  8
HIDDEN
  6
CONTINUOUS
 10
152.669
 20
118.825
 30
0.0
 42
-0.018177
  0
VERTEX
  5
1208B
  8
HIDDEN
  6
CONTINUOUS
 10
152.58479
 20
118.646297
 30
0.0
 42
-0.024788
 70
     1
  0
VERTEX
  5
1208C
  8
HIDDEN
  6
CONTINUOUS
 10
152.512
 20
118.521
 30
0.0
 42
-0.02875
  0
VERTEX
  5
1208D
  8
HIDDEN
  6
CONTINUOUS
 10
152.398785
 20
118.366805
 30
0.0
 42
-0.032593
 70
     1
  0
VERTEX
  5
1208E
  8
HIDDEN
  6
CONTINUOUS
 10
152.283
 20
118.244
 30
0.0
 42
-0.024762
  0
VERTEX
  5
1208F
  8
HIDDEN
  6
CONTINUOUS
 10
152.183688
 20
118.160327
 30
0.0
 42
-0.02613
 70
     1
  0
VERTEX
  5
12090
  8
HIDDEN
  6
CONTINUOUS
 10
152.082
 20
118.091
 30
0.0
 42
-0.0319
  0
VERTEX
  5
12091
  8
HIDDEN
  6
CONTINUOUS
 10
151.928573
 20
118.010665
 30
0.0
 42
-0.047874
 70
     1
  0
VERTEX
  5
12092
  8
HIDDEN
  6
CONTINUOUS
 10
151.819
 20
117.974
 30
0.0
 42
-0.01361
  0
VERTEX
  5
12093
  8
HIDDEN
  6
CONTINUOUS
 10
151.746368
 20
117.959276
 30
0.0
 42
-0.007146
 70
     1
  0
VERTEX
  5
12094
  8
HIDDEN
  6
CONTINUOUS
 10
151.607
 20
117.937
 30
0.0
 42
-0.014885
  0
VERTEX
  5
12095
  8
HIDDEN
  6
CONTINUOUS
 10
151.571004
 20
117.932863
 30
0.0
 42
-0.007406
 70
     1
  0
VERTEX
  5
12096
  8
HIDDEN
  6
CONTINUOUS
 10
151.498366
 20
117.92778
 30
0.0
  0
SEQEND
  5
12097
  8
HIDDEN
  6
CONTINUOUS
  0
POLYLINE
  5
12098
  8
HIDDEN
 66
     1
 10
0.0
 20
0.0
 30
0.0
 70
     2
  0
VERTEX
  5
12099
  8
HIDDEN
 10
170.39693
 20
120.031878
 30
0.0
 42
0.015353
  0
VERTEX
  5
1209A
  8
HIDDEN
 10
171.105605
 20
118.988912
 30
0.0
 42
0.023176
 70
     1
  0
VERTEX
  5
1209B
  8
HIDDEN
 10
171.627
 20
118.336
 30
0.0
 42
0.003683
  0
VERTEX
  5
1209C
  8
HIDDEN
 10
172.451344
 20
117.410359
 30
0.0
 42
0.013795
 70
     1
  0
VERTEX
  5
1209D
  8
HIDDEN
 10
172.68
 20
117.171
 30
0.0
 42
0.039726
  0
VERTEX
  5
1209E
  8
HIDDEN
 10
173.338349
 20
116.615054
 30
0.0
 42
0.04241
 70
     1
  0
VERTEX
  5
1209F
  8
HIDDEN
 10
174.032
 20
116.202
 30
0.0
 42
0.031254
  0
VERTEX
  5
120A0
  8
HIDDEN
 10
174.726375
 20
115.91671
 30
0.0
 42
0.042478
 70
     1
  0
VERTEX
  5
120A1
  8
HIDDEN
 10
175.263
 20
115.784
 30
0.0
 42
0.008075
  0
VERTEX
  5
120A2
  8
HIDDEN
 10
175.602968
 20
115.73561
 30
0.0
 42
0.004323
 70
     1
  0
VERTEX
  5
120A3
  8
HIDDEN
 10
176.24
 20
115.661
 30
0.0
 42
0.014002
  0
VERTEX
  5
120A4
  8
HIDDEN
 10
176.456998
 20
115.643616
 30
0.0
 42
0.007217
 70
     1
  0
VERTEX
  5
120A5
  8
HIDDEN
 10
176.879018
 20
115.62778
 30
0.0
  0
SEQEND
  5
120A6
  8
HIDDEN
  0
ARC
  5
120A7
  8
HIDDEN
 10
359.804018
 20
119.870175
 30
0.0
 40
4.244651
 50
219.2075
 51
271.957399
  0
POLYLINE
  5
120A8
  8
HIDDEN
 66
     1
 10
0.0
 20
0.0
 30
0.0
 70
     2
  0
VERTEX
  5
120A9
  8
HIDDEN
 10
365.591
 20
115.63
 30
0.0
 42
0.04102
  0
VERTEX
  5
120AA
  8
HIDDEN
 10
366.761717
 20
115.722521
 30
0.0
 42
0.064173
 70
     1
  0
VERTEX
  5
120AB
  8
HIDDEN
 10
367.483
 20
115.937
 30
0.0
 42
0.013381
  0
VERTEX
  5
120AC
  8
HIDDEN
 10
368.620681
 20
116.478115
 30
0.0
 42
0.037633
 70
     1
  0
VERTEX
  5
120AD
  8
HIDDEN
 10
369.004
 20
116.711
 30
0.0
 42
0.022202
  0
VERTEX
  5
120AE
  8
HIDDEN
 10
369.350997
 20
116.983422
 30
0.0
 42
0.03469
 70
     1
  0
VERTEX
  5
120AF
  8
HIDDEN
 10
369.552
 20
117.182
 30
0.0
 42
0.075501
  0
VERTEX
  5
120B0
  8
HIDDEN
 10
369.715545
 20
117.43637
 30
0.0
 42
0.022175
 70
     1
  0
VERTEX
  5
120B1
  8
HIDDEN
 10
370.092
 20
118.389
 30
0.0
 42
0.048316
  0
VERTEX
  5
120B2
  8
HIDDEN
 10
370.209725
 20
118.879746
 30
0.0
 42
0.033822
 70
     1
  0
VERTEX
  5
120B3
  8
HIDDEN
 10
370.261
 20
119.598
 30
0.0
  0
SEQEND
  5
120B4
  8
HIDDEN
  0
ARC
  5
120B5
  8
0
 62
     5
 10
41.325999
 20
191.992628
 30
0.0
 40
1.001317
 50
90.070227
 51
175.504129
  0
ARC
  5
120B6
  8
0
 62
     5
 10
30.940676
 20
181.607305
 30
0.0
 40
1.001317
 50
94.495871
 51
179.929773
  0
ARC
  5
120B7
  8
0
 62
     5
 10
30.940676
 20
143.848255
 30
0.0
 40
1.001317
 50
180.070227
 51
265.504129
  0
ARC
  5
120B8
  8
0
 62
     5
 10
89.470372
 20
143.848255
 30
0.0
 40
1.001317
 50
274.495871
 51
359.929773
  0
ARC
  5
120B9
  8
0
 62
     5
 10
89.470372
 20
181.607305
 30
0.0
 40
1.001317
 50
0.070227
 51
85.504129
  0
ARC
  5
120BA
  8
0
 62
     5
 10
79.085049
 20
191.992628
 30
0.0
 40
1.001317
 50
4.495871
 51
89.929773
  0
ARC
  5
120BB
  8
0
 62
     5
 10
79.528832
 20
129.827164
 30
0.0
 40
0.499384
 50
269.929304
 51
0.070696
  0
ARC
  5
120BC
  8
0
 62
     5
 10
143.158837
 20
189.991152
 30
0.0
 40
1.85961
 50
184.106025
 51
195.426651
  0
ARC
  5
120BD
  8
0
 62
     5
 10
146.114615
 20
189.698875
 30
0.0
 40
4.813246
 50
163.75725
 51
178.105462
  0
ARC
  5
120BE
  8
0
 62
     5
 10
146.115076
 20
188.734171
 30
0.0
 40
4.813708
 50
181.894898
 51
196.242018
  0
ARC
  5
120BF
  8
0
 62
     5
 10
142.985935
 20
188.471577
 30
0.0
 40
1.685112
 50
163.984743
 51
176.481272
  0
ARC
  5
120C0
  8
0
 62
     5
 10
139.644808
 20
182.486246
 30
0.0
 40
0.20021
 50
90.05978
 51
179.821472
  0
ARC
  5
120C1
  8
0
 62
     5
 10
138.715034
 20
179.673273
 30
0.0
 40
2.415188
 50
152.14242
 51
180.647012
  0
ARC
  5
120C2
  8
0
 62
     5
 10
137.678784
 20
179.711443
 30
0.0
 40
1.380336
 50
182.717479
 51
197.179371
  0
ARC
  5
120C3
  8
0
 62
     5
 10
138.810196
 20
178.397237
 30
0.0
 40
2.510197
 50
179.936943
 51
207.30729
  0
ARC
  5
120C4
  8
0
 62
     5
 10
137.675956
 20
178.336813
 30
0.0
 40
1.377406
 50
162.816611
 51
177.370696
  0
ARC
  5
120C5
  8
0
 62
     5
 10
146.102131
 20
146.916109
 30
0.0
 40
4.800728
 50
163.737389
 51
178.115262
  0
ARC
  5
120C6
  8
0
 62
     5
 10
143.147404
 20
147.204273
 30
0.0
 40
1.848002
 50
184.042373
 51
195.4549
  0
ARC
  5
120C7
  8
0
 62
     5
 10
146.106953
 20
145.948116
 30
0.0
 40
4.805522
 50
181.873617
 51
196.25325
  0
ARC
  5
120C8
  8
0
 62
     5
 10
143.087117
 20
145.669265
 30
0.0
 40
1.787268
 50
164.336043
 51
176.094436
  0
ARC
  5
120C9
  8
0
 62
     5
 10
138.714878
 20
136.888657
 30
0.0
 40
2.415025
 50
152.141811
 51
180.632441
  0
ARC
  5
120CA
  8
0
 62
     5
 10
137.677491
 20
136.926421
 30
0.0
 40
1.378997
 50
182.677583
 51
197.181205
  0
ARC
  5
120CB
  8
0
 62
     5
 10
138.714844
 20
135.589476
 30
0.0
 40
2.41499
 50
179.370713
 51
207.858319
  0
ARC
  5
120CC
  8
0
 62
     5
 10
137.677216
 20
135.551799
 30
0.0
 40
1.378711
 50
162.818403
 51
177.331018
  0
ARC
  5
120CD
  8
0
 62
     5
 10
188.604235
 20
132.652333
 30
0.0
 40
0.065464
 50
96.537739
 51
142.813725
  0
ARC
  5
120CE
  8
0
 62
     5
 10
188.997298
 20
132.370458
 30
0.0
 40
0.549129
 50
144.171069
 51
170.208154
  0
LINE
  5
120CF
  8
0
 62
     5
 10
205.943
 20
132.715
 30
0.0
 11
206.338
 21
132.485
 31
0.0
  0
ARC
  5
120D0
  8
0
 62
     5
 10
205.924077
 20
132.684654
 30
0.0
 40
0.035763
 50
58.053416
 51
93.244788
  0
ARC
  5
120D1
  8
0
 62
     5
 10
207.171399
 20
132.078247
 30
0.0
 40
0.927363
 50
153.984634
 51
178.003122
  0
ARC
  5
120D2
  8
0
 62
     5
 10
334.646769
 20
129.828442
 30
0.0
 40
0.500663
 50
180.075774
 51
269.924226
  0
ARC
  5
120D3
  8
0
 62
     5
 10
362.39851
 20
131.97533
 30
0.0
 40
0.489201
 50
88.97206
 51
181.274732
  0
ARC
  5
120D4
  8
0
 62
     5
 10
383.234005
 20
143.847485
 30
0.0
 40
1.000959
 50
317.230414
 51
359.973818
  0
ARC
  5
120D5
  8
0
 62
     5
 10
383.234005
 20
181.608075
 30
0.0
 40
1.000959
 50
0.026182
 51
42.769586
  0
ARC
  5
120D6
  8
0
 62
     5
 10
335.088504
 20
191.992986
 30
0.0
 40
1.000959
 50
90.026182
 51
132.769586
  0
ARC
  5
120D7
  8
0
 62
     5
 10
372.849094
 20
191.992986
 30
0.0
 40
1.000959
 50
47.230414
 51
89.973818
  0
ARC
  5
120D8
  8
0
 62
     5
 10
324.703593
 20
143.847485
 30
0.0
 40
1.000959
 50
180.026182
 51
222.769586
  0
ARC
  5
120D9
  8
0
 62
     5
 10
324.703593
 20
181.608075
 30
0.0
 40
1.000959
 50
137.230414
 51
179.973818
  0
ARC
  5
120DA
  8
0
 62
     5
 10
372.849094
 20
133.462574
 30
0.0
 40
1.000959
 50
270.026182
 51
312.769586
  0
POLYLINE
  5
120DB
  8
HIDDEN
 66
     1
 10
0.0
 20
0.0
 30
0.0
 70
     8
  0
VERTEX
  5
120DC
  8
HIDDEN
 10
161.375
 20
123.528
 30
0.0
 70
    32
  0
VERTEX
  5
120DD
  8
HIDDEN
 10
161.322
 20
123.526
 30
0.0
 70
    32
  0
VERTEX
  5
120DE
  8
HIDDEN
 10
161.27
 20
123.519
 30
0.0
 70
    32
  0
VERTEX
  5
120DF
  8
HIDDEN
 10
161.217
 20
123.508
 30
0.0
 70
    32
  0
VERTEX
  5
120E0
  8
HIDDEN
 10
161.165
 20
123.493
 30
0.0
 70
    32
  0
VERTEX
  5
120E1
  8
HIDDEN
 10
161.113
 20
123.473
 30
0.0
 70
    32
  0
VERTEX
  5
120E2
  8
HIDDEN
 10
161.062
 20
123.448
 30
0.0
 70
    32
  0
VERTEX
  5
120E3
  8
HIDDEN
 10
161.012
 20
123.42
 30
0.0
 70
    32
  0
VERTEX
  5
120E4
  8
HIDDEN
 10
160.963
 20
123.387
 30
0.0
 70
    32
  0
VERTEX
  5
120E5
  8
HIDDEN
 10
160.914
 20
123.351
 30
0.0
 70
    32
  0
VERTEX
  5
120E6
  8
HIDDEN
 10
160.867
 20
123.31
 30
0.0
 70
    32
  0
VERTEX
  5
120E7
  8
HIDDEN
 10
160.821
 20
123.265
 30
0.0
 70
    32
  0
VERTEX
  5
120E8
  8
HIDDEN
 10
160.776
 20
123.216
 30
0.0
 70
    32
  0
VERTEX
  5
120E9
  8
HIDDEN
 10
160.733
 20
123.164
 30
0.0
 70
    32
  0
VERTEX
  5
120EA
  8
HIDDEN
 10
160.691
 20
123.108
 30
0.0
 70
    32
  0
VERTEX
  5
120EB
  8
HIDDEN
 10
160.651
 20
123.049
 30
0.0
 70
    32
  0
VERTEX
  5
120EC
  8
HIDDEN
 10
160.613
 20
122.986
 30
0.0
 70
    32
  0
VERTEX
  5
120ED
  8
HIDDEN
 10
160.576
 20
122.921
 30
0.0
 70
    32
  0
VERTEX
  5
120EE
  8
HIDDEN
 10
160.542
 20
122.852
 30
0.0
 70
    32
  0
VERTEX
  5
120EF
  8
HIDDEN
 10
160.509
 20
122.78
 30
0.0
 70
    32
  0
VERTEX
  5
120F0
  8
HIDDEN
 10
160.479
 20
122.706
 30
0.0
 70
    32
  0
VERTEX
  5
120F1
  8
HIDDEN
 10
160.45
 20
122.629
 30
0.0
 70
    32
  0
VERTEX
  5
120F2
  8
HIDDEN
 10
160.424
 20
122.55
 30
0.0
 70
    32
  0
VERTEX
  5
120F3
  8
HIDDEN
 10
160.4
 20
122.469
 30
0.0
 70
    32
  0
VERTEX
  5
120F4
  8
HIDDEN
 10
160.379
 20
122.386
 30
0.0
 70
    32
  0
VERTEX
  5
120F5
  8
HIDDEN
 10
160.36
 20
122.302
 30
0.0
 70
    32
  0
VERTEX
  5
120F6
  8
HIDDEN
 10
160.343
 20
122.215
 30
0.0
 70
    32
  0
VERTEX
  5
120F7
  8
HIDDEN
 10
160.329
 20
122.128
 30
0.0
 70
    32
  0
VERTEX
  5
120F8
  8
HIDDEN
 10
160.318
 20
122.039
 30
0.0
 70
    32
  0
VERTEX
  5
120F9
  8
HIDDEN
 10
160.309
 20
121.95
 30
0.0
 70
    32
  0
VERTEX
  5
120FA
  8
HIDDEN
 10
160.302
 20
121.86
 30
0.0
 70
    32
  0
VERTEX
  5
120FB
  8
HIDDEN
 10
160.298
 20
121.769
 30
0.0
 70
    32
  0
VERTEX
  5
120FC
  8
HIDDEN
 10
160.297
 20
121.678
 30
0.0
 70
    32
  0
VERTEX
  5
120FD
  8
HIDDEN
 10
160.298
 20
121.588
 30
0.0
 70
    32
  0
VERTEX
  5
120FE
  8
HIDDEN
 10
160.302
 20
121.497
 30
0.0
 70
    32
  0
VERTEX
  5
120FF
  8
HIDDEN
 10
160.309
 20
121.407
 30
0.0
 70
    32
  0
VERTEX
  5
12100
  8
HIDDEN
 10
160.318
 20
121.317
 30
0.0
 70
    32
  0
VERTEX
  5
12101
  8
HIDDEN
 10
160.329
 20
121.229
 30
0.0
 70
    32
  0
VERTEX
  5
12102
  8
HIDDEN
 10
160.343
 20
121.141
 30
0.0
 70
    32
  0
VERTEX
  5
12103
  8
HIDDEN
 10
160.36
 20
121.055
 30
0.0
 70
    32
  0
VERTEX
  5
12104
  8
HIDDEN
 10
160.379
 20
120.97
 30
0.0
 70
    32
  0
VERTEX
  5
12105
  8
HIDDEN
 10
160.4
 20
120.887
 30
0.0
 70
    32
  0
VERTEX
  5
12106
  8
HIDDEN
 10
160.424
 20
120.806
 30
0.0
 70
    32
  0
VERTEX
  5
12107
  8
HIDDEN
 10
160.45
 20
120.727
 30
0.0
 70
    32
  0
VERTEX
  5
12108
  8
HIDDEN
 10
160.479
 20
120.651
 30
0.0
 70
    32
  0
VERTEX
  5
12109
  8
HIDDEN
 10
160.509
 20
120.576
 30
0.0
 70
    32
  0
VERTEX
  5
1210A
  8
HIDDEN
 10
160.542
 20
120.505
 30
0.0
 70
    32
  0
VERTEX
  5
1210B
  8
HIDDEN
 10
160.576
 20
120.436
 30
0.0
 70
    32
  0
VERTEX
  5
1210C
  8
HIDDEN
 10
160.613
 20
120.37
 30
0.0
 70
    32
  0
VERTEX
  5
1210D
  8
HIDDEN
 10
160.651
 20
120.308
 30
0.0
 70
    32
  0
VERTEX
  5
1210E
  8
HIDDEN
 10
160.691
 20
120.248
 30
0.0
 70
    32
  0
VERTEX
  5
1210F
  8
HIDDEN
 10
160.733
 20
120.193
 30
0.0
 70
    32
  0
VERTEX
  5
12110
  8
HIDDEN
 10
160.776
 20
120.14
 30
0.0
 70
    32
  0
VERTEX
  5
12111
  8
HIDDEN
 10
160.821
 20
120.092
 30
0.0
 70
    32
  0
VERTEX
  5
12112
  8
HIDDEN
 10
160.867
 20
120.047
 30
0.0
 70
    32
  0
VERTEX
  5
12113
  8
HIDDEN
 10
160.914
 20
120.006
 30
0.0
 70
    32
  0
VERTEX
  5
12114
  8
HIDDEN
 10
160.963
 20
119.969
 30
0.0
 70
    32
  0
VERTEX
  5
12115
  8
HIDDEN
 10
161.012
 20
119.937
 30
0.0
 70
    32
  0
VERTEX
  5
12116
  8
HIDDEN
 10
161.062
 20
119.908
 30
0.0
 70
    32
  0
VERTEX
  5
12117
  8
HIDDEN
 10
161.113
 20
119.884
 30
0.0
 70
    32
  0
VERTEX
  5
12118
  8
HIDDEN
 10
161.165
 20
119.864
 30
0.0
 70
    32
  0
VERTEX
  5
12119
  8
HIDDEN
 10
161.217
 20
119.849
 30
0.0
 70
    32
  0
VERTEX
  5
1211A
  8
HIDDEN
 10
161.27
 20
119.837
 30
0.0
 70
    32
  0
VERTEX
  5
1211B
  8
HIDDEN
 10
161.322
 20
119.831
 30
0.0
 70
    32
  0
VERTEX
  5
1211C
  8
HIDDEN
 10
161.375
 20
119.828
 30
0.0
 70
    32
  0
VERTEX
  5
1211D
  8
HIDDEN
 10
161.428
 20
119.831
 30
0.0
 70
    32
  0
VERTEX
  5
1211E
  8
HIDDEN
 10
161.481
 20
119.837
 30
0.0
 70
    32
  0
VERTEX
  5
1211F
  8
HIDDEN
 10
161.533
 20
119.849
 30
0.0
 70
    32
  0
VERTEX
  5
12120
  8
HIDDEN
 10
161.586
 20
119.864
 30
0.0
 70
    32
  0
VERTEX
  5
12121
  8
HIDDEN
 10
161.637
 20
119.884
 30
0.0
 70
    32
  0
VERTEX
  5
12122
  8
HIDDEN
 10
161.688
 20
119.908
 30
0.0
 70
    32
  0
VERTEX
  5
12123
  8
HIDDEN
 10
161.739
 20
119.937
 30
0.0
 70
    32
  0
VERTEX
  5
12124
  8
HIDDEN
 10
161.788
 20
119.969
 30
0.0
 70
    32
  0
VERTEX
  5
12125
  8
HIDDEN
 10
161.836
 20
120.006
 30
0.0
 70
    32
  0
VERTEX
  5
12126
  8
HIDDEN
 10
161.884
 20
120.047
 30
0.0
 70
    32
  0
VERTEX
  5
12127
  8
HIDDEN
 10
161.93
 20
120.092
 30
0.0
 70
    32
  0
VERTEX
  5
12128
  8
HIDDEN
 10
161.974
 20
120.14
 30
0.0
 70
    32
  0
VERTEX
  5
12129
  8
HIDDEN
 10
162.018
 20
120.193
 30
0.0
 70
    32
  0
VERTEX
  5
1212A
  8
HIDDEN
 10
162.059
 20
120.248
 30
0.0
 70
    32
  0
VERTEX
  5
1212B
  8
HIDDEN
 10
162.099
 20
120.308
 30
0.0
 70
    32
  0
VERTEX
  5
1212C
  8
HIDDEN
 10
162.138
 20
120.37
 30
0.0
 70
    32
  0
VERTEX
  5
1212D
  8
HIDDEN
 10
162.174
 20
120.436
 30
0.0
 70
    32
  0
VERTEX
  5
1212E
  8
HIDDEN
 10
162.209
 20
120.505
 30
0.0
 70
    32
  0
VERTEX
  5
1212F
  8
HIDDEN
 10
162.241
 20
120.576
 30
0.0
 70
    32
  0
VERTEX
  5
12130
  8
HIDDEN
 10
162.272
 20
120.651
 30
0.0
 70
    32
  0
VERTEX
  5
12131
  8
HIDDEN
 10
162.3
 20
120.727
 30
0.0
 70
    32
  0
VERTEX
  5
12132
  8
HIDDEN
 10
162.326
 20
120.806
 30
0.0
 70
    32
  0
VERTEX
  5
12133
  8
HIDDEN
 10
162.35
 20
120.887
 30
0.0
 70
    32
  0
VERTEX
  5
12134
  8
HIDDEN
 10
162.372
 20
120.97
 30
0.0
 70
    32
  0
VERTEX
  5
12135
  8
HIDDEN
 10
162.391
 20
121.055
 30
0.0
 70
    32
  0
VERTEX
  5
12136
  8
HIDDEN
 10
162.407
 20
121.141
 30
0.0
 70
    32
  0
VERTEX
  5
12137
  8
HIDDEN
 10
162.421
 20
121.229
 30
0.0
 70
    32
  0
VERTEX
  5
12138
  8
HIDDEN
 10
162.433
 20
121.317
 30
0.0
 70
    32
  0
VERTEX
  5
12139
  8
HIDDEN
 10
162.442
 20
121.407
 30
0.0
 70
    32
  0
VERTEX
  5
1213A
  8
HIDDEN
 10
162.448
 20
121.497
 30
0.0
 70
    32
  0
VERTEX
  5
1213B
  8
HIDDEN
 10
162.452
 20
121.588
 30
0.0
 70
    32
  0
VERTEX
  5
1213C
  8
HIDDEN
 10
162.454
 20
121.678
 30
0.0
 70
    32
  0
VERTEX
  5
1213D
  8
HIDDEN
 10
162.452
 20
121.769
 30
0.0
 70
    32
  0
VERTEX
  5
1213E
  8
HIDDEN
 10
162.448
 20
121.86
 30
0.0
 70
    32
  0
VERTEX
  5
1213F
  8
HIDDEN
 10
162.442
 20
121.95
 30
0.0
 70
    32
  0
VERTEX
  5
12140
  8
HIDDEN
 10
162.433
 20
122.039
 30
0.0
 70
    32
  0
VERTEX
  5
12141
  8
HIDDEN
 10
162.421
 20
122.128
 30
0.0
 70
    32
  0
VERTEX
  5
12142
  8
HIDDEN
 10
162.407
 20
122.215
 30
0.0
 70
    32
  0
VERTEX
  5
12143
  8
HIDDEN
 10
162.391
 20
122.302
 30
0.0
 70
    32
  0
VERTEX
  5
12144
  8
HIDDEN
 10
162.372
 20
122.386
 30
0.0
 70
    32
  0
VERTEX
  5
12145
  8
HIDDEN
 10
162.35
 20
122.469
 30
0.0
 70
    32
  0
VERTEX
  5
12146
  8
HIDDEN
 10
162.326
 20
122.55
 30
0.0
 70
    32
  0
VERTEX
  5
12147
  8
HIDDEN
 10
162.3
 20
122.629
 30
0.0
 70
    32
  0
VERTEX
  5
12148
  8
HIDDEN
 10
162.272
 20
122.706
 30
0.0
 70
    32
  0
VERTEX
  5
12149
  8
HIDDEN
 10
162.241
 20
122.78
 30
0.0
 70
    32
  0
VERTEX
  5
1214A
  8
HIDDEN
 10
162.209
 20
122.852
 30
0.0
 70
    32
  0
VERTEX
  5
1214B
  8
HIDDEN
 10
162.174
 20
122.921
 30
0.0
 70
    32
  0
VERTEX
  5
1214C
  8
HIDDEN
 10
162.138
 20
122.986
 30
0.0
 70
    32
  0
VERTEX
  5
1214D
  8
HIDDEN
 10
162.099
 20
123.049
 30
0.0
 70
    32
  0
VERTEX
  5
1214E
  8
HIDDEN
 10
162.059
 20
123.108
 30
0.0
 70
    32
  0
VERTEX
  5
1214F
  8
HIDDEN
 10
162.018
 20
123.164
 30
0.0
 70
    32
  0
VERTEX
  5
12150
  8
HIDDEN
 10
161.974
 20
123.216
 30
0.0
 70
    32
  0
VERTEX
  5
12151
  8
HIDDEN
 10
161.93
 20
123.265
 30
0.0
 70
    32
  0
VERTEX
  5
12152
  8
HIDDEN
 10
161.884
 20
123.31
 30
0.0
 70
    32
  0
VERTEX
  5
12153
  8
HIDDEN
 10
161.836
 20
123.351
 30
0.0
 70
    32
  0
VERTEX
  5
12154
  8
HIDDEN
 10
161.788
 20
123.387
 30
0.0
 70
    32
  0
VERTEX
  5
12155
  8
HIDDEN
 10
161.739
 20
123.42
 30
0.0
 70
    32
  0
VERTEX
  5
12156
  8
HIDDEN
 10
161.688
 20
123.448
 30
0.0
 70
    32
  0
VERTEX
  5
12157
  8
HIDDEN
 10
161.637
 20
123.473
 30
0.0
 70
    32
  0
VERTEX
  5
12158
  8
HIDDEN
 10
161.586
 20
123.493
 30
0.0
 70
    32
  0
VERTEX
  5
12159
  8
HIDDEN
 10
161.533
 20
123.508
 30
0.0
 70
    32
  0
VERTEX
  5
1215A
  8
HIDDEN
 10
161.481
 20
123.519
 30
0.0
 70
    32
  0
VERTEX
  5
1215B
  8
HIDDEN
 10
161.428
 20
123.526
 30
0.0
 70
    32
  0
VERTEX
  5
1215C
  8
HIDDEN
 10
161.375
 20
123.528
 30
0.0
 70
    32
  0
SEQEND
  5
1215D
  8
HIDDEN
  0
POLYLINE
  5
1215E
  8
HIDDEN
 66
     1
 10
0.0
 20
0.0
 30
0.0
 70
     8
  0
VERTEX
  5
1215F
  8
HIDDEN
 10
161.375
 20
123.528
 30
0.0
 70
    32
  0
VERTEX
  5
12160
  8
HIDDEN
 10
161.402
 20
123.529
 30
0.0
 70
    32
  0
VERTEX
  5
12161
  8
HIDDEN
 10
161.428
 20
123.53
 30
0.0
 70
    32
  0
VERTEX
  5
12162
  8
HIDDEN
 10
161.455
 20
123.533
 30
0.0
 70
    32
  0
VERTEX
  5
12163
  8
HIDDEN
 10
161.481
 20
123.537
 30
0.0
 70
    32
  0
VERTEX
  5
12164
  8
HIDDEN
 10
161.507
 20
123.542
 30
0.0
 70
    32
  0
VERTEX
  5
12165
  8
HIDDEN
 10
161.533
 20
123.548
 30
0.0
 70
    32
  0
VERTEX
  5
12166
  8
HIDDEN
 10
161.56
 20
123.555
 30
0.0
 70
    32
  0
VERTEX
  5
12167
  8
HIDDEN
 10
161.586
 20
123.564
 30
0.0
 70
    32
  0
VERTEX
  5
12168
  8
HIDDEN
 10
161.612
 20
123.573
 30
0.0
 70
    32
  0
VERTEX
  5
12169
  8
HIDDEN
 10
161.637
 20
123.584
 30
0.0
 70
    32
  0
VERTEX
  5
1216A
  8
HIDDEN
 10
161.663
 20
123.595
 30
0.0
 70
    32
  0
VERTEX
  5
1216B
  8
HIDDEN
 10
161.688
 20
123.608
 30
0.0
 70
    32
  0
VERTEX
  5
1216C
  8
HIDDEN
 10
161.714
 20
123.622
 30
0.0
 70
    32
  0
VERTEX
  5
1216D
  8
HIDDEN
 10
161.739
 20
123.636
 30
0.0
 70
    32
  0
VERTEX
  5
1216E
  8
HIDDEN
 10
161.763
 20
123.652
 30
0.0
 70
    32
  0
VERTEX
  5
1216F
  8
HIDDEN
 10
161.788
 20
123.669
 30
0.0
 70
    32
  0
VERTEX
  5
12170
  8
HIDDEN
 10
161.812
 20
123.687
 30
0.0
 70
    32
  0
VERTEX
  5
12171
  8
HIDDEN
 10
161.836
 20
123.706
 30
0.0
 70
    32
  0
VERTEX
  5
12172
  8
HIDDEN
 10
161.86
 20
123.726
 30
0.0
 70
    32
  0
VERTEX
  5
12173
  8
HIDDEN
 10
161.884
 20
123.747
 30
0.0
 70
    32
  0
VERTEX
  5
12174
  8
HIDDEN
 10
161.907
 20
123.768
 30
0.0
 70
    32
  0
VERTEX
  5
12175
  8
HIDDEN
 10
161.93
 20
123.791
 30
0.0
 70
    32
  0
VERTEX
  5
12176
  8
HIDDEN
 10
161.952
 20
123.815
 30
0.0
 70
    32
  0
VERTEX
  5
12177
  8
HIDDEN
 10
161.974
 20
123.84
 30
0.0
 70
    32
  0
VERTEX
  5
12178
  8
HIDDEN
 10
161.996
 20
123.866
 30
0.0
 70
    32
  0
VERTEX
  5
12179
  8
HIDDEN
 10
162.018
 20
123.892
 30
0.0
 70
    32
  0
VERTEX
  5
1217A
  8
HIDDEN
 10
162.039
 20
123.92
 30
0.0
 70
    32
  0
VERTEX
  5
1217B
  8
HIDDEN
 10
162.059
 20
123.948
 30
0.0
 70
    32
  0
VERTEX
  5
1217C
  8
HIDDEN
 10
162.08
 20
123.977
 30
0.0
 70
    32
  0
VERTEX
  5
1217D
  8
HIDDEN
 10
162.099
 20
124.007
 30
0.0
 70
    32
  0
VERTEX
  5
1217E
  8
HIDDEN
 10
162.119
 20
124.038
 30
0.0
 70
    32
  0
VERTEX
  5
1217F
  8
HIDDEN
 10
162.138
 20
124.07
 30
0.0
 70
    32
  0
VERTEX
  5
12180
  8
HIDDEN
 10
162.156
 20
124.102
 30
0.0
 70
    32
  0
VERTEX
  5
12181
  8
HIDDEN
 10
162.174
 20
124.136
 30
0.0
 70
    32
  0
VERTEX
  5
12182
  8
HIDDEN
 10
162.192
 20
124.17
 30
0.0
 70
    32
  0
VERTEX
  5
12183
  8
HIDDEN
 10
162.209
 20
124.204
 30
0.0
 70
    32
  0
VERTEX
  5
12184
  8
HIDDEN
 10
162.225
 20
124.24
 30
0.0
 70
    32
  0
VERTEX
  5
12185
  8
HIDDEN
 10
162.241
 20
124.276
 30
0.0
 70
    32
  0
VERTEX
  5
12186
  8
HIDDEN
 10
162.257
 20
124.313
 30
0.0
 70
    32
  0
VERTEX
  5
12187
  8
HIDDEN
 10
162.272
 20
124.35
 30
0.0
 70
    32
  0
VERTEX
  5
12188
  8
HIDDEN
 10
162.286
 20
124.388
 30
0.0
 70
    32
  0
VERTEX
  5
12189
  8
HIDDEN
 10
162.3
 20
124.427
 30
0.0
 70
    32
  0
VERTEX
  5
1218A
  8
HIDDEN
 10
162.314
 20
124.466
 30
0.0
 70
    32
  0
VERTEX
  5
1218B
  8
HIDDEN
 10
162.326
 20
124.506
 30
0.0
 70
    32
  0
VERTEX
  5
1218C
  8
HIDDEN
 10
162.338
 20
124.546
 30
0.0
 70
    32
  0
VERTEX
  5
1218D
  8
HIDDEN
 10
162.35
 20
124.587
 30
0.0
 70
    32
  0
VERTEX
  5
1218E
  8
HIDDEN
 10
162.361
 20
124.628
 30
0.0
 70
    32
  0
VERTEX
  5
1218F
  8
HIDDEN
 10
162.372
 20
124.67
 30
0.0
 70
    32
  0
VERTEX
  5
12190
  8
HIDDEN
 10
162.381
 20
124.712
 30
0.0
 70
    32
  0
VERTEX
  5
12191
  8
HIDDEN
 10
162.391
 20
124.755
 30
0.0
 70
    32
  0
VERTEX
  5
12192
  8
HIDDEN
 10
162.399
 20
124.798
 30
0.0
 70
    32
  0
VERTEX
  5
12193
  8
HIDDEN
 10
162.407
 20
124.841
 30
0.0
 70
    32
  0
VERTEX
  5
12194
  8
HIDDEN
 10
162.415
 20
124.885
 30
0.0
 70
    32
  0
VERTEX
  5
12195
  8
HIDDEN
 10
162.421
 20
124.928
 30
0.0
 70
    32
  0
VERTEX
  5
12196
  8
HIDDEN
 10
162.427
 20
124.973
 30
0.0
 70
    32
  0
VERTEX
  5
12197
  8
HIDDEN
 10
162.433
 20
125.017
 30
0.0
 70
    32
  0
VERTEX
  5
12198
  8
HIDDEN
 10
162.438
 20
125.062
 30
0.0
 70
    32
  0
VERTEX
  5
12199
  8
HIDDEN
 10
162.442
 20
125.107
 30
0.0
 70
    32
  0
VERTEX
  5
1219A
  8
HIDDEN
 10
162.445
 20
125.152
 30
0.0
 70
    32
  0
VERTEX
  5
1219B
  8
HIDDEN
 10
162.448
 20
125.197
 30
0.0
 70
    32
  0
VERTEX
  5
1219C
  8
HIDDEN
 10
162.451
 20
125.242
 30
0.0
 70
    32
  0
VERTEX
  5
1219D
  8
HIDDEN
 10
162.452
 20
125.287
 30
0.0
 70
    32
  0
VERTEX
  5
1219E
  8
HIDDEN
 10
162.453
 20
125.333
 30
0.0
 70
    32
  0
VERTEX
  5
1219F
  8
HIDDEN
 10
162.454
 20
125.378
 30
0.0
 70
    32
  0
VERTEX
  5
121A0
  8
HIDDEN
 10
162.453
 20
125.423
 30
0.0
 70
    32
  0
VERTEX
  5
121A1
  8
HIDDEN
 10
162.452
 20
125.469
 30
0.0
 70
    32
  0
VERTEX
  5
121A2
  8
HIDDEN
 10
162.451
 20
125.514
 30
0.0
 70
    32
  0
VERTEX
  5
121A3
  8
HIDDEN
 10
162.448
 20
125.559
 30
0.0
 70
    32
  0
VERTEX
  5
121A4
  8
HIDDEN
 10
162.445
 20
125.604
 30
0.0
 70
    32
  0
VERTEX
  5
121A5
  8
HIDDEN
 10
162.442
 20
125.649
 30
0.0
 70
    32
  0
VERTEX
  5
121A6
  8
HIDDEN
 10
162.438
 20
125.694
 30
0.0
 70
    32
  0
VERTEX
  5
121A7
  8
HIDDEN
 10
162.433
 20
125.739
 30
0.0
 70
    32
  0
VERTEX
  5
121A8
  8
HIDDEN
 10
162.427
 20
125.783
 30
0.0
 70
    32
  0
VERTEX
  5
121A9
  8
HIDDEN
 10
162.421
 20
125.827
 30
0.0
 70
    32
  0
VERTEX
  5
121AA
  8
HIDDEN
 10
162.415
 20
125.871
 30
0.0
 70
    32
  0
VERTEX
  5
121AB
  8
HIDDEN
 10
162.407
 20
125.915
 30
0.0
 70
    32
  0
VERTEX
  5
121AC
  8
HIDDEN
 10
162.399
 20
125.958
 30
0.0
 70
    32
  0
VERTEX
  5
121AD
  8
HIDDEN
 10
162.391
 20
126.001
 30
0.0
 70
    32
  0
VERTEX
  5
121AE
  8
HIDDEN
 10
162.381
 20
126.044
 30
0.0
 70
    32
  0
VERTEX
  5
121AF
  8
HIDDEN
 10
162.372
 20
126.086
 30
0.0
 70
    32
  0
VERTEX
  5
121B0
  8
HIDDEN
 10
162.361
 20
126.128
 30
0.0
 70
    32
  0
VERTEX
  5
121B1
  8
HIDDEN
 10
162.35
 20
126.169
 30
0.0
 70
    32
  0
VERTEX
  5
121B2
  8
HIDDEN
 10
162.338
 20
126.21
 30
0.0
 70
    32
  0
VERTEX
  5
121B3
  8
HIDDEN
 10
162.326
 20
126.25
 30
0.0
 70
    32
  0
VERTEX
  5
121B4
  8
HIDDEN
 10
162.314
 20
126.29
 30
0.0
 70
    32
  0
VERTEX
  5
121B5
  8
HIDDEN
 10
162.3
 20
126.329
 30
0.0
 70
    32
  0
VERTEX
  5
121B6
  8
HIDDEN
 10
162.286
 20
126.368
 30
0.0
 70
    32
  0
VERTEX
  5
121B7
  8
HIDDEN
 10
162.272
 20
126.406
 30
0.0
 70
    32
  0
VERTEX
  5
121B8
  8
HIDDEN
 10
162.257
 20
126.443
 30
0.0
 70
    32
  0
VERTEX
  5
121B9
  8
HIDDEN
 10
162.241
 20
126.48
 30
0.0
 70
    32
  0
VERTEX
  5
121BA
  8
HIDDEN
 10
162.225
 20
126.516
 30
0.0
 70
    32
  0
VERTEX
  5
121BB
  8
HIDDEN
 10
162.209
 20
126.551
 30
0.0
 70
    32
  0
VERTEX
  5
121BC
  8
HIDDEN
 10
162.192
 20
126.586
 30
0.0
 70
    32
  0
VERTEX
  5
121BD
  8
HIDDEN
 10
162.174
 20
126.62
 30
0.0
 70
    32
  0
VERTEX
  5
121BE
  8
HIDDEN
 10
162.156
 20
126.653
 30
0.0
 70
    32
  0
VERTEX
  5
121BF
  8
HIDDEN
 10
162.138
 20
126.686
 30
0.0
 70
    32
  0
VERTEX
  5
121C0
  8
HIDDEN
 10
162.119
 20
126.718
 30
0.0
 70
    32
  0
VERTEX
  5
121C1
  8
HIDDEN
 10
162.099
 20
126.749
 30
0.0
 70
    32
  0
VERTEX
  5
121C2
  8
HIDDEN
 10
162.08
 20
126.779
 30
0.0
 70
    32
  0
VERTEX
  5
121C3
  8
HIDDEN
 10
162.059
 20
126.808
 30
0.0
 70
    32
  0
VERTEX
  5
121C4
  8
HIDDEN
 10
162.039
 20
126.836
 30
0.0
 70
    32
  0
VERTEX
  5
121C5
  8
HIDDEN
 10
162.018
 20
126.864
 30
0.0
 70
    32
  0
VERTEX
  5
121C6
  8
HIDDEN
 10
161.996
 20
126.89
 30
0.0
 70
    32
  0
VERTEX
  5
121C7
  8
HIDDEN
 10
161.974
 20
126.916
 30
0.0
 70
    32
  0
VERTEX
  5
121C8
  8
HIDDEN
 10
161.952
 20
126.941
 30
0.0
 70
    32
  0
VERTEX
  5
121C9
  8
HIDDEN
 10
161.93
 20
126.965
 30
0.0
 70
    32
  0
VERTEX
  5
121CA
  8
HIDDEN
 10
161.907
 20
126.987
 30
0.0
 70
    32
  0
VERTEX
  5
121CB
  8
HIDDEN
 10
161.884
 20
127.009
 30
0.0
 70
    32
  0
VERTEX
  5
121CC
  8
HIDDEN
 10
161.86
 20
127.03
 30
0.0
 70
    32
  0
VERTEX
  5
121CD
  8
HIDDEN
 10
161.836
 20
127.05
 30
0.0
 70
    32
  0
VERTEX
  5
121CE
  8
HIDDEN
 10
161.812
 20
127.069
 30
0.0
 70
    32
  0
VERTEX
  5
121CF
  8
HIDDEN
 10
161.788
 20
127.087
 30
0.0
 70
    32
  0
VERTEX
  5
121D0
  8
HIDDEN
 10
161.763
 20
127.104
 30
0.0
 70
    32
  0
VERTEX
  5
121D1
  8
HIDDEN
 10
161.739
 20
127.12
 30
0.0
 70
    32
  0
VERTEX
  5
121D2
  8
HIDDEN
 10
161.714
 20
127.134
 30
0.0
 70
    32
  0
VERTEX
  5
121D3
  8
HIDDEN
 10
161.688
 20
127.148
 30
0.0
 70
    32
  0
VERTEX
  5
121D4
  8
HIDDEN
 10
161.663
 20
127.161
 30
0.0
 70
    32
  0
VERTEX
  5
121D5
  8
HIDDEN
 10
161.637
 20
127.172
 30
0.0
 70
    32
  0
VERTEX
  5
121D6
  8
HIDDEN
 10
161.612
 20
127.183
 30
0.0
 70
    32
  0
VERTEX
  5
121D7
  8
HIDDEN
 10
161.586
 20
127.192
 30
0.0
 70
    32
  0
VERTEX
  5
121D8
  8
HIDDEN
 10
161.56
 20
127.201
 30
0.0
 70
    32
  0
VERTEX
  5
121D9
  8
HIDDEN
 10
161.533
 20
127.208
 30
0.0
 70
    32
  0
VERTEX
  5
121DA
  8
HIDDEN
 10
161.507
 20
127.214
 30
0.0
 70
    32
  0
VERTEX
  5
121DB
  8
HIDDEN
 10
161.481
 20
127.219
 30
0.0
 70
    32
  0
VERTEX
  5
121DC
  8
HIDDEN
 10
161.455
 20
127.223
 30
0.0
 70
    32
  0
VERTEX
  5
121DD
  8
HIDDEN
 10
161.428
 20
127.226
 30
0.0
 70
    32
  0
VERTEX
  5
121DE
  8
HIDDEN
 10
161.402
 20
127.227
 30
0.0
 70
    32
  0
VERTEX
  5
121DF
  8
HIDDEN
 10
161.375
 20
127.228
 30
0.0
 70
    32
  0
SEQEND
  5
121E0
  8
HIDDEN
  0
ENDSEC
  0
EOF
