  0
SECTION
  2
HEADER
  9
$ACADVER
  1
AC1009
  9
$INSBASE
 10
0.0
 20
0.0
 30
0.0
  9
$EXTMIN
 10
54.897705
 20
163.685356
 30
0.0
  9
$EXTMAX
 10
554.117617
 20
336.309826
 30
0.0
  9
$LIMMIN
 10
0.0
 20
0.0
  9
$LIMMAX
 10
12.0
 20
9.0
  9
$ORTHOMODE
 70
     0
  9
$REGENMODE
 70
     1
  9
$FILLMODE
 70
     1
  9
$QTEXTMODE
 70
     0
  9
$MIRRTEXT
 70
     1
  9
$DRAGMODE
 70
     2
  9
$LTSCALE
 40
1.0
  9
$OSMODE
 70
    39
  9
$ATTMODE
 70
     1
  9
$TEXTSIZE
 40
0.2
  9
$TRACEWID
 40
0.05
  9
$TEXTSTYLE
  7
STANDARD
  9
$CLAYER
  8
0
  9
$CELTYPE
  6
BYLAYER
  9
$CECOLOR
 62
   256
  9
$DIMSCALE
 40
1.0
  9
$DIMASZ
 40
0.18
  9
$DIMEXO
 40
0.0625
  9
$DIMDLI
 40
0.38
  9
$DIMRND
 40
0.0
  9
$DIMDLE
 40
0.0
  9
$DIMEXE
 40
0.18
  9
$DIMTP
 40
0.0
  9
$DIMTM
 40
0.0
  9
$DIMTXT
 40
0.18
  9
$DIMCEN
 40
0.09
  9
$DIMTSZ
 40
0.0
  9
$DIMTOL
 70
     0
  9
$DIMLIM
 70
     0
  9
$DIMTIH
 70
     1
  9
$DIMTOH
 70
     1
  9
$DIMSE1
 70
     0
  9
$DIMSE2
 70
     0
  9
$DIMTAD
 70
     0
  9
$DIMZIN
 70
     0
  9
$DIMBLK
  1

  9
$DIMASO
 70
     1
  9
$DIMSHO
 70
     1
  9
$DIMPOST
  1

  9
$DIMAPOST
  1

  9
$DIMALT
 70
     0
  9
$DIMALTD
 70
     2
  9
$DIMALTF
 40
25.4
  9
$DIMLFAC
 40
1.0
  9
$DIMTOFL
 70
     0
  9
$DIMTVP
 40
0.0
  9
$DIMTIX
 70
     0
  9
$DIMSOXD
 70
     0
  9
$DIMSAH
 70
     0
  9
$DIMBLK1
  1

  9
$DIMBLK2
  1

  9
$DIMSTYLE
  2
STANDARD
  9
$DIMCLRD
 70
     0
  9
$DIMCLRE
 70
     0
  9
$DIMCLRT
 70
     0
  9
$DIMTFAC
 40
1.0
  9
$DIMGAP
 40
0.09
  9
$LUNITS
 70
     2
  9
$LUPREC
 70
     4
  9
$SKETCHINC
 40
0.1
  9
$FILLETRAD
 40
0.0
  9
$AUNITS
 70
     0
  9
$AUPREC
 70
     0
  9
$MENU
  1
.
  9
$ELEVATION
 40
0.0
  9
$PELEVATION
 40
0.0
  9
$THICKNESS
 40
0.0
  9
$LIMCHECK
 70
     0
  9
$BLIPMODE
 70
     0
  9
$CHAMFERA
 40
0.0
  9
$CHAMFERB
 40
0.0
  9
$SKPOLY
 70
     0
  9
$TDCREATE
 40
2451614.721439
  9
$TDUPDATE
 40
2452948.804608
  9
$TDINDWG
 40
0.170336
  9
$TDUSRTIMER
 40
0.170336
  9
$USRTIMER
 70
     1
  9
$ANGBASE
 50
0.0
  9
$ANGDIR
 70
     0
  9
$PDMODE
 70
     0
  9
$PDSIZE
 40
0.0
  9
$PLINEWID
 40
0.0
  9
$COORDS
 70
     2
  9
$SPLFRAME
 70
     0
  9
$SPLINETYPE
 70
     6
  9
$SPLINESEGS
 70
     8
  9
$ATTDIA
 70
     0
  9
$ATTREQ
 70
     1
  9
$HANDLING
 70
     1
  9
$HANDSEED
  5
248E8
  9
$SURFTAB1
 70
     6
  9
$SURFTAB2
 70
     6
  9
$SURFTYPE
 70
     6
  9
$SURFU
 70
     6
  9
$SURFV
 70
     6
  9
$UCSNAME
  2

  9
$UCSORG
 10
0.0
 20
0.0
 30
0.0
  9
$UCSXDIR
 10
1.0
 20
0.0
 30
0.0
  9
$UCSYDIR
 10
0.0
 20
1.0
 30
0.0
  9
$PUCSNAME
  2

  9
$PUCSORG
 10
0.0
 20
0.0
 30
0.0
  9
$PUCSXDIR
 10
1.0
 20
0.0
 30
0.0
  9
$PUCSYDIR
 10
0.0
 20
1.0
 30
0.0
  9
$USERI1
 70
     0
  9
$USERI2
 70
     0
  9
$USERI3
 70
     0
  9
$USERI4
 70
     0
  9
$USERI5
 70
     0
  9
$USERR1
 40
0.0
  9
$USERR2
 40
0.0
  9
$USERR3
 40
0.0
  9
$USERR4
 40
0.0
  9
$USERR5
 40
0.0
  9
$WORLDVIEW
 70
     1
  9
$SHADEDGE
 70
     3
  9
$SHADEDIF
 70
    70
  9
$TILEMODE
 70
     1
  9
$MAXACTVP
 70
    48
  9
$PLIMCHECK
 70
     0
  9
$PEXTMIN
 10
1.000000E+020
 20
1.000000E+020
 30
1.000000E+020
  9
$PEXTMAX
 10
-1.000000E+020
 20
-1.000000E+020
 30
-1.000000E+020
  9
$PLIMMIN
 10
0.0
 20
0.0
  9
$PLIMMAX
 10
12.0
 20
9.0
  9
$UNITMODE
 70
     0
  9
$VISRETAIN
 70
     1
  9
$PLINEGEN
 70
     0
  9
$PSLTSCALE
 70
     1
  0
ENDSEC
  0
SECTION
  2
TABLES
  0
TABLE
  2
VPORT
 70
     4
  0
VPORT
  2
*ACTIVE
 70
     0
 10
0.0
 20
0.0
 11
1.0
 21
1.0
 12
304.507661
 22
249.997591
 13
0.0
 23
0.0
 14
1.0
 24
1.0
 15
0.0
 25
0.0
 16
0.0
 26
0.0
 36
1.0
 17
0.0
 27
0.0
 37
0.0
 40
310.209177
 41
1.616967
 42
50.0
 43
0.0
 44
0.0
 50
0.0
 51
0.0
 71
     0
 72
   100
 73
     1
 74
     1
 75
     0
 76
     0
 77
     0
 78
     0
  0
ENDTAB
  0
TABLE
  2
LTYPE
 70
     6
  0
LTYPE
  2
CONTINUOUS
 70
     0
  3
Solid line
 72
    65
 73
     0
 40
0.0
  0
LTYPE
  2
CENTER
 70
     0
  3
____ _ ____ _ ____ _ ____ _ ____ _ ____ _ ____
 72
    65
 73
     4
 40
17.5
 49
13.0
 49
-1.5
 49
1.5
 49
-1.5
  0
LTYPE
  2
HIDDEN
 70
     0
  3
Hidden __ __ __ __ __ __ __ __ __ __ __ __ __ _
 72
    65
 73
     2
 40
9.525
 49
6.35
 49
-3.175
  0
ENDTAB
  0
TABLE
  2
LAYER
 70
     5
  0
LAYER
  2
0
 70
     0
 62
     7
  6
CONTINUOUS
  0
LAYER
  2
CENTER
 70
     0
 62
     1
  6
CENTER
  0
LAYER
  2
HIDDEN
 70
     0
 62
     6
  6
HIDDEN
  0
LAYER
  2
1
 70
     0
 62
     7
  6
CONTINUOUS
  0
ENDTAB
  0
TABLE
  2
STYLE
 70
     2
  0
STYLE
  2
STANDARD
 70
     0
 40
0.0
 41
1.0
 50
0.0
 71
     0
 42
0.2
  3
txt
  4

  0
ENDTAB
  0
TABLE
  2
VIEW
 70
     0
  0
ENDTAB
  0
TABLE
  2
UCS
 70
     0
  0
ENDTAB
  0
TABLE
  2
APPID
 70
     1
  0
APPID
  2
ACAD
 70
     0
  0
ENDTAB
  0
TABLE
  2
DIMSTYLE
 70
     3
  0
DIMSTYLE
  2
STANDARD
 70
     0
  3

  4

  5

  6

  7

 40
1.0
 41
0.18
 42
0.0625
 43
0.38
 44
0.18
 45
0.0
 46
0.0
 47
0.0
 48
0.0
140
0.18
141
0.09
142
0.0
143
25.4
144
1.0
145
0.0
146
1.0
147
0.09
 71
     0
 72
     0
 73
     1
 74
     1
 75
     0
 76
     0
 77
     0
 78
     0
170
     0
171
     2
172
     0
173
     0
174
     0
175
     0
176
     0
177
     0
178
     0
  0
ENDTAB
  0
ENDSEC
  0
SECTION
  2
BLOCKS
  0
BLOCK
  8
0
  2
$MODEL_SPACE
 70
     0
 10
0.0
 20
0.0
 30
0.0
  3
$MODEL_SPACE
  1

  0
ENDBLK
  5
248B7
  8
0
  0
BLOCK
 67
     1
  8
0
  2
$PAPER_SPACE
 70
     0
 10
0.0
 20
0.0
 30
0.0
  3
$PAPER_SPACE
  1

  0
ENDBLK
  5
248B4
 67
     1
  8
0
  0
BLOCK
  8
0
  2
KOZU7
 70
     0
 10
0.0
 20
0.0
 30
0.0
  3
KOZU7
  1

  0
ENDBLK
  5
15D6D
  8
0
  0
BLOCK
  8
0
  2
A$C3C4259C2
 70
     0
 10
0.0
 20
0.0
 30
0.0
  3
A$C3C4259C2
  1

  0
POLYLINE
  5
24442
  8
HIDDEN
 66
     1
 10
0.0
 20
0.0
 30
0.0
 70
     8
  0
VERTEX
  5
24443
  8
0
 10
0.0
 20
4.16
 30
0.0
 70
    32
  0
VERTEX
  5
24444
  8
0
 10
-0.01641
 20
4.15969
 30
0.0
 70
    32
  0
VERTEX
  5
24445
  8
0
 10
-0.032811
 20
4.15875
 30
0.0
 70
    32
  0
VERTEX
  5
24446
  8
0
 10
-0.049191
 20
4.15718
 30
0.0
 70
    32
  0
VERTEX
  5
24447
  8
0
 10
-0.065542
 20
4.15499
 30
0.0
 70
    32
  0
VERTEX
  5
24448
  8
0
 10
-0.081853
 20
4.15218
 30
0.0
 70
    32
  0
VERTEX
  5
24449
  8
0
 10
-0.098115
 20
4.14874
 30
0.0
 70
    32
  0
VERTEX
  5
2444A
  8
0
 10
-0.114318
 20
4.14469
 30
0.0
 70
    32
  0
VERTEX
  5
2444B
  8
0
 10
-0.130453
 20
4.14002
 30
0.0
 70
    32
  0
VERTEX
  5
2444C
  8
0
 10
-0.146508
 20
4.13473
 30
0.0
 70
    32
  0
VERTEX
  5
2444D
  8
0
 10
-0.162475
 20
4.12883
 30
0.0
 70
    32
  0
VERTEX
  5
2444E
  8
0
 10
-0.178345
 20
4.12233
 30
0.0
 70
    32
  0
VERTEX
  5
2444F
  8
0
 10
-0.194107
 20
4.11522
 30
0.0
 70
    32
  0
VERTEX
  5
24450
  8
0
 10
-0.209752
 20
4.10751
 30
0.0
 70
    32
  0
VERTEX
  5
24451
  8
0
 10
-0.225271
 20
4.09921
 30
0.0
 70
    32
  0
VERTEX
  5
24452
  8
0
 10
-0.240654
 20
4.09031
 30
0.0
 70
    32
  0
VERTEX
  5
24453
  8
0
 10
-0.255892
 20
4.08083
 30
0.0
 70
    32
  0
VERTEX
  5
24454
  8
0
 10
-0.270976
 20
4.07078
 30
0.0
 70
    32
  0
VERTEX
  5
24455
  8
0
 10
-0.285897
 20
4.06015
 30
0.0
 70
    32
  0
VERTEX
  5
24456
  8
0
 10
-0.300645
 20
4.04895
 30
0.0
 70
    32
  0
VERTEX
  5
24457
  8
0
 10
-0.315212
 20
4.0372
 30
0.0
 70
    32
  0
VERTEX
  5
24458
  8
0
 10
-0.32959
 20
4.02489
 30
0.0
 70
    32
  0
VERTEX
  5
24459
  8
0
 10
-0.343769
 20
4.01204
 30
0.0
 70
    32
  0
VERTEX
  5
2445A
  8
0
 10
-0.357741
 20
3.99865
 30
0.0
 70
    32
  0
VERTEX
  5
2445B
  8
0
 10
-0.371497
 20
3.98473
 30
0.0
 70
    32
  0
VERTEX
  5
2445C
  8
0
 10
-0.38503
 20
3.97029
 30
0.0
 70
    32
  0
VERTEX
  5
2445D
  8
0
 10
-0.398331
 20
3.95534
 30
0.0
 70
    32
  0
VERTEX
  5
2445E
  8
0
 10
-0.411392
 20
3.93988
 30
0.0
 70
    32
  0
VERTEX
  5
2445F
  8
0
 10
-0.424205
 20
3.92393
 30
0.0
 70
    32
  0
VERTEX
  5
24460
  8
0
 10
-0.436762
 20
3.9075
 30
0.0
 70
    32
  0
VERTEX
  5
24461
  8
0
 10
-0.449056
 20
3.89059
 30
0.0
 70
    32
  0
VERTEX
  5
24462
  8
0
 10
-0.46108
 20
3.87322
 30
0.0
 70
    32
  0
VERTEX
  5
24463
  8
0
 10
-0.472826
 20
3.85539
 30
0.0
 70
    32
  0
VERTEX
  5
24464
  8
0
 10
-0.484288
 20
3.83712
 30
0.0
 70
    32
  0
VERTEX
  5
24465
  8
0
 10
-0.495457
 20
3.81842
 30
0.0
 70
    32
  0
VERTEX
  5
24466
  8
0
 10
-0.506329
 20
3.7993
 30
0.0
 70
    32
  0
VERTEX
  5
24467
  8
0
 10
-0.516895
 20
3.77977
 30
0.0
 70
    32
  0
VERTEX
  5
24468
  8
0
 10
-0.52715
 20
3.75984
 30
0.0
 70
    32
  0
VERTEX
  5
24469
  8
0
 10
-0.537087
 20
3.73953
 30
0.0
 70
    32
  0
VERTEX
  5
2446A
  8
0
 10
-0.546701
 20
3.71884
 30
0.0
 70
    32
  0
VERTEX
  5
2446B
  8
0
 10
-0.555985
 20
3.69779
 30
0.0
 70
    32
  0
VERTEX
  5
2446C
  8
0
 10
-0.564935
 20
3.6764
 30
0.0
 70
    32
  0
VERTEX
  5
2446D
  8
0
 10
-0.573544
 20
3.65467
 30
0.0
 70
    32
  0
VERTEX
  5
2446E
  8
0
 10
-0.581808
 20
3.63261
 30
0.0
 70
    32
  0
VERTEX
  5
2446F
  8
0
 10
-0.589721
 20
3.61025
 30
0.0
 70
    32
  0
VERTEX
  5
24470
  8
0
 10
-0.597279
 20
3.5876
 30
0.0
 70
    32
  0
VERTEX
  5
24471
  8
0
 10
-0.604477
 20
3.56466
 30
0.0
 70
    32
  0
VERTEX
  5
24472
  8
0
 10
-0.611312
 20
3.54145
 30
0.0
 70
    32
  0
VERTEX
  5
24473
  8
0
 10
-0.617778
 20
3.51799
 30
0.0
 70
    32
  0
VERTEX
  5
24474
  8
0
 10
-0.623871
 20
3.49429
 30
0.0
 70
    32
  0
VERTEX
  5
24475
  8
0
 10
-0.629589
 20
3.47037
 30
0.0
 70
    32
  0
VERTEX
  5
24476
  8
0
 10
-0.634928
 20
3.44623
 30
0.0
 70
    32
  0
VERTEX
  5
24477
  8
0
 10
-0.639885
 20
3.4219
 30
0.0
 70
    32
  0
VERTEX
  5
24478
  8
0
 10
-0.644456
 20
3.39738
 30
0.0
 70
    32
  0
VERTEX
  5
24479
  8
0
 10
-0.648638
 20
3.3727
 30
0.0
 70
    32
  0
VERTEX
  5
2447A
  8
0
 10
-0.65243
 20
3.34787
 30
0.0
 70
    32
  0
VERTEX
  5
2447B
  8
0
 10
-0.655829
 20
3.32289
 30
0.0
 70
    32
  0
VERTEX
  5
2447C
  8
0
 10
-0.658833
 20
3.2978
 30
0.0
 70
    32
  0
VERTEX
  5
2447D
  8
0
 10
-0.66144
 20
3.2726
 30
0.0
 70
    32
  0
VERTEX
  5
2447E
  8
0
 10
-0.663649
 20
3.24731
 30
0.0
 70
    32
  0
VERTEX
  5
2447F
  8
0
 10
-0.665458
 20
3.22194
 30
0.0
 70
    32
  0
VERTEX
  5
24480
  8
0
 10
-0.666866
 20
3.19651
 30
0.0
 70
    32
  0
VERTEX
  5
24481
  8
0
 10
-0.667872
 20
3.17103
 30
0.0
 70
    32
  0
VERTEX
  5
24482
  8
0
 10
-0.668476
 20
3.14552
 30
0.0
 70
    32
  0
VERTEX
  5
24483
  8
0
 10
-0.668678
 20
3.12
 30
0.0
 70
    32
  0
VERTEX
  5
24484
  8
0
 10
-0.668476
 20
3.09448
 30
0.0
 70
    32
  0
VERTEX
  5
24485
  8
0
 10
-0.667872
 20
3.06897
 30
0.0
 70
    32
  0
VERTEX
  5
24486
  8
0
 10
-0.666866
 20
3.04349
 30
0.0
 70
    32
  0
VERTEX
  5
24487
  8
0
 10
-0.665458
 20
3.01806
 30
0.0
 70
    32
  0
VERTEX
  5
24488
  8
0
 10
-0.663649
 20
2.99269
 30
0.0
 70
    32
  0
VERTEX
  5
24489
  8
0
 10
-0.66144
 20
2.9674
 30
0.0
 70
    32
  0
VERTEX
  5
2448A
  8
0
 10
-0.658833
 20
2.9422
 30
0.0
 70
    32
  0
VERTEX
  5
2448B
  8
0
 10
-0.655829
 20
2.91711
 30
0.0
 70
    32
  0
VERTEX
  5
2448C
  8
0
 10
-0.65243
 20
2.89213
 30
0.0
 70
    32
  0
VERTEX
  5
2448D
  8
0
 10
-0.648638
 20
2.8673
 30
0.0
 70
    32
  0
VERTEX
  5
2448E
  8
0
 10
-0.644456
 20
2.84262
 30
0.0
 70
    32
  0
VERTEX
  5
2448F
  8
0
 10
-0.639885
 20
2.8181
 30
0.0
 70
    32
  0
VERTEX
  5
24490
  8
0
 10
-0.634928
 20
2.79377
 30
0.0
 70
    32
  0
VERTEX
  5
24491
  8
0
 10
-0.629589
 20
2.76963
 30
0.0
 70
    32
  0
VERTEX
  5
24492
  8
0
 10
-0.623871
 20
2.74571
 30
0.0
 70
    32
  0
VERTEX
  5
24493
  8
0
 10
-0.617778
 20
2.72201
 30
0.0
 70
    32
  0
VERTEX
  5
24494
  8
0
 10
-0.611312
 20
2.69855
 30
0.0
 70
    32
  0
VERTEX
  5
24495
  8
0
 10
-0.604477
 20
2.67534
 30
0.0
 70
    32
  0
VERTEX
  5
24496
  8
0
 10
-0.597279
 20
2.6524
 30
0.0
 70
    32
  0
VERTEX
  5
24497
  8
0
 10
-0.589721
 20
2.62975
 30
0.0
 70
    32
  0
VERTEX
  5
24498
  8
0
 10
-0.581808
 20
2.60739
 30
0.0
 70
    32
  0
VERTEX
  5
24499
  8
0
 10
-0.573544
 20
2.58533
 30
0.0
 70
    32
  0
VERTEX
  5
2449A
  8
0
 10
-0.564935
 20
2.5636
 30
0.0
 70
    32
  0
VERTEX
  5
2449B
  8
0
 10
-0.555985
 20
2.54221
 30
0.0
 70
    32
  0
VERTEX
  5
2449C
  8
0
 10
-0.546701
 20
2.52116
 30
0.0
 70
    32
  0
VERTEX
  5
2449D
  8
0
 10
-0.537087
 20
2.50047
 30
0.0
 70
    32
  0
VERTEX
  5
2449E
  8
0
 10
-0.52715
 20
2.48016
 30
0.0
 70
    32
  0
VERTEX
  5
2449F
  8
0
 10
-0.516895
 20
2.46023
 30
0.0
 70
    32
  0
VERTEX
  5
244A0
  8
0
 10
-0.506329
 20
2.4407
 30
0.0
 70
    32
  0
VERTEX
  5
244A1
  8
0
 10
-0.495457
 20
2.42158
 30
0.0
 70
    32
  0
VERTEX
  5
244A2
  8
0
 10
-0.484288
 20
2.40288
 30
0.0
 70
    32
  0
VERTEX
  5
244A3
  8
0
 10
-0.472826
 20
2.38461
 30
0.0
 70
    32
  0
VERTEX
  5
244A4
  8
0
 10
-0.46108
 20
2.36678
 30
0.0
 70
    32
  0
VERTEX
  5
244A5
  8
0
 10
-0.449056
 20
2.34941
 30
0.0
 70
    32
  0
VERTEX
  5
244A6
  8
0
 10
-0.436762
 20
2.3325
 30
0.0
 70
    32
  0
VERTEX
  5
244A7
  8
0
 10
-0.424205
 20
2.31607
 30
0.0
 70
    32
  0
VERTEX
  5
244A8
  8
0
 10
-0.411392
 20
2.30012
 30
0.0
 70
    32
  0
VERTEX
  5
244A9
  8
0
 10
-0.398331
 20
2.28466
 30
0.0
 70
    32
  0
VERTEX
  5
244AA
  8
0
 10
-0.38503
 20
2.26971
 30
0.0
 70
    32
  0
VERTEX
  5
244AB
  8
0
 10
-0.371497
 20
2.25527
 30
0.0
 70
    32
  0
VERTEX
  5
244AC
  8
0
 10
-0.357741
 20
2.24135
 30
0.0
 70
    32
  0
VERTEX
  5
244AD
  8
0
 10
-0.343769
 20
2.22796
 30
0.0
 70
    32
  0
VERTEX
  5
244AE
  8
0
 10
-0.32959
 20
2.21511
 30
0.0
 70
    32
  0
VERTEX
  5
244AF
  8
0
 10
-0.315212
 20
2.2028
 30
0.0
 70
    32
  0
VERTEX
  5
244B0
  8
0
 10
-0.300645
 20
2.19105
 30
0.0
 70
    32
  0
VERTEX
  5
244B1
  8
0
 10
-0.285897
 20
2.17985
 30
0.0
 70
    32
  0
VERTEX
  5
244B2
  8
0
 10
-0.270976
 20
2.16922
 30
0.0
 70
    32
  0
VERTEX
  5
244B3
  8
0
 10
-0.255892
 20
2.15917
 30
0.0
 70
    32
  0
VERTEX
  5
244B4
  8
0
 10
-0.240654
 20
2.14969
 30
0.0
 70
    32
  0
VERTEX
  5
244B5
  8
0
 10
-0.225271
 20
2.14079
 30
0.0
 70
    32
  0
VERTEX
  5
244B6
  8
0
 10
-0.209752
 20
2.13249
 30
0.0
 70
    32
  0
VERTEX
  5
244B7
  8
0
 10
-0.194107
 20
2.12478
 30
0.0
 70
    32
  0
VERTEX
  5
244B8
  8
0
 10
-0.178345
 20
2.11767
 30
0.0
 70
    32
  0
VERTEX
  5
244B9
  8
0
 10
-0.162475
 20
2.11117
 30
0.0
 70
    32
  0
VERTEX
  5
244BA
  8
0
 10
-0.146508
 20
2.10527
 30
0.0
 70
    32
  0
VERTEX
  5
244BB
  8
0
 10
-0.130453
 20
2.09998
 30
0.0
 70
    32
  0
VERTEX
  5
244BC
  8
0
 10
-0.114318
 20
2.09531
 30
0.0
 70
    32
  0
VERTEX
  5
244BD
  8
0
 10
-0.098115
 20
2.09126
 30
0.0
 70
    32
  0
VERTEX
  5
244BE
  8
0
 10
-0.081853
 20
2.08782
 30
0.0
 70
    32
  0
VERTEX
  5
244BF
  8
0
 10
-0.065542
 20
2.08501
 30
0.0
 70
    32
  0
VERTEX
  5
244C0
  8
0
 10
-0.049191
 20
2.08282
 30
0.0
 70
    32
  0
VERTEX
  5
244C1
  8
0
 10
-0.032811
 20
2.08125
 30
0.0
 70
    32
  0
VERTEX
  5
244C2
  8
0
 10
-0.01641
 20
2.08031
 30
0.0
 70
    32
  0
VERTEX
  5
244C3
  8
0
 10
0.0
 20
2.08
 30
0.0
 70
    32
  0
SEQEND
  5
244C4
  8
0
  0
POLYLINE
  5
244C5
  8
HIDDEN
 66
     1
 10
0.0
 20
0.0
 30
0.0
 70
     8
  0
VERTEX
  5
244C6
  8
0
 10
0.0
 20
0.0
 30
0.0
 70
    32
  0
VERTEX
  5
244C7
  8
0
 10
0.032811
 20
0.001253
 30
0.0
 70
    32
  0
VERTEX
  5
244C8
  8
0
 10
0.065542
 20
0.005008
 30
0.0
 70
    32
  0
VERTEX
  5
244C9
  8
0
 10
0.098115
 20
0.011256
 30
0.0
 70
    32
  0
VERTEX
  5
244CA
  8
0
 10
0.130453
 20
0.019983
 30
0.0
 70
    32
  0
VERTEX
  5
244CB
  8
0
 10
0.162475
 20
0.031168
 30
0.0
 70
    32
  0
VERTEX
  5
244CC
  8
0
 10
0.194107
 20
0.044782
 30
0.0
 70
    32
  0
VERTEX
  5
244CD
  8
0
 10
0.225271
 20
0.060794
 30
0.0
 70
    32
  0
VERTEX
  5
244CE
  8
0
 10
0.255892
 20
0.079165
 30
0.0
 70
    32
  0
VERTEX
  5
244CF
  8
0
 10
0.285897
 20
0.099851
 30
0.0
 70
    32
  0
VERTEX
  5
244D0
  8
0
 10
0.315212
 20
0.122802
 30
0.0
 70
    32
  0
VERTEX
  5
244D1
  8
0
 10
0.343769
 20
0.147962
 30
0.0
 70
    32
  0
VERTEX
  5
244D2
  8
0
 10
0.371497
 20
0.175272
 30
0.0
 70
    32
  0
VERTEX
  5
244D3
  8
0
 10
0.398331
 20
0.204664
 30
0.0
 70
    32
  0
VERTEX
  5
244D4
  8
0
 10
0.424205
 20
0.236069
 30
0.0
 70
    32
  0
VERTEX
  5
244D5
  8
0
 10
0.449056
 20
0.269411
 30
0.0
 70
    32
  0
VERTEX
  5
244D6
  8
0
 10
0.472826
 20
0.304609
 30
0.0
 70
    32
  0
VERTEX
  5
244D7
  8
0
 10
0.495457
 20
0.341579
 30
0.0
 70
    32
  0
VERTEX
  5
244D8
  8
0
 10
0.516895
 20
0.380231
 30
0.0
 70
    32
  0
VERTEX
  5
244D9
  8
0
 10
0.537087
 20
0.420473
 30
0.0
 70
    32
  0
VERTEX
  5
244DA
  8
0
 10
0.555985
 20
0.462207
 30
0.0
 70
    32
  0
VERTEX
  5
244DB
  8
0
 10
0.573544
 20
0.505333
 30
0.0
 70
    32
  0
VERTEX
  5
244DC
  8
0
 10
0.589721
 20
0.549747
 30
0.0
 70
    32
  0
VERTEX
  5
244DD
  8
0
 10
0.604477
 20
0.595343
 30
0.0
 70
    32
  0
VERTEX
  5
244DE
  8
0
 10
0.617778
 20
0.642009
 30
0.0
 70
    32
  0
VERTEX
  5
244DF
  8
0
 10
0.629589
 20
0.689635
 30
0.0
 70
    32
  0
VERTEX
  5
244E0
  8
0
 10
0.639885
 20
0.738104
 30
0.0
 70
    32
  0
VERTEX
  5
244E1
  8
0
 10
0.648638
 20
0.787301
 30
0.0
 70
    32
  0
VERTEX
  5
244E2
  8
0
 10
0.655829
 20
0.837106
 30
0.0
 70
    32
  0
VERTEX
  5
244E3
  8
0
 10
0.66144
 20
0.8874
 30
0.0
 70
    32
  0
VERTEX
  5
244E4
  8
0
 10
0.665458
 20
0.938062
 30
0.0
 70
    32
  0
VERTEX
  5
244E5
  8
0
 10
0.667872
 20
0.98897
 30
0.0
 70
    32
  0
VERTEX
  5
244E6
  8
0
 10
0.668678
 20
1.04
 30
0.0
 70
    32
  0
VERTEX
  5
244E7
  8
0
 10
0.667872
 20
1.09103
 30
0.0
 70
    32
  0
VERTEX
  5
244E8
  8
0
 10
0.665458
 20
1.14194
 30
0.0
 70
    32
  0
VERTEX
  5
244E9
  8
0
 10
0.66144
 20
1.1926
 30
0.0
 70
    32
  0
VERTEX
  5
244EA
  8
0
 10
0.655829
 20
1.24289
 30
0.0
 70
    32
  0
VERTEX
  5
244EB
  8
0
 10
0.648638
 20
1.2927
 30
0.0
 70
    32
  0
VERTEX
  5
244EC
  8
0
 10
0.639885
 20
1.3419
 30
0.0
 70
    32
  0
VERTEX
  5
244ED
  8
0
 10
0.629589
 20
1.39037
 30
0.0
 70
    32
  0
VERTEX
  5
244EE
  8
0
 10
0.617778
 20
1.43799
 30
0.0
 70
    32
  0
VERTEX
  5
244EF
  8
0
 10
0.604477
 20
1.48466
 30
0.0
 70
    32
  0
VERTEX
  5
244F0
  8
0
 10
0.589721
 20
1.53025
 30
0.0
 70
    32
  0
VERTEX
  5
244F1
  8
0
 10
0.573544
 20
1.57467
 30
0.0
 70
    32
  0
VERTEX
  5
244F2
  8
0
 10
0.555985
 20
1.61779
 30
0.0
 70
    32
  0
VERTEX
  5
244F3
  8
0
 10
0.537087
 20
1.65953
 30
0.0
 70
    32
  0
VERTEX
  5
244F4
  8
0
 10
0.516895
 20
1.69977
 30
0.0
 70
    32
  0
VERTEX
  5
244F5
  8
0
 10
0.495457
 20
1.73842
 30
0.0
 70
    32
  0
VERTEX
  5
244F6
  8
0
 10
0.472826
 20
1.77539
 30
0.0
 70
    32
  0
VERTEX
  5
244F7
  8
0
 10
0.449056
 20
1.81059
 30
0.0
 70
    32
  0
VERTEX
  5
244F8
  8
0
 10
0.424205
 20
1.84393
 30
0.0
 70
    32
  0
VERTEX
  5
244F9
  8
0
 10
0.398331
 20
1.87534
 30
0.0
 70
    32
  0
VERTEX
  5
244FA
  8
0
 10
0.371497
 20
1.90473
 30
0.0
 70
    32
  0
VERTEX
  5
244FB
  8
0
 10
0.343769
 20
1.93204
 30
0.0
 70
    32
  0
VERTEX
  5
244FC
  8
0
 10
0.315212
 20
1.9572
 30
0.0
 70
    32
  0
VERTEX
  5
244FD
  8
0
 10
0.285897
 20
1.98015
 30
0.0
 70
    32
  0
VERTEX
  5
244FE
  8
0
 10
0.255892
 20
2.00083
 30
0.0
 70
    32
  0
VERTEX
  5
244FF
  8
0
 10
0.225271
 20
2.01921
 30
0.0
 70
    32
  0
VERTEX
  5
24500
  8
0
 10
0.194107
 20
2.03522
 30
0.0
 70
    32
  0
VERTEX
  5
24501
  8
0
 10
0.162475
 20
2.04883
 30
0.0
 70
    32
  0
VERTEX
  5
24502
  8
0
 10
0.130453
 20
2.06002
 30
0.0
 70
    32
  0
VERTEX
  5
24503
  8
0
 10
0.098115
 20
2.06874
 30
0.0
 70
    32
  0
VERTEX
  5
24504
  8
0
 10
0.065542
 20
2.07499
 30
0.0
 70
    32
  0
VERTEX
  5
24505
  8
0
 10
0.032811
 20
2.07875
 30
0.0
 70
    32
  0
VERTEX
  5
24506
  8
0
 10
0.0
 20
2.08
 30
0.0
 70
    32
  0
VERTEX
  5
24507
  8
0
 10
-0.032811
 20
2.07875
 30
0.0
 70
    32
  0
VERTEX
  5
24508
  8
0
 10
-0.065542
 20
2.07499
 30
0.0
 70
    32
  0
VERTEX
  5
24509
  8
0
 10
-0.098115
 20
2.06874
 30
0.0
 70
    32
  0
VERTEX
  5
2450A
  8
0
 10
-0.130453
 20
2.06002
 30
0.0
 70
    32
  0
VERTEX
  5
2450B
  8
0
 10
-0.162475
 20
2.04883
 30
0.0
 70
    32
  0
VERTEX
  5
2450C
  8
0
 10
-0.194107
 20
2.03522
 30
0.0
 70
    32
  0
VERTEX
  5
2450D
  8
0
 10
-0.225271
 20
2.01921
 30
0.0
 70
    32
  0
VERTEX
  5
2450E
  8
0
 10
-0.255892
 20
2.00083
 30
0.0
 70
    32
  0
VERTEX
  5
2450F
  8
0
 10
-0.285897
 20
1.98015
 30
0.0
 70
    32
  0
VERTEX
  5
24510
  8
0
 10
-0.315212
 20
1.9572
 30
0.0
 70
    32
  0
VERTEX
  5
24511
  8
0
 10
-0.343769
 20
1.93204
 30
0.0
 70
    32
  0
VERTEX
  5
24512
  8
0
 10
-0.371497
 20
1.90473
 30
0.0
 70
    32
  0
VERTEX
  5
24513
  8
0
 10
-0.398331
 20
1.87534
 30
0.0
 70
    32
  0
VERTEX
  5
24514
  8
0
 10
-0.424205
 20
1.84393
 30
0.0
 70
    32
  0
VERTEX
  5
24515
  8
0
 10
-0.449056
 20
1.81059
 30
0.0
 70
    32
  0
VERTEX
  5
24516
  8
0
 10
-0.472826
 20
1.77539
 30
0.0
 70
    32
  0
VERTEX
  5
24517
  8
0
 10
-0.495457
 20
1.73842
 30
0.0
 70
    32
  0
VERTEX
  5
24518
  8
0
 10
-0.516895
 20
1.69977
 30
0.0
 70
    32
  0
VERTEX
  5
24519
  8
0
 10
-0.537087
 20
1.65953
 30
0.0
 70
    32
  0
VERTEX
  5
2451A
  8
0
 10
-0.555985
 20
1.61779
 30
0.0
 70
    32
  0
VERTEX
  5
2451B
  8
0
 10
-0.573544
 20
1.57467
 30
0.0
 70
    32
  0
VERTEX
  5
2451C
  8
0
 10
-0.589721
 20
1.53025
 30
0.0
 70
    32
  0
VERTEX
  5
2451D
  8
0
 10
-0.604477
 20
1.48466
 30
0.0
 70
    32
  0
VERTEX
  5
2451E
  8
0
 10
-0.617778
 20
1.43799
 30
0.0
 70
    32
  0
VERTEX
  5
2451F
  8
0
 10
-0.629589
 20
1.39037
 30
0.0
 70
    32
  0
VERTEX
  5
24520
  8
0
 10
-0.639885
 20
1.3419
 30
0.0
 70
    32
  0
VERTEX
  5
24521
  8
0
 10
-0.648638
 20
1.2927
 30
0.0
 70
    32
  0
VERTEX
  5
24522
  8
0
 10
-0.655829
 20
1.24289
 30
0.0
 70
    32
  0
VERTEX
  5
24523
  8
0
 10
-0.66144
 20
1.1926
 30
0.0
 70
    32
  0
VERTEX
  5
24524
  8
0
 10
-0.665458
 20
1.14194
 30
0.0
 70
    32
  0
VERTEX
  5
24525
  8
0
 10
-0.667872
 20
1.09103
 30
0.0
 70
    32
  0
VERTEX
  5
24526
  8
0
 10
-0.668678
 20
1.04
 30
0.0
 70
    32
  0
VERTEX
  5
24527
  8
0
 10
-0.667872
 20
0.98897
 30
0.0
 70
    32
  0
VERTEX
  5
24528
  8
0
 10
-0.665458
 20
0.938062
 30
0.0
 70
    32
  0
VERTEX
  5
24529
  8
0
 10
-0.66144
 20
0.8874
 30
0.0
 70
    32
  0
VERTEX
  5
2452A
  8
0
 10
-0.655829
 20
0.837106
 30
0.0
 70
    32
  0
VERTEX
  5
2452B
  8
0
 10
-0.648638
 20
0.787301
 30
0.0
 70
    32
  0
VERTEX
  5
2452C
  8
0
 10
-0.639885
 20
0.738104
 30
0.0
 70
    32
  0
VERTEX
  5
2452D
  8
0
 10
-0.629589
 20
0.689635
 30
0.0
 70
    32
  0
VERTEX
  5
2452E
  8
0
 10
-0.617778
 20
0.642009
 30
0.0
 70
    32
  0
VERTEX
  5
2452F
  8
0
 10
-0.604477
 20
0.595343
 30
0.0
 70
    32
  0
VERTEX
  5
24530
  8
0
 10
-0.589721
 20
0.549747
 30
0.0
 70
    32
  0
VERTEX
  5
24531
  8
0
 10
-0.573544
 20
0.505333
 30
0.0
 70
    32
  0
VERTEX
  5
24532
  8
0
 10
-0.555985
 20
0.462207
 30
0.0
 70
    32
  0
VERTEX
  5
24533
  8
0
 10
-0.537087
 20
0.420473
 30
0.0
 70
    32
  0
VERTEX
  5
24534
  8
0
 10
-0.516895
 20
0.380231
 30
0.0
 70
    32
  0
VERTEX
  5
24535
  8
0
 10
-0.495457
 20
0.341579
 30
0.0
 70
    32
  0
VERTEX
  5
24536
  8
0
 10
-0.472826
 20
0.304609
 30
0.0
 70
    32
  0
VERTEX
  5
24537
  8
0
 10
-0.449056
 20
0.269411
 30
0.0
 70
    32
  0
VERTEX
  5
24538
  8
0
 10
-0.424205
 20
0.236069
 30
0.0
 70
    32
  0
VERTEX
  5
24539
  8
0
 10
-0.398331
 20
0.204664
 30
0.0
 70
    32
  0
VERTEX
  5
2453A
  8
0
 10
-0.371497
 20
0.175272
 30
0.0
 70
    32
  0
VERTEX
  5
2453B
  8
0
 10
-0.343769
 20
0.147962
 30
0.0
 70
    32
  0
VERTEX
  5
2453C
  8
0
 10
-0.315212
 20
0.122802
 30
0.0
 70
    32
  0
VERTEX
  5
2453D
  8
0
 10
-0.285897
 20
0.099851
 30
0.0
 70
    32
  0
VERTEX
  5
2453E
  8
0
 10
-0.255892
 20
0.079165
 30
0.0
 70
    32
  0
VERTEX
  5
2453F
  8
0
 10
-0.225271
 20
0.060794
 30
0.0
 70
    32
  0
VERTEX
  5
24540
  8
0
 10
-0.194107
 20
0.044782
 30
0.0
 70
    32
  0
VERTEX
  5
24541
  8
0
 10
-0.162475
 20
0.031168
 30
0.0
 70
    32
  0
VERTEX
  5
24542
  8
0
 10
-0.130453
 20
0.019983
 30
0.0
 70
    32
  0
VERTEX
  5
24543
  8
0
 10
-0.098115
 20
0.011256
 30
0.0
 70
    32
  0
VERTEX
  5
24544
  8
0
 10
-0.065542
 20
0.005008
 30
0.0
 70
    32
  0
VERTEX
  5
24545
  8
0
 10
-0.032811
 20
0.001253
 30
0.0
 70
    32
  0
VERTEX
  5
24546
  8
0
 10
0.0
 20
0.0
 30
0.0
 70
    32
  0
SEQEND
  5
24547
  8
0
  0
ENDBLK
  5
24549
  8
0
  0
ENDSEC
  0
SECTION
  2
ENTITIES
  0
TEXT
  5
15DE7
  8
0
  6
CONTINUOUS
 62
     7
 10
54.898619
 20
325.00554
 30
0.0
 40
11.288889
  1
HF-KP73B
  0
INSERT
  5
15DE8
  8
0
  6
CONTINUOUS
 62
     7
  2
KOZU7
 10
498.49048
 20
225.45601
 30
0.0
  0
LINE
  5
15DE9
  8
CENTER
 10
58.250315
 20
225.45601
 30
0.0
 11
148.955766
 21
225.45601
 31
0.0
  0
LINE
  5
15DEA
  8
HIDDEN
 10
240.477397
 20
172.859211
 30
0.0
 11
254.190215
 21
172.859211
 31
0.0
  0
LINE
  5
15DEB
  8
HIDDEN
 10
240.404557
 20
180.156875
 30
0.0
 11
254.190215
 21
180.156875
 31
0.0
  0
LINE
  5
15DEC
  8
0
  6
BYBLOCK
 62
     5
 10
231.440239
 20
199.789822
 30
0.0
 11
282.840239
 21
199.789822
 31
0.0
  0
LINE
  5
15DED
  8
0
  6
BYBLOCK
 62
     5
 10
231.440239
 20
251.122198
 30
0.0
 11
282.840239
 21
251.122198
 31
0.0
  0
LINE
  5
15DEE
  8
0
  6
BYBLOCK
 62
     5
 10
282.640239
 20
185.45601
 30
0.0
 11
231.640239
 21
185.45601
 31
0.0
  0
LINE
  5
15DEF
  8
0
  6
BYBLOCK
 62
     5
 10
231.640239
 20
265.45601
 30
0.0
 11
282.640239
 21
265.45601
 31
0.0
  0
LINE
  5
15DF0
  8
CENTER
 10
199.470683
 20
225.45601
 30
0.0
 11
409.326051
 21
225.45601
 31
0.0
  0
LINE
  5
15DF1
  8
0
  6
BYBLOCK
 62
     5
 10
85.025557
 20
182.45601
 30
0.0
 11
85.025557
 21
178.55601
 31
0.0
  0
LINE
  5
15DF2
  8
0
  6
BYBLOCK
 62
     5
 10
104.932443
 20
182.45601
 30
0.0
 11
104.932443
 21
178.55601
 31
0.0
  0
LINE
  5
15DF3
  8
0
  6
BYBLOCK
 62
     5
 10
111.700339
 20
183.85601
 30
0.0
 11
111.700339
 21
180.85601
 31
0.0
  0
LINE
  5
15DF4
  8
0
  6
BYBLOCK
 62
     5
 10
111.738112
 20
182.05601
 30
0.0
 11
111.808405
 21
176.65601
 31
0.0
  0
LINE
  5
15DF5
  8
0
  6
BYBLOCK
 62
     5
 10
125.149595
 20
176.65601
 30
0.0
 11
125.219888
 21
182.05601
 31
0.0
  0
LINE
  5
15DF6
  8
0
  6
BYBLOCK
 62
     5
 10
126.007002
 20
182.05601
 30
0.0
 11
125.8373
 21
176.65601
 31
0.0
  0
LINE
  5
15DF7
  8
HIDDEN
 10
130.729
 20
182.05601
 30
0.0
 11
130.729
 21
180.05601
 31
0.0
  0
LINE
  5
15DF8
  8
HIDDEN
 10
107.032443
 20
177.95601
 30
0.0
 11
107.032443
 21
183.45601
 31
0.0
  0
LINE
  5
15DF9
  8
CENTER
 10
94.979
 20
186.45601
 30
0.0
 11
94.979
 21
167.155007
 31
0.0
  0
LINE
  5
15DFA
  8
CENTER
 10
101.479
 20
189.05601
 30
0.0
 11
101.479
 21
166.825524
 31
0.0
  0
LINE
  5
15DFB
  8
CENTER
 10
118.479
 20
185.75601
 30
0.0
 11
118.479
 21
165.260479
 31
0.0
  0
LINE
  5
15DFC
  8
HIDDEN
 10
82.925557
 20
177.95601
 30
0.0
 11
82.925557
 21
183.45601
 31
0.0
  0
LINE
  5
15DFD
  8
CENTER
 10
106.479
 20
271.711559
 30
0.0
 11
106.479
 21
166.85601
 31
0.0
  0
LINE
  5
15DFE
  8
0
  6
BYBLOCK
 62
     5
 10
104.932443
 20
180.85601
 30
0.0
 11
111.709352
 21
180.85601
 31
0.0
  0
LINE
  5
15DFF
  8
0
  6
BYBLOCK
 62
     5
 10
111.715202
 20
180.85601
 30
0.0
 11
107.032443
 21
180.85601
 31
0.0
  0
ARC
  5
15E00
  8
HIDDEN
 10
113.029
 20
172.35601
 30
0.0
 40
4.0
 50
180.0
 51
270.0
  0
LINE
  5
15E01
  8
0
  6
BYBLOCK
 62
     5
 10
101.440851
 20
177.95601
 30
0.0
 11
85.556848
 21
177.95601
 31
0.0
  0
LINE
  5
15E02
  8
0
  6
BYBLOCK
 62
     5
 10
85.259084
 20
178.25601
 30
0.0
 11
86.039048
 21
178.25601
 31
0.0
  0
LINE
  5
15E03
  8
HIDDEN
 10
84.425509
 20
176.45601
 30
0.0
 11
87.576797
 21
176.45601
 31
0.0
  0
LINE
  5
15E04
  8
0
  6
BYBLOCK
 62
     5
 10
85.259084
 20
178.55601
 30
0.0
 11
85.025655
 21
178.55601
 31
0.0
  0
LINE
  5
15E05
  8
0
  6
BYBLOCK
 62
     5
 10
85.259084
 20
178.55601
 30
0.0
 11
85.259084
 21
178.25601
 31
0.0
  0
ARC
  5
15E06
  8
HIDDEN
 10
84.425557
 20
177.95601
 30
0.0
 40
1.5
 50
180.0
 51
270.0
  0
LINE
  5
15E07
  8
0
  6
BYBLOCK
 62
     5
 10
85.556848
 20
177.95601
 30
0.0
 11
85.259084
 21
178.25601
 31
0.0
  0
LINE
  5
15E08
  8
0
  6
BYBLOCK
 62
     5
 10
91.353441
 20
181.25601
 30
0.0
 11
100.286356
 21
181.25601
 31
0.0
  0
LINE
  5
15E09
  8
0
  6
BYBLOCK
 62
     5
 10
105.840136
 20
175.35601
 30
0.0
 11
97.117864
 21
175.35601
 31
0.0
  0
LINE
  5
15E0A
  8
0
  6
BYBLOCK
 62
     5
 10
96.804956
 20
175.65601
 30
0.0
 11
106.153044
 21
175.65601
 31
0.0
  0
LINE
  5
15E0B
  8
HIDDEN
 10
98.969913
 20
169.45601
 30
0.0
 11
96.136759
 21
169.45601
 31
0.0
  0
LINE
  5
15E0C
  8
0
  6
BYBLOCK
 62
     5
 10
90.162385
 20
178.25601
 30
0.0
 11
91.353441
 21
178.25601
 31
0.0
  0
LINE
  5
15E0D
  8
0
  6
BYBLOCK
 62
     5
 10
90.162385
 20
178.55601
 30
0.0
 11
90.162385
 21
178.25601
 31
0.0
  0
LINE
  5
15E0E
  8
0
  6
BYBLOCK
 62
     5
 10
91.353441
 20
178.25601
 30
0.0
 11
91.353441
 21
181.25601
 31
0.0
  0
LINE
  5
15E0F
  8
0
  6
BYBLOCK
 62
     5
 10
90.125825
 20
177.95601
 30
0.0
 11
90.162385
 21
178.25601
 31
0.0
  0
LINE
  5
15E10
  8
0
  6
BYBLOCK
 62
     5
 10
91.31688
 20
177.95601
 30
0.0
 11
91.353441
 21
178.25601
 31
0.0
  0
LINE
  5
15E11
  8
0
  6
BYBLOCK
 62
     5
 10
86.039048
 20
178.25601
 30
0.0
 11
86.039048
 21
178.55601
 31
0.0
  0
LINE
  5
15E12
  8
0
  6
BYBLOCK
 62
     5
 10
86.336812
 20
177.95601
 30
0.0
 11
86.039048
 21
178.25601
 31
0.0
  0
LINE
  5
15E13
  8
0
  6
BYBLOCK
 62
     5
 10
86.039048
 20
178.55601
 30
0.0
 11
90.162385
 21
178.55601
 31
0.0
  0
LINE
  5
15E14
  8
0
  6
BYBLOCK
 62
     5
 10
97.117864
 20
175.35601
 30
0.0
 11
96.804956
 21
175.65601
 31
0.0
  0
LINE
  5
15E15
  8
0
  6
BYBLOCK
 62
     5
 10
96.804956
 20
177.95601
 30
0.0
 11
96.804956
 21
175.65601
 31
0.0
  0
LINE
  5
15E16
  8
HIDDEN
 10
87.598718
 20
173.423432
 30
0.0
 11
87.598724
 21
173.423346
 31
0.0
  0
LINE
  5
15E17
  8
HIDDEN
 10
87.576797
 20
176.45601
 30
0.0
 11
87.576797
 21
173.844385
 31
0.0
  0
LINE
  5
15E18
  8
HIDDEN
 10
96.136759
 20
169.45601
 30
0.0
 11
91.530665
 21
169.456014
 31
0.0
  0
LINE
  5
15E19
  8
HIDDEN
 10
107.032443
 20
179.55601
 30
0.0
 11
109.029
 21
179.55601
 31
0.0
  0
LINE
  5
15E1A
  8
0
  6
BYBLOCK
 62
     5
 10
101.477412
 20
178.25601
 30
0.0
 11
101.440851
 21
177.95601
 31
0.0
  0
LINE
  5
15E1B
  8
0
  6
BYBLOCK
 62
     5
 10
101.477412
 20
178.25601
 30
0.0
 11
101.477412
 21
178.55601
 31
0.0
  0
LINE
  5
15E1C
  8
0
  6
BYBLOCK
 62
     5
 10
100.286356
 20
178.25601
 30
0.0
 11
100.249795
 21
177.95601
 31
0.0
  0
LINE
  5
15E1D
  8
0
  6
BYBLOCK
 62
     5
 10
100.286356
 20
181.25601
 30
0.0
 11
100.286356
 21
178.25601
 31
0.0
  0
LINE
  5
15E1E
  8
0
  6
BYBLOCK
 62
     5
 10
100.006057
 20
177.95601
 30
0.0
 11
100.006057
 21
181.25601
 31
0.0
  0
LINE
  5
15E1F
  8
0
  6
BYBLOCK
 62
     5
 10
100.286356
 20
178.25601
 30
0.0
 11
101.477412
 21
178.25601
 31
0.0
  0
LINE
  5
15E20
  8
0
  6
BYBLOCK
 62
     5
 10
101.477412
 20
178.55601
 30
0.0
 11
104.932345
 21
178.55601
 31
0.0
  0
LINE
  5
15E21
  8
0
  6
BYBLOCK
 62
     5
 10
104.401152
 20
177.95601
 30
0.0
 11
101.498862
 21
177.95601
 31
0.0
  0
LINE
  5
15E22
  8
0
  6
BYBLOCK
 62
     5
 10
104.698916
 20
178.25601
 30
0.0
 11
104.401152
 21
177.95601
 31
0.0
  0
LINE
  5
15E23
  8
0
  6
BYBLOCK
 62
     5
 10
104.698916
 20
178.55601
 30
0.0
 11
104.698916
 21
178.25601
 31
0.0
  0
LINE
  5
15E24
  8
0
  6
BYBLOCK
 62
     5
 10
105.840136
 20
175.35601
 30
0.0
 11
106.153044
 21
175.65601
 31
0.0
  0
LINE
  5
15E25
  8
0
  6
BYBLOCK
 62
     5
 10
106.153044
 20
175.65601
 30
0.0
 11
106.153044
 21
180.85601
 31
0.0
  0
LINE
  5
15E26
  8
HIDDEN
 10
103.541395
 20
176.45601
 30
0.0
 11
105.532491
 21
176.45601
 31
0.0
  0
LINE
  5
15E27
  8
HIDDEN
 10
109.029
 20
172.35601
 30
0.0
 11
109.029
 21
179.55601
 31
0.0
  0
ARC
  5
15E28
  8
HIDDEN
 10
105.532443
 20
177.95601
 30
0.0
 40
1.5
 50
270.0
 51
0.0
  0
LINE
  5
15E29
  8
HIDDEN
 10
101.644924
 20
170.493372
 30
0.0
 11
101.643633
 21
170.492195
 31
0.0
  0
LINE
  5
15E2A
  8
HIDDEN
 10
99.203117
 20
169.05601
 30
0.0
 11
104.303295
 21
169.05601
 31
0.0
  0
LINE
  5
15E2B
  8
0
  6
BYBLOCK
 62
     5
 10
111.1207
 20
176.65601
 30
0.0
 11
125.8373
 21
176.65601
 31
0.0
  0
LINE
  5
15E2C
  8
HIDDEN
 10
113.029
 20
168.35601
 30
0.0
 11
123.929
 21
168.35601
 31
0.0
  0
LINE
  5
15E2D
  8
0
  6
BYBLOCK
 62
     5
 10
111.1207
 20
176.65601
 30
0.0
 11
110.98871
 21
180.85601
 31
0.0
  0
LINE
  5
15E2E
  8
HIDDEN
 10
127.929
 20
172.35601
 30
0.0
 11
127.929
 21
179.55601
 31
0.0
  0
ARC
  5
15E2F
  8
HIDDEN
 10
130.229
 20
180.05601
 30
0.0
 40
0.5
 50
270.0
 51
0.0
  0
LINE
  5
15E30
  8
HIDDEN
 10
130.229
 20
179.55601
 30
0.0
 11
127.929
 21
179.55601
 31
0.0
  0
ARC
  5
15E31
  8
HIDDEN
 10
123.929
 20
172.35601
 30
0.0
 40
4.0
 50
270.0
 51
0.0
  0
LINE
  5
15E32
  8
0
  6
BYBLOCK
 62
     5
 10
108.679011
 20
183.85601
 30
0.0
 11
111.709876
 21
183.85601
 31
0.0
  0
LINE
  5
15E33
  8
0
  6
BYBLOCK
 62
     5
 10
111.626686
 20
184.15601
 30
0.0
 11
108.679
 21
184.15601
 31
0.0
  0
LINE
  5
15E34
  8
0
  6
BYBLOCK
 62
     5
 10
108.551281
 20
185.45601
 30
0.0
 11
131.227755
 21
185.45601
 31
0.0
  0
LINE
  5
15E35
  8
0
  6
BYBLOCK
 62
     5
 10
81.730245
 20
265.45601
 30
0.0
 11
131.227755
 21
265.45601
 31
0.0
  0
LINE
  5
15E36
  8
0
  6
BYBLOCK
 62
     5
 10
81.451427
 20
265.759699
 30
0.0
 11
131.506573
 21
265.759699
 31
0.0
  0
LINE
  5
15E37
  8
0
  6
BYBLOCK
 62
     5
 10
66.175311
 20
200.428437
 30
0.0
 11
66.175311
 21
250.483583
 31
0.0
  0
LINE
  5
15E38
  8
0
  6
BYBLOCK
 62
     5
 10
66.479
 20
200.707255
 30
0.0
 11
66.479
 21
250.204765
 31
0.0
  0
LINE
  5
15E39
  8
0
  6
BYBLOCK
 62
     5
 10
108.479
 20
183.45601
 30
0.0
 11
81.479
 21
183.45601
 31
0.0
  0
LINE
  5
15E3A
  8
0
  6
BYBLOCK
 62
     5
 10
71.378291
 20
204.717666
 30
0.0
 11
71.05806
 21
205.272323
 31
0.0
  0
LINE
  5
15E3B
  8
0
  6
BYBLOCK
 62
     5
 10
71.19806
 20
205.475524
 30
0.0
 11
71.541425
 21
204.8808
 31
0.0
  0
LINE
  5
15E3C
  8
0
  6
BYBLOCK
 62
     5
 10
70.294696
 20
204.8808
 30
0.0
 11
70.63806
 21
205.475524
 31
0.0
  0
LINE
  5
15E3D
  8
0
  6
BYBLOCK
 62
     5
 10
70.77806
 20
205.272323
 30
0.0
 11
70.457829
 21
204.717666
 31
0.0
  0
LINE
  5
15E3E
  8
0
  6
BYBLOCK
 62
     5
 10
70.77806
 20
203.186548
 30
0.0
 11
71.05806
 21
205.328323
 31
0.0
  0
LINE
  5
15E3F
  8
0
  6
BYBLOCK
 62
     5
 10
70.77806
 20
203.242548
 30
0.0
 11
71.05806
 21
205.272323
 31
0.0
  0
LINE
  5
15E40
  8
0
  6
BYBLOCK
 62
     5
 10
71.05806
 20
203.242548
 30
0.0
 11
70.77806
 21
205.272323
 31
0.0
  0
LINE
  5
15E41
  8
0
  6
BYBLOCK
 62
     5
 10
71.05806
 20
203.186548
 30
0.0
 11
70.77806
 21
205.328323
 31
0.0
  0
ARC
  5
15E42
  8
0
  6
BYBLOCK
 62
     5
 10
70.917829
 20
204.257297
 30
0.0
 40
4.5
 50
0.0
 51
90.0
  0
CIRCLE
  5
15E43
  8
0
  6
BYBLOCK
 62
     5
 10
70.91806
 20
204.257435
 30
0.0
 40
2.75
  0
ARC
  5
15E44
  8
0
  6
BYBLOCK
 62
     5
 10
70.91806
 20
204.257435
 30
0.0
 40
2.95
 50
276.813854
 51
263.186146
  0
CIRCLE
  5
15E45
  8
0
  6
BYBLOCK
 62
     5
 10
70.91806
 20
204.257435
 30
0.0
 40
3.0
  0
ARC
  5
15E46
  8
CENTER
 10
106.479
 20
225.45601
 30
0.0
 40
45.0
 50
216.879536
 51
233.819061
  0
LINE
  5
15E47
  8
CENTER
 10
70.593497
 20
189.570507
 30
0.0
 11
78.652795
 21
197.629805
 31
0.0
  0
ARC
  5
15E48
  8
0
  6
BYBLOCK
 62
     5
 10
106.479
 20
658.047391
 30
0.0
 40
460.303689
 50
265.091062
 51
266.080423
  0
ARC
  5
15E49
  8
0
  6
BYBLOCK
 62
     5
 10
106.479
 20
658.047391
 30
0.0
 40
460.0
 50
265.125854
 51
266.080423
  0
LINE
  5
15E4A
  8
0
  6
BYBLOCK
 62
     5
 10
73.479
 20
185.45601
 30
0.0
 11
80.733969
 21
185.45601
 31
0.0
  0
CIRCLE
  5
15E4B
  8
0
  6
BYBLOCK
 62
     5
 10
74.659195
 20
193.636205
 30
0.0
 40
3.3
  0
LINE
  5
15E4C
  8
0
  6
BYBLOCK
 62
     5
 10
70.63806
 20
203.039347
 30
0.0
 11
70.294696
 21
203.634071
 31
0.0
  0
LINE
  5
15E4D
  8
0
  6
BYBLOCK
 62
     5
 10
70.457829
 20
203.797204
 30
0.0
 11
70.77806
 21
203.242548
 31
0.0
  0
LINE
  5
15E4E
  8
0
  6
BYBLOCK
 62
     5
 10
71.19806
 20
202.479347
 30
0.0
 11
71.05806
 21
203.186548
 31
0.0
  0
LINE
  5
15E4F
  8
0
  6
BYBLOCK
 62
     5
 10
70.56806
 20
201.532175
 30
0.0
 11
70.56806
 21
201.328272
 31
0.0
  0
LINE
  5
15E50
  8
0
  6
BYBLOCK
 62
     5
 10
70.63806
 20
202.479347
 30
0.0
 11
70.63806
 21
203.039347
 31
0.0
  0
LINE
  5
15E51
  8
0
  6
BYBLOCK
 62
     5
 10
70.77806
 20
203.242548
 30
0.0
 11
70.77806
 21
203.186548
 31
0.0
  0
LINE
  5
15E52
  8
0
  6
BYBLOCK
 62
     5
 10
71.05806
 20
203.186548
 30
0.0
 11
71.05806
 21
203.242548
 31
0.0
  0
LINE
  5
15E53
  8
0
  6
BYBLOCK
 62
     5
 10
71.19806
 20
203.039347
 30
0.0
 11
71.19806
 21
202.479347
 31
0.0
  0
LINE
  5
15E54
  8
0
  6
BYBLOCK
 62
     5
 10
71.26806
 20
201.328272
 30
0.0
 11
71.26806
 21
201.532175
 31
0.0
  0
LINE
  5
15E55
  8
0
  6
BYBLOCK
 62
     5
 10
71.19806
 20
203.039347
 30
0.0
 11
71.05806
 21
203.242548
 31
0.0
  0
LINE
  5
15E56
  8
0
  6
BYBLOCK
 62
     5
 10
70.63806
 20
202.479347
 30
0.0
 11
70.77806
 21
203.186548
 31
0.0
  0
LINE
  5
15E57
  8
0
  6
BYBLOCK
 62
     5
 10
72.136149
 20
203.977435
 30
0.0
 11
71.932948
 21
204.117435
 31
0.0
  0
LINE
  5
15E58
  8
0
  6
BYBLOCK
 62
     5
 10
71.05806
 20
203.242548
 30
0.0
 11
71.378291
 21
203.797204
 31
0.0
  0
LINE
  5
15E59
  8
0
  6
BYBLOCK
 62
     5
 10
71.541425
 20
203.634071
 30
0.0
 11
71.19806
 21
203.039347
 31
0.0
  0
LINE
  5
15E5A
  8
0
  6
BYBLOCK
 62
     5
 10
70.63806
 20
203.039347
 30
0.0
 11
70.77806
 21
203.242548
 31
0.0
  0
LINE
  5
15E5B
  8
0
  6
BYBLOCK
 62
     5
 10
72.696149
 20
203.977435
 30
0.0
 11
71.988948
 21
204.117435
 31
0.0
  0
LINE
  5
15E5C
  8
0
  6
BYBLOCK
 62
     5
 10
72.696141
 20
203.977435
 30
0.0
 11
72.136149
 21
203.977435
 31
0.0
  0
LINE
  5
15E5D
  8
0
  6
BYBLOCK
 62
     5
 10
71.932948
 20
204.117435
 30
0.0
 11
71.988948
 21
204.117435
 31
0.0
  0
LINE
  5
15E5E
  8
0
  6
BYBLOCK
 62
     5
 10
71.988948
 20
204.397435
 30
0.0
 11
71.932948
 21
204.397435
 31
0.0
  0
LINE
  5
15E5F
  8
0
  6
BYBLOCK
 62
     5
 10
72.136149
 20
204.537435
 30
0.0
 11
72.696149
 21
204.537435
 31
0.0
  0
LINE
  5
15E60
  8
0
  6
BYBLOCK
 62
     5
 10
72.136149
 20
204.537435
 30
0.0
 11
71.932948
 21
204.397435
 31
0.0
  0
LINE
  5
15E61
  8
0
  6
BYBLOCK
 62
     5
 10
71.378291
 20
203.797204
 30
0.0
 11
71.932948
 21
204.117435
 31
0.0
  0
LINE
  5
15E62
  8
0
  6
BYBLOCK
 62
     5
 10
72.136149
 20
203.977435
 30
0.0
 11
71.541425
 21
203.634071
 31
0.0
  0
LINE
  5
15E63
  8
0
  6
BYBLOCK
 62
     5
 10
72.696149
 20
204.537435
 30
0.0
 11
71.988948
 21
204.397435
 31
0.0
  0
ARC
  5
15E64
  8
0
  6
BYBLOCK
 62
     5
 10
70.91806
 20
204.257435
 30
0.0
 40
1.08
 50
262.551809
 51
277.448191
  0
ARC
  5
15E65
  8
0
  6
BYBLOCK
 62
     5
 10
70.91806
 20
204.257435
 30
0.0
 40
1.08
 50
352.551809
 51
7.448191
  0
ARC
  5
15E66
  8
0
  6
BYBLOCK
 62
     5
 10
70.91806
 20
204.257435
 30
0.0
 40
1.8
 50
261.050982
 51
278.949018
  0
ARC
  5
15E67
  8
0
  6
BYBLOCK
 62
     5
 10
70.91806
 20
204.257435
 30
0.0
 40
1.8
 50
351.05094
 51
8.949018
  0
LINE
  5
15E68
  8
0
  6
BYBLOCK
 62
     5
 10
71.541425
 20
203.634071
 30
0.0
 11
70.294696
 21
204.8808
 31
0.0
  0
LINE
  5
15E69
  8
0
  6
BYBLOCK
 62
     5
 10
71.932948
 20
204.397435
 30
0.0
 11
71.378291
 21
204.717666
 31
0.0
  0
LINE
  5
15E6A
  8
0
  6
BYBLOCK
 62
     5
 10
71.541425
 20
204.8808
 30
0.0
 11
72.136149
 21
204.537435
 31
0.0
  0
LINE
  5
15E6B
  8
0
  6
BYBLOCK
 62
     5
 10
70.294696
 20
203.634071
 30
0.0
 11
71.541425
 21
204.8808
 31
0.0
  0
LINE
  5
15E6C
  8
0
  6
BYBLOCK
 62
     5
 10
69.699971
 20
204.537435
 30
0.0
 11
69.903173
 21
204.397435
 31
0.0
  0
LINE
  5
15E6D
  8
0
  6
BYBLOCK
 62
     5
 10
69.139971
 20
204.537435
 30
0.0
 11
69.847173
 21
204.397435
 31
0.0
  0
LINE
  5
15E6E
  8
0
  6
BYBLOCK
 62
     5
 10
69.699971
 20
203.977435
 30
0.0
 11
69.139971
 21
203.977435
 31
0.0
  0
LINE
  5
15E6F
  8
0
  6
BYBLOCK
 62
     5
 10
69.847173
 20
204.117435
 30
0.0
 11
69.903173
 21
204.117435
 31
0.0
  0
LINE
  5
15E70
  8
0
  6
BYBLOCK
 62
     5
 10
69.903173
 20
204.397435
 30
0.0
 11
69.847173
 21
204.397435
 31
0.0
  0
LINE
  5
15E71
  8
0
  6
BYBLOCK
 62
     5
 10
69.139971
 20
204.537435
 30
0.0
 11
69.699971
 21
204.537435
 31
0.0
  0
LINE
  5
15E72
  8
0
  6
BYBLOCK
 62
     5
 10
69.699971
 20
203.977435
 30
0.0
 11
69.903173
 21
204.117435
 31
0.0
  0
LINE
  5
15E73
  8
0
  6
BYBLOCK
 62
     5
 10
69.139971
 20
203.977435
 30
0.0
 11
69.847173
 21
204.117435
 31
0.0
  0
ARC
  5
15E74
  8
0
  6
BYBLOCK
 62
     5
 10
70.91806
 20
204.257435
 30
0.0
 40
1.08
 50
172.551809
 51
187.448191
  0
ARC
  5
15E75
  8
0
  6
BYBLOCK
 62
     5
 10
70.91806
 20
204.257435
 30
0.0
 40
1.8
 50
171.050982
 51
188.949018
  0
ARC
  5
15E76
  8
0
  6
BYBLOCK
 62
     5
 10
67.479
 20
200.707255
 30
0.0
 40
1.0
 50
180.0
 51
265.125854
  0
LINE
  5
160D9
  8
0
  6
BYBLOCK
 62
     5
 10
70.294696
 20
203.634071
 30
0.0
 11
69.699971
 21
203.977435
 31
0.0
  0
LINE
  5
160DA
  8
0
  6
BYBLOCK
 62
     5
 10
69.903173
 20
204.117435
 30
0.0
 11
70.457829
 21
203.797204
 31
0.0
  0
LINE
  5
160DB
  8
0
  6
BYBLOCK
 62
     5
 10
69.847173
 20
204.397435
 30
0.0
 11
71.988948
 21
204.117435
 31
0.0
  0
LINE
  5
160DC
  8
0
  6
BYBLOCK
 62
     5
 10
69.903173
 20
204.397435
 30
0.0
 11
71.932948
 21
204.117435
 31
0.0
  0
LINE
  5
160DD
  8
0
  6
BYBLOCK
 62
     5
 10
69.847173
 20
204.117435
 30
0.0
 11
71.988948
 21
204.397435
 31
0.0
  0
LINE
  5
160DE
  8
0
  6
BYBLOCK
 62
     5
 10
69.699971
 20
204.537435
 30
0.0
 11
70.294696
 21
204.8808
 31
0.0
  0
LINE
  5
160DF
  8
0
  6
BYBLOCK
 62
     5
 10
70.457829
 20
204.717666
 30
0.0
 11
69.903173
 21
204.397435
 31
0.0
  0
LINE
  5
160E0
  8
0
  6
BYBLOCK
 62
     5
 10
69.903173
 20
204.117435
 30
0.0
 11
71.932948
 21
204.397435
 31
0.0
  0
ARC
  5
160E1
  8
0
  6
BYBLOCK
 62
     5
 10
73.479
 20
192.45601
 30
0.0
 40
7.0
 50
180.0
 51
270.0
  0
LINE
  5
160E2
  8
0
  6
BYBLOCK
 62
     5
 10
66.479
 20
199.710979
 30
0.0
 11
66.479
 21
192.45601
 31
0.0
  0
LINE
  5
160E3
  8
0
  6
BYBLOCK
 62
     5
 10
75.417829
 20
199.893777
 30
0.0
 11
75.417829
 21
204.257297
 31
0.0
  0
ARC
  5
160E4
  8
0
  6
BYBLOCK
 62
     5
 10
76.417829
 20
199.893777
 30
0.0
 40
1.0
 50
180.0
 51
254.302463
  0
ARC
  5
160E5
  8
0
  6
BYBLOCK
 62
     5
 10
74.659195
 20
193.636205
 30
0.0
 40
5.196311
 50
3.919577
 51
86.080423
  0
ARC
  5
160E6
  8
0
  6
BYBLOCK
 62
     5
 10
74.659195
 20
193.636205
 30
0.0
 40
5.5
 50
3.919577
 51
86.080423
  0
LINE
  5
160E7
  8
0
  6
BYBLOCK
 62
     5
 10
81.279
 20
183.65601
 30
0.0
 11
81.279
 21
185.296211
 31
0.0
  0
ARC
  5
160E8
  8
0
  6
BYBLOCK
 62
     5
 10
81.730245
 20
186.45601
 30
0.0
 40
1.0
 50
184.874146
 51
257.544368
  0
ARC
  5
160E9
  8
0
  6
BYBLOCK
 62
     5
 10
80.779
 20
185.296211
 30
0.0
 40
0.5
 50
0.0
 51
50.642033
  0
ARC
  5
160EA
  8
0
  6
BYBLOCK
 62
     5
 10
81.479
 20
183.65601
 30
0.0
 40
0.2
 50
180.0
 51
270.0
  0
ARC
  5
1632D
  8
0
  6
BYBLOCK
 62
     5
 10
539.070381
 20
225.45601
 30
0.0
 40
460.303689
 50
183.919577
 51
184.908938
  0
ARC
  5
1632E
  8
0
  6
BYBLOCK
 62
     5
 10
539.070381
 20
225.45601
 30
0.0
 40
460.0
 50
183.919577
 51
184.874146
  0
LINE
  5
1632F
  8
0
  6
BYBLOCK
 62
     5
 10
70.63806
 20
205.475524
 30
0.0
 11
70.63806
 21
206.035524
 31
0.0
  0
LINE
  5
16330
  8
0
  6
BYBLOCK
 62
     5
 10
70.77806
 20
205.328323
 30
0.0
 11
70.77806
 21
205.272323
 31
0.0
  0
LINE
  5
16331
  8
0
  6
BYBLOCK
 62
     5
 10
71.05806
 20
205.272323
 30
0.0
 11
71.05806
 21
205.328323
 31
0.0
  0
LINE
  5
16332
  8
0
  6
BYBLOCK
 62
     5
 10
71.19806
 20
206.035516
 30
0.0
 11
71.19806
 21
205.475524
 31
0.0
  0
LINE
  5
16333
  8
0
  6
BYBLOCK
 62
     5
 10
70.63806
 20
205.475524
 30
0.0
 11
70.77806
 21
205.272323
 31
0.0
  0
LINE
  5
16334
  8
0
  6
BYBLOCK
 62
     5
 10
70.63806
 20
206.035524
 30
0.0
 11
70.77806
 21
205.328323
 31
0.0
  0
LINE
  5
16335
  8
0
  6
BYBLOCK
 62
     5
 10
71.19806
 20
206.035524
 30
0.0
 11
71.05806
 21
205.328323
 31
0.0
  0
LINE
  5
16336
  8
0
  6
BYBLOCK
 62
     5
 10
71.19806
 20
205.475524
 30
0.0
 11
71.05806
 21
205.272323
 31
0.0
  0
ARC
  5
16337
  8
0
  6
BYBLOCK
 62
     5
 10
70.91806
 20
204.257435
 30
0.0
 40
1.08
 50
82.551809
 51
97.448191
  0
ARC
  5
16338
  8
0
  6
BYBLOCK
 62
     5
 10
70.91806
 20
204.257435
 30
0.0
 40
1.8
 50
81.05094
 51
98.949018
  0
ARC
  5
16339
  8
0
  6
BYBLOCK
 62
     5
 10
67.479
 20
209.757297
 30
0.0
 40
1.0
 50
180.0
 51
270.0
  0
LINE
  5
1633A
  8
0
  6
BYBLOCK
 62
     5
 10
70.917829
 20
208.757297
 30
0.0
 11
67.479
 21
208.757297
 31
0.0
  0
LINE
  5
1633B
  8
0
  6
BYBLOCK
 62
     5
 10
108.679
 20
184.95601
 30
0.0
 11
108.679
 21
183.65601
 31
0.0
  0
ARC
  5
1633C
  8
0
  6
BYBLOCK
 62
     5
 10
109.179
 20
184.95601
 30
0.0
 40
0.5
 50
90.0
 51
180.0
  0
ARC
  5
1633D
  8
0
  6
BYBLOCK
 62
     5
 10
108.479
 20
183.65601
 30
0.0
 40
0.2
 50
270.0
 51
0.0
  0
LINE
  5
1633E
  8
0
  6
BYBLOCK
 62
     5
 10
85.90379
 20
260.393585
 30
0.0
 11
85.560425
 21
259.798861
 31
0.0
  0
LINE
  5
1633F
  8
0
  6
BYBLOCK
 62
     5
 10
85.560425
 20
262.235039
 30
0.0
 11
85.90379
 21
261.640314
 31
0.0
  0
LINE
  5
16340
  8
0
  6
BYBLOCK
 62
     5
 10
84.657061
 20
260.393585
 30
0.0
 11
85.90379
 21
261.640314
 31
0.0
  0
LINE
  5
16341
  8
0
  6
BYBLOCK
 62
     5
 10
85.420425
 20
260.002062
 30
0.0
 11
85.740656
 21
260.556719
 31
0.0
  0
LINE
  5
16342
  8
0
  6
BYBLOCK
 62
     5
 10
85.740656
 20
261.477181
 30
0.0
 11
85.420425
 21
262.031837
 31
0.0
  0
LINE
  5
16343
  8
0
  6
BYBLOCK
 62
     5
 10
85.90379
 20
260.393585
 30
0.0
 11
84.657061
 21
261.640314
 31
0.0
  0
LINE
  5
16344
  8
0
  6
BYBLOCK
 62
     5
 10
84.209538
 20
261.15695
 30
0.0
 11
86.351313
 21
260.87695
 31
0.0
  0
LINE
  5
16345
  8
0
  6
BYBLOCK
 62
     5
 10
84.265538
 20
261.15695
 30
0.0
 11
86.295313
 21
260.87695
 31
0.0
  0
LINE
  5
16346
  8
0
  6
BYBLOCK
 62
     5
 10
84.265538
 20
260.87695
 30
0.0
 11
86.295313
 21
261.15695
 31
0.0
  0
LINE
  5
16347
  8
0
  6
BYBLOCK
 62
     5
 10
84.209538
 20
260.87695
 30
0.0
 11
86.351313
 21
261.15695
 31
0.0
  0
CIRCLE
  5
16348
  8
0
  6
BYBLOCK
 62
     5
 10
85.280425
 20
261.01695
 30
0.0
 40
2.75
  0
ARC
  5
16349
  8
0
  6
BYBLOCK
 62
     5
 10
85.280425
 20
261.01695
 30
0.0
 40
2.95
 50
276.813854
 51
263.186146
  0
CIRCLE
  5
1634A
  8
0
  6
BYBLOCK
 62
     5
 10
85.280425
 20
261.01695
 30
0.0
 40
3.0
  0
ARC
  5
1634B
  8
0
  6
BYBLOCK
 62
     5
 10
85.280287
 20
261.017181
 30
0.0
 40
4.5
 50
270.0
 51
0.0
  0
ARC
  5
1634C
  8
CENTER
 10
106.479
 20
225.45601
 30
0.0
 40
45.0
 50
126.879536
 51
143.819061
  0
ARC
  5
1634D
  8
0
  6
BYBLOCK
 62
     5
 10
74.659195
 20
257.275815
 30
0.0
 40
5.196311
 50
273.919577
 51
356.080423
  0
ARC
  5
1634E
  8
0
  6
BYBLOCK
 62
     5
 10
74.659195
 20
257.275815
 30
0.0
 40
5.5
 50
273.919577
 51
356.080423
  0
LINE
  5
1634F
  8
0
  6
BYBLOCK
 62
     5
 10
66.479
 20
258.45601
 30
0.0
 11
66.479
 21
251.201041
 31
0.0
  0
ARC
  5
16350
  8
0
  6
BYBLOCK
 62
     5
 10
106.479
 20
-207.135371
 30
0.0
 40
460.303689
 50
93.919577
 51
94.908938
  0
ARC
  5
16351
  8
0
  6
BYBLOCK
 62
     5
 10
70.91806
 20
246.654585
 30
0.0
 40
4.0
 50
270.0
 51
0.0
  0
ARC
  5
16352
  8
0
  6
BYBLOCK
 62
     5
 10
106.479
 20
-207.135371
 30
0.0
 40
460.0
 50
93.919577
 51
94.874146
  0
ARC
  5
16353
  8
0
  6
BYBLOCK
 62
     5
 10
67.479
 20
241.654585
 30
0.0
 40
1.0
 50
90.0
 51
180.0
  0
ARC
  5
16354
  8
0
  6
BYBLOCK
 62
     5
 10
67.479
 20
250.204765
 30
0.0
 40
1.0
 50
94.874146
 51
180.0
  0
LINE
  5
165B7
  8
0
  6
BYBLOCK
 62
     5
 10
67.479
 20
242.654585
 30
0.0
 11
70.91806
 21
242.654585
 31
0.0
  0
LINE
  5
165B8
  8
0
  6
BYBLOCK
 62
     5
 10
74.91806
 20
246.654585
 30
0.0
 11
74.91806
 21
250.898883
 31
0.0
  0
ARC
  5
165B9
  8
0
  6
BYBLOCK
 62
     5
 10
75.91806
 20
250.898883
 30
0.0
 40
1.0
 50
101.167133
 51
180.0
  0
LINE
  5
165BA
  8
CENTER
 10
70.593497
 20
261.341513
 30
0.0
 11
78.652795
 21
253.282215
 31
0.0
  0
LINE
  5
165BB
  8
0
  6
BYBLOCK
 62
     5
 10
80.733969
 20
265.45601
 30
0.0
 11
73.479
 21
265.45601
 31
0.0
  0
CIRCLE
  5
165BC
  8
0
  6
BYBLOCK
 62
     5
 10
74.659195
 20
257.275815
 30
0.0
 40
3.3
  0
ARC
  5
165BD
  8
0
  6
BYBLOCK
 62
     5
 10
73.479
 20
258.45601
 30
0.0
 40
7.0
 50
90.0
 51
180.0
  0
LINE
  5
165BE
  8
0
  6
BYBLOCK
 62
     5
 10
85.560425
 20
259.798861
 30
0.0
 11
85.560425
 21
259.238861
 31
0.0
  0
LINE
  5
165BF
  8
0
  6
BYBLOCK
 62
     5
 10
85.560425
 20
262.795031
 30
0.0
 11
85.560425
 21
262.235039
 31
0.0
  0
ARC
  5
165C0
  8
0
  6
BYBLOCK
 62
     5
 10
81.730245
 20
264.45601
 30
0.0
 40
1.0
 50
90.0
 51
175.125854
  0
LINE
  5
16823
  8
0
  6
BYBLOCK
 62
     5
 10
84.062337
 20
260.73695
 30
0.0
 11
84.265538
 21
260.87695
 31
0.0
  0
LINE
  5
16824
  8
0
  6
BYBLOCK
 62
     5
 10
84.062337
 20
261.29695
 30
0.0
 11
84.657061
 21
261.640314
 31
0.0
  0
LINE
  5
16825
  8
0
  6
BYBLOCK
 62
     5
 10
84.820194
 20
261.477181
 30
0.0
 11
84.265538
 21
261.15695
 31
0.0
  0
LINE
  5
16826
  8
0
  6
BYBLOCK
 62
     5
 10
85.000425
 20
259.798861
 30
0.0
 11
85.140425
 21
260.002062
 31
0.0
  0
LINE
  5
16827
  8
0
  6
BYBLOCK
 62
     5
 10
84.657061
 20
261.640314
 30
0.0
 11
85.000425
 21
262.235039
 31
0.0
  0
LINE
  5
16828
  8
0
  6
BYBLOCK
 62
     5
 10
85.140425
 20
262.031837
 30
0.0
 11
84.820194
 21
261.477181
 31
0.0
  0
LINE
  5
16829
  8
0
  6
BYBLOCK
 62
     5
 10
85.000425
 20
259.238861
 30
0.0
 11
85.140425
 21
259.946062
 31
0.0
  0
LINE
  5
1682A
  8
0
  6
BYBLOCK
 62
     5
 10
85.140425
 20
259.946062
 30
0.0
 11
85.420425
 21
262.087837
 31
0.0
  0
LINE
  5
1682B
  8
0
  6
BYBLOCK
 62
     5
 10
85.140425
 20
260.002062
 30
0.0
 11
85.420425
 21
262.031837
 31
0.0
  0
LINE
  5
1682C
  8
0
  6
BYBLOCK
 62
     5
 10
84.930425
 20
258.291689
 30
0.0
 11
84.930425
 21
258.087786
 31
0.0
  0
LINE
  5
1682D
  8
0
  6
BYBLOCK
 62
     5
 10
85.000425
 20
259.238861
 30
0.0
 11
85.000425
 21
259.798861
 31
0.0
  0
LINE
  5
1682E
  8
0
  6
BYBLOCK
 62
     5
 10
85.140425
 20
262.087837
 30
0.0
 11
85.140425
 21
262.031837
 31
0.0
  0
LINE
  5
1682F
  8
0
  6
BYBLOCK
 62
     5
 10
85.140425
 20
260.002062
 30
0.0
 11
85.140425
 21
259.946062
 31
0.0
  0
LINE
  5
16830
  8
0
  6
BYBLOCK
 62
     5
 10
85.420425
 20
259.946062
 30
0.0
 11
85.420425
 21
260.002062
 31
0.0
  0
LINE
  5
16831
  8
0
  6
BYBLOCK
 62
     5
 10
85.420425
 20
262.031837
 30
0.0
 11
85.420425
 21
262.087837
 31
0.0
  0
LINE
  5
16832
  8
0
  6
BYBLOCK
 62
     5
 10
85.420425
 20
260.002062
 30
0.0
 11
85.140425
 21
262.031837
 31
0.0
  0
LINE
  5
16833
  8
0
  6
BYBLOCK
 62
     5
 10
85.420425
 20
259.946062
 30
0.0
 11
85.140425
 21
262.087837
 31
0.0
  0
LINE
  5
16834
  8
0
  6
BYBLOCK
 62
     5
 10
85.000425
 20
259.798861
 30
0.0
 11
84.657061
 21
260.393585
 31
0.0
  0
LINE
  5
16835
  8
0
  6
BYBLOCK
 62
     5
 10
84.820194
 20
260.556719
 30
0.0
 11
85.140425
 21
260.002062
 31
0.0
  0
LINE
  5
16836
  8
0
  6
BYBLOCK
 62
     5
 10
85.000425
 20
262.235039
 30
0.0
 11
85.140425
 21
262.031837
 31
0.0
  0
LINE
  5
16837
  8
0
  6
BYBLOCK
 62
     5
 10
84.062337
 20
261.29695
 30
0.0
 11
84.265538
 21
261.15695
 31
0.0
  0
LINE
  5
16838
  8
0
  6
BYBLOCK
 62
     5
 10
84.657061
 20
260.393585
 30
0.0
 11
84.062337
 21
260.73695
 31
0.0
  0
LINE
  5
16839
  8
0
  6
BYBLOCK
 62
     5
 10
84.265538
 20
260.87695
 30
0.0
 11
84.820194
 21
260.556719
 31
0.0
  0
LINE
  5
1683A
  8
0
  6
BYBLOCK
 62
     5
 10
80.916767
 20
256.517181
 30
0.0
 11
85.280287
 21
256.517181
 31
0.0
  0
LINE
  5
1683B
  8
0
  6
BYBLOCK
 62
     5
 10
83.502337
 20
261.29695
 30
0.0
 11
84.209538
 21
261.15695
 31
0.0
  0
LINE
  5
1683C
  8
0
  6
BYBLOCK
 62
     5
 10
84.062337
 20
260.73695
 30
0.0
 11
83.502337
 21
260.73695
 31
0.0
  0
LINE
  5
1683D
  8
0
  6
BYBLOCK
 62
     5
 10
84.209538
 20
260.87695
 30
0.0
 11
84.265538
 21
260.87695
 31
0.0
  0
LINE
  5
1683E
  8
0
  6
BYBLOCK
 62
     5
 10
84.265538
 20
261.15695
 30
0.0
 11
84.209538
 21
261.15695
 31
0.0
  0
LINE
  5
1683F
  8
0
  6
BYBLOCK
 62
     5
 10
83.502337
 20
261.29695
 30
0.0
 11
84.062337
 21
261.29695
 31
0.0
  0
LINE
  5
16840
  8
0
  6
BYBLOCK
 62
     5
 10
83.502337
 20
260.73695
 30
0.0
 11
84.209538
 21
260.87695
 31
0.0
  0
ARC
  5
16841
  8
0
  6
BYBLOCK
 62
     5
 10
85.280425
 20
261.01695
 30
0.0
 40
1.08
 50
172.551809
 51
187.448191
  0
ARC
  5
16842
  8
0
  6
BYBLOCK
 62
     5
 10
85.280425
 20
261.01695
 30
0.0
 40
1.08
 50
262.551809
 51
277.448191
  0
ARC
  5
16843
  8
0
  6
BYBLOCK
 62
     5
 10
85.280425
 20
261.01695
 30
0.0
 40
1.08
 50
82.551809
 51
97.448191
  0
ARC
  5
16844
  8
0
  6
BYBLOCK
 62
     5
 10
85.280425
 20
261.01695
 30
0.0
 40
1.8
 50
171.050982
 51
188.949018
  0
ARC
  5
16845
  8
0
  6
BYBLOCK
 62
     5
 10
80.916767
 20
255.517181
 30
0.0
 40
1.0
 50
90.0
 51
164.302463
  0
LINE
  5
16846
  8
0
  6
BYBLOCK
 62
     5
 10
85.000425
 20
262.235039
 30
0.0
 11
85.000425
 21
262.795039
 31
0.0
  0
LINE
  5
16847
  8
0
  6
BYBLOCK
 62
     5
 10
85.000425
 20
262.795039
 30
0.0
 11
85.140425
 21
262.087837
 31
0.0
  0
ARC
  5
16848
  8
0
  6
BYBLOCK
 62
     5
 10
539.070381
 20
225.45601
 30
0.0
 40
460.303689
 50
175.091062
 51
176.080423
  0
ARC
  5
16849
  8
0
  6
BYBLOCK
 62
     5
 10
539.070381
 20
225.45601
 30
0.0
 40
460.0
 50
175.125854
 51
176.080423
  0
ARC
  5
1684A
  8
0
  6
BYBLOCK
 62
     5
 10
85.280425
 20
261.01695
 30
0.0
 40
1.8
 50
81.05094
 51
98.949018
  0
LINE
  5
1684B
  8
0
  6
BYBLOCK
 62
     5
 10
85.560425
 20
262.235039
 30
0.0
 11
85.420425
 21
262.031837
 31
0.0
  0
LINE
  5
1684C
  8
0
  6
BYBLOCK
 62
     5
 10
85.560425
 20
259.238861
 30
0.0
 11
85.420425
 21
259.946062
 31
0.0
  0
LINE
  5
1684D
  8
0
  6
BYBLOCK
 62
     5
 10
85.560425
 20
259.798861
 30
0.0
 11
85.420425
 21
260.002062
 31
0.0
  0
ARC
  5
1684E
  8
0
  6
BYBLOCK
 62
     5
 10
85.280425
 20
261.01695
 30
0.0
 40
1.8
 50
261.050982
 51
278.949018
  0
LINE
  5
1684F
  8
0
  6
BYBLOCK
 62
     5
 10
85.560425
 20
262.795039
 30
0.0
 11
85.420425
 21
262.087837
 31
0.0
  0
ARC
  5
16850
  8
0
  6
BYBLOCK
 62
     5
 10
90.780287
 20
264.45601
 30
0.0
 40
1.0
 50
90.0
 51
180.0
  0
ARC
  5
16851
  8
0
  6
BYBLOCK
 62
     5
 10
85.280425
 20
261.01695
 30
0.0
 40
1.8
 50
351.05094
 51
8.949018
  0
LINE
  5
16852
  8
0
  6
BYBLOCK
 62
     5
 10
89.780287
 20
261.017181
 30
0.0
 11
89.780287
 21
264.45601
 31
0.0
  0
LINE
  5
16853
  8
0
  6
BYBLOCK
 62
     5
 10
86.498514
 20
261.29695
 30
0.0
 11
86.295313
 21
261.15695
 31
0.0
  0
LINE
  5
16854
  8
0
  6
BYBLOCK
 62
     5
 10
85.740656
 20
260.556719
 30
0.0
 11
86.295313
 21
260.87695
 31
0.0
  0
LINE
  5
16855
  8
0
  6
BYBLOCK
 62
     5
 10
86.498514
 20
260.73695
 30
0.0
 11
85.90379
 21
260.393585
 31
0.0
  0
LINE
  5
16856
  8
0
  6
BYBLOCK
 62
     5
 10
85.630425
 20
258.087786
 30
0.0
 11
85.630425
 21
258.291689
 31
0.0
  0
LINE
  5
16857
  8
0
  6
BYBLOCK
 62
     5
 10
86.498514
 20
260.73695
 30
0.0
 11
86.295313
 21
260.87695
 31
0.0
  0
LINE
  5
16858
  8
0
  6
BYBLOCK
 62
     5
 10
86.295313
 20
261.15695
 30
0.0
 11
85.740656
 21
261.477181
 31
0.0
  0
LINE
  5
16859
  8
0
  6
BYBLOCK
 62
     5
 10
85.90379
 20
261.640314
 30
0.0
 11
86.498514
 21
261.29695
 31
0.0
  0
LINE
  5
1685A
  8
0
  6
BYBLOCK
 62
     5
 10
86.295313
 20
260.87695
 30
0.0
 11
86.351313
 21
260.87695
 31
0.0
  0
LINE
  5
1685B
  8
0
  6
BYBLOCK
 62
     5
 10
86.351313
 20
261.15695
 30
0.0
 11
86.295313
 21
261.15695
 31
0.0
  0
ARC
  5
1685C
  8
0
  6
BYBLOCK
 62
     5
 10
85.280425
 20
261.01695
 30
0.0
 40
1.08
 50
352.551809
 51
7.448191
  0
LINE
  5
1685D
  8
0
  6
BYBLOCK
 62
     5
 10
87.058514
 20
260.73695
 30
0.0
 11
86.351313
 21
260.87695
 31
0.0
  0
LINE
  5
1685E
  8
0
  6
BYBLOCK
 62
     5
 10
87.058506
 20
260.73695
 30
0.0
 11
86.498514
 21
260.73695
 31
0.0
  0
LINE
  5
1685F
  8
0
  6
BYBLOCK
 62
     5
 10
86.498514
 20
261.29695
 30
0.0
 11
87.058514
 21
261.29695
 31
0.0
  0
LINE
  5
16860
  8
0
  6
BYBLOCK
 62
     5
 10
87.058514
 20
261.29695
 30
0.0
 11
86.351313
 21
261.15695
 31
0.0
  0
LINE
  5
16861
  8
0
  6
BYBLOCK
 62
     5
 10
146.479
 20
200.707255
 30
0.0
 11
146.479
 21
250.204765
 31
0.0
  0
LINE
  5
16862
  8
0
  6
BYBLOCK
 62
     5
 10
146.782689
 20
250.483583
 30
0.0
 11
146.782689
 21
200.428437
 31
0.0
  0
ARC
  5
16863
  8
0
  6
BYBLOCK
 62
     5
 10
138.298805
 20
193.636205
 30
0.0
 40
5.196311
 50
93.919577
 51
176.080423
  0
ARC
  5
16864
  8
0
  6
BYBLOCK
 62
     5
 10
138.298805
 20
193.636205
 30
0.0
 40
5.5
 50
93.919577
 51
176.080423
  0
LINE
  5
16865
  8
0
  6
BYBLOCK
 62
     5
 10
132.449642
 20
185.45601
 30
0.0
 11
139.479
 21
185.45601
 31
0.0
  0
LINE
  5
16866
  8
0
  6
BYBLOCK
 62
     5
 10
131.943855
 20
182.05601
 30
0.0
 11
111.700339
 21
182.05601
 31
0.0
  0
LINE
  5
16867
  8
0
  6
BYBLOCK
 62
     5
 10
121.979
 20
182.07904
 30
0.0
 11
114.979
 21
182.07904
 31
0.0
  0
LINE
  5
16868
  8
0
  6
BYBLOCK
 62
     5
 10
121.979
 20
182.35601
 30
0.0
 11
114.979
 21
182.35601
 31
0.0
  0
LINE
  5
16869
  8
0
  6
BYBLOCK
 62
     5
 10
132.42344
 20
185.152321
 30
0.0
 11
111.826688
 21
185.152321
 31
0.0
  0
LINE
  5
1686A
  8
0
  6
BYBLOCK
 62
     5
 10
111.402575
 20
184.15601
 30
0.0
 11
111.700339
 21
183.85601
 31
0.0
  0
LINE
  5
1686B
  8
0
  6
BYBLOCK
 62
     5
 10
111.826688
 20
184.35601
 30
0.0
 11
111.826688
 21
185.25601
 31
0.0
  0
LINE
  5
1686C
  8
0
  6
BYBLOCK
 62
     5
 10
114.979
 20
182.07904
 30
0.0
 11
114.979
 21
182.35601
 31
0.0
  0
ARC
  5
1686D
  8
0
  6
BYBLOCK
 62
     5
 10
111.626688
 20
184.35601
 30
0.0
 40
0.2
 50
270.0
 51
0.0
  0
ARC
  5
1686E
  8
0
  6
BYBLOCK
 62
     5
 10
112.026688
 20
185.25601
 30
0.0
 40
0.2
 50
90.000007
 51
180.0
  0
LINE
  5
1686F
  8
0
  6
BYBLOCK
 62
     5
 10
132.041233
 20
194.394839
 30
0.0
 11
127.677713
 21
194.394839
 31
0.0
  0
ARC
  5
16870
  8
0
  6
BYBLOCK
 62
     5
 10
132.041233
 20
195.394839
 30
0.0
 40
1.0
 50
270.0
 51
344.302463
  0
LINE
  5
16871
  8
0
  6
BYBLOCK
 62
     5
 10
129.455663
 20
190.17507
 30
0.0
 11
128.748462
 21
190.03507
 31
0.0
  0
LINE
  5
16872
  8
0
  6
BYBLOCK
 62
     5
 10
129.455656
 20
189.61507
 30
0.0
 11
128.895663
 21
189.61507
 31
0.0
  0
LINE
  5
16873
  8
0
  6
BYBLOCK
 62
     5
 10
128.692462
 20
189.75507
 30
0.0
 11
128.748462
 21
189.75507
 31
0.0
  0
LINE
  5
16874
  8
0
  6
BYBLOCK
 62
     5
 10
128.748462
 20
190.03507
 30
0.0
 11
128.692462
 21
190.03507
 31
0.0
  0
LINE
  5
16875
  8
0
  6
BYBLOCK
 62
     5
 10
128.895663
 20
190.17507
 30
0.0
 11
129.455663
 21
190.17507
 31
0.0
  0
LINE
  5
16876
  8
0
  6
BYBLOCK
 62
     5
 10
129.455663
 20
189.61507
 30
0.0
 11
128.748462
 21
189.75507
 31
0.0
  0
LINE
  5
16877
  8
0
  6
BYBLOCK
 62
     5
 10
128.692462
 20
190.03507
 30
0.0
 11
128.137806
 21
190.355301
 31
0.0
  0
LINE
  5
16878
  8
0
  6
BYBLOCK
 62
     5
 10
128.300939
 20
190.518435
 30
0.0
 11
128.895663
 21
190.17507
 31
0.0
  0
LINE
  5
16879
  8
0
  6
BYBLOCK
 62
     5
 10
128.895663
 20
189.61507
 30
0.0
 11
128.692462
 21
189.75507
 31
0.0
  0
LINE
  5
1687A
  8
0
  6
BYBLOCK
 62
     5
 10
127.957575
 20
188.676981
 30
0.0
 11
127.817575
 21
188.880183
 31
0.0
  0
LINE
  5
1687B
  8
0
  6
BYBLOCK
 62
     5
 10
128.137806
 20
190.355301
 30
0.0
 11
127.817575
 21
190.909958
 31
0.0
  0
LINE
  5
1687C
  8
0
  6
BYBLOCK
 62
     5
 10
127.957575
 20
191.113159
 30
0.0
 11
128.300939
 21
190.518435
 31
0.0
  0
LINE
  5
1687D
  8
0
  6
BYBLOCK
 62
     5
 10
127.957575
 20
188.116981
 30
0.0
 11
127.817575
 21
188.824183
 31
0.0
  0
LINE
  5
1687E
  8
0
  6
BYBLOCK
 62
     5
 10
127.817575
 20
188.824183
 30
0.0
 11
127.817575
 21
188.880183
 31
0.0
  0
LINE
  5
1687F
  8
0
  6
BYBLOCK
 62
     5
 10
127.817575
 20
190.909958
 30
0.0
 11
127.817575
 21
190.965958
 31
0.0
  0
LINE
  5
16880
  8
0
  6
BYBLOCK
 62
     5
 10
127.957575
 20
191.673151
 30
0.0
 11
127.957575
 21
191.113159
 31
0.0
  0
LINE
  5
16881
  8
0
  6
BYBLOCK
 62
     5
 10
127.957575
 20
188.676981
 30
0.0
 11
127.957575
 21
188.116981
 31
0.0
  0
LINE
  5
16882
  8
0
  6
BYBLOCK
 62
     5
 10
128.027575
 20
186.965907
 30
0.0
 11
128.027575
 21
187.16981
 31
0.0
  0
LINE
  5
16883
  8
0
  6
BYBLOCK
 62
     5
 10
132.443855
 20
185.38894
 30
0.0
 11
132.443855
 21
182.55601
 31
0.0
  0
LINE
  5
16884
  8
0
  6
BYBLOCK
 62
     5
 10
127.957575
 20
191.673159
 30
0.0
 11
127.817575
 21
190.965958
 31
0.0
  0
LINE
  5
16885
  8
0
  6
BYBLOCK
 62
     5
 10
127.817575
 20
188.880183
 30
0.0
 11
128.137806
 21
189.434839
 31
0.0
  0
LINE
  5
16886
  8
0
  6
BYBLOCK
 62
     5
 10
128.300939
 20
189.271706
 30
0.0
 11
127.957575
 21
188.676981
 31
0.0
  0
LINE
  5
16887
  8
0
  6
BYBLOCK
 62
     5
 10
127.957575
 20
191.113159
 30
0.0
 11
127.817575
 21
190.909958
 31
0.0
  0
LINE
  5
16888
  8
0
  6
BYBLOCK
 62
     5
 10
128.895663
 20
190.17507
 30
0.0
 11
128.692462
 21
190.03507
 31
0.0
  0
LINE
  5
16889
  8
0
  6
BYBLOCK
 62
     5
 10
128.137806
 20
189.434839
 30
0.0
 11
128.692462
 21
189.75507
 31
0.0
  0
LINE
  5
1688A
  8
0
  6
BYBLOCK
 62
     5
 10
128.895663
 20
189.61507
 30
0.0
 11
128.300939
 21
189.271706
 31
0.0
  0
ARC
  5
1688B
  8
0
  6
BYBLOCK
 62
     5
 10
127.677575
 20
189.89507
 30
0.0
 40
1.08
 50
352.551809
 51
7.448191
  0
ARC
  5
1688C
  8
0
  6
BYBLOCK
 62
     5
 10
127.677575
 20
189.89507
 30
0.0
 40
1.8
 50
351.05094
 51
8.949018
  0
ARC
  5
1688D
  8
0
  6
BYBLOCK
 62
     5
 10
131.227755
 20
186.45601
 30
0.0
 40
1.0
 50
270.0
 51
355.125854
  0
POLYLINE
  5
16AD0
  8
0
  6
BYBLOCK
 62
     5
 66
     1
 10
0.0
 20
0.0
 30
0.0
 70
     8
  0
VERTEX
  5
16AD1
  8
0
  6
BYBLOCK
 62
     5
 10
132.422
 20
185.152
 30
0.0
 70
    32
  0
VERTEX
  5
16AD2
  8
0
  6
BYBLOCK
 62
     5
 10
132.422
 20
185.152
 30
0.0
 70
    32
  0
VERTEX
  5
16AD3
  8
0
  6
BYBLOCK
 62
     5
 10
132.422
 20
185.152
 30
0.0
 70
    32
  0
VERTEX
  5
16AD4
  8
0
  6
BYBLOCK
 62
     5
 10
132.422
 20
185.152
 30
0.0
 70
    32
  0
VERTEX
  5
16AD5
  8
0
  6
BYBLOCK
 62
     5
 10
132.422
 20
185.152
 30
0.0
 70
    32
  0
VERTEX
  5
16AD6
  8
0
  6
BYBLOCK
 62
     5
 10
132.422
 20
185.152
 30
0.0
 70
    32
  0
VERTEX
  5
16AD7
  8
0
  6
BYBLOCK
 62
     5
 10
132.422
 20
185.152
 30
0.0
 70
    32
  0
VERTEX
  5
16AD8
  8
0
  6
BYBLOCK
 62
     5
 10
132.422
 20
185.152
 30
0.0
 70
    32
  0
VERTEX
  5
16AD9
  8
0
  6
BYBLOCK
 62
     5
 10
132.422
 20
185.152
 30
0.0
 70
    32
  0
VERTEX
  5
16ADA
  8
0
  6
BYBLOCK
 62
     5
 10
132.422
 20
185.152
 30
0.0
 70
    32
  0
VERTEX
  5
16ADB
  8
0
  6
BYBLOCK
 62
     5
 10
132.422
 20
185.152
 30
0.0
 70
    32
  0
VERTEX
  5
16ADC
  8
0
  6
BYBLOCK
 62
     5
 10
132.422
 20
185.152
 30
0.0
 70
    32
  0
VERTEX
  5
16ADD
  8
0
  6
BYBLOCK
 62
     5
 10
132.422
 20
185.152
 30
0.0
 70
    32
  0
VERTEX
  5
16ADE
  8
0
  6
BYBLOCK
 62
     5
 10
132.422
 20
185.152
 30
0.0
 70
    32
  0
VERTEX
  5
16ADF
  8
0
  6
BYBLOCK
 62
     5
 10
132.422
 20
185.152
 30
0.0
 70
    32
  0
VERTEX
  5
16AE0
  8
0
  6
BYBLOCK
 62
     5
 10
132.422
 20
185.152
 30
0.0
 70
    32
  0
VERTEX
  5
16AE1
  8
0
  6
BYBLOCK
 62
     5
 10
132.422
 20
185.152
 30
0.0
 70
    32
  0
VERTEX
  5
16AE2
  8
0
  6
BYBLOCK
 62
     5
 10
132.422
 20
185.152
 30
0.0
 70
    32
  0
VERTEX
  5
16AE3
  8
0
  6
BYBLOCK
 62
     5
 10
132.422
 20
185.152
 30
0.0
 70
    32
  0
VERTEX
  5
16AE4
  8
0
  6
BYBLOCK
 62
     5
 10
132.422
 20
185.151
 30
0.0
 70
    32
  0
VERTEX
  5
16AE5
  8
0
  6
BYBLOCK
 62
     5
 10
132.422
 20
185.151
 30
0.0
 70
    32
  0
VERTEX
  5
16AE6
  8
0
  6
BYBLOCK
 62
     5
 10
132.422
 20
185.151
 30
0.0
 70
    32
  0
VERTEX
  5
16AE7
  8
0
  6
BYBLOCK
 62
     5
 10
132.422
 20
185.151
 30
0.0
 70
    32
  0
VERTEX
  5
16AE8
  8
0
  6
BYBLOCK
 62
     5
 10
132.422
 20
185.151
 30
0.0
 70
    32
  0
VERTEX
  5
16AE9
  8
0
  6
BYBLOCK
 62
     5
 10
132.422
 20
185.151
 30
0.0
 70
    32
  0
VERTEX
  5
16AEA
  8
0
  6
BYBLOCK
 62
     5
 10
132.422
 20
185.151
 30
0.0
 70
    32
  0
VERTEX
  5
16AEB
  8
0
  6
BYBLOCK
 62
     5
 10
132.422
 20
185.151
 30
0.0
 70
    32
  0
VERTEX
  5
16AEC
  8
0
  6
BYBLOCK
 62
     5
 10
132.422
 20
185.151
 30
0.0
 70
    32
  0
VERTEX
  5
16AED
  8
0
  6
BYBLOCK
 62
     5
 10
132.422
 20
185.151
 30
0.0
 70
    32
  0
VERTEX
  5
16AEE
  8
0
  6
BYBLOCK
 62
     5
 10
132.422
 20
185.151
 30
0.0
 70
    32
  0
VERTEX
  5
16AEF
  8
0
  6
BYBLOCK
 62
     5
 10
132.422
 20
185.151
 30
0.0
 70
    32
  0
VERTEX
  5
16AF0
  8
0
  6
BYBLOCK
 62
     5
 10
132.422
 20
185.151
 30
0.0
 70
    32
  0
VERTEX
  5
16AF1
  8
0
  6
BYBLOCK
 62
     5
 10
132.422
 20
185.151
 30
0.0
 70
    32
  0
VERTEX
  5
16AF2
  8
0
  6
BYBLOCK
 62
     5
 10
132.422
 20
185.151
 30
0.0
 70
    32
  0
VERTEX
  5
16AF3
  8
0
  6
BYBLOCK
 62
     5
 10
132.422
 20
185.151
 30
0.0
 70
    32
  0
VERTEX
  5
16AF4
  8
0
  6
BYBLOCK
 62
     5
 10
132.422
 20
185.151
 30
0.0
 70
    32
  0
VERTEX
  5
16AF5
  8
0
  6
BYBLOCK
 62
     5
 10
132.422
 20
185.151
 30
0.0
 70
    32
  0
VERTEX
  5
16AF6
  8
0
  6
BYBLOCK
 62
     5
 10
132.422
 20
185.151
 30
0.0
 70
    32
  0
VERTEX
  5
16AF7
  8
0
  6
BYBLOCK
 62
     5
 10
132.422
 20
185.151
 30
0.0
 70
    32
  0
VERTEX
  5
16AF8
  8
0
  6
BYBLOCK
 62
     5
 10
132.422
 20
185.151
 30
0.0
 70
    32
  0
VERTEX
  5
16AF9
  8
0
  6
BYBLOCK
 62
     5
 10
132.422
 20
185.151
 30
0.0
 70
    32
  0
VERTEX
  5
16AFA
  8
0
  6
BYBLOCK
 62
     5
 10
132.422
 20
185.15
 30
0.0
 70
    32
  0
VERTEX
  5
16AFB
  8
0
  6
BYBLOCK
 62
     5
 10
132.422
 20
185.15
 30
0.0
 70
    32
  0
VERTEX
  5
16AFC
  8
0
  6
BYBLOCK
 62
     5
 10
132.422
 20
185.15
 30
0.0
 70
    32
  0
VERTEX
  5
16AFD
  8
0
  6
BYBLOCK
 62
     5
 10
132.422
 20
185.15
 30
0.0
 70
    32
  0
VERTEX
  5
16AFE
  8
0
  6
BYBLOCK
 62
     5
 10
132.422
 20
185.15
 30
0.0
 70
    32
  0
VERTEX
  5
16AFF
  8
0
  6
BYBLOCK
 62
     5
 10
132.422
 20
185.15
 30
0.0
 70
    32
  0
VERTEX
  5
16B00
  8
0
  6
BYBLOCK
 62
     5
 10
132.422
 20
185.15
 30
0.0
 70
    32
  0
VERTEX
  5
16B01
  8
0
  6
BYBLOCK
 62
     5
 10
132.422
 20
185.15
 30
0.0
 70
    32
  0
VERTEX
  5
16B02
  8
0
  6
BYBLOCK
 62
     5
 10
132.422
 20
185.15
 30
0.0
 70
    32
  0
VERTEX
  5
16B03
  8
0
  6
BYBLOCK
 62
     5
 10
132.422
 20
185.15
 30
0.0
 70
    32
  0
VERTEX
  5
16B04
  8
0
  6
BYBLOCK
 62
     5
 10
132.422
 20
185.15
 30
0.0
 70
    32
  0
VERTEX
  5
16B05
  8
0
  6
BYBLOCK
 62
     5
 10
132.422
 20
185.15
 30
0.0
 70
    32
  0
VERTEX
  5
16B06
  8
0
  6
BYBLOCK
 62
     5
 10
132.422
 20
185.15
 30
0.0
 70
    32
  0
VERTEX
  5
16B07
  8
0
  6
BYBLOCK
 62
     5
 10
132.422
 20
185.15
 30
0.0
 70
    32
  0
VERTEX
  5
16B08
  8
0
  6
BYBLOCK
 62
     5
 10
132.422
 20
185.15
 30
0.0
 70
    32
  0
VERTEX
  5
16B09
  8
0
  6
BYBLOCK
 62
     5
 10
132.422
 20
185.15
 30
0.0
 70
    32
  0
VERTEX
  5
16B0A
  8
0
  6
BYBLOCK
 62
     5
 10
132.422
 20
185.15
 30
0.0
 70
    32
  0
VERTEX
  5
16B0B
  8
0
  6
BYBLOCK
 62
     5
 10
132.422
 20
185.15
 30
0.0
 70
    32
  0
VERTEX
  5
16B0C
  8
0
  6
BYBLOCK
 62
     5
 10
132.422
 20
185.15
 30
0.0
 70
    32
  0
VERTEX
  5
16B0D
  8
0
  6
BYBLOCK
 62
     5
 10
132.422
 20
185.15
 30
0.0
 70
    32
  0
VERTEX
  5
16B0E
  8
0
  6
BYBLOCK
 62
     5
 10
132.422
 20
185.15
 30
0.0
 70
    32
  0
VERTEX
  5
16B0F
  8
0
  6
BYBLOCK
 62
     5
 10
132.422
 20
185.15
 30
0.0
 70
    32
  0
VERTEX
  5
16B10
  8
0
  6
BYBLOCK
 62
     5
 10
132.422
 20
185.15
 30
0.0
 70
    32
  0
VERTEX
  5
16B11
  8
0
  6
BYBLOCK
 62
     5
 10
132.422
 20
185.149
 30
0.0
 70
    32
  0
VERTEX
  5
16B12
  8
0
  6
BYBLOCK
 62
     5
 10
132.422
 20
185.149
 30
0.0
 70
    32
  0
VERTEX
  5
16B13
  8
0
  6
BYBLOCK
 62
     5
 10
132.422
 20
185.149
 30
0.0
 70
    32
  0
VERTEX
  5
16B14
  8
0
  6
BYBLOCK
 62
     5
 10
132.422
 20
185.149
 30
0.0
 70
    32
  0
VERTEX
  5
16B15
  8
0
  6
BYBLOCK
 62
     5
 10
132.422
 20
185.149
 30
0.0
 70
    32
  0
VERTEX
  5
16B16
  8
0
  6
BYBLOCK
 62
     5
 10
132.422
 20
185.149
 30
0.0
 70
    32
  0
VERTEX
  5
16B17
  8
0
  6
BYBLOCK
 62
     5
 10
132.422
 20
185.149
 30
0.0
 70
    32
  0
VERTEX
  5
16B18
  8
0
  6
BYBLOCK
 62
     5
 10
132.422
 20
185.149
 30
0.0
 70
    32
  0
VERTEX
  5
16B19
  8
0
  6
BYBLOCK
 62
     5
 10
132.422
 20
185.149
 30
0.0
 70
    32
  0
VERTEX
  5
16B1A
  8
0
  6
BYBLOCK
 62
     5
 10
132.422
 20
185.149
 30
0.0
 70
    32
  0
VERTEX
  5
16B1B
  8
0
  6
BYBLOCK
 62
     5
 10
132.422
 20
185.149
 30
0.0
 70
    32
  0
VERTEX
  5
16B1C
  8
0
  6
BYBLOCK
 62
     5
 10
132.422
 20
185.149
 30
0.0
 70
    32
  0
VERTEX
  5
16B1D
  8
0
  6
BYBLOCK
 62
     5
 10
132.422
 20
185.149
 30
0.0
 70
    32
  0
VERTEX
  5
16B1E
  8
0
  6
BYBLOCK
 62
     5
 10
132.422
 20
185.149
 30
0.0
 70
    32
  0
VERTEX
  5
16B1F
  8
0
  6
BYBLOCK
 62
     5
 10
132.422
 20
185.149
 30
0.0
 70
    32
  0
VERTEX
  5
16B20
  8
0
  6
BYBLOCK
 62
     5
 10
132.422
 20
185.149
 30
0.0
 70
    32
  0
VERTEX
  5
16B21
  8
0
  6
BYBLOCK
 62
     5
 10
132.422
 20
185.149
 30
0.0
 70
    32
  0
VERTEX
  5
16B22
  8
0
  6
BYBLOCK
 62
     5
 10
132.422
 20
185.149
 30
0.0
 70
    32
  0
VERTEX
  5
16B23
  8
0
  6
BYBLOCK
 62
     5
 10
132.422
 20
185.149
 30
0.0
 70
    32
  0
VERTEX
  5
16B24
  8
0
  6
BYBLOCK
 62
     5
 10
132.422
 20
185.149
 30
0.0
 70
    32
  0
VERTEX
  5
16B25
  8
0
  6
BYBLOCK
 62
     5
 10
132.422
 20
185.149
 30
0.0
 70
    32
  0
VERTEX
  5
16B26
  8
0
  6
BYBLOCK
 62
     5
 10
132.422
 20
185.149
 30
0.0
 70
    32
  0
VERTEX
  5
16B27
  8
0
  6
BYBLOCK
 62
     5
 10
132.422
 20
185.148
 30
0.0
 70
    32
  0
VERTEX
  5
16B28
  8
0
  6
BYBLOCK
 62
     5
 10
132.422
 20
185.148
 30
0.0
 70
    32
  0
VERTEX
  5
16B29
  8
0
  6
BYBLOCK
 62
     5
 10
132.422
 20
185.148
 30
0.0
 70
    32
  0
VERTEX
  5
16B2A
  8
0
  6
BYBLOCK
 62
     5
 10
132.422
 20
185.148
 30
0.0
 70
    32
  0
VERTEX
  5
16B2B
  8
0
  6
BYBLOCK
 62
     5
 10
132.422
 20
185.148
 30
0.0
 70
    32
  0
VERTEX
  5
16B2C
  8
0
  6
BYBLOCK
 62
     5
 10
132.422
 20
185.148
 30
0.0
 70
    32
  0
VERTEX
  5
16B2D
  8
0
  6
BYBLOCK
 62
     5
 10
132.422
 20
185.148
 30
0.0
 70
    32
  0
VERTEX
  5
16B2E
  8
0
  6
BYBLOCK
 62
     5
 10
132.422
 20
185.148
 30
0.0
 70
    32
  0
VERTEX
  5
16B2F
  8
0
  6
BYBLOCK
 62
     5
 10
132.422
 20
185.148
 30
0.0
 70
    32
  0
VERTEX
  5
16B30
  8
0
  6
BYBLOCK
 62
     5
 10
132.422
 20
185.148
 30
0.0
 70
    32
  0
VERTEX
  5
16B31
  8
0
  6
BYBLOCK
 62
     5
 10
132.422
 20
185.148
 30
0.0
 70
    32
  0
VERTEX
  5
16B32
  8
0
  6
BYBLOCK
 62
     5
 10
132.422
 20
185.148
 30
0.0
 70
    32
  0
VERTEX
  5
16B33
  8
0
  6
BYBLOCK
 62
     5
 10
132.422
 20
185.148
 30
0.0
 70
    32
  0
VERTEX
  5
16B34
  8
0
  6
BYBLOCK
 62
     5
 10
132.422
 20
185.148
 30
0.0
 70
    32
  0
VERTEX
  5
16B35
  8
0
  6
BYBLOCK
 62
     5
 10
132.422
 20
185.148
 30
0.0
 70
    32
  0
VERTEX
  5
16B36
  8
0
  6
BYBLOCK
 62
     5
 10
132.422
 20
185.148
 30
0.0
 70
    32
  0
VERTEX
  5
16B37
  8
0
  6
BYBLOCK
 62
     5
 10
132.422
 20
185.148
 30
0.0
 70
    32
  0
VERTEX
  5
16B38
  8
0
  6
BYBLOCK
 62
     5
 10
132.422
 20
185.148
 30
0.0
 70
    32
  0
VERTEX
  5
16B39
  8
0
  6
BYBLOCK
 62
     5
 10
132.422
 20
185.148
 30
0.0
 70
    32
  0
VERTEX
  5
16B3A
  8
0
  6
BYBLOCK
 62
     5
 10
132.422
 20
185.148
 30
0.0
 70
    32
  0
VERTEX
  5
16B3B
  8
0
  6
BYBLOCK
 62
     5
 10
132.422
 20
185.148
 30
0.0
 70
    32
  0
VERTEX
  5
16B3C
  8
0
  6
BYBLOCK
 62
     5
 10
132.422
 20
185.148
 30
0.0
 70
    32
  0
VERTEX
  5
16B3D
  8
0
  6
BYBLOCK
 62
     5
 10
132.422
 20
185.147
 30
0.0
 70
    32
  0
VERTEX
  5
16B3E
  8
0
  6
BYBLOCK
 62
     5
 10
132.422
 20
185.147
 30
0.0
 70
    32
  0
VERTEX
  5
16B3F
  8
0
  6
BYBLOCK
 62
     5
 10
132.422
 20
185.147
 30
0.0
 70
    32
  0
VERTEX
  5
16B40
  8
0
  6
BYBLOCK
 62
     5
 10
132.422
 20
185.147
 30
0.0
 70
    32
  0
VERTEX
  5
16B41
  8
0
  6
BYBLOCK
 62
     5
 10
132.422
 20
185.147
 30
0.0
 70
    32
  0
VERTEX
  5
16B42
  8
0
  6
BYBLOCK
 62
     5
 10
132.422
 20
185.147
 30
0.0
 70
    32
  0
VERTEX
  5
16B43
  8
0
  6
BYBLOCK
 62
     5
 10
132.422
 20
185.147
 30
0.0
 70
    32
  0
VERTEX
  5
16B44
  8
0
  6
BYBLOCK
 62
     5
 10
132.422
 20
185.147
 30
0.0
 70
    32
  0
VERTEX
  5
16B45
  8
0
  6
BYBLOCK
 62
     5
 10
132.422
 20
185.147
 30
0.0
 70
    32
  0
VERTEX
  5
16B46
  8
0
  6
BYBLOCK
 62
     5
 10
132.422
 20
185.147
 30
0.0
 70
    32
  0
VERTEX
  5
16B47
  8
0
  6
BYBLOCK
 62
     5
 10
132.422
 20
185.147
 30
0.0
 70
    32
  0
VERTEX
  5
16B48
  8
0
  6
BYBLOCK
 62
     5
 10
132.422
 20
185.147
 30
0.0
 70
    32
  0
VERTEX
  5
16B49
  8
0
  6
BYBLOCK
 62
     5
 10
132.422
 20
185.147
 30
0.0
 70
    32
  0
VERTEX
  5
16B4A
  8
0
  6
BYBLOCK
 62
     5
 10
132.422
 20
185.147
 30
0.0
 70
    32
  0
VERTEX
  5
16B4B
  8
0
  6
BYBLOCK
 62
     5
 10
132.422
 20
185.147
 30
0.0
 70
    32
  0
VERTEX
  5
16B4C
  8
0
  6
BYBLOCK
 62
     5
 10
132.422
 20
185.147
 30
0.0
 70
    32
  0
VERTEX
  5
16B4D
  8
0
  6
BYBLOCK
 62
     5
 10
132.422
 20
185.147
 30
0.0
 70
    32
  0
VERTEX
  5
16B4E
  8
0
  6
BYBLOCK
 62
     5
 10
132.422
 20
185.147
 30
0.0
 70
    32
  0
VERTEX
  5
16B4F
  8
0
  6
BYBLOCK
 62
     5
 10
132.422
 20
185.147
 30
0.0
 70
    32
  0
VERTEX
  5
16B50
  8
0
  6
BYBLOCK
 62
     5
 10
132.422
 20
185.147
 30
0.0
 70
    32
  0
VERTEX
  5
16B51
  8
0
  6
BYBLOCK
 62
     5
 10
132.422
 20
185.147
 30
0.0
 70
    32
  0
VERTEX
  5
16B52
  8
0
  6
BYBLOCK
 62
     5
 10
132.422
 20
185.147
 30
0.0
 70
    32
  0
VERTEX
  5
16B53
  8
0
  6
BYBLOCK
 62
     5
 10
132.422
 20
185.147
 30
0.0
 70
    32
  0
VERTEX
  5
16B54
  8
0
  6
BYBLOCK
 62
     5
 10
132.422
 20
185.146
 30
0.0
 70
    32
  0
VERTEX
  5
16B55
  8
0
  6
BYBLOCK
 62
     5
 10
132.422
 20
185.146
 30
0.0
 70
    32
  0
VERTEX
  5
16B56
  8
0
  6
BYBLOCK
 62
     5
 10
132.422
 20
185.146
 30
0.0
 70
    32
  0
VERTEX
  5
16B57
  8
0
  6
BYBLOCK
 62
     5
 10
132.422
 20
185.146
 30
0.0
 70
    32
  0
VERTEX
  5
16B58
  8
0
  6
BYBLOCK
 62
     5
 10
132.422
 20
185.146
 30
0.0
 70
    32
  0
VERTEX
  5
16B59
  8
0
  6
BYBLOCK
 62
     5
 10
132.422
 20
185.146
 30
0.0
 70
    32
  0
VERTEX
  5
16B5A
  8
0
  6
BYBLOCK
 62
     5
 10
132.422
 20
185.146
 30
0.0
 70
    32
  0
VERTEX
  5
16B5B
  8
0
  6
BYBLOCK
 62
     5
 10
132.422
 20
185.146
 30
0.0
 70
    32
  0
VERTEX
  5
16B5C
  8
0
  6
BYBLOCK
 62
     5
 10
132.422
 20
185.146
 30
0.0
 70
    32
  0
VERTEX
  5
16B5D
  8
0
  6
BYBLOCK
 62
     5
 10
132.422
 20
185.146
 30
0.0
 70
    32
  0
VERTEX
  5
16B5E
  8
0
  6
BYBLOCK
 62
     5
 10
132.422
 20
185.146
 30
0.0
 70
    32
  0
VERTEX
  5
16B5F
  8
0
  6
BYBLOCK
 62
     5
 10
132.422
 20
185.146
 30
0.0
 70
    32
  0
VERTEX
  5
16B60
  8
0
  6
BYBLOCK
 62
     5
 10
132.422
 20
185.146
 30
0.0
 70
    32
  0
VERTEX
  5
16B61
  8
0
  6
BYBLOCK
 62
     5
 10
132.422
 20
185.146
 30
0.0
 70
    32
  0
VERTEX
  5
16B62
  8
0
  6
BYBLOCK
 62
     5
 10
132.422
 20
185.146
 30
0.0
 70
    32
  0
VERTEX
  5
16B63
  8
0
  6
BYBLOCK
 62
     5
 10
132.422
 20
185.146
 30
0.0
 70
    32
  0
VERTEX
  5
16B64
  8
0
  6
BYBLOCK
 62
     5
 10
132.422
 20
185.146
 30
0.0
 70
    32
  0
VERTEX
  5
16B65
  8
0
  6
BYBLOCK
 62
     5
 10
132.422
 20
185.146
 30
0.0
 70
    32
  0
VERTEX
  5
16B66
  8
0
  6
BYBLOCK
 62
     5
 10
132.422
 20
185.146
 30
0.0
 70
    32
  0
VERTEX
  5
16B67
  8
0
  6
BYBLOCK
 62
     5
 10
132.422
 20
185.146
 30
0.0
 70
    32
  0
VERTEX
  5
16B68
  8
0
  6
BYBLOCK
 62
     5
 10
132.422
 20
185.146
 30
0.0
 70
    32
  0
VERTEX
  5
16B69
  8
0
  6
BYBLOCK
 62
     5
 10
132.422
 20
185.146
 30
0.0
 70
    32
  0
VERTEX
  5
16B6A
  8
0
  6
BYBLOCK
 62
     5
 10
132.422
 20
185.145
 30
0.0
 70
    32
  0
VERTEX
  5
16B6B
  8
0
  6
BYBLOCK
 62
     5
 10
132.422
 20
185.145
 30
0.0
 70
    32
  0
VERTEX
  5
16B6C
  8
0
  6
BYBLOCK
 62
     5
 10
132.422
 20
185.145
 30
0.0
 70
    32
  0
VERTEX
  5
16B6D
  8
0
  6
BYBLOCK
 62
     5
 10
132.422
 20
185.145
 30
0.0
 70
    32
  0
VERTEX
  5
16B6E
  8
0
  6
BYBLOCK
 62
     5
 10
132.422
 20
185.145
 30
0.0
 70
    32
  0
VERTEX
  5
16B6F
  8
0
  6
BYBLOCK
 62
     5
 10
132.422
 20
185.145
 30
0.0
 70
    32
  0
VERTEX
  5
16B70
  8
0
  6
BYBLOCK
 62
     5
 10
132.422
 20
185.145
 30
0.0
 70
    32
  0
SEQEND
  5
16B71
  8
0
  6
BYBLOCK
 62
     5
  0
LINE
  5
16D94
  8
0
  6
BYBLOCK
 62
     5
 10
125.899486
 20
189.61507
 30
0.0
 11
126.606687
 21
189.75507
 31
0.0
  0
LINE
  5
16D95
  8
0
  6
BYBLOCK
 62
     5
 10
126.459486
 20
189.61507
 30
0.0
 11
125.899486
 21
189.61507
 31
0.0
  0
LINE
  5
16D96
  8
0
  6
BYBLOCK
 62
     5
 10
126.606687
 20
189.75507
 30
0.0
 11
126.662687
 21
189.75507
 31
0.0
  0
LINE
  5
16D97
  8
0
  6
BYBLOCK
 62
     5
 10
126.662687
 20
190.03507
 30
0.0
 11
126.606687
 21
190.03507
 31
0.0
  0
LINE
  5
16D98
  8
0
  6
BYBLOCK
 62
     5
 10
125.899486
 20
190.17507
 30
0.0
 11
126.459486
 21
190.17507
 31
0.0
  0
LINE
  5
16D99
  8
0
  6
BYBLOCK
 62
     5
 10
125.899486
 20
190.17507
 30
0.0
 11
126.606687
 21
190.03507
 31
0.0
  0
LINE
  5
16D9A
  8
0
  6
BYBLOCK
 62
     5
 10
127.05421
 20
189.271706
 30
0.0
 11
126.459486
 21
189.61507
 31
0.0
  0
LINE
  5
16D9B
  8
0
  6
BYBLOCK
 62
     5
 10
126.662687
 20
189.75507
 30
0.0
 11
127.217344
 21
189.434839
 31
0.0
  0
LINE
  5
16D9C
  8
0
  6
BYBLOCK
 62
     5
 10
126.459486
 20
190.17507
 30
0.0
 11
126.662687
 21
190.03507
 31
0.0
  0
LINE
  5
16D9D
  8
0
  6
BYBLOCK
 62
     5
 10
127.397575
 20
191.113159
 30
0.0
 11
127.537575
 21
190.909958
 31
0.0
  0
LINE
  5
16D9E
  8
0
  6
BYBLOCK
 62
     5
 10
127.397575
 20
188.676981
 30
0.0
 11
127.05421
 21
189.271706
 31
0.0
  0
LINE
  5
16D9F
  8
0
  6
BYBLOCK
 62
     5
 10
127.217344
 20
189.434839
 30
0.0
 11
127.537575
 21
188.880183
 31
0.0
  0
LINE
  5
16DA0
  8
0
  6
BYBLOCK
 62
     5
 10
121.979
 20
182.07904
 30
0.0
 11
121.979
 21
182.35601
 31
0.0
  0
LINE
  5
16DA1
  8
0
  6
BYBLOCK
 62
     5
 10
123.177713
 20
189.894839
 30
0.0
 11
123.177713
 21
186.45601
 31
0.0
  0
LINE
  5
16DA2
  8
0
  6
BYBLOCK
 62
     5
 10
127.397575
 20
191.673159
 30
0.0
 11
127.537575
 21
190.965958
 31
0.0
  0
LINE
  5
16DA3
  8
0
  6
BYBLOCK
 62
     5
 10
127.327575
 20
187.16981
 30
0.0
 11
127.327575
 21
186.965907
 31
0.0
  0
LINE
  5
16DA4
  8
0
  6
BYBLOCK
 62
     5
 10
127.397575
 20
188.116981
 30
0.0
 11
127.397575
 21
188.676981
 31
0.0
  0
LINE
  5
16DA5
  8
0
  6
BYBLOCK
 62
     5
 10
127.397575
 20
191.113159
 30
0.0
 11
127.397575
 21
191.673159
 31
0.0
  0
LINE
  5
16DA6
  8
0
  6
BYBLOCK
 62
     5
 10
127.537575
 20
190.965958
 30
0.0
 11
127.537575
 21
190.909958
 31
0.0
  0
LINE
  5
16DA7
  8
0
  6
BYBLOCK
 62
     5
 10
127.537575
 20
188.880183
 30
0.0
 11
127.537575
 21
188.824183
 31
0.0
  0
LINE
  5
16DA8
  8
0
  6
BYBLOCK
 62
     5
 10
127.397575
 20
188.116981
 30
0.0
 11
127.537575
 21
188.824183
 31
0.0
  0
LINE
  5
16DA9
  8
0
  6
BYBLOCK
 62
     5
 10
127.05421
 20
190.518435
 30
0.0
 11
127.397575
 21
191.113159
 31
0.0
  0
LINE
  5
16DAA
  8
0
  6
BYBLOCK
 62
     5
 10
127.537575
 20
190.909958
 30
0.0
 11
127.217344
 21
190.355301
 31
0.0
  0
LINE
  5
16DAB
  8
0
  6
BYBLOCK
 62
     5
 10
127.397575
 20
188.676981
 30
0.0
 11
127.537575
 21
188.880183
 31
0.0
  0
LINE
  5
16DAC
  8
0
  6
BYBLOCK
 62
     5
 10
126.459486
 20
189.61507
 30
0.0
 11
126.662687
 21
189.75507
 31
0.0
  0
LINE
  5
16DAD
  8
0
  6
BYBLOCK
 62
     5
 10
126.459486
 20
190.17507
 30
0.0
 11
127.05421
 21
190.518435
 31
0.0
  0
LINE
  5
16DAE
  8
0
  6
BYBLOCK
 62
     5
 10
127.217344
 20
190.355301
 30
0.0
 11
126.662687
 21
190.03507
 31
0.0
  0
ARC
  5
16DAF
  8
0
  6
BYBLOCK
 62
     5
 10
127.677575
 20
189.89507
 30
0.0
 40
1.08
 50
172.551809
 51
187.448191
  0
ARC
  5
16DB0
  8
0
  6
BYBLOCK
 62
     5
 10
127.677575
 20
189.89507
 30
0.0
 40
1.8
 50
171.050982
 51
188.949018
  0
ARC
  5
16DB1
  8
0
  6
BYBLOCK
 62
     5
 10
122.177713
 20
186.45601
 30
0.0
 40
1.0
 50
270.0
 51
0.0
  0
LINE
  5
16DB2
  8
0
  6
BYBLOCK
 62
     5
 10
126.662687
 20
189.75507
 30
0.0
 11
128.692462
 21
190.03507
 31
0.0
  0
LINE
  5
16DB3
  8
0
  6
BYBLOCK
 62
     5
 10
126.606687
 20
189.75507
 30
0.0
 11
128.748462
 21
190.03507
 31
0.0
  0
LINE
  5
16DB4
  8
0
  6
BYBLOCK
 62
     5
 10
126.606687
 20
190.03507
 30
0.0
 11
128.748462
 21
189.75507
 31
0.0
  0
LINE
  5
16DB5
  8
0
  6
BYBLOCK
 62
     5
 10
126.662687
 20
190.03507
 30
0.0
 11
128.692462
 21
189.75507
 31
0.0
  0
LINE
  5
16DB6
  8
0
  6
BYBLOCK
 62
     5
 10
128.300939
 20
189.271706
 30
0.0
 11
127.05421
 21
190.518435
 31
0.0
  0
LINE
  5
16DB7
  8
0
  6
BYBLOCK
 62
     5
 10
127.817575
 20
188.880183
 30
0.0
 11
127.537575
 21
190.909958
 31
0.0
  0
LINE
  5
16DB8
  8
0
  6
BYBLOCK
 62
     5
 10
127.817575
 20
188.824183
 30
0.0
 11
127.537575
 21
190.965958
 31
0.0
  0
LINE
  5
16DB9
  8
0
  6
BYBLOCK
 62
     5
 10
127.537575
 20
188.824183
 30
0.0
 11
127.817575
 21
190.965958
 31
0.0
  0
LINE
  5
16DBA
  8
0
  6
BYBLOCK
 62
     5
 10
127.537575
 20
188.880183
 30
0.0
 11
127.817575
 21
190.909958
 31
0.0
  0
LINE
  5
16DBB
  8
0
  6
BYBLOCK
 62
     5
 10
127.05421
 20
189.271706
 30
0.0
 11
128.300939
 21
190.518435
 31
0.0
  0
CIRCLE
  5
16DBC
  8
0
  6
BYBLOCK
 62
     5
 10
127.677575
 20
189.89507
 30
0.0
 40
2.75
  0
ARC
  5
16DBD
  8
0
  6
BYBLOCK
 62
     5
 10
127.677575
 20
189.89507
 30
0.0
 40
1.08
 50
262.551809
 51
277.448191
  0
ARC
  5
16DBE
  8
0
  6
BYBLOCK
 62
     5
 10
127.677575
 20
189.89507
 30
0.0
 40
1.08
 50
82.551809
 51
97.448191
  0
ARC
  5
16DBF
  8
0
  6
BYBLOCK
 62
     5
 10
127.677575
 20
189.89507
 30
0.0
 40
1.8
 50
261.050982
 51
278.949018
  0
ARC
  5
16DC0
  8
0
  6
BYBLOCK
 62
     5
 10
127.677575
 20
189.89507
 30
0.0
 40
1.8
 50
81.05094
 51
98.949018
  0
ARC
  5
16DC1
  8
0
  6
BYBLOCK
 62
     5
 10
127.677575
 20
189.89507
 30
0.0
 40
2.95
 50
276.813854
 51
263.186146
  0
CIRCLE
  5
16DC2
  8
0
  6
BYBLOCK
 62
     5
 10
127.677575
 20
189.89507
 30
0.0
 40
3.0
  0
ARC
  5
16DC3
  8
0
  6
BYBLOCK
 62
     5
 10
-326.112381
 20
225.45601
 30
0.0
 40
460.303689
 50
354.976812
 51
356.080423
  0
ARC
  5
16DC4
  8
0
  6
BYBLOCK
 62
     5
 10
-326.112381
 20
225.45601
 30
0.0
 40
460.0
 50
355.125854
 51
356.080423
  0
ARC
  5
16DC5
  8
0
  6
BYBLOCK
 62
     5
 10
127.677713
 20
189.894839
 30
0.0
 40
4.5
 50
90.0
 51
180.0
  0
ARC
  5
16DC6
  8
0
  6
BYBLOCK
 62
     5
 10
142.03994
 20
204.257435
 30
0.0
 40
4.0
 50
90.0
 51
180.0
  0
ARC
  5
16DC7
  8
0
  6
BYBLOCK
 62
     5
 10
106.479
 20
658.047391
 30
0.0
 40
460.303689
 50
273.919577
 51
274.908938
  0
ARC
  5
16DC8
  8
0
  6
BYBLOCK
 62
     5
 10
106.479
 20
658.047391
 30
0.0
 40
460.0
 50
273.919577
 51
274.874146
  0
ARC
  5
16DC9
  8
0
  6
BYBLOCK
 62
     5
 10
139.479
 20
192.45601
 30
0.0
 40
7.0
 50
270.0
 51
0.0
  0
ARC
  5
16DCA
  8
CENTER
 10
106.479
 20
225.45601
 30
0.0
 40
45.0
 50
306.879536
 51
323.819061
  0
LINE
  5
16DCB
  8
CENTER
 10
142.364503
 20
189.570507
 30
0.0
 11
134.305205
 21
197.629805
 31
0.0
  0
LINE
  5
16DCC
  8
0
  6
BYBLOCK
 62
     5
 10
138.03994
 20
204.257435
 30
0.0
 11
138.03994
 21
200.013137
 31
0.0
  0
ARC
  5
16DCD
  8
0
  6
BYBLOCK
 62
     5
 10
137.03994
 20
200.013137
 30
0.0
 40
1.0
 50
281.167133
 51
0.0
  0
CIRCLE
  5
16DCE
  8
0
  6
BYBLOCK
 62
     5
 10
138.298805
 20
193.636205
 30
0.0
 40
3.3
  0
ARC
  5
16DCF
  8
0
  6
BYBLOCK
 62
     5
 10
145.479
 20
200.707255
 30
0.0
 40
1.0
 50
274.874146
 51
0.0
  0
LINE
  5
17032
  8
0
  6
BYBLOCK
 62
     5
 10
146.479
 20
192.45601
 30
0.0
 11
146.479
 21
199.710979
 31
0.0
  0
LINE
  5
17033
  8
0
  6
BYBLOCK
 62
     5
 10
145.479
 20
208.257435
 30
0.0
 11
142.03994
 21
208.257435
 31
0.0
  0
ARC
  5
17034
  8
0
  6
BYBLOCK
 62
     5
 10
145.479
 20
209.257435
 30
0.0
 40
1.0
 50
270.0
 51
0.0
  0
ARC
  5
17035
  8
CENTER
 10
106.479
 20
225.45601
 30
0.0
 40
45.0
 50
36.879536
 51
53.819061
  0
LINE
  5
17036
  8
0
  6
BYBLOCK
 62
     5
 10
139.479
 20
265.45601
 30
0.0
 11
132.224031
 21
265.45601
 31
0.0
  0
ARC
  5
17037
  8
0
  6
BYBLOCK
 62
     5
 10
138.298805
 20
257.275815
 30
0.0
 40
5.196311
 50
183.919577
 51
266.080423
  0
ARC
  5
17038
  8
0
  6
BYBLOCK
 62
     5
 10
138.298805
 20
257.275815
 30
0.0
 40
5.5
 50
183.919577
 51
266.080423
  0
ARC
  5
17039
  8
0
  6
BYBLOCK
 62
     5
 10
131.227755
 20
264.45601
 30
0.0
 40
1.0
 50
4.874146
 51
90.0
  0
ARC
  5
1729C
  8
0
  6
BYBLOCK
 62
     5
 10
122.677575
 20
264.45601
 30
0.0
 40
1.0
 50
0.0
 51
90.0
  0
LINE
  5
1729D
  8
0
  6
BYBLOCK
 62
     5
 10
127.677575
 20
257.01695
 30
0.0
 11
131.921873
 21
257.01695
 31
0.0
  0
ARC
  5
1729E
  8
0
  6
BYBLOCK
 62
     5
 10
131.921873
 20
256.01695
 30
0.0
 40
1.0
 50
11.167133
 51
90.0
  0
ARC
  5
1729F
  8
0
  6
BYBLOCK
 62
     5
 10
127.677575
 20
261.01695
 30
0.0
 40
4.0
 50
180.0
 51
270.0
  0
LINE
  5
172A0
  8
0
  6
BYBLOCK
 62
     5
 10
123.677575
 20
264.45601
 30
0.0
 11
123.677575
 21
261.01695
 31
0.0
  0
ARC
  5
172A1
  8
0
  6
BYBLOCK
 62
     5
 10
-326.112381
 20
225.45601
 30
0.0
 40
460.303689
 50
3.919577
 51
4.908938
  0
ARC
  5
172A2
  8
0
  6
BYBLOCK
 62
     5
 10
-326.112381
 20
225.45601
 30
0.0
 40
460.0
 50
3.919577
 51
4.874146
  0
LINE
  5
172A3
  8
0
  6
BYBLOCK
 62
     5
 10
146.479
 20
251.201041
 30
0.0
 11
146.479
 21
258.45601
 31
0.0
  0
ARC
  5
172A4
  8
0
  6
BYBLOCK
 62
     5
 10
136.540171
 20
251.018243
 30
0.0
 40
1.0
 50
0.0
 51
74.302463
  0
ARC
  5
172A5
  8
0
  6
BYBLOCK
 62
     5
 10
106.479
 20
-207.135371
 30
0.0
 40
460.303689
 50
85.091062
 51
86.080423
  0
ARC
  5
172A6
  8
0
  6
BYBLOCK
 62
     5
 10
106.479
 20
-207.135371
 30
0.0
 40
460.0
 50
85.125854
 51
86.080423
  0
LINE
  5
172A7
  8
0
  6
BYBLOCK
 62
     5
 10
142.040171
 20
242.154723
 30
0.0
 11
145.479
 21
242.154723
 31
0.0
  0
LINE
  5
172A8
  8
0
  6
BYBLOCK
 62
     5
 10
140.821851
 20
246.934585
 30
0.0
 11
141.416575
 21
247.277949
 31
0.0
  0
LINE
  5
172A9
  8
0
  6
BYBLOCK
 62
     5
 10
141.579709
 20
247.114816
 30
0.0
 11
141.025052
 21
246.794585
 31
0.0
  0
LINE
  5
172AA
  8
0
  6
BYBLOCK
 62
     5
 10
140.821851
 20
246.374585
 30
0.0
 11
141.025052
 21
246.514585
 31
0.0
  0
LINE
  5
172AB
  8
0
  6
BYBLOCK
 62
     5
 10
143.258029
 20
246.934585
 30
0.0
 11
143.054827
 21
246.794585
 31
0.0
  0
LINE
  5
172AC
  8
0
  6
BYBLOCK
 62
     5
 10
142.500171
 20
246.194354
 30
0.0
 11
143.054827
 21
246.514585
 31
0.0
  0
LINE
  5
172AD
  8
0
  6
BYBLOCK
 62
     5
 10
143.258029
 20
246.374585
 30
0.0
 11
142.663304
 21
246.03122
 31
0.0
  0
LINE
  5
172AE
  8
0
  6
BYBLOCK
 62
     5
 10
141.416575
 20
246.03122
 30
0.0
 11
142.663304
 21
247.277949
 31
0.0
  0
LINE
  5
172AF
  8
0
  6
BYBLOCK
 62
     5
 10
142.31994
 20
247.872673
 30
0.0
 11
142.17994
 21
247.669472
 31
0.0
  0
LINE
  5
172B0
  8
0
  6
BYBLOCK
 62
     5
 10
141.75994
 20
245.436496
 30
0.0
 11
141.89994
 21
245.639697
 31
0.0
  0
LINE
  5
172B1
  8
0
  6
BYBLOCK
 62
     5
 10
141.416575
 20
247.277949
 30
0.0
 11
141.75994
 21
247.872673
 31
0.0
  0
LINE
  5
172B2
  8
0
  6
BYBLOCK
 62
     5
 10
141.89994
 20
247.669472
 30
0.0
 11
141.579709
 21
247.114816
 31
0.0
  0
LINE
  5
172B3
  8
0
  6
BYBLOCK
 62
     5
 10
142.17994
 20
245.639697
 30
0.0
 11
142.500171
 21
246.194354
 31
0.0
  0
LINE
  5
172B4
  8
0
  6
BYBLOCK
 62
     5
 10
142.663304
 20
246.03122
 30
0.0
 11
142.31994
 21
245.436496
 31
0.0
  0
LINE
  5
172B5
  8
0
  6
BYBLOCK
 62
     5
 10
143.818029
 20
246.934585
 30
0.0
 11
143.110827
 21
246.794585
 31
0.0
  0
LINE
  5
172B6
  8
0
  6
BYBLOCK
 62
     5
 10
140.261851
 20
246.374585
 30
0.0
 11
140.969052
 21
246.514585
 31
0.0
  0
LINE
  5
172B7
  8
0
  6
BYBLOCK
 62
     5
 10
141.025052
 20
246.514585
 30
0.0
 11
143.054827
 21
246.794585
 31
0.0
  0
LINE
  5
172B8
  8
0
  6
BYBLOCK
 62
     5
 10
140.969052
 20
246.514585
 30
0.0
 11
143.110827
 21
246.794585
 31
0.0
  0
LINE
  5
172B9
  8
0
  6
BYBLOCK
 62
     5
 10
142.31994
 20
248.432673
 30
0.0
 11
142.17994
 21
247.725472
 31
0.0
  0
LINE
  5
172BA
  8
0
  6
BYBLOCK
 62
     5
 10
141.75994
 20
244.876496
 30
0.0
 11
141.89994
 21
245.583697
 31
0.0
  0
LINE
  5
172BB
  8
0
  6
BYBLOCK
 62
     5
 10
143.818021
 20
246.374585
 30
0.0
 11
143.258029
 21
246.374585
 31
0.0
  0
LINE
  5
172BC
  8
0
  6
BYBLOCK
 62
     5
 10
140.821851
 20
246.374585
 30
0.0
 11
140.261851
 21
246.374585
 31
0.0
  0
LINE
  5
172BD
  8
0
  6
BYBLOCK
 62
     5
 10
140.969052
 20
246.514585
 30
0.0
 11
141.025052
 21
246.514585
 31
0.0
  0
LINE
  5
172BE
  8
0
  6
BYBLOCK
 62
     5
 10
143.054827
 20
246.514585
 30
0.0
 11
143.110827
 21
246.514585
 31
0.0
  0
LINE
  5
172BF
  8
0
  6
BYBLOCK
 62
     5
 10
143.110827
 20
246.794585
 30
0.0
 11
143.054827
 21
246.794585
 31
0.0
  0
LINE
  5
172C0
  8
0
  6
BYBLOCK
 62
     5
 10
141.025052
 20
246.794585
 30
0.0
 11
140.969052
 21
246.794585
 31
0.0
  0
LINE
  5
172C1
  8
0
  6
BYBLOCK
 62
     5
 10
140.261851
 20
246.934585
 30
0.0
 11
140.821851
 21
246.934585
 31
0.0
  0
LINE
  5
172C2
  8
0
  6
BYBLOCK
 62
     5
 10
143.258029
 20
246.934585
 30
0.0
 11
143.818029
 21
246.934585
 31
0.0
  0
LINE
  5
172C3
  8
0
  6
BYBLOCK
 62
     5
 10
141.89994
 20
245.583697
 30
0.0
 11
142.17994
 21
247.725472
 31
0.0
  0
LINE
  5
172C4
  8
0
  6
BYBLOCK
 62
     5
 10
141.89994
 20
245.639697
 30
0.0
 11
142.17994
 21
247.669472
 31
0.0
  0
LINE
  5
172C5
  8
0
  6
BYBLOCK
 62
     5
 10
140.969052
 20
246.794585
 30
0.0
 11
143.110827
 21
246.514585
 31
0.0
  0
LINE
  5
172C6
  8
0
  6
BYBLOCK
 62
     5
 10
141.025052
 20
246.794585
 30
0.0
 11
143.054827
 21
246.514585
 31
0.0
  0
LINE
  5
172C7
  8
0
  6
BYBLOCK
 62
     5
 10
141.68994
 20
243.929324
 30
0.0
 11
141.68994
 21
243.725421
 31
0.0
  0
LINE
  5
172C8
  8
0
  6
BYBLOCK
 62
     5
 10
141.75994
 20
244.876496
 30
0.0
 11
141.75994
 21
245.436496
 31
0.0
  0
LINE
  5
172C9
  8
0
  6
BYBLOCK
 62
     5
 10
141.75994
 20
247.872673
 30
0.0
 11
141.75994
 21
248.432673
 31
0.0
  0
LINE
  5
172CA
  8
0
  6
BYBLOCK
 62
     5
 10
141.89994
 20
247.725472
 30
0.0
 11
141.89994
 21
247.669472
 31
0.0
  0
LINE
  5
172CB
  8
0
  6
BYBLOCK
 62
     5
 10
141.89994
 20
245.639697
 30
0.0
 11
141.89994
 21
245.583697
 31
0.0
  0
LINE
  5
172CC
  8
0
  6
BYBLOCK
 62
     5
 10
142.17994
 20
245.583697
 30
0.0
 11
142.17994
 21
245.639697
 31
0.0
  0
LINE
  5
172CD
  8
0
  6
BYBLOCK
 62
     5
 10
142.17994
 20
247.669472
 30
0.0
 11
142.17994
 21
247.725472
 31
0.0
  0
LINE
  5
172CE
  8
0
  6
BYBLOCK
 62
     5
 10
142.31994
 20
248.432666
 30
0.0
 11
142.31994
 21
247.872673
 31
0.0
  0
LINE
  5
172CF
  8
0
  6
BYBLOCK
 62
     5
 10
142.31994
 20
245.436496
 30
0.0
 11
142.31994
 21
244.876496
 31
0.0
  0
LINE
  5
172D0
  8
0
  6
BYBLOCK
 62
     5
 10
142.38994
 20
243.725421
 30
0.0
 11
142.38994
 21
243.929324
 31
0.0
  0
LINE
  5
172D1
  8
0
  6
BYBLOCK
 62
     5
 10
140.261851
 20
246.934585
 30
0.0
 11
140.969052
 21
246.794585
 31
0.0
  0
LINE
  5
172D2
  8
0
  6
BYBLOCK
 62
     5
 10
143.818029
 20
246.374585
 30
0.0
 11
143.110827
 21
246.514585
 31
0.0
  0
LINE
  5
172D3
  8
0
  6
BYBLOCK
 62
     5
 10
141.416575
 20
246.03122
 30
0.0
 11
140.821851
 21
246.374585
 31
0.0
  0
LINE
  5
172D4
  8
0
  6
BYBLOCK
 62
     5
 10
142.31994
 20
244.876496
 30
0.0
 11
142.17994
 21
245.583697
 31
0.0
  0
LINE
  5
172D5
  8
0
  6
BYBLOCK
 62
     5
 10
141.75994
 20
248.432673
 30
0.0
 11
141.89994
 21
247.725472
 31
0.0
  0
LINE
  5
172D6
  8
0
  6
BYBLOCK
 62
     5
 10
142.17994
 20
245.639697
 30
0.0
 11
141.89994
 21
247.669472
 31
0.0
  0
LINE
  5
172D7
  8
0
  6
BYBLOCK
 62
     5
 10
142.17994
 20
245.583697
 30
0.0
 11
141.89994
 21
247.725472
 31
0.0
  0
LINE
  5
172D8
  8
0
  6
BYBLOCK
 62
     5
 10
141.025052
 20
246.514585
 30
0.0
 11
141.579709
 21
246.194354
 31
0.0
  0
LINE
  5
172D9
  8
0
  6
BYBLOCK
 62
     5
 10
143.054827
 20
246.794585
 30
0.0
 11
142.500171
 21
247.114816
 31
0.0
  0
LINE
  5
172DA
  8
0
  6
BYBLOCK
 62
     5
 10
142.663304
 20
247.277949
 30
0.0
 11
143.258029
 21
246.934585
 31
0.0
  0
LINE
  5
172DB
  8
0
  6
BYBLOCK
 62
     5
 10
140.821851
 20
246.934585
 30
0.0
 11
141.025052
 21
246.794585
 31
0.0
  0
LINE
  5
172DC
  8
0
  6
BYBLOCK
 62
     5
 10
143.258029
 20
246.374585
 30
0.0
 11
143.054827
 21
246.514585
 31
0.0
  0
LINE
  5
172DD
  8
0
  6
BYBLOCK
 62
     5
 10
142.663304
 20
246.03122
 30
0.0
 11
141.416575
 21
247.277949
 31
0.0
  0
LINE
  5
172DE
  8
0
  6
BYBLOCK
 62
     5
 10
142.31994
 20
245.436496
 30
0.0
 11
142.17994
 21
245.639697
 31
0.0
  0
LINE
  5
172DF
  8
0
  6
BYBLOCK
 62
     5
 10
141.75994
 20
247.872673
 30
0.0
 11
141.89994
 21
247.669472
 31
0.0
  0
LINE
  5
172E0
  8
0
  6
BYBLOCK
 62
     5
 10
141.75994
 20
245.436496
 30
0.0
 11
141.416575
 21
246.03122
 31
0.0
  0
LINE
  5
172E1
  8
0
  6
BYBLOCK
 62
     5
 10
141.579709
 20
246.194354
 30
0.0
 11
141.89994
 21
245.639697
 31
0.0
  0
LINE
  5
172E2
  8
0
  6
BYBLOCK
 62
     5
 10
142.500171
 20
247.114816
 30
0.0
 11
142.17994
 21
247.669472
 31
0.0
  0
LINE
  5
172E3
  8
0
  6
BYBLOCK
 62
     5
 10
142.31994
 20
247.872673
 30
0.0
 11
142.663304
 21
247.277949
 31
0.0
  0
ARC
  5
172E4
  8
0
  6
BYBLOCK
 62
     5
 10
142.03994
 20
246.654585
 30
0.0
 40
1.08
 50
172.551809
 51
187.448191
  0
ARC
  5
172E5
  8
0
  6
BYBLOCK
 62
     5
 10
142.03994
 20
246.654585
 30
0.0
 40
1.08
 50
262.551809
 51
277.448191
  0
ARC
  5
172E6
  8
0
  6
BYBLOCK
 62
     5
 10
142.03994
 20
246.654585
 30
0.0
 40
1.08
 50
352.551809
 51
7.448191
  0
ARC
  5
172E7
  8
0
  6
BYBLOCK
 62
     5
 10
142.03994
 20
246.654585
 30
0.0
 40
1.08
 50
82.551809
 51
97.448191
  0
ARC
  5
172E8
  8
0
  6
BYBLOCK
 62
     5
 10
142.03994
 20
246.654585
 30
0.0
 40
1.8
 50
261.050982
 51
278.949018
  0
ARC
  5
172E9
  8
0
  6
BYBLOCK
 62
     5
 10
142.03994
 20
246.654585
 30
0.0
 40
1.8
 50
171.050982
 51
188.949018
  0
ARC
  5
172EA
  8
0
  6
BYBLOCK
 62
     5
 10
142.03994
 20
246.654585
 30
0.0
 40
1.8
 50
351.05094
 51
8.949018
  0
ARC
  5
172EB
  8
0
  6
BYBLOCK
 62
     5
 10
142.03994
 20
246.654585
 30
0.0
 40
1.8
 50
81.05094
 51
98.949018
  0
ARC
  5
172EC
  8
0
  6
BYBLOCK
 62
     5
 10
142.040171
 20
246.654723
 30
0.0
 40
4.5
 50
180.0
 51
270.0
  0
CIRCLE
  5
172ED
  8
0
  6
BYBLOCK
 62
     5
 10
142.03994
 20
246.654585
 30
0.0
 40
2.75
  0
ARC
  5
172EE
  8
0
  6
BYBLOCK
 62
     5
 10
142.03994
 20
246.654585
 30
0.0
 40
2.95
 50
276.813854
 51
263.186146
  0
CIRCLE
  5
172EF
  8
0
  6
BYBLOCK
 62
     5
 10
142.03994
 20
246.654585
 30
0.0
 40
3.0
  0
LINE
  5
172F0
  8
0
  6
BYBLOCK
 62
     5
 10
137.540171
 20
251.018243
 30
0.0
 11
137.540171
 21
246.654723
 31
0.0
  0
ARC
  5
172F1
  8
0
  6
BYBLOCK
 62
     5
 10
145.479
 20
241.154723
 30
0.0
 40
1.0
 50
0.0
 51
90.0
  0
ARC
  5
172F2
  8
0
  6
BYBLOCK
 62
     5
 10
145.479
 20
250.204765
 30
0.0
 40
1.0
 50
0.0
 51
85.125854
  0
ARC
  5
17555
  8
0
  6
BYBLOCK
 62
     5
 10
139.479
 20
258.45601
 30
0.0
 40
7.0
 50
0.0
 51
90.0
  0
LINE
  5
17556
  8
CENTER
 10
142.364503
 20
261.341513
 30
0.0
 11
134.305205
 21
253.282215
 31
0.0
  0
CIRCLE
  5
17557
  8
0
  6
BYBLOCK
 62
     5
 10
138.298805
 20
257.275815
 30
0.0
 40
3.3
  0
LINE
  5
17558
  8
0
  6
BYBLOCK
 62
     5
 10
211.463488
 20
182.45601
 30
0.0
 11
211.463488
 21
178.55601
 31
0.0
  0
LINE
  5
17559
  8
0
  6
BYBLOCK
 62
     5
 10
227.01699
 20
182.45601
 30
0.0
 11
227.01699
 21
178.55601
 31
0.0
  0
LINE
  5
1755A
  8
HIDDEN
 10
209.363488
 20
176.507205
 30
0.0
 11
209.363488
 21
182.45601
 31
0.0
  0
LINE
  5
1755B
  8
CENTER
 10
219.240239
 20
186.45601
 30
0.0
 11
219.240239
 21
164.95862
 31
0.0
  0
LINE
  5
1755C
  8
HIDDEN
 10
235.541736
 20
169.45601
 30
0.0
 11
215.877166
 21
169.456014
 31
0.0
  0
LINE
  5
1755D
  8
0
  6
BYBLOCK
 62
     5
 10
213.086326
 20
178.55601
 30
0.0
 11
217.209663
 21
178.55601
 31
0.0
  0
LINE
  5
1755E
  8
0
  6
BYBLOCK
 62
     5
 10
226.485699
 20
177.95601
 30
0.0
 11
211.994779
 21
177.95601
 31
0.0
  0
LINE
  5
1755F
  8
0
  6
BYBLOCK
 62
     5
 10
211.843258
 20
181.25601
 30
0.0
 11
212.940082
 21
181.25601
 31
0.0
  0
LINE
  5
17560
  8
0
  6
BYBLOCK
 62
     5
 10
211.994779
 20
177.95601
 30
0.0
 11
211.697015
 21
178.25601
 31
0.0
  0
LINE
  5
17561
  8
0
  6
BYBLOCK
 62
     5
 10
212.141022
 20
177.95601
 30
0.0
 11
211.843258
 21
178.25601
 31
0.0
  0
LINE
  5
17562
  8
0
  6
BYBLOCK
 62
     5
 10
211.697015
 20
178.55601
 30
0.0
 11
211.697015
 21
178.25601
 31
0.0
  0
LINE
  5
17563
  8
0
  6
BYBLOCK
 62
     5
 10
211.843258
 20
178.25601
 30
0.0
 11
211.843258
 21
181.25601
 31
0.0
  0
LINE
  5
17564
  8
0
  6
BYBLOCK
 62
     5
 10
211.697015
 20
178.25601
 30
0.0
 11
211.843258
 21
178.25601
 31
0.0
  0
LINE
  5
17565
  8
0
  6
BYBLOCK
 62
     5
 10
211.463586
 20
178.55601
 30
0.0
 11
211.697015
 21
178.55601
 31
0.0
  0
LINE
  5
17566
  8
0
  6
BYBLOCK
 62
     5
 10
212.940082
 20
178.25601
 30
0.0
 11
213.237846
 21
177.95601
 31
0.0
  0
LINE
  5
17567
  8
0
  6
BYBLOCK
 62
     5
 10
213.086326
 20
178.25601
 30
0.0
 11
213.384089
 21
177.95601
 31
0.0
  0
LINE
  5
17568
  8
0
  6
BYBLOCK
 62
     5
 10
212.940082
 20
181.25601
 30
0.0
 11
212.940082
 21
178.25601
 31
0.0
  0
LINE
  5
17569
  8
0
  6
BYBLOCK
 62
     5
 10
213.086326
 20
178.25601
 30
0.0
 11
213.086326
 21
178.55601
 31
0.0
  0
LINE
  5
1756A
  8
0
  6
BYBLOCK
 62
     5
 10
212.940082
 20
178.25601
 30
0.0
 11
213.086326
 21
178.25601
 31
0.0
  0
LINE
  5
1756B
  8
0
  6
BYBLOCK
 62
     5
 10
217.209663
 20
178.55601
 30
0.0
 11
217.209663
 21
178.25601
 31
0.0
  0
LINE
  5
1756C
  8
0
  6
BYBLOCK
 62
     5
 10
217.209663
 20
178.25601
 30
0.0
 11
217.173102
 21
177.95601
 31
0.0
  0
LINE
  5
1756D
  8
0
  6
BYBLOCK
 62
     5
 10
217.209663
 20
178.25601
 30
0.0
 11
223.561958
 21
178.25601
 31
0.0
  0
LINE
  5
1756E
  8
0
  6
BYBLOCK
 62
     5
 10
223.561958
 20
178.25601
 30
0.0
 11
223.561958
 21
178.55601
 31
0.0
  0
LINE
  5
1756F
  8
0
  6
BYBLOCK
 62
     5
 10
226.783462
 20
178.55601
 30
0.0
 11
226.783462
 21
178.25601
 31
0.0
  0
LINE
  5
17570
  8
0
  6
BYBLOCK
 62
     5
 10
223.525397
 20
177.95601
 30
0.0
 11
223.561958
 21
178.25601
 31
0.0
  0
LINE
  5
17571
  8
0
  6
BYBLOCK
 62
     5
 10
227.016892
 20
178.55601
 30
0.0
 11
223.561958
 21
178.55601
 31
0.0
  0
LINE
  5
17572
  8
0
  6
BYBLOCK
 62
     5
 10
226.485699
 20
177.95601
 30
0.0
 11
226.783462
 21
178.25601
 31
0.0
  0
ARC
  5
17573
  8
HIDDEN
 10
216.871704
 20
176.272791
 30
0.0
 40
23.851232
 50
351.771591
 51
9.372141
  0
LINE
  5
17574
  8
HIDDEN
 10
239.091162
 20
170.65601
 30
0.0
 11
237.701597
 21
170.65601
 31
0.0
  0
LINE
  5
17575
  8
HIDDEN
 10
237.731228
 20
170.65601
 30
0.0
 11
236.469239
 21
169.755114
 31
0.0
  0
LINE
  5
17576
  8
0
  6
BYBLOCK
 62
     5
 10
230.940239
 20
208.057435
 30
0.0
 11
230.940239
 21
245.604585
 31
0.0
  0
LINE
  5
17577
  8
0
  6
BYBLOCK
 62
     5
 10
207.440239
 20
264.45601
 30
0.0
 11
207.440239
 21
183.65601
 31
0.0
  0
LINE
  5
17578
  8
0
  6
BYBLOCK
 62
     5
 10
231.440239
 20
265.25601
 30
0.0
 11
231.440239
 21
185.45601
 31
0.0
  0
LINE
  5
17579
  8
0
  6
BYBLOCK
 62
     5
 10
208.440239
 20
199.131378
 30
0.0
 11
230.940239
 21
199.131378
 31
0.0
  0
LINE
  5
1757A
  8
0
  6
BYBLOCK
 62
     5
 10
209.363526
 20
182.45601
 30
0.0
 11
229.116952
 21
182.45601
 31
0.0
  0
LINE
  5
1757B
  8
0
  6
BYBLOCK
 62
     5
 10
226.740239
 20
208.25701
 30
0.0
 11
230.940239
 21
208.25701
 31
0.0
  0
ARC
  5
1757C
  8
0
  6
BYBLOCK
 62
     5
 10
230.440239
 20
205.231072
 30
0.0
 40
2.526364
 50
90.0
 51
153.522661
  0
ARC
  5
1757D
  8
0
  6
BYBLOCK
 62
     5
 10
230.440239
 20
203.283799
 30
0.0
 40
2.526364
 50
206.477339
 51
270.0
  0
LINE
  5
1757E
  8
0
  6
BYBLOCK
 62
     5
 10
230.740239
 20
183.45601
 30
0.0
 11
207.640239
 21
183.45601
 31
0.0
  0
LINE
  5
1757F
  8
0
  6
BYBLOCK
 62
     5
 10
208.440239
 20
185.45601
 30
0.0
 11
231.440239
 21
185.45601
 31
0.0
  0
LINE
  5
17642
  8
0
  6
BYBLOCK
 62
     5
 10
223.440239
 20
199.664385
 30
0.0
 11
223.440239
 21
207.843222
 31
0.0
  0
LINE
  5
17643
  8
0
  6
BYBLOCK
 62
     5
 10
226.440239
 20
208.05701
 30
0.0
 11
226.440239
 21
199.649718
 31
0.0
  0
LINE
  5
17644
  8
0
  6
BYBLOCK
 62
     5
 10
226.440239
 20
194.394839
 30
0.0
 11
208.440239
 21
194.394839
 31
0.0
  0
LINE
  5
17645
  8
HIDDEN
 10
228.329746
 20
182.45601
 30
0.0
 11
209.363526
 21
182.45601
 31
0.0
  0
ARC
  5
17646
  8
0
  6
BYBLOCK
 62
     5
 10
208.440239
 20
200.131378
 30
0.0
 40
1.0
 50
180.0
 51
270.0
  0
LINE
  5
17647
  8
0
  6
BYBLOCK
 62
     5
 10
209.363488
 20
182.45601
 30
0.0
 11
209.363488
 21
183.45601
 31
0.0
  0
ARC
  5
17648
  8
0
  6
BYBLOCK
 62
     5
 10
208.440239
 20
195.394839
 30
0.0
 40
1.0
 50
180.0
 51
270.0
  0
ARC
  5
17649
  8
0
  6
BYBLOCK
 62
     5
 10
207.640239
 20
183.65601
 30
0.0
 40
0.2
 50
180.0
 51
270.0
  0
ARC
  5
1764A
  8
0
  6
BYBLOCK
 62
     5
 10
208.440239
 20
186.45601
 30
0.0
 40
1.0
 50
180.0
 51
270.0
  0
LINE
  5
1764B
  8
0
  6
BYBLOCK
 62
     5
 10
227.946407
 20
204.627435
 30
0.0
 11
228.178863
 21
204.627435
 31
0.0
  0
LINE
  5
17790
  8
0
  6
BYBLOCK
 62
     5
 10
228.178863
 20
202.190288
 30
0.0
 11
228.178863
 21
202.157435
 31
0.0
  0
LINE
  5
17791
  8
0
  6
BYBLOCK
 62
     5
 10
228.178863
 20
203.887435
 30
0.0
 11
227.946407
 21
203.887435
 31
0.0
  0
ARC
  5
17792
  8
0
  6
BYBLOCK
 62
     5
 10
226.440239
 20
193.894839
 30
0.0
 40
0.5
 50
12.679722
 51
90.0
  0
LINE
  5
1806F
  8
0
  6
BYBLOCK
 62
     5
 10
228.178863
 20
204.627435
 30
0.0
 11
228.178863
 21
203.887431
 31
0.0
  0
LINE
  5
18070
  8
0
  6
BYBLOCK
 62
     5
 10
224.075377
 20
191.69507
 30
0.0
 11
224.075377
 21
191.673159
 31
0.0
  0
LINE
  5
18071
  8
0
  6
BYBLOCK
 62
     5
 10
224.075377
 20
190.17507
 30
0.0
 11
224.075377
 21
189.615069
 31
0.0
  0
LINE
  5
18072
  8
0
  6
BYBLOCK
 62
     5
 10
224.075377
 20
188.116981
 30
0.0
 11
224.075377
 21
188.09507
 31
0.0
  0
LINE
  5
18073
  8
0
  6
BYBLOCK
 62
     5
 10
225.740239
 20
186.965907
 30
0.0
 11
225.740239
 21
192.843268
 31
0.0
  0
LINE
  5
18074
  8
0
  6
BYBLOCK
 62
     5
 10
226.440239
 20
192.892265
 30
0.0
 11
226.440239
 21
186.897875
 31
0.0
  0
LINE
  5
18075
  8
0
  6
BYBLOCK
 62
     5
 10
226.440239
 20
186.89507
 30
0.0
 11
226.940239
 21
186.89507
 31
0.0
  0
LINE
  5
18076
  8
0
  6
BYBLOCK
 62
     5
 10
226.440239
 20
186.965907
 30
0.0
 11
225.740239
 21
186.965907
 31
0.0
  0
LINE
  5
18077
  8
0
  6
BYBLOCK
 62
     5
 10
224.075377
 20
189.61507
 30
0.0
 11
223.855671
 21
189.61507
 31
0.0
  0
LINE
  5
18078
  8
0
  6
BYBLOCK
 62
     5
 10
223.855671
 20
190.17507
 30
0.0
 11
224.075377
 21
190.17507
 31
0.0
  0
LINE
  5
18079
  8
0
  6
BYBLOCK
 62
     5
 10
226.440239
 20
192.84507
 30
0.0
 11
225.740239
 21
192.84507
 31
0.0
  0
LINE
  5
1807A
  8
0
  6
BYBLOCK
 62
     5
 10
226.440239
 20
192.89507
 30
0.0
 11
226.940239
 21
192.89507
 31
0.0
  0
ARC
  5
1807B
  8
0
  6
BYBLOCK
 62
     5
 10
225.740239
 20
189.078894
 30
0.0
 40
1.933824
 50
210.580287
 51
270.0
  0
ARC
  5
1807C
  8
0
  6
BYBLOCK
 62
     5
 10
225.740239
 20
190.711247
 30
0.0
 40
1.933824
 50
90.0
 51
149.419713
  0
ARC
  5
1807D
  8
0
  6
BYBLOCK
 62
     5
 10
227.140239
 20
185.65601
 30
0.0
 40
0.2
 50
180.0
 51
270.0
  0
LINE
  5
18892
  8
0
  6
BYBLOCK
 62
     5
 10
226.940239
 20
185.65601
 30
0.0
 11
226.940239
 21
194.007206
 31
0.0
  0
LINE
  5
18893
  8
0
  6
BYBLOCK
 62
     5
 10
208.440239
 20
208.257435
 30
0.0
 11
222.940239
 21
208.257435
 31
0.0
  0
ARC
  5
18894
  8
0
  6
BYBLOCK
 62
     5
 10
208.440239
 20
209.257435
 30
0.0
 40
1.0
 50
180.0
 51
270.0
  0
LINE
  5
18895
  8
0
  6
BYBLOCK
 62
     5
 10
228.178863
 20
206.357435
 30
0.0
 11
228.178863
 21
206.324582
 31
0.0
  0
ARC
  5
18896
  8
0
  6
BYBLOCK
 62
     5
 10
226.740239
 20
207.95701
 30
0.0
 40
0.3
 50
90.0
 51
180.0
  0
ARC
  5
18EAD
  8
0
  6
BYBLOCK
 62
     5
 10
222.940239
 20
207.757435
 30
0.0
 40
0.5
 50
0.0
 51
90.0
  0
LINE
  5
18EAE
  8
0
  6
BYBLOCK
 62
     5
 10
230.440239
 20
200.490474
 30
0.0
 11
230.440239
 21
208.057435
 31
0.0
  0
LINE
  5
18EAF
  8
0
  6
BYBLOCK
 62
     5
 10
229.11699
 20
182.45601
 30
0.0
 11
229.11699
 21
183.45601
 31
0.0
  0
LINE
  5
18EB0
  8
0
  6
BYBLOCK
 62
     5
 10
230.440239
 20
200.490474
 30
0.0
 11
231.440239
 21
200.490474
 31
0.0
  0
ARC
  5
18EB1
  8
0
  6
BYBLOCK
 62
     5
 10
231.640239
 20
185.65601
 30
0.0
 40
0.2
 50
180.0
 51
270.0
  0
LINE
  5
18EB2
  8
0
  6
BYBLOCK
 62
     5
 10
230.940239
 20
185.45601
 30
0.0
 11
230.940239
 21
183.65601
 31
0.0
  0
ARC
  5
18EB3
  8
0
  6
BYBLOCK
 62
     5
 10
230.740239
 20
183.65601
 30
0.0
 40
0.2
 50
270.0
 51
0.0
  0
LINE
  5
18EB4
  8
0
  6
BYBLOCK
 62
     5
 10
231.440239
 20
191.44507
 30
0.0
 11
230.940239
 21
191.44507
 31
0.0
  0
LINE
  5
18EB5
  8
0
  6
BYBLOCK
 62
     5
 10
231.440239
 20
191.84507
 30
0.0
 11
230.940239
 21
191.84507
 31
0.0
  0
LINE
  5
18EB6
  8
HIDDEN
 10
229.11699
 20
183.05601
 30
0.0
 11
229.11699
 21
183.45601
 31
0.0
  0
LINE
  5
18EB7
  8
HIDDEN
 10
239.091162
 20
181.85601
 30
0.0
 11
237.701597
 21
181.85601
 31
0.0
  0
LINE
  5
18EB8
  8
HIDDEN
 10
237.731228
 20
181.85601
 30
0.0
 11
236.469239
 21
182.756906
 31
0.0
  0
LINE
  5
18EB9
  8
HIDDEN
 10
235.541736
 20
183.05601
 30
0.0
 11
229.614641
 21
183.05601
 31
0.0
  0
LINE
  5
18EBA
  8
0
  6
BYBLOCK
 62
     5
 10
230.940239
 20
190.907518
 30
0.0
 11
230.940239
 21
200.490474
 31
0.0
  0
LINE
  5
18EBB
  8
0
  6
BYBLOCK
 62
     5
 10
230.440239
 20
208.057435
 30
0.0
 11
231.440239
 21
208.057435
 31
0.0
  0
LINE
  5
18EBC
  8
0
  6
BYBLOCK
 62
     5
 10
231.440239
 20
208.50701
 30
0.0
 11
230.940239
 21
208.50701
 31
0.0
  0
LINE
  5
18EBD
  8
0
  6
BYBLOCK
 62
     5
 10
208.440239
 20
251.828387
 30
0.0
 11
230.940239
 21
251.828387
 31
0.0
  0
ARC
  5
18EBE
  8
0
  6
BYBLOCK
 62
     5
 10
230.440239
 20
261.990586
 30
0.0
 40
2.526364
 50
90.0
 51
153.522661
  0
LINE
  5
18EBF
  8
0
  6
BYBLOCK
 62
     5
 10
208.440239
 20
265.45601
 30
0.0
 11
231.440239
 21
265.45601
 31
0.0
  0
LINE
  5
18EC0
  8
0
  6
BYBLOCK
 62
     5
 10
226.740239
 20
257.01701
 30
0.0
 11
230.940239
 21
257.01701
 31
0.0
  0
ARC
  5
18EC1
  8
0
  6
BYBLOCK
 62
     5
 10
230.440239
 20
260.043313
 30
0.0
 40
2.526364
 50
206.477339
 51
270.0
  0
LINE
  5
18EC2
  8
0
  6
BYBLOCK
 62
     5
 10
226.440239
 20
242.154723
 30
0.0
 11
208.440239
 21
242.154723
 31
0.0
  0
ARC
  5
18EC3
  8
0
  6
BYBLOCK
 62
     5
 10
208.440239
 20
250.828387
 30
0.0
 40
1.0
 50
90.0
 51
180.0
  0
ARC
  5
18EC4
  8
0
  6
BYBLOCK
 62
     5
 10
208.440239
 20
241.154723
 30
0.0
 40
1.0
 50
90.0
 51
180.0
  0
LINE
  5
18EC5
  8
0
  6
BYBLOCK
 62
     5
 10
224.075377
 20
248.454585
 30
0.0
 11
224.075377
 21
248.432673
 31
0.0
  0
LINE
  5
18EC6
  8
0
  6
BYBLOCK
 62
     5
 10
224.075377
 20
246.934585
 30
0.0
 11
224.075377
 21
246.374583
 31
0.0
  0
LINE
  5
18EC7
  8
0
  6
BYBLOCK
 62
     5
 10
224.075377
 20
244.876496
 30
0.0
 11
224.075377
 21
244.854585
 31
0.0
  0
LINE
  5
18EC8
  8
0
  6
BYBLOCK
 62
     5
 10
225.740239
 20
243.725421
 30
0.0
 11
225.740239
 21
249.602783
 31
0.0
  0
LINE
  5
18EC9
  8
0
  6
BYBLOCK
 62
     5
 10
226.440239
 20
249.65178
 30
0.0
 11
226.440239
 21
243.65739
 31
0.0
  0
LINE
  5
18ECA
  8
0
  6
BYBLOCK
 62
     5
 10
226.440239
 20
243.654585
 30
0.0
 11
226.940239
 21
243.654585
 31
0.0
  0
LINE
  5
18ECB
  8
0
  6
BYBLOCK
 62
     5
 10
226.440239
 20
243.725421
 30
0.0
 11
225.740239
 21
243.725421
 31
0.0
  0
LINE
  5
18ECC
  8
0
  6
BYBLOCK
 62
     5
 10
224.075377
 20
246.374585
 30
0.0
 11
223.855671
 21
246.374585
 31
0.0
  0
LINE
  5
18ECD
  8
0
  6
BYBLOCK
 62
     5
 10
223.855671
 20
246.934585
 30
0.0
 11
224.075377
 21
246.934585
 31
0.0
  0
LINE
  5
18ECE
  8
0
  6
BYBLOCK
 62
     5
 10
226.440239
 20
249.604585
 30
0.0
 11
225.740239
 21
249.604585
 31
0.0
  0
LINE
  5
18ECF
  8
0
  6
BYBLOCK
 62
     5
 10
226.440239
 20
249.654585
 30
0.0
 11
226.940239
 21
249.654585
 31
0.0
  0
ARC
  5
18ED0
  8
0
  6
BYBLOCK
 62
     5
 10
225.740239
 20
245.838408
 30
0.0
 40
1.933824
 50
210.580287
 51
270.0
  0
ARC
  5
18ED1
  8
0
  6
BYBLOCK
 62
     5
 10
225.740239
 20
247.470761
 30
0.0
 40
1.933824
 50
90.0
 51
149.419713
  0
ARC
  5
18ED2
  8
0
  6
BYBLOCK
 62
     5
 10
226.440239
 20
242.654723
 30
0.0
 40
0.5
 50
270.0
 51
0.0
  0
LINE
  5
196E7
  8
0
  6
BYBLOCK
 62
     5
 10
226.940239
 20
242.42358
 30
0.0
 11
226.940239
 21
251.587871
 31
0.0
  0
LINE
  5
196E8
  8
0
  6
BYBLOCK
 62
     5
 10
208.440239
 20
257.01695
 30
0.0
 11
222.940239
 21
257.01695
 31
0.0
  0
ARC
  5
196E9
  8
0
  6
BYBLOCK
 62
     5
 10
208.440239
 20
264.45601
 30
0.0
 40
1.0
 50
90.0
 51
180.0
  0
ARC
  5
196EA
  8
0
  6
BYBLOCK
 62
     5
 10
208.440239
 20
256.01695
 30
0.0
 40
1.0
 50
90.0
 51
180.0
  0
LINE
  5
196EB
  8
0
  6
BYBLOCK
 62
     5
 10
228.178863
 20
263.11695
 30
0.0
 11
228.178863
 21
263.084097
 31
0.0
  0
ARC
  5
196EC
  8
0
  6
BYBLOCK
 62
     5
 10
223.940239
 20
264.95601
 30
0.0
 40
0.5
 50
90.0
 51
180.0
  0
ARC
  5
196ED
  8
0
  6
BYBLOCK
 62
     5
 10
225.940239
 20
264.95601
 30
0.0
 40
0.5
 50
0.0
 51
90.0
  0
LINE
  5
19894
  8
0
  6
BYBLOCK
 62
     5
 10
228.178863
 20
261.38695
 30
0.0
 11
228.178863
 21
260.646946
 31
0.0
  0
LINE
  5
19895
  8
0
  6
BYBLOCK
 62
     5
 10
228.178863
 20
258.949802
 30
0.0
 11
228.178863
 21
258.91695
 31
0.0
  0
LINE
  5
19896
  8
0
  6
BYBLOCK
 62
     5
 10
228.178863
 20
260.64695
 30
0.0
 11
227.946407
 21
260.64695
 31
0.0
  0
LINE
  5
19897
  8
0
  6
BYBLOCK
 62
     5
 10
227.946407
 20
261.38695
 30
0.0
 11
228.178863
 21
261.38695
 31
0.0
  0
ARC
  5
19898
  8
0
  6
BYBLOCK
 62
     5
 10
226.740239
 20
257.31701
 30
0.0
 40
0.3
 50
187.499991
 51
270.0
  0
ARC
  5
1A525
  8
0
  6
BYBLOCK
 62
     5
 10
222.940239
 20
257.51695
 30
0.0
 40
0.5
 50
270.0
 51
356.538461
  0
LINE
  5
1A526
  8
0
  6
BYBLOCK
 62
     5
 10
223.440239
 20
257.475844
 30
0.0
 11
223.440239
 21
264.95601
 31
0.0
  0
LINE
  5
1A527
  8
0
  6
BYBLOCK
 62
     5
 10
226.440239
 20
264.95601
 30
0.0
 11
226.440239
 21
257.265176
 31
0.0
  0
LINE
  5
1A66C
  8
0
  6
BYBLOCK
 62
     5
 10
230.940239
 20
251.565405
 30
0.0
 11
230.940239
 21
257.249988
 31
0.0
  0
LINE
  5
1A66D
  8
0
  6
BYBLOCK
 62
     5
 10
231.440239
 20
251.566817
 30
0.0
 11
230.940239
 21
251.566817
 31
0.0
  0
LINE
  5
1A66E
  8
0
  6
BYBLOCK
 62
     5
 10
231.440239
 20
244.704585
 30
0.0
 11
230.940239
 21
244.704585
 31
0.0
  0
LINE
  5
1A66F
  8
0
  6
BYBLOCK
 62
     5
 10
231.440239
 20
245.104585
 30
0.0
 11
230.940239
 21
245.104585
 31
0.0
  0
LINE
  5
1A670
  8
0
  6
BYBLOCK
 62
     5
 10
231.440239
 20
265.45601
 30
0.0
 11
231.440239
 21
265.264368
 31
0.0
  0
ARC
  5
1A671
  8
0
  6
BYBLOCK
 62
     5
 10
231.640239
 20
265.25601
 30
0.0
 40
0.2
 50
90.0
 51
180.0
  0
LINE
  5
1A672
  8
0
  6
BYBLOCK
 62
     5
 10
230.940239
 20
265.45601
 30
0.0
 11
230.940239
 21
264.81695
 31
0.0
  0
LINE
  5
1A673
  8
0
  6
BYBLOCK
 62
     5
 10
230.440239
 20
264.81695
 30
0.0
 11
231.440239
 21
264.81695
 31
0.0
  0
LINE
  5
1A674
  8
0
  6
BYBLOCK
 62
     5
 10
231.440239
 20
265.20607
 30
0.0
 11
230.940239
 21
265.20607
 31
0.0
  0
LINE
  5
1A675
  8
0
  6
BYBLOCK
 62
     5
 10
231.440239
 20
256.76701
 30
0.0
 11
230.940239
 21
256.76701
 31
0.0
  0
LINE
  5
1A676
  8
0
  6
BYBLOCK
 62
     5
 10
230.440239
 20
257.249988
 30
0.0
 11
231.440239
 21
257.249988
 31
0.0
  0
LINE
  5
1A677
  8
0
  6
BYBLOCK
 62
     5
 10
230.440239
 20
257.249988
 30
0.0
 11
230.440239
 21
264.81695
 31
0.0
  0
LINE
  5
1A678
  8
0
  6
BYBLOCK
 62
     5
 10
282.840239
 20
251.40045
 30
0.0
 11
352.440239
 21
251.40045
 31
0.0
  0
LINE
  5
1A679
  8
0
  6
BYBLOCK
 62
     5
 10
282.840239
 20
199.51157
 30
0.0
 11
352.440239
 21
199.51157
 31
0.0
  0
LINE
  5
1A67A
  8
0
  6
BYBLOCK
 62
     5
 10
352.440239
 20
265.45601
 30
0.0
 11
282.840239
 21
265.759699
 31
0.0
  0
LINE
  5
1A67B
  8
0
  6
BYBLOCK
 62
     5
 10
352.440239
 20
185.45601
 30
0.0
 11
302.138057
 21
185.236524
 31
0.0
  0
LINE
  5
1A67C
  8
0
  6
BYBLOCK
 62
     5
 10
281.440239
 20
180.85601
 30
0.0
 11
281.440239
 21
183.85601
 31
0.0
  0
LINE
  5
1A67D
  8
0
  6
BYBLOCK
 62
     5
 10
282.305809
 20
180.85601
 30
0.0
 11
282.305809
 21
183.85601
 31
0.0
  0
LINE
  5
1A67E
  8
0
  6
BYBLOCK
 62
     5
 10
280.840239
 20
182.25601
 30
0.0
 11
280.840239
 21
181.55601
 31
0.0
  0
LINE
  5
1A67F
  8
0
  6
BYBLOCK
 62
     5
 10
276.840239
 20
180.85601
 30
0.0
 11
276.840239
 21
183.05601
 31
0.0
  0
LINE
  5
1A680
  8
0
  6
BYBLOCK
 62
     5
 10
277.340239
 20
182.25601
 30
0.0
 11
277.340239
 21
181.55601
 31
0.0
  0
LINE
  5
1A681
  8
0
  6
BYBLOCK
 62
     5
 10
263.574669
 20
180.85601
 30
0.0
 11
263.574669
 21
183.85601
 31
0.0
  0
LINE
  5
1A682
  8
0
  6
BYBLOCK
 62
     5
 10
295.84324
 20
182.05601
 30
0.0
 11
295.673539
 21
176.65601
 31
0.0
  0
LINE
  5
1A683
  8
0
  6
BYBLOCK
 62
     5
 10
294.985834
 20
176.65601
 30
0.0
 11
295.056127
 21
182.05601
 31
0.0
  0
LINE
  5
1A684
  8
0
  6
BYBLOCK
 62
     5
 10
288.606939
 20
176.65601
 30
0.0
 11
288.437237
 21
182.05601
 31
0.0
  0
LINE
  5
1A685
  8
0
  6
BYBLOCK
 62
     5
 10
289.224351
 20
182.05601
 30
0.0
 11
289.294644
 21
176.65601
 31
0.0
  0
LINE
  5
1A686
  8
HIDDEN
 10
284.140239
 20
180.05601
 30
0.0
 11
284.140239
 21
182.05601
 31
0.0
  0
LINE
  5
1A687
  8
CENTER
 10
272.940239
 20
192.93213
 30
0.0
 11
272.940239
 21
164.694726
 31
0.0
  0
LINE
  5
1A688
  8
CENTER
 10
292.140239
 20
190.831133
 30
0.0
 11
292.140239
 21
163.686248
 31
0.0
  0
LINE
  5
1A689
  8
HIDDEN
 10
300.8707
 20
168.35601
 30
0.0
 11
291.790239
 21
168.35601
 31
0.0
  0
LINE
  5
1A68A
  8
0
  6
BYBLOCK
 62
     5
 10
272.940239
 20
180.85601
 30
0.0
 11
282.305809
 21
180.85601
 31
0.0
  0
LINE
  5
1A68B
  8
HIDDEN
 10
280.97201
 20
169.05601
 30
0.0
 11
272.318642
 21
169.05601
 31
0.0
  0
LINE
  5
1A68C
  8
HIDDEN
 10
269.76508
 20
180.85601
 30
0.0
 11
282.305764
 21
180.85601
 31
0.0
  0
LINE
  5
1A68D
  8
HIDDEN
 10
265.507446
 20
178.35601
 30
0.0
 11
264.074617
 21
178.35601
 31
0.0
  0
LINE
  5
1A68E
  8
0
  6
BYBLOCK
 62
     5
 10
272.940239
 20
180.85601
 30
0.0
 11
263.574669
 21
180.85601
 31
0.0
  0
LINE
  5
1A68F
  8
HIDDEN
 10
263.574669
 20
178.85601
 30
0.0
 11
263.574669
 21
180.85601
 31
0.0
  0
ARC
  5
1A690
  8
HIDDEN
 10
264.074669
 20
178.85601
 30
0.0
 40
0.5
 50
180.0
 51
270.0
  0
LINE
  5
1A797
  8
HIDDEN
 10
265.507455
 20
177.55601
 30
0.0
 11
266.057674
 21
177.55601
 31
0.0
  0
LINE
  5
1A798
  8
HIDDEN
 10
265.507446
 20
177.55601
 30
0.0
 11
265.507446
 21
178.35601
 31
0.0
  0
LINE
  5
1A799
  8
HIDDEN
 10
266.009401
 20
176.962156
 30
0.0
 11
265.957446
 21
177.55601
 31
0.0
  0
ARC
  5
1A79A
  8
HIDDEN
 10
266.607118
 20
177.014449
 30
0.0
 40
0.6
 50
185.0
 51
203.48792
  0
LINE
  5
1A79B
  8
HIDDEN
 10
266.057674
 20
175.05601
 30
0.0
 11
266.057674
 21
177.55601
 31
0.0
  0
LINE
  5
1A79C
  8
0
  6
BYBLOCK
 62
     5
 10
269.215239
 20
175.65601
 30
0.0
 11
276.665239
 21
175.65601
 31
0.0
  0
LINE
  5
1A79D
  8
0
  6
BYBLOCK
 62
     5
 10
269.515239
 20
175.35601
 30
0.0
 11
272.940239
 21
175.35601
 31
0.0
  0
LINE
  5
1A79E
  8
0
  6
BYBLOCK
 62
     5
 10
269.215239
 20
175.65601
 30
0.0
 11
269.515239
 21
175.35601
 31
0.0
  0
LINE
  5
1A79F
  8
0
  6
BYBLOCK
 62
     5
 10
276.365239
 20
175.35601
 30
0.0
 11
276.665239
 21
175.65601
 31
0.0
  0
LINE
  5
1A7A0
  8
0
  6
BYBLOCK
 62
     5
 10
272.940239
 20
175.35601
 30
0.0
 11
276.365239
 21
175.35601
 31
0.0
  0
LINE
  5
1A7A1
  8
0
  6
BYBLOCK
 62
     5
 10
269.215239
 20
175.65601
 30
0.0
 11
269.215239
 21
180.85601
 31
0.0
  0
LINE
  5
1A7A2
  8
0
  6
BYBLOCK
 62
     5
 10
269.515239
 20
175.35601
 30
0.0
 11
269.515239
 21
180.85601
 31
0.0
  0
LINE
  5
1A7A3
  8
0
  6
BYBLOCK
 62
     5
 10
276.365239
 20
175.35601
 30
0.0
 11
276.365239
 21
180.85601
 31
0.0
  0
LINE
  5
1A7A4
  8
0
  6
BYBLOCK
 62
     5
 10
276.665239
 20
175.65601
 30
0.0
 11
276.665239
 21
180.85601
 31
0.0
  0
LINE
  5
1A7A5
  8
0
  6
BYBLOCK
 62
     5
 10
288.606939
 20
176.65601
 30
0.0
 11
295.673539
 21
176.65601
 31
0.0
  0
ARC
  5
1A7A6
  8
HIDDEN
 10
291.790239
 20
174.35601
 30
0.0
 40
6.0
 50
180.0
 51
270.0
  0
ARC
  5
1A7A7
  8
0
  6
BYBLOCK
 62
     5
 10
277.940239
 20
181.55601
 30
0.0
 40
0.6
 50
180.0
 51
270.0
  0
LINE
  5
1A7A8
  8
0
  6
BYBLOCK
 62
     5
 10
277.940239
 20
180.95601
 30
0.0
 11
279.090239
 21
180.95601
 31
0.0
  0
LINE
  5
1A7A9
  8
0
  6
BYBLOCK
 62
     5
 10
280.240239
 20
180.95601
 30
0.0
 11
279.090239
 21
180.95601
 31
0.0
  0
ARC
  5
1A7AA
  8
0
  6
BYBLOCK
 62
     5
 10
280.240239
 20
181.55601
 30
0.0
 40
0.6
 50
270.0
 51
360.0
  0
LINE
  5
1A7AB
  8
HIDDEN
 10
285.790239
 20
174.35601
 30
0.0
 11
285.790239
 21
179.55601
 31
0.0
  0
ARC
  5
1A7AC
  8
HIDDEN
 10
284.640239
 20
180.05601
 30
0.0
 40
0.5
 50
180.0
 51
270.0
  0
LINE
  5
1A7AD
  8
HIDDEN
 10
285.790239
 20
179.55601
 30
0.0
 11
284.640239
 21
179.55601
 31
0.0
  0
LINE
  5
1A7AE
  8
HIDDEN
 10
282.305809
 20
180.465059
 30
0.0
 11
282.305809
 21
180.85601
 31
0.0
  0
LINE
  5
1A7AF
  8
HIDDEN
 10
284.140239
 20
180.465059
 30
0.0
 11
282.305809
 21
180.465059
 31
0.0
  0
POLYLINE
  5
1A7B0
  8
HIDDEN
 66
     1
 10
0.0
 20
0.0
 30
0.0
  0
VERTEX
  5
24760
  8
HIDDEN
 10
281.414098
 20
169.329076
 30
0.0
  0
VERTEX
  5
24761
  8
HIDDEN
 10
281.37351
 20
169.262127
 30
0.0
  0
VERTEX
  5
24762
  8
HIDDEN
 10
281.322847
 20
169.202537
 30
0.0
  0
VERTEX
  5
24763
  8
HIDDEN
 10
281.2637
 20
169.151493
 30
0.0
  0
VERTEX
  5
24764
  8
HIDDEN
 10
281.197244
 20
169.110599
 30
0.0
  0
VERTEX
  5
24765
  8
HIDDEN
 10
281.125347
 20
169.080475
 30
0.0
  0
VERTEX
  5
24766
  8
HIDDEN
 10
281.050551
 20
169.062424
 30
0.0
  0
VERTEX
  5
24767
  8
HIDDEN
 10
280.97201
 20
169.05601
 30
0.0
  0
SEQEND
  5
24768
  8
HIDDEN
  0
LINE
  5
1A7BA
  8
HIDDEN
 10
287.597925
 20
169.669092
 30
0.0
 11
287.590563
 21
169.665153
 31
0.0
  0
LINE
  5
1A7BB
  8
HIDDEN
 10
281.477235
 20
169.246961
 30
0.0
 11
286.843455
 21
169.246961
 31
0.0
  0
LINE
  5
1A7BC
  8
HIDDEN
 10
287.86036
 20
169.822132
 30
0.0
 11
286.843455
 21
169.246961
 31
0.0
  0
LINE
  5
1A840
  8
HIDDEN
 10
311.175941
 20
171.65705
 30
0.0
 11
325.262989
 21
171.65705
 31
0.0
  0
LINE
  5
1A841
  8
HIDDEN
 10
311.231392
 20
178.15497
 30
0.0
 11
325.262989
 21
178.15497
 31
0.0
  0
POLYLINE
  5
1A842
  8
HIDDEN
 66
     1
 10
0.0
 20
0.0
 30
0.0
  0
VERTEX
  5
24769
  8
HIDDEN
 10
307.107862
 20
181.45601
 30
0.0
  0
VERTEX
  5
2476A
  8
HIDDEN
 10
307.114828
 20
181.455761
 30
0.0
  0
VERTEX
  5
2476B
  8
HIDDEN
 10
307.121219
 20
181.455093
 30
0.0
  0
VERTEX
  5
2476C
  8
HIDDEN
 10
307.12761
 20
181.454005
 30
0.0
  0
SEQEND
  5
2476D
  8
HIDDEN
  0
POLYLINE
  5
1A848
  8
HIDDEN
 66
     1
 10
0.0
 20
0.0
 30
0.0
  0
VERTEX
  5
2476E
  8
HIDDEN
 10
307.095653
 20
181.455244
 30
0.0
  0
VERTEX
  5
2476F
  8
HIDDEN
 10
307.102044
 20
181.455836
 30
0.0
  0
VERTEX
  5
24770
  8
HIDDEN
 10
307.107862
 20
181.45601
 30
0.0
  0
SEQEND
  5
24771
  8
HIDDEN
  0
LINE
  5
1A84D
  8
HIDDEN
 10
307.12761
 20
181.454005
 30
0.0
 11
307.133999
 21
181.452498
 31
0.0
  0
LINE
  5
1A84E
  8
HIDDEN
 10
307.095653
 20
181.455244
 30
0.0
 11
301.759635
 21
181.455244
 31
0.0
  0
POLYLINE
  5
1A84F
  8
HIDDEN
 66
     1
 10
0.0
 20
0.0
 30
0.0
  0
VERTEX
  5
24772
  8
HIDDEN
 10
311.378323
 20
174.901201
 30
0.0
  0
VERTEX
  5
24773
  8
HIDDEN
 10
311.372471
 20
174.493546
 30
0.0
  0
VERTEX
  5
24774
  8
HIDDEN
 10
311.362191
 20
174.092813
 30
0.0
  0
VERTEX
  5
24775
  8
HIDDEN
 10
311.347412
 20
173.697339
 30
0.0
  0
VERTEX
  5
24776
  8
HIDDEN
 10
311.328349
 20
173.312111
 30
0.0
  0
VERTEX
  5
24777
  8
HIDDEN
 10
311.305111
 20
172.940566
 30
0.0
  0
VERTEX
  5
24778
  8
HIDDEN
 10
311.277949
 20
172.585682
 30
0.0
  0
VERTEX
  5
24779
  8
HIDDEN
 10
311.247044
 20
172.250719
 30
0.0
  0
VERTEX
  5
2477A
  8
HIDDEN
 10
311.212707
 20
171.938264
 30
0.0
  0
VERTEX
  5
2477B
  8
HIDDEN
 10
311.175188
 20
171.651288
 30
0.0
  0
VERTEX
  5
2477C
  8
HIDDEN
 10
311.134845
 20
171.391902
 30
0.0
  0
VERTEX
  5
2477D
  8
HIDDEN
 10
311.091989
 20
171.162687
 30
0.0
  0
VERTEX
  5
2477E
  8
HIDDEN
 10
311.047015
 20
170.965204
 30
0.0
  0
VERTEX
  5
2477F
  8
HIDDEN
 10
311.000281
 20
170.801555
 30
0.0
  0
VERTEX
  5
24780
  8
HIDDEN
 10
310.952207
 20
170.6727
 30
0.0
  0
VERTEX
  5
24781
  8
HIDDEN
 10
310.903187
 20
170.58019
 30
0.0
  0
VERTEX
  5
24782
  8
HIDDEN
 10
310.85365
 20
170.52435
 30
0.0
  0
VERTEX
  5
24783
  8
HIDDEN
 10
310.804014
 20
170.50613
 30
0.0
  0
VERTEX
  5
24784
  8
HIDDEN
 10
310.766053
 20
170.517455
 30
0.0
  0
SEQEND
  5
24785
  8
HIDDEN
  0
LINE
  5
1A864
  8
HIDDEN
 10
310.842027
 20
179.29494
 30
0.0
 11
307.134
 21
181.452
 31
0.0
  0
POLYLINE
  5
1A865
  8
HIDDEN
 66
     1
 10
0.0
 20
0.0
 30
0.0
  0
VERTEX
  5
24786
  8
HIDDEN
 10
310.842071
 20
179.294894
 30
0.0
  0
VERTEX
  5
24787
  8
HIDDEN
 10
310.880221
 20
179.30556
 30
0.0
  0
VERTEX
  5
24788
  8
HIDDEN
 10
310.929535
 20
179.286483
 30
0.0
  0
VERTEX
  5
24789
  8
HIDDEN
 10
310.978097
 20
179.229793
 30
0.0
  0
VERTEX
  5
2478A
  8
HIDDEN
 10
311.025507
 20
179.136448
 30
0.0
  0
VERTEX
  5
2478B
  8
HIDDEN
 10
311.071343
 20
179.00678
 30
0.0
  0
VERTEX
  5
2478C
  8
HIDDEN
 10
311.115235
 20
178.842346
 30
0.0
  0
VERTEX
  5
2478D
  8
HIDDEN
 10
311.156782
 20
178.644114
 30
0.0
  0
VERTEX
  5
2478E
  8
HIDDEN
 10
311.195662
 20
178.414191
 30
0.0
  0
VERTEX
  5
2478F
  8
HIDDEN
 10
311.231506
 20
178.154145
 30
0.0
  0
VERTEX
  5
24790
  8
HIDDEN
 10
311.264049
 20
177.866563
 30
0.0
  0
VERTEX
  5
24791
  8
HIDDEN
 10
311.292969
 20
177.55356
 30
0.0
  0
VERTEX
  5
24792
  8
HIDDEN
 10
311.318068
 20
177.218111
 30
0.0
  0
VERTEX
  5
24793
  8
HIDDEN
 10
311.33908
 20
176.86281
 30
0.0
  0
VERTEX
  5
24794
  8
HIDDEN
 10
311.355879
 20
176.490918
 30
0.0
  0
VERTEX
  5
24795
  8
HIDDEN
 10
311.368267
 20
176.105418
 30
0.0
  0
VERTEX
  5
24796
  8
HIDDEN
 10
311.376194
 20
175.709748
 30
0.0
  0
VERTEX
  5
24797
  8
HIDDEN
 10
311.379532
 20
175.308896
 30
0.0
  0
VERTEX
  5
24798
  8
HIDDEN
 10
311.378323
 20
174.901201
 30
0.0
  0
SEQEND
  5
24799
  8
HIDDEN
  0
LINE
  5
1A87A
  8
HIDDEN
 10
307.081725
 20
168.35601
 30
0.0
 11
301.771844
 21
168.35601
 31
0.0
  0
LINE
  5
1A87B
  8
HIDDEN
 10
301.745707
 20
168.359522
 30
0.0
 11
307.081725
 21
168.359522
 31
0.0
  0
LINE
  5
1A87C
  8
HIDDEN
 10
310.842027
 20
170.51708
 30
0.0
 11
307.677599
 21
168.671734
 31
0.0
  0
LINE
  5
1A900
  8
0
  6
BYBLOCK
 62
     5
 10
301.140239
 20
182.05601
 30
0.0
 11
283.990239
 21
182.05601
 31
0.0
  0
LINE
  5
1A901
  8
0
  6
BYBLOCK
 62
     5
 10
283.99242
 20
185.443002
 30
0.0
 11
300.873621
 21
185.44621
 31
0.0
  0
LINE
  5
1A902
  8
0
  6
BYBLOCK
 62
     5
 10
282.840239
 20
185.152321
 30
0.0
 11
282.840239
 21
265.759699
 31
0.0
  0
LINE
  5
1A903
  8
0
  6
BYBLOCK
 62
     5
 10
276.890239
 20
182.75601
 30
0.0
 11
279.090239
 21
182.75601
 31
0.0
  0
LINE
  5
1A904
  8
0
  6
BYBLOCK
 62
     5
 10
281.290239
 20
182.25601
 30
0.0
 11
276.890239
 21
182.25601
 31
0.0
  0
LINE
  5
1A905
  8
0
  6
BYBLOCK
 62
     5
 10
281.290239
 20
183.05601
 30
0.0
 11
276.890239
 21
183.05601
 31
0.0
  0
LINE
  5
1A906
  8
0
  6
BYBLOCK
 62
     5
 10
276.840239
 20
183.05601
 30
0.0
 11
281.440239
 21
183.05601
 31
0.0
  0
LINE
  5
1A907
  8
0
  6
BYBLOCK
 62
     5
 10
272.940239
 20
183.85601
 30
0.0
 11
282.305809
 21
183.85601
 31
0.0
  0
LINE
  5
1A908
  8
0
  6
BYBLOCK
 62
     5
 10
272.940239
 20
184.15601
 30
0.0
 11
282.005809
 21
184.15601
 31
0.0
  0
LINE
  5
1A909
  8
0
  6
BYBLOCK
 62
     5
 10
282.217248
 20
184.15601
 30
0.0
 11
263.66323
 21
184.15601
 31
0.0
  0
LINE
  5
1A90A
  8
0
  6
BYBLOCK
 62
     5
 10
272.940239
 20
183.85601
 30
0.0
 11
263.574669
 21
183.85601
 31
0.0
  0
LINE
  5
1A90B
  8
0
  6
BYBLOCK
 62
     5
 10
272.940239
 20
184.15601
 30
0.0
 11
263.874669
 21
184.15601
 31
0.0
  0
LINE
  5
1A90C
  8
0
  6
BYBLOCK
 62
     5
 10
263.874669
 20
184.15601
 30
0.0
 11
263.574669
 21
183.85601
 31
0.0
  0
LINE
  5
1A90D
  8
0
  6
BYBLOCK
 62
     5
 10
263.463227
 20
184.35601
 30
0.0
 11
263.463227
 21
185.25601
 31
0.0
  0
ARC
  5
1A90E
  8
0
  6
BYBLOCK
 62
     5
 10
263.663227
 20
184.35601
 30
0.0
 40
0.2
 50
180.0
 51
270.0
  0
ARC
  5
1A90F
  8
0
  6
BYBLOCK
 62
     5
 10
263.263227
 20
185.25601
 30
0.0
 40
0.2
 50
0.0
 51
89.999993
  0
LINE
  5
1A910
  8
0
  6
BYBLOCK
 62
     5
 10
276.890239
 20
182.75601
 30
0.0
 11
276.890239
 21
183.05601
 31
0.0
  0
LINE
  5
1A911
  8
0
  6
BYBLOCK
 62
     5
 10
276.890239
 20
182.25601
 30
0.0
 11
276.890239
 21
182.75601
 31
0.0
  0
LINE
  5
1A912
  8
0
  6
BYBLOCK
 62
     5
 10
281.290239
 20
182.75601
 30
0.0
 11
281.290239
 21
183.05601
 31
0.0
  0
LINE
  5
1A913
  8
0
  6
BYBLOCK
 62
     5
 10
281.290239
 20
182.25601
 30
0.0
 11
281.290239
 21
182.75601
 31
0.0
  0
LINE
  5
1A914
  8
0
  6
BYBLOCK
 62
     5
 10
281.140239
 20
184.15601
 30
0.0
 11
281.440239
 21
183.85601
 31
0.0
  0
LINE
  5
1A915
  8
0
  6
BYBLOCK
 62
     5
 10
282.005809
 20
184.15601
 30
0.0
 11
282.305809
 21
183.85601
 31
0.0
  0
LINE
  5
1A916
  8
0
  6
BYBLOCK
 62
     5
 10
281.290239
 20
182.75601
 30
0.0
 11
279.090239
 21
182.75601
 31
0.0
  0
LINE
  5
1A917
  8
0
  6
BYBLOCK
 62
     5
 10
277.340239
 20
182.25601
 30
0.0
 11
280.840239
 21
182.25601
 31
0.0
  0
LINE
  5
1A918
  8
0
  6
BYBLOCK
 62
     5
 10
282.840239
 20
185.152321
 30
0.0
 11
283.109973
 21
185.153498
 31
0.0
  0
LINE
  5
1A919
  8
0
  6
BYBLOCK
 62
     5
 10
282.41725
 20
184.35601
 30
0.0
 11
282.41725
 21
185.25601
 31
0.0
  0
LINE
  5
1A91A
  8
0
  6
BYBLOCK
 62
     5
 10
283.490239
 20
184.652971
 30
0.0
 11
283.490239
 21
182.55601
 31
0.0
  0
ARC
  5
1A91B
  8
0
  6
BYBLOCK
 62
     5
 10
282.640239
 20
185.65601
 30
0.0
 40
0.2
 50
270.0
 51
0.0
  0
ARC
  5
1A91C
  8
0
  6
BYBLOCK
 62
     5
 10
282.21725
 20
184.35601
 30
0.0
 40
0.2
 50
270.0
 51
0.0
  0
ARC
  5
1A91D
  8
0
  6
BYBLOCK
 62
     5
 10
282.61725
 20
185.25601
 30
0.0
 40
0.2
 50
90.000007
 51
180.0
  0
ARC
  5
1A91E
  8
0
  6
BYBLOCK
 62
     5
 10
282.990239
 20
184.652971
 30
0.0
 40
0.5
 50
360.0
 51
90.250045
  0
ARC
  5
1A91F
  8
0
  6
BYBLOCK
 62
     5
 10
283.990239
 20
182.55601
 30
0.0
 40
0.5
 50
180.0
 51
270.0
  0
ARC
  5
1AEA4
  8
0
  6
BYBLOCK
 62
     5
 10
282.640239
 20
265.25601
 30
0.0
 40
0.2
 50
0.0
 51
90.0
  0
LINE
  5
1AEA5
  8
0
  6
BYBLOCK
 62
     5
 10
301.640239
 20
185.111302
 30
0.0
 11
301.640239
 21
182.55601
 31
0.0
  0
ARC
  5
1AEA6
  8
0
  6
BYBLOCK
 62
     5
 10
302.140239
 20
184.736529
 30
0.0
 40
0.5
 50
90.25
 51
180.0
  0
ARC
  5
1AEA7
  8
0
  6
BYBLOCK
 62
     5
 10
301.140239
 20
182.55601
 30
0.0
 40
0.5
 50
270.0
 51
0.0
  0
POLYLINE
  5
1B18A
  8
0
  6
BYBLOCK
 62
     5
 66
     1
 10
0.0
 20
0.0
 30
0.0
 70
     8
  0
VERTEX
  5
1B18B
  8
0
  6
BYBLOCK
 62
     5
 10
301.142
 20
185.565
 30
0.0
 70
    32
  0
VERTEX
  5
1B18C
  8
0
  6
BYBLOCK
 62
     5
 10
301.142
 20
185.565
 30
0.0
 70
    32
  0
VERTEX
  5
1B18D
  8
0
  6
BYBLOCK
 62
     5
 10
301.141
 20
185.565
 30
0.0
 70
    32
  0
VERTEX
  5
1B18E
  8
0
  6
BYBLOCK
 62
     5
 10
301.14
 20
185.564
 30
0.0
 70
    32
  0
VERTEX
  5
1B18F
  8
0
  6
BYBLOCK
 62
     5
 10
301.14
 20
185.564
 30
0.0
 70
    32
  0
VERTEX
  5
1B190
  8
0
  6
BYBLOCK
 62
     5
 10
301.139
 20
185.564
 30
0.0
 70
    32
  0
VERTEX
  5
1B191
  8
0
  6
BYBLOCK
 62
     5
 10
301.138
 20
185.563
 30
0.0
 70
    32
  0
VERTEX
  5
1B192
  8
0
  6
BYBLOCK
 62
     5
 10
301.138
 20
185.563
 30
0.0
 70
    32
  0
VERTEX
  5
1B193
  8
0
  6
BYBLOCK
 62
     5
 10
301.137
 20
185.562
 30
0.0
 70
    32
  0
VERTEX
  5
1B194
  8
0
  6
BYBLOCK
 62
     5
 10
301.136
 20
185.562
 30
0.0
 70
    32
  0
VERTEX
  5
1B195
  8
0
  6
BYBLOCK
 62
     5
 10
301.136
 20
185.562
 30
0.0
 70
    32
  0
VERTEX
  5
1B196
  8
0
  6
BYBLOCK
 62
     5
 10
301.135
 20
185.561
 30
0.0
 70
    32
  0
VERTEX
  5
1B197
  8
0
  6
BYBLOCK
 62
     5
 10
301.134
 20
185.561
 30
0.0
 70
    32
  0
VERTEX
  5
1B198
  8
0
  6
BYBLOCK
 62
     5
 10
301.134
 20
185.56
 30
0.0
 70
    32
  0
VERTEX
  5
1B199
  8
0
  6
BYBLOCK
 62
     5
 10
301.133
 20
185.56
 30
0.0
 70
    32
  0
VERTEX
  5
1B19A
  8
0
  6
BYBLOCK
 62
     5
 10
301.132
 20
185.56
 30
0.0
 70
    32
  0
VERTEX
  5
1B19B
  8
0
  6
BYBLOCK
 62
     5
 10
301.132
 20
185.559
 30
0.0
 70
    32
  0
VERTEX
  5
1B19C
  8
0
  6
BYBLOCK
 62
     5
 10
301.131
 20
185.559
 30
0.0
 70
    32
  0
VERTEX
  5
1B19D
  8
0
  6
BYBLOCK
 62
     5
 10
301.13
 20
185.558
 30
0.0
 70
    32
  0
VERTEX
  5
1B19E
  8
0
  6
BYBLOCK
 62
     5
 10
301.13
 20
185.558
 30
0.0
 70
    32
  0
VERTEX
  5
1B19F
  8
0
  6
BYBLOCK
 62
     5
 10
301.129
 20
185.558
 30
0.0
 70
    32
  0
VERTEX
  5
1B1A0
  8
0
  6
BYBLOCK
 62
     5
 10
301.128
 20
185.557
 30
0.0
 70
    32
  0
VERTEX
  5
1B1A1
  8
0
  6
BYBLOCK
 62
     5
 10
301.128
 20
185.557
 30
0.0
 70
    32
  0
VERTEX
  5
1B1A2
  8
0
  6
BYBLOCK
 62
     5
 10
301.127
 20
185.556
 30
0.0
 70
    32
  0
VERTEX
  5
1B1A3
  8
0
  6
BYBLOCK
 62
     5
 10
301.126
 20
185.556
 30
0.0
 70
    32
  0
VERTEX
  5
1B1A4
  8
0
  6
BYBLOCK
 62
     5
 10
301.126
 20
185.556
 30
0.0
 70
    32
  0
VERTEX
  5
1B1A5
  8
0
  6
BYBLOCK
 62
     5
 10
301.125
 20
185.555
 30
0.0
 70
    32
  0
VERTEX
  5
1B1A6
  8
0
  6
BYBLOCK
 62
     5
 10
301.124
 20
185.555
 30
0.0
 70
    32
  0
VERTEX
  5
1B1A7
  8
0
  6
BYBLOCK
 62
     5
 10
301.124
 20
185.555
 30
0.0
 70
    32
  0
VERTEX
  5
1B1A8
  8
0
  6
BYBLOCK
 62
     5
 10
301.123
 20
185.554
 30
0.0
 70
    32
  0
VERTEX
  5
1B1A9
  8
0
  6
BYBLOCK
 62
     5
 10
301.122
 20
185.554
 30
0.0
 70
    32
  0
VERTEX
  5
1B1AA
  8
0
  6
BYBLOCK
 62
     5
 10
301.122
 20
185.553
 30
0.0
 70
    32
  0
VERTEX
  5
1B1AB
  8
0
  6
BYBLOCK
 62
     5
 10
301.121
 20
185.553
 30
0.0
 70
    32
  0
VERTEX
  5
1B1AC
  8
0
  6
BYBLOCK
 62
     5
 10
301.12
 20
185.553
 30
0.0
 70
    32
  0
VERTEX
  5
1B1AD
  8
0
  6
BYBLOCK
 62
     5
 10
301.12
 20
185.552
 30
0.0
 70
    32
  0
VERTEX
  5
1B1AE
  8
0
  6
BYBLOCK
 62
     5
 10
301.119
 20
185.552
 30
0.0
 70
    32
  0
VERTEX
  5
1B1AF
  8
0
  6
BYBLOCK
 62
     5
 10
301.118
 20
185.551
 30
0.0
 70
    32
  0
VERTEX
  5
1B1B0
  8
0
  6
BYBLOCK
 62
     5
 10
301.118
 20
185.551
 30
0.0
 70
    32
  0
VERTEX
  5
1B1B1
  8
0
  6
BYBLOCK
 62
     5
 10
301.117
 20
185.551
 30
0.0
 70
    32
  0
VERTEX
  5
1B1B2
  8
0
  6
BYBLOCK
 62
     5
 10
301.116
 20
185.55
 30
0.0
 70
    32
  0
VERTEX
  5
1B1B3
  8
0
  6
BYBLOCK
 62
     5
 10
301.116
 20
185.55
 30
0.0
 70
    32
  0
VERTEX
  5
1B1B4
  8
0
  6
BYBLOCK
 62
     5
 10
301.115
 20
185.549
 30
0.0
 70
    32
  0
VERTEX
  5
1B1B5
  8
0
  6
BYBLOCK
 62
     5
 10
301.114
 20
185.549
 30
0.0
 70
    32
  0
VERTEX
  5
1B1B6
  8
0
  6
BYBLOCK
 62
     5
 10
301.114
 20
185.549
 30
0.0
 70
    32
  0
VERTEX
  5
1B1B7
  8
0
  6
BYBLOCK
 62
     5
 10
301.113
 20
185.548
 30
0.0
 70
    32
  0
VERTEX
  5
1B1B8
  8
0
  6
BYBLOCK
 62
     5
 10
301.112
 20
185.548
 30
0.0
 70
    32
  0
VERTEX
  5
1B1B9
  8
0
  6
BYBLOCK
 62
     5
 10
301.112
 20
185.548
 30
0.0
 70
    32
  0
VERTEX
  5
1B1BA
  8
0
  6
BYBLOCK
 62
     5
 10
301.111
 20
185.547
 30
0.0
 70
    32
  0
VERTEX
  5
1B1BB
  8
0
  6
BYBLOCK
 62
     5
 10
301.11
 20
185.547
 30
0.0
 70
    32
  0
VERTEX
  5
1B1BC
  8
0
  6
BYBLOCK
 62
     5
 10
301.11
 20
185.546
 30
0.0
 70
    32
  0
VERTEX
  5
1B1BD
  8
0
  6
BYBLOCK
 62
     5
 10
301.109
 20
185.546
 30
0.0
 70
    32
  0
VERTEX
  5
1B1BE
  8
0
  6
BYBLOCK
 62
     5
 10
301.108
 20
185.546
 30
0.0
 70
    32
  0
VERTEX
  5
1B1BF
  8
0
  6
BYBLOCK
 62
     5
 10
301.108
 20
185.545
 30
0.0
 70
    32
  0
VERTEX
  5
1B1C0
  8
0
  6
BYBLOCK
 62
     5
 10
301.107
 20
185.545
 30
0.0
 70
    32
  0
VERTEX
  5
1B1C1
  8
0
  6
BYBLOCK
 62
     5
 10
301.106
 20
185.544
 30
0.0
 70
    32
  0
VERTEX
  5
1B1C2
  8
0
  6
BYBLOCK
 62
     5
 10
301.106
 20
185.544
 30
0.0
 70
    32
  0
VERTEX
  5
1B1C3
  8
0
  6
BYBLOCK
 62
     5
 10
301.105
 20
185.544
 30
0.0
 70
    32
  0
VERTEX
  5
1B1C4
  8
0
  6
BYBLOCK
 62
     5
 10
301.104
 20
185.543
 30
0.0
 70
    32
  0
VERTEX
  5
1B1C5
  8
0
  6
BYBLOCK
 62
     5
 10
301.104
 20
185.543
 30
0.0
 70
    32
  0
VERTEX
  5
1B1C6
  8
0
  6
BYBLOCK
 62
     5
 10
301.103
 20
185.542
 30
0.0
 70
    32
  0
VERTEX
  5
1B1C7
  8
0
  6
BYBLOCK
 62
     5
 10
301.102
 20
185.542
 30
0.0
 70
    32
  0
VERTEX
  5
1B1C8
  8
0
  6
BYBLOCK
 62
     5
 10
301.102
 20
185.542
 30
0.0
 70
    32
  0
VERTEX
  5
1B1C9
  8
0
  6
BYBLOCK
 62
     5
 10
301.101
 20
185.541
 30
0.0
 70
    32
  0
VERTEX
  5
1B1CA
  8
0
  6
BYBLOCK
 62
     5
 10
301.1
 20
185.541
 30
0.0
 70
    32
  0
VERTEX
  5
1B1CB
  8
0
  6
BYBLOCK
 62
     5
 10
301.1
 20
185.541
 30
0.0
 70
    32
  0
VERTEX
  5
1B1CC
  8
0
  6
BYBLOCK
 62
     5
 10
301.099
 20
185.54
 30
0.0
 70
    32
  0
VERTEX
  5
1B1CD
  8
0
  6
BYBLOCK
 62
     5
 10
301.098
 20
185.54
 30
0.0
 70
    32
  0
VERTEX
  5
1B1CE
  8
0
  6
BYBLOCK
 62
     5
 10
301.098
 20
185.539
 30
0.0
 70
    32
  0
VERTEX
  5
1B1CF
  8
0
  6
BYBLOCK
 62
     5
 10
301.097
 20
185.539
 30
0.0
 70
    32
  0
VERTEX
  5
1B1D0
  8
0
  6
BYBLOCK
 62
     5
 10
301.096
 20
185.539
 30
0.0
 70
    32
  0
VERTEX
  5
1B1D1
  8
0
  6
BYBLOCK
 62
     5
 10
301.096
 20
185.538
 30
0.0
 70
    32
  0
VERTEX
  5
1B1D2
  8
0
  6
BYBLOCK
 62
     5
 10
301.095
 20
185.538
 30
0.0
 70
    32
  0
VERTEX
  5
1B1D3
  8
0
  6
BYBLOCK
 62
     5
 10
301.094
 20
185.537
 30
0.0
 70
    32
  0
VERTEX
  5
1B1D4
  8
0
  6
BYBLOCK
 62
     5
 10
301.094
 20
185.537
 30
0.0
 70
    32
  0
VERTEX
  5
1B1D5
  8
0
  6
BYBLOCK
 62
     5
 10
301.093
 20
185.537
 30
0.0
 70
    32
  0
VERTEX
  5
1B1D6
  8
0
  6
BYBLOCK
 62
     5
 10
301.092
 20
185.536
 30
0.0
 70
    32
  0
VERTEX
  5
1B1D7
  8
0
  6
BYBLOCK
 62
     5
 10
301.092
 20
185.536
 30
0.0
 70
    32
  0
VERTEX
  5
1B1D8
  8
0
  6
BYBLOCK
 62
     5
 10
301.091
 20
185.535
 30
0.0
 70
    32
  0
VERTEX
  5
1B1D9
  8
0
  6
BYBLOCK
 62
     5
 10
301.09
 20
185.535
 30
0.0
 70
    32
  0
VERTEX
  5
1B1DA
  8
0
  6
BYBLOCK
 62
     5
 10
301.09
 20
185.535
 30
0.0
 70
    32
  0
VERTEX
  5
1B1DB
  8
0
  6
BYBLOCK
 62
     5
 10
301.089
 20
185.534
 30
0.0
 70
    32
  0
VERTEX
  5
1B1DC
  8
0
  6
BYBLOCK
 62
     5
 10
301.088
 20
185.534
 30
0.0
 70
    32
  0
VERTEX
  5
1B1DD
  8
0
  6
BYBLOCK
 62
     5
 10
301.088
 20
185.534
 30
0.0
 70
    32
  0
VERTEX
  5
1B1DE
  8
0
  6
BYBLOCK
 62
     5
 10
301.087
 20
185.533
 30
0.0
 70
    32
  0
VERTEX
  5
1B1DF
  8
0
  6
BYBLOCK
 62
     5
 10
301.086
 20
185.533
 30
0.0
 70
    32
  0
VERTEX
  5
1B1E0
  8
0
  6
BYBLOCK
 62
     5
 10
301.086
 20
185.532
 30
0.0
 70
    32
  0
VERTEX
  5
1B1E1
  8
0
  6
BYBLOCK
 62
     5
 10
301.085
 20
185.532
 30
0.0
 70
    32
  0
VERTEX
  5
1B1E2
  8
0
  6
BYBLOCK
 62
     5
 10
301.084
 20
185.532
 30
0.0
 70
    32
  0
VERTEX
  5
1B1E3
  8
0
  6
BYBLOCK
 62
     5
 10
301.083
 20
185.531
 30
0.0
 70
    32
  0
VERTEX
  5
1B1E4
  8
0
  6
BYBLOCK
 62
     5
 10
301.083
 20
185.531
 30
0.0
 70
    32
  0
VERTEX
  5
1B1E5
  8
0
  6
BYBLOCK
 62
     5
 10
301.082
 20
185.53
 30
0.0
 70
    32
  0
VERTEX
  5
1B1E6
  8
0
  6
BYBLOCK
 62
     5
 10
301.081
 20
185.53
 30
0.0
 70
    32
  0
VERTEX
  5
1B1E7
  8
0
  6
BYBLOCK
 62
     5
 10
301.081
 20
185.53
 30
0.0
 70
    32
  0
VERTEX
  5
1B1E8
  8
0
  6
BYBLOCK
 62
     5
 10
301.08
 20
185.529
 30
0.0
 70
    32
  0
VERTEX
  5
1B1E9
  8
0
  6
BYBLOCK
 62
     5
 10
301.079
 20
185.529
 30
0.0
 70
    32
  0
VERTEX
  5
1B1EA
  8
0
  6
BYBLOCK
 62
     5
 10
301.079
 20
185.529
 30
0.0
 70
    32
  0
VERTEX
  5
1B1EB
  8
0
  6
BYBLOCK
 62
     5
 10
301.078
 20
185.528
 30
0.0
 70
    32
  0
VERTEX
  5
1B1EC
  8
0
  6
BYBLOCK
 62
     5
 10
301.077
 20
185.528
 30
0.0
 70
    32
  0
VERTEX
  5
1B1ED
  8
0
  6
BYBLOCK
 62
     5
 10
301.077
 20
185.527
 30
0.0
 70
    32
  0
VERTEX
  5
1B1EE
  8
0
  6
BYBLOCK
 62
     5
 10
301.076
 20
185.527
 30
0.0
 70
    32
  0
VERTEX
  5
1B1EF
  8
0
  6
BYBLOCK
 62
     5
 10
301.075
 20
185.527
 30
0.0
 70
    32
  0
VERTEX
  5
1B1F0
  8
0
  6
BYBLOCK
 62
     5
 10
301.075
 20
185.526
 30
0.0
 70
    32
  0
VERTEX
  5
1B1F1
  8
0
  6
BYBLOCK
 62
     5
 10
301.074
 20
185.526
 30
0.0
 70
    32
  0
VERTEX
  5
1B1F2
  8
0
  6
BYBLOCK
 62
     5
 10
301.073
 20
185.525
 30
0.0
 70
    32
  0
VERTEX
  5
1B1F3
  8
0
  6
BYBLOCK
 62
     5
 10
301.073
 20
185.525
 30
0.0
 70
    32
  0
VERTEX
  5
1B1F4
  8
0
  6
BYBLOCK
 62
     5
 10
301.072
 20
185.525
 30
0.0
 70
    32
  0
VERTEX
  5
1B1F5
  8
0
  6
BYBLOCK
 62
     5
 10
301.071
 20
185.524
 30
0.0
 70
    32
  0
VERTEX
  5
1B1F6
  8
0
  6
BYBLOCK
 62
     5
 10
301.071
 20
185.524
 30
0.0
 70
    32
  0
VERTEX
  5
1B1F7
  8
0
  6
BYBLOCK
 62
     5
 10
301.07
 20
185.524
 30
0.0
 70
    32
  0
VERTEX
  5
1B1F8
  8
0
  6
BYBLOCK
 62
     5
 10
301.069
 20
185.523
 30
0.0
 70
    32
  0
VERTEX
  5
1B1F9
  8
0
  6
BYBLOCK
 62
     5
 10
301.069
 20
185.523
 30
0.0
 70
    32
  0
VERTEX
  5
1B1FA
  8
0
  6
BYBLOCK
 62
     5
 10
301.068
 20
185.522
 30
0.0
 70
    32
  0
VERTEX
  5
1B1FB
  8
0
  6
BYBLOCK
 62
     5
 10
301.067
 20
185.522
 30
0.0
 70
    32
  0
VERTEX
  5
1B1FC
  8
0
  6
BYBLOCK
 62
     5
 10
301.067
 20
185.522
 30
0.0
 70
    32
  0
VERTEX
  5
1B1FD
  8
0
  6
BYBLOCK
 62
     5
 10
301.066
 20
185.521
 30
0.0
 70
    32
  0
VERTEX
  5
1B1FE
  8
0
  6
BYBLOCK
 62
     5
 10
301.065
 20
185.521
 30
0.0
 70
    32
  0
VERTEX
  5
1B1FF
  8
0
  6
BYBLOCK
 62
     5
 10
301.065
 20
185.52
 30
0.0
 70
    32
  0
VERTEX
  5
1B200
  8
0
  6
BYBLOCK
 62
     5
 10
301.064
 20
185.52
 30
0.0
 70
    32
  0
VERTEX
  5
1B201
  8
0
  6
BYBLOCK
 62
     5
 10
301.063
 20
185.52
 30
0.0
 70
    32
  0
VERTEX
  5
1B202
  8
0
  6
BYBLOCK
 62
     5
 10
301.063
 20
185.519
 30
0.0
 70
    32
  0
VERTEX
  5
1B203
  8
0
  6
BYBLOCK
 62
     5
 10
301.062
 20
185.519
 30
0.0
 70
    32
  0
VERTEX
  5
1B204
  8
0
  6
BYBLOCK
 62
     5
 10
301.061
 20
185.519
 30
0.0
 70
    32
  0
VERTEX
  5
1B205
  8
0
  6
BYBLOCK
 62
     5
 10
301.061
 20
185.518
 30
0.0
 70
    32
  0
VERTEX
  5
1B206
  8
0
  6
BYBLOCK
 62
     5
 10
301.06
 20
185.518
 30
0.0
 70
    32
  0
VERTEX
  5
1B207
  8
0
  6
BYBLOCK
 62
     5
 10
301.059
 20
185.517
 30
0.0
 70
    32
  0
VERTEX
  5
1B208
  8
0
  6
BYBLOCK
 62
     5
 10
301.059
 20
185.517
 30
0.0
 70
    32
  0
VERTEX
  5
1B209
  8
0
  6
BYBLOCK
 62
     5
 10
301.058
 20
185.517
 30
0.0
 70
    32
  0
VERTEX
  5
1B20A
  8
0
  6
BYBLOCK
 62
     5
 10
301.057
 20
185.516
 30
0.0
 70
    32
  0
VERTEX
  5
1B20B
  8
0
  6
BYBLOCK
 62
     5
 10
301.057
 20
185.516
 30
0.0
 70
    32
  0
VERTEX
  5
1B20C
  8
0
  6
BYBLOCK
 62
     5
 10
301.056
 20
185.516
 30
0.0
 70
    32
  0
VERTEX
  5
1B20D
  8
0
  6
BYBLOCK
 62
     5
 10
301.055
 20
185.515
 30
0.0
 70
    32
  0
VERTEX
  5
1B20E
  8
0
  6
BYBLOCK
 62
     5
 10
301.055
 20
185.515
 30
0.0
 70
    32
  0
VERTEX
  5
1B20F
  8
0
  6
BYBLOCK
 62
     5
 10
301.054
 20
185.514
 30
0.0
 70
    32
  0
VERTEX
  5
1B210
  8
0
  6
BYBLOCK
 62
     5
 10
301.053
 20
185.514
 30
0.0
 70
    32
  0
VERTEX
  5
1B211
  8
0
  6
BYBLOCK
 62
     5
 10
301.052
 20
185.514
 30
0.0
 70
    32
  0
VERTEX
  5
1B212
  8
0
  6
BYBLOCK
 62
     5
 10
301.052
 20
185.513
 30
0.0
 70
    32
  0
VERTEX
  5
1B213
  8
0
  6
BYBLOCK
 62
     5
 10
301.051
 20
185.513
 30
0.0
 70
    32
  0
VERTEX
  5
1B214
  8
0
  6
BYBLOCK
 62
     5
 10
301.05
 20
185.513
 30
0.0
 70
    32
  0
VERTEX
  5
1B215
  8
0
  6
BYBLOCK
 62
     5
 10
301.05
 20
185.512
 30
0.0
 70
    32
  0
VERTEX
  5
1B216
  8
0
  6
BYBLOCK
 62
     5
 10
301.049
 20
185.512
 30
0.0
 70
    32
  0
VERTEX
  5
1B217
  8
0
  6
BYBLOCK
 62
     5
 10
301.048
 20
185.511
 30
0.0
 70
    32
  0
VERTEX
  5
1B218
  8
0
  6
BYBLOCK
 62
     5
 10
301.048
 20
185.511
 30
0.0
 70
    32
  0
VERTEX
  5
1B219
  8
0
  6
BYBLOCK
 62
     5
 10
301.047
 20
185.511
 30
0.0
 70
    32
  0
VERTEX
  5
1B21A
  8
0
  6
BYBLOCK
 62
     5
 10
301.046
 20
185.51
 30
0.0
 70
    32
  0
VERTEX
  5
1B21B
  8
0
  6
BYBLOCK
 62
     5
 10
301.046
 20
185.51
 30
0.0
 70
    32
  0
VERTEX
  5
1B21C
  8
0
  6
BYBLOCK
 62
     5
 10
301.045
 20
185.51
 30
0.0
 70
    32
  0
VERTEX
  5
1B21D
  8
0
  6
BYBLOCK
 62
     5
 10
301.044
 20
185.509
 30
0.0
 70
    32
  0
VERTEX
  5
1B21E
  8
0
  6
BYBLOCK
 62
     5
 10
301.044
 20
185.509
 30
0.0
 70
    32
  0
VERTEX
  5
1B21F
  8
0
  6
BYBLOCK
 62
     5
 10
301.043
 20
185.508
 30
0.0
 70
    32
  0
VERTEX
  5
1B220
  8
0
  6
BYBLOCK
 62
     5
 10
301.042
 20
185.508
 30
0.0
 70
    32
  0
VERTEX
  5
1B221
  8
0
  6
BYBLOCK
 62
     5
 10
301.042
 20
185.508
 30
0.0
 70
    32
  0
VERTEX
  5
1B222
  8
0
  6
BYBLOCK
 62
     5
 10
301.041
 20
185.507
 30
0.0
 70
    32
  0
VERTEX
  5
1B223
  8
0
  6
BYBLOCK
 62
     5
 10
301.04
 20
185.507
 30
0.0
 70
    32
  0
VERTEX
  5
1B224
  8
0
  6
BYBLOCK
 62
     5
 10
301.04
 20
185.507
 30
0.0
 70
    32
  0
VERTEX
  5
1B225
  8
0
  6
BYBLOCK
 62
     5
 10
301.039
 20
185.506
 30
0.0
 70
    32
  0
VERTEX
  5
1B226
  8
0
  6
BYBLOCK
 62
     5
 10
301.038
 20
185.506
 30
0.0
 70
    32
  0
VERTEX
  5
1B227
  8
0
  6
BYBLOCK
 62
     5
 10
301.038
 20
185.505
 30
0.0
 70
    32
  0
VERTEX
  5
1B228
  8
0
  6
BYBLOCK
 62
     5
 10
301.037
 20
185.505
 30
0.0
 70
    32
  0
VERTEX
  5
1B229
  8
0
  6
BYBLOCK
 62
     5
 10
301.036
 20
185.505
 30
0.0
 70
    32
  0
VERTEX
  5
1B22A
  8
0
  6
BYBLOCK
 62
     5
 10
301.036
 20
185.504
 30
0.0
 70
    32
  0
VERTEX
  5
1B22B
  8
0
  6
BYBLOCK
 62
     5
 10
301.035
 20
185.504
 30
0.0
 70
    32
  0
VERTEX
  5
1B22C
  8
0
  6
BYBLOCK
 62
     5
 10
301.034
 20
185.504
 30
0.0
 70
    32
  0
VERTEX
  5
1B22D
  8
0
  6
BYBLOCK
 62
     5
 10
301.033
 20
185.503
 30
0.0
 70
    32
  0
VERTEX
  5
1B22E
  8
0
  6
BYBLOCK
 62
     5
 10
301.033
 20
185.503
 30
0.0
 70
    32
  0
VERTEX
  5
1B22F
  8
0
  6
BYBLOCK
 62
     5
 10
301.032
 20
185.502
 30
0.0
 70
    32
  0
VERTEX
  5
1B230
  8
0
  6
BYBLOCK
 62
     5
 10
301.031
 20
185.502
 30
0.0
 70
    32
  0
VERTEX
  5
1B231
  8
0
  6
BYBLOCK
 62
     5
 10
301.031
 20
185.502
 30
0.0
 70
    32
  0
VERTEX
  5
1B232
  8
0
  6
BYBLOCK
 62
     5
 10
301.03
 20
185.501
 30
0.0
 70
    32
  0
VERTEX
  5
1B233
  8
0
  6
BYBLOCK
 62
     5
 10
301.029
 20
185.501
 30
0.0
 70
    32
  0
VERTEX
  5
1B234
  8
0
  6
BYBLOCK
 62
     5
 10
301.029
 20
185.501
 30
0.0
 70
    32
  0
VERTEX
  5
1B235
  8
0
  6
BYBLOCK
 62
     5
 10
301.028
 20
185.5
 30
0.0
 70
    32
  0
VERTEX
  5
1B236
  8
0
  6
BYBLOCK
 62
     5
 10
301.027
 20
185.5
 30
0.0
 70
    32
  0
VERTEX
  5
1B237
  8
0
  6
BYBLOCK
 62
     5
 10
301.027
 20
185.5
 30
0.0
 70
    32
  0
VERTEX
  5
1B238
  8
0
  6
BYBLOCK
 62
     5
 10
301.026
 20
185.499
 30
0.0
 70
    32
  0
VERTEX
  5
1B239
  8
0
  6
BYBLOCK
 62
     5
 10
301.025
 20
185.499
 30
0.0
 70
    32
  0
VERTEX
  5
1B23A
  8
0
  6
BYBLOCK
 62
     5
 10
301.025
 20
185.498
 30
0.0
 70
    32
  0
VERTEX
  5
1B23B
  8
0
  6
BYBLOCK
 62
     5
 10
301.024
 20
185.498
 30
0.0
 70
    32
  0
VERTEX
  5
1B23C
  8
0
  6
BYBLOCK
 62
     5
 10
301.023
 20
185.498
 30
0.0
 70
    32
  0
VERTEX
  5
1B23D
  8
0
  6
BYBLOCK
 62
     5
 10
301.023
 20
185.497
 30
0.0
 70
    32
  0
VERTEX
  5
1B23E
  8
0
  6
BYBLOCK
 62
     5
 10
301.022
 20
185.497
 30
0.0
 70
    32
  0
VERTEX
  5
1B23F
  8
0
  6
BYBLOCK
 62
     5
 10
301.021
 20
185.497
 30
0.0
 70
    32
  0
VERTEX
  5
1B240
  8
0
  6
BYBLOCK
 62
     5
 10
301.02
 20
185.496
 30
0.0
 70
    32
  0
VERTEX
  5
1B241
  8
0
  6
BYBLOCK
 62
     5
 10
301.02
 20
185.496
 30
0.0
 70
    32
  0
VERTEX
  5
1B242
  8
0
  6
BYBLOCK
 62
     5
 10
301.019
 20
185.496
 30
0.0
 70
    32
  0
VERTEX
  5
1B243
  8
0
  6
BYBLOCK
 62
     5
 10
301.018
 20
185.495
 30
0.0
 70
    32
  0
VERTEX
  5
1B244
  8
0
  6
BYBLOCK
 62
     5
 10
301.018
 20
185.495
 30
0.0
 70
    32
  0
VERTEX
  5
1B245
  8
0
  6
BYBLOCK
 62
     5
 10
301.017
 20
185.495
 30
0.0
 70
    32
  0
VERTEX
  5
1B246
  8
0
  6
BYBLOCK
 62
     5
 10
301.016
 20
185.494
 30
0.0
 70
    32
  0
VERTEX
  5
1B247
  8
0
  6
BYBLOCK
 62
     5
 10
301.016
 20
185.494
 30
0.0
 70
    32
  0
VERTEX
  5
1B248
  8
0
  6
BYBLOCK
 62
     5
 10
301.015
 20
185.493
 30
0.0
 70
    32
  0
VERTEX
  5
1B249
  8
0
  6
BYBLOCK
 62
     5
 10
301.014
 20
185.493
 30
0.0
 70
    32
  0
VERTEX
  5
1B24A
  8
0
  6
BYBLOCK
 62
     5
 10
301.014
 20
185.493
 30
0.0
 70
    32
  0
VERTEX
  5
1B24B
  8
0
  6
BYBLOCK
 62
     5
 10
301.013
 20
185.492
 30
0.0
 70
    32
  0
VERTEX
  5
1B24C
  8
0
  6
BYBLOCK
 62
     5
 10
301.012
 20
185.492
 30
0.0
 70
    32
  0
VERTEX
  5
1B24D
  8
0
  6
BYBLOCK
 62
     5
 10
301.012
 20
185.492
 30
0.0
 70
    32
  0
VERTEX
  5
1B24E
  8
0
  6
BYBLOCK
 62
     5
 10
301.011
 20
185.491
 30
0.0
 70
    32
  0
VERTEX
  5
1B24F
  8
0
  6
BYBLOCK
 62
     5
 10
301.01
 20
185.491
 30
0.0
 70
    32
  0
VERTEX
  5
1B250
  8
0
  6
BYBLOCK
 62
     5
 10
301.009
 20
185.491
 30
0.0
 70
    32
  0
VERTEX
  5
1B251
  8
0
  6
BYBLOCK
 62
     5
 10
301.009
 20
185.49
 30
0.0
 70
    32
  0
VERTEX
  5
1B252
  8
0
  6
BYBLOCK
 62
     5
 10
301.008
 20
185.49
 30
0.0
 70
    32
  0
VERTEX
  5
1B253
  8
0
  6
BYBLOCK
 62
     5
 10
301.007
 20
185.49
 30
0.0
 70
    32
  0
VERTEX
  5
1B254
  8
0
  6
BYBLOCK
 62
     5
 10
301.007
 20
185.489
 30
0.0
 70
    32
  0
VERTEX
  5
1B255
  8
0
  6
BYBLOCK
 62
     5
 10
301.006
 20
185.489
 30
0.0
 70
    32
  0
VERTEX
  5
1B256
  8
0
  6
BYBLOCK
 62
     5
 10
301.005
 20
185.488
 30
0.0
 70
    32
  0
VERTEX
  5
1B257
  8
0
  6
BYBLOCK
 62
     5
 10
301.005
 20
185.488
 30
0.0
 70
    32
  0
VERTEX
  5
1B258
  8
0
  6
BYBLOCK
 62
     5
 10
301.004
 20
185.488
 30
0.0
 70
    32
  0
VERTEX
  5
1B259
  8
0
  6
BYBLOCK
 62
     5
 10
301.003
 20
185.487
 30
0.0
 70
    32
  0
VERTEX
  5
1B25A
  8
0
  6
BYBLOCK
 62
     5
 10
301.003
 20
185.487
 30
0.0
 70
    32
  0
VERTEX
  5
1B25B
  8
0
  6
BYBLOCK
 62
     5
 10
301.002
 20
185.487
 30
0.0
 70
    32
  0
VERTEX
  5
1B25C
  8
0
  6
BYBLOCK
 62
     5
 10
301.001
 20
185.486
 30
0.0
 70
    32
  0
VERTEX
  5
1B25D
  8
0
  6
BYBLOCK
 62
     5
 10
301.0
 20
185.486
 30
0.0
 70
    32
  0
VERTEX
  5
1B25E
  8
0
  6
BYBLOCK
 62
     5
 10
301.0
 20
185.486
 30
0.0
 70
    32
  0
VERTEX
  5
1B25F
  8
0
  6
BYBLOCK
 62
     5
 10
300.999
 20
185.485
 30
0.0
 70
    32
  0
VERTEX
  5
1B260
  8
0
  6
BYBLOCK
 62
     5
 10
300.998
 20
185.485
 30
0.0
 70
    32
  0
VERTEX
  5
1B261
  8
0
  6
BYBLOCK
 62
     5
 10
300.998
 20
185.485
 30
0.0
 70
    32
  0
VERTEX
  5
1B262
  8
0
  6
BYBLOCK
 62
     5
 10
300.997
 20
185.484
 30
0.0
 70
    32
  0
VERTEX
  5
1B263
  8
0
  6
BYBLOCK
 62
     5
 10
300.996
 20
185.484
 30
0.0
 70
    32
  0
VERTEX
  5
1B264
  8
0
  6
BYBLOCK
 62
     5
 10
300.996
 20
185.484
 30
0.0
 70
    32
  0
VERTEX
  5
1B265
  8
0
  6
BYBLOCK
 62
     5
 10
300.995
 20
185.483
 30
0.0
 70
    32
  0
VERTEX
  5
1B266
  8
0
  6
BYBLOCK
 62
     5
 10
300.994
 20
185.483
 30
0.0
 70
    32
  0
VERTEX
  5
1B267
  8
0
  6
BYBLOCK
 62
     5
 10
300.994
 20
185.483
 30
0.0
 70
    32
  0
VERTEX
  5
1B268
  8
0
  6
BYBLOCK
 62
     5
 10
300.993
 20
185.482
 30
0.0
 70
    32
  0
VERTEX
  5
1B269
  8
0
  6
BYBLOCK
 62
     5
 10
300.992
 20
185.482
 30
0.0
 70
    32
  0
VERTEX
  5
1B26A
  8
0
  6
BYBLOCK
 62
     5
 10
300.991
 20
185.482
 30
0.0
 70
    32
  0
VERTEX
  5
1B26B
  8
0
  6
BYBLOCK
 62
     5
 10
300.991
 20
185.481
 30
0.0
 70
    32
  0
VERTEX
  5
1B26C
  8
0
  6
BYBLOCK
 62
     5
 10
300.99
 20
185.481
 30
0.0
 70
    32
  0
VERTEX
  5
1B26D
  8
0
  6
BYBLOCK
 62
     5
 10
300.989
 20
185.481
 30
0.0
 70
    32
  0
VERTEX
  5
1B26E
  8
0
  6
BYBLOCK
 62
     5
 10
300.989
 20
185.48
 30
0.0
 70
    32
  0
VERTEX
  5
1B26F
  8
0
  6
BYBLOCK
 62
     5
 10
300.988
 20
185.48
 30
0.0
 70
    32
  0
VERTEX
  5
1B270
  8
0
  6
BYBLOCK
 62
     5
 10
300.987
 20
185.48
 30
0.0
 70
    32
  0
VERTEX
  5
1B271
  8
0
  6
BYBLOCK
 62
     5
 10
300.987
 20
185.479
 30
0.0
 70
    32
  0
VERTEX
  5
1B272
  8
0
  6
BYBLOCK
 62
     5
 10
300.986
 20
185.479
 30
0.0
 70
    32
  0
VERTEX
  5
1B273
  8
0
  6
BYBLOCK
 62
     5
 10
300.985
 20
185.479
 30
0.0
 70
    32
  0
VERTEX
  5
1B274
  8
0
  6
BYBLOCK
 62
     5
 10
300.984
 20
185.478
 30
0.0
 70
    32
  0
VERTEX
  5
1B275
  8
0
  6
BYBLOCK
 62
     5
 10
300.984
 20
185.478
 30
0.0
 70
    32
  0
VERTEX
  5
1B276
  8
0
  6
BYBLOCK
 62
     5
 10
300.983
 20
185.478
 30
0.0
 70
    32
  0
VERTEX
  5
1B277
  8
0
  6
BYBLOCK
 62
     5
 10
300.982
 20
185.477
 30
0.0
 70
    32
  0
VERTEX
  5
1B278
  8
0
  6
BYBLOCK
 62
     5
 10
300.982
 20
185.477
 30
0.0
 70
    32
  0
VERTEX
  5
1B279
  8
0
  6
BYBLOCK
 62
     5
 10
300.981
 20
185.477
 30
0.0
 70
    32
  0
VERTEX
  5
1B27A
  8
0
  6
BYBLOCK
 62
     5
 10
300.98
 20
185.476
 30
0.0
 70
    32
  0
VERTEX
  5
1B27B
  8
0
  6
BYBLOCK
 62
     5
 10
300.98
 20
185.476
 30
0.0
 70
    32
  0
VERTEX
  5
1B27C
  8
0
  6
BYBLOCK
 62
     5
 10
300.979
 20
185.476
 30
0.0
 70
    32
  0
VERTEX
  5
1B27D
  8
0
  6
BYBLOCK
 62
     5
 10
300.978
 20
185.475
 30
0.0
 70
    32
  0
VERTEX
  5
1B27E
  8
0
  6
BYBLOCK
 62
     5
 10
300.977
 20
185.475
 30
0.0
 70
    32
  0
VERTEX
  5
1B27F
  8
0
  6
BYBLOCK
 62
     5
 10
300.977
 20
185.475
 30
0.0
 70
    32
  0
VERTEX
  5
1B280
  8
0
  6
BYBLOCK
 62
     5
 10
300.976
 20
185.474
 30
0.0
 70
    32
  0
VERTEX
  5
1B281
  8
0
  6
BYBLOCK
 62
     5
 10
300.975
 20
185.474
 30
0.0
 70
    32
  0
VERTEX
  5
1B282
  8
0
  6
BYBLOCK
 62
     5
 10
300.975
 20
185.474
 30
0.0
 70
    32
  0
VERTEX
  5
1B283
  8
0
  6
BYBLOCK
 62
     5
 10
300.974
 20
185.473
 30
0.0
 70
    32
  0
VERTEX
  5
1B284
  8
0
  6
BYBLOCK
 62
     5
 10
300.973
 20
185.473
 30
0.0
 70
    32
  0
VERTEX
  5
1B285
  8
0
  6
BYBLOCK
 62
     5
 10
300.972
 20
185.473
 30
0.0
 70
    32
  0
VERTEX
  5
1B286
  8
0
  6
BYBLOCK
 62
     5
 10
300.972
 20
185.473
 30
0.0
 70
    32
  0
VERTEX
  5
1B287
  8
0
  6
BYBLOCK
 62
     5
 10
300.971
 20
185.472
 30
0.0
 70
    32
  0
VERTEX
  5
1B288
  8
0
  6
BYBLOCK
 62
     5
 10
300.97
 20
185.472
 30
0.0
 70
    32
  0
VERTEX
  5
1B289
  8
0
  6
BYBLOCK
 62
     5
 10
300.97
 20
185.472
 30
0.0
 70
    32
  0
VERTEX
  5
1B28A
  8
0
  6
BYBLOCK
 62
     5
 10
300.969
 20
185.471
 30
0.0
 70
    32
  0
VERTEX
  5
1B28B
  8
0
  6
BYBLOCK
 62
     5
 10
300.968
 20
185.471
 30
0.0
 70
    32
  0
VERTEX
  5
1B28C
  8
0
  6
BYBLOCK
 62
     5
 10
300.968
 20
185.471
 30
0.0
 70
    32
  0
VERTEX
  5
1B28D
  8
0
  6
BYBLOCK
 62
     5
 10
300.967
 20
185.47
 30
0.0
 70
    32
  0
VERTEX
  5
1B28E
  8
0
  6
BYBLOCK
 62
     5
 10
300.966
 20
185.47
 30
0.0
 70
    32
  0
VERTEX
  5
1B28F
  8
0
  6
BYBLOCK
 62
     5
 10
300.965
 20
185.47
 30
0.0
 70
    32
  0
VERTEX
  5
1B290
  8
0
  6
BYBLOCK
 62
     5
 10
300.965
 20
185.469
 30
0.0
 70
    32
  0
VERTEX
  5
1B291
  8
0
  6
BYBLOCK
 62
     5
 10
300.964
 20
185.469
 30
0.0
 70
    32
  0
VERTEX
  5
1B292
  8
0
  6
BYBLOCK
 62
     5
 10
300.963
 20
185.469
 30
0.0
 70
    32
  0
VERTEX
  5
1B293
  8
0
  6
BYBLOCK
 62
     5
 10
300.963
 20
185.469
 30
0.0
 70
    32
  0
VERTEX
  5
1B294
  8
0
  6
BYBLOCK
 62
     5
 10
300.962
 20
185.468
 30
0.0
 70
    32
  0
VERTEX
  5
1B295
  8
0
  6
BYBLOCK
 62
     5
 10
300.961
 20
185.468
 30
0.0
 70
    32
  0
VERTEX
  5
1B296
  8
0
  6
BYBLOCK
 62
     5
 10
300.96
 20
185.468
 30
0.0
 70
    32
  0
VERTEX
  5
1B297
  8
0
  6
BYBLOCK
 62
     5
 10
300.96
 20
185.467
 30
0.0
 70
    32
  0
VERTEX
  5
1B298
  8
0
  6
BYBLOCK
 62
     5
 10
300.959
 20
185.467
 30
0.0
 70
    32
  0
VERTEX
  5
1B299
  8
0
  6
BYBLOCK
 62
     5
 10
300.958
 20
185.467
 30
0.0
 70
    32
  0
VERTEX
  5
1B29A
  8
0
  6
BYBLOCK
 62
     5
 10
300.958
 20
185.466
 30
0.0
 70
    32
  0
VERTEX
  5
1B29B
  8
0
  6
BYBLOCK
 62
     5
 10
300.957
 20
185.466
 30
0.0
 70
    32
  0
VERTEX
  5
1B29C
  8
0
  6
BYBLOCK
 62
     5
 10
300.956
 20
185.466
 30
0.0
 70
    32
  0
VERTEX
  5
1B29D
  8
0
  6
BYBLOCK
 62
     5
 10
300.955
 20
185.466
 30
0.0
 70
    32
  0
VERTEX
  5
1B29E
  8
0
  6
BYBLOCK
 62
     5
 10
300.955
 20
185.465
 30
0.0
 70
    32
  0
VERTEX
  5
1B29F
  8
0
  6
BYBLOCK
 62
     5
 10
300.954
 20
185.465
 30
0.0
 70
    32
  0
VERTEX
  5
1B2A0
  8
0
  6
BYBLOCK
 62
     5
 10
300.953
 20
185.465
 30
0.0
 70
    32
  0
VERTEX
  5
1B2A1
  8
0
  6
BYBLOCK
 62
     5
 10
300.952
 20
185.464
 30
0.0
 70
    32
  0
VERTEX
  5
1B2A2
  8
0
  6
BYBLOCK
 62
     5
 10
300.952
 20
185.464
 30
0.0
 70
    32
  0
VERTEX
  5
1B2A3
  8
0
  6
BYBLOCK
 62
     5
 10
300.951
 20
185.464
 30
0.0
 70
    32
  0
VERTEX
  5
1B2A4
  8
0
  6
BYBLOCK
 62
     5
 10
300.95
 20
185.464
 30
0.0
 70
    32
  0
VERTEX
  5
1B2A5
  8
0
  6
BYBLOCK
 62
     5
 10
300.95
 20
185.463
 30
0.0
 70
    32
  0
VERTEX
  5
1B2A6
  8
0
  6
BYBLOCK
 62
     5
 10
300.949
 20
185.463
 30
0.0
 70
    32
  0
VERTEX
  5
1B2A7
  8
0
  6
BYBLOCK
 62
     5
 10
300.948
 20
185.463
 30
0.0
 70
    32
  0
VERTEX
  5
1B2A8
  8
0
  6
BYBLOCK
 62
     5
 10
300.947
 20
185.462
 30
0.0
 70
    32
  0
VERTEX
  5
1B2A9
  8
0
  6
BYBLOCK
 62
     5
 10
300.947
 20
185.462
 30
0.0
 70
    32
  0
VERTEX
  5
1B2AA
  8
0
  6
BYBLOCK
 62
     5
 10
300.946
 20
185.462
 30
0.0
 70
    32
  0
VERTEX
  5
1B2AB
  8
0
  6
BYBLOCK
 62
     5
 10
300.945
 20
185.462
 30
0.0
 70
    32
  0
VERTEX
  5
1B2AC
  8
0
  6
BYBLOCK
 62
     5
 10
300.945
 20
185.461
 30
0.0
 70
    32
  0
VERTEX
  5
1B2AD
  8
0
  6
BYBLOCK
 62
     5
 10
300.944
 20
185.461
 30
0.0
 70
    32
  0
VERTEX
  5
1B2AE
  8
0
  6
BYBLOCK
 62
     5
 10
300.943
 20
185.461
 30
0.0
 70
    32
  0
VERTEX
  5
1B2AF
  8
0
  6
BYBLOCK
 62
     5
 10
300.942
 20
185.461
 30
0.0
 70
    32
  0
VERTEX
  5
1B2B0
  8
0
  6
BYBLOCK
 62
     5
 10
300.942
 20
185.46
 30
0.0
 70
    32
  0
VERTEX
  5
1B2B1
  8
0
  6
BYBLOCK
 62
     5
 10
300.941
 20
185.46
 30
0.0
 70
    32
  0
VERTEX
  5
1B2B2
  8
0
  6
BYBLOCK
 62
     5
 10
300.94
 20
185.46
 30
0.0
 70
    32
  0
VERTEX
  5
1B2B3
  8
0
  6
BYBLOCK
 62
     5
 10
300.939
 20
185.46
 30
0.0
 70
    32
  0
VERTEX
  5
1B2B4
  8
0
  6
BYBLOCK
 62
     5
 10
300.939
 20
185.459
 30
0.0
 70
    32
  0
VERTEX
  5
1B2B5
  8
0
  6
BYBLOCK
 62
     5
 10
300.938
 20
185.459
 30
0.0
 70
    32
  0
VERTEX
  5
1B2B6
  8
0
  6
BYBLOCK
 62
     5
 10
300.937
 20
185.459
 30
0.0
 70
    32
  0
VERTEX
  5
1B2B7
  8
0
  6
BYBLOCK
 62
     5
 10
300.936
 20
185.459
 30
0.0
 70
    32
  0
VERTEX
  5
1B2B8
  8
0
  6
BYBLOCK
 62
     5
 10
300.936
 20
185.458
 30
0.0
 70
    32
  0
VERTEX
  5
1B2B9
  8
0
  6
BYBLOCK
 62
     5
 10
300.935
 20
185.458
 30
0.0
 70
    32
  0
VERTEX
  5
1B2BA
  8
0
  6
BYBLOCK
 62
     5
 10
300.934
 20
185.458
 30
0.0
 70
    32
  0
VERTEX
  5
1B2BB
  8
0
  6
BYBLOCK
 62
     5
 10
300.934
 20
185.458
 30
0.0
 70
    32
  0
VERTEX
  5
1B2BC
  8
0
  6
BYBLOCK
 62
     5
 10
300.933
 20
185.457
 30
0.0
 70
    32
  0
VERTEX
  5
1B2BD
  8
0
  6
BYBLOCK
 62
     5
 10
300.932
 20
185.457
 30
0.0
 70
    32
  0
VERTEX
  5
1B2BE
  8
0
  6
BYBLOCK
 62
     5
 10
300.931
 20
185.457
 30
0.0
 70
    32
  0
VERTEX
  5
1B2BF
  8
0
  6
BYBLOCK
 62
     5
 10
300.931
 20
185.457
 30
0.0
 70
    32
  0
VERTEX
  5
1B2C0
  8
0
  6
BYBLOCK
 62
     5
 10
300.93
 20
185.456
 30
0.0
 70
    32
  0
VERTEX
  5
1B2C1
  8
0
  6
BYBLOCK
 62
     5
 10
300.929
 20
185.456
 30
0.0
 70
    32
  0
VERTEX
  5
1B2C2
  8
0
  6
BYBLOCK
 62
     5
 10
300.928
 20
185.456
 30
0.0
 70
    32
  0
VERTEX
  5
1B2C3
  8
0
  6
BYBLOCK
 62
     5
 10
300.928
 20
185.456
 30
0.0
 70
    32
  0
VERTEX
  5
1B2C4
  8
0
  6
BYBLOCK
 62
     5
 10
300.927
 20
185.455
 30
0.0
 70
    32
  0
VERTEX
  5
1B2C5
  8
0
  6
BYBLOCK
 62
     5
 10
300.926
 20
185.455
 30
0.0
 70
    32
  0
VERTEX
  5
1B2C6
  8
0
  6
BYBLOCK
 62
     5
 10
300.925
 20
185.455
 30
0.0
 70
    32
  0
VERTEX
  5
1B2C7
  8
0
  6
BYBLOCK
 62
     5
 10
300.925
 20
185.455
 30
0.0
 70
    32
  0
VERTEX
  5
1B2C8
  8
0
  6
BYBLOCK
 62
     5
 10
300.924
 20
185.455
 30
0.0
 70
    32
  0
VERTEX
  5
1B2C9
  8
0
  6
BYBLOCK
 62
     5
 10
300.923
 20
185.454
 30
0.0
 70
    32
  0
VERTEX
  5
1B2CA
  8
0
  6
BYBLOCK
 62
     5
 10
300.922
 20
185.454
 30
0.0
 70
    32
  0
VERTEX
  5
1B2CB
  8
0
  6
BYBLOCK
 62
     5
 10
300.922
 20
185.454
 30
0.0
 70
    32
  0
VERTEX
  5
1B2CC
  8
0
  6
BYBLOCK
 62
     5
 10
300.921
 20
185.454
 30
0.0
 70
    32
  0
VERTEX
  5
1B2CD
  8
0
  6
BYBLOCK
 62
     5
 10
300.92
 20
185.453
 30
0.0
 70
    32
  0
VERTEX
  5
1B2CE
  8
0
  6
BYBLOCK
 62
     5
 10
300.919
 20
185.453
 30
0.0
 70
    32
  0
VERTEX
  5
1B2CF
  8
0
  6
BYBLOCK
 62
     5
 10
300.919
 20
185.453
 30
0.0
 70
    32
  0
VERTEX
  5
1B2D0
  8
0
  6
BYBLOCK
 62
     5
 10
300.918
 20
185.453
 30
0.0
 70
    32
  0
VERTEX
  5
1B2D1
  8
0
  6
BYBLOCK
 62
     5
 10
300.917
 20
185.453
 30
0.0
 70
    32
  0
VERTEX
  5
1B2D2
  8
0
  6
BYBLOCK
 62
     5
 10
300.916
 20
185.452
 30
0.0
 70
    32
  0
VERTEX
  5
1B2D3
  8
0
  6
BYBLOCK
 62
     5
 10
300.916
 20
185.452
 30
0.0
 70
    32
  0
VERTEX
  5
1B2D4
  8
0
  6
BYBLOCK
 62
     5
 10
300.915
 20
185.452
 30
0.0
 70
    32
  0
VERTEX
  5
1B2D5
  8
0
  6
BYBLOCK
 62
     5
 10
300.914
 20
185.452
 30
0.0
 70
    32
  0
VERTEX
  5
1B2D6
  8
0
  6
BYBLOCK
 62
     5
 10
300.913
 20
185.452
 30
0.0
 70
    32
  0
VERTEX
  5
1B2D7
  8
0
  6
BYBLOCK
 62
     5
 10
300.913
 20
185.451
 30
0.0
 70
    32
  0
VERTEX
  5
1B2D8
  8
0
  6
BYBLOCK
 62
     5
 10
300.912
 20
185.451
 30
0.0
 70
    32
  0
VERTEX
  5
1B2D9
  8
0
  6
BYBLOCK
 62
     5
 10
300.911
 20
185.451
 30
0.0
 70
    32
  0
VERTEX
  5
1B2DA
  8
0
  6
BYBLOCK
 62
     5
 10
300.91
 20
185.451
 30
0.0
 70
    32
  0
VERTEX
  5
1B2DB
  8
0
  6
BYBLOCK
 62
     5
 10
300.91
 20
185.451
 30
0.0
 70
    32
  0
VERTEX
  5
1B2DC
  8
0
  6
BYBLOCK
 62
     5
 10
300.909
 20
185.451
 30
0.0
 70
    32
  0
VERTEX
  5
1B2DD
  8
0
  6
BYBLOCK
 62
     5
 10
300.908
 20
185.45
 30
0.0
 70
    32
  0
VERTEX
  5
1B2DE
  8
0
  6
BYBLOCK
 62
     5
 10
300.907
 20
185.45
 30
0.0
 70
    32
  0
VERTEX
  5
1B2DF
  8
0
  6
BYBLOCK
 62
     5
 10
300.907
 20
185.45
 30
0.0
 70
    32
  0
VERTEX
  5
1B2E0
  8
0
  6
BYBLOCK
 62
     5
 10
300.906
 20
185.45
 30
0.0
 70
    32
  0
VERTEX
  5
1B2E1
  8
0
  6
BYBLOCK
 62
     5
 10
300.905
 20
185.45
 30
0.0
 70
    32
  0
VERTEX
  5
1B2E2
  8
0
  6
BYBLOCK
 62
     5
 10
300.904
 20
185.45
 30
0.0
 70
    32
  0
VERTEX
  5
1B2E3
  8
0
  6
BYBLOCK
 62
     5
 10
300.904
 20
185.449
 30
0.0
 70
    32
  0
VERTEX
  5
1B2E4
  8
0
  6
BYBLOCK
 62
     5
 10
300.903
 20
185.449
 30
0.0
 70
    32
  0
VERTEX
  5
1B2E5
  8
0
  6
BYBLOCK
 62
     5
 10
300.902
 20
185.449
 30
0.0
 70
    32
  0
VERTEX
  5
1B2E6
  8
0
  6
BYBLOCK
 62
     5
 10
300.901
 20
185.449
 30
0.0
 70
    32
  0
VERTEX
  5
1B2E7
  8
0
  6
BYBLOCK
 62
     5
 10
300.901
 20
185.449
 30
0.0
 70
    32
  0
VERTEX
  5
1B2E8
  8
0
  6
BYBLOCK
 62
     5
 10
300.9
 20
185.449
 30
0.0
 70
    32
  0
VERTEX
  5
1B2E9
  8
0
  6
BYBLOCK
 62
     5
 10
300.899
 20
185.449
 30
0.0
 70
    32
  0
VERTEX
  5
1B2EA
  8
0
  6
BYBLOCK
 62
     5
 10
300.898
 20
185.448
 30
0.0
 70
    32
  0
VERTEX
  5
1B2EB
  8
0
  6
BYBLOCK
 62
     5
 10
300.898
 20
185.448
 30
0.0
 70
    32
  0
VERTEX
  5
1B2EC
  8
0
  6
BYBLOCK
 62
     5
 10
300.897
 20
185.448
 30
0.0
 70
    32
  0
VERTEX
  5
1B2ED
  8
0
  6
BYBLOCK
 62
     5
 10
300.896
 20
185.448
 30
0.0
 70
    32
  0
VERTEX
  5
1B2EE
  8
0
  6
BYBLOCK
 62
     5
 10
300.895
 20
185.448
 30
0.0
 70
    32
  0
VERTEX
  5
1B2EF
  8
0
  6
BYBLOCK
 62
     5
 10
300.894
 20
185.448
 30
0.0
 70
    32
  0
VERTEX
  5
1B2F0
  8
0
  6
BYBLOCK
 62
     5
 10
300.894
 20
185.448
 30
0.0
 70
    32
  0
VERTEX
  5
1B2F1
  8
0
  6
BYBLOCK
 62
     5
 10
300.893
 20
185.448
 30
0.0
 70
    32
  0
VERTEX
  5
1B2F2
  8
0
  6
BYBLOCK
 62
     5
 10
300.892
 20
185.448
 30
0.0
 70
    32
  0
VERTEX
  5
1B2F3
  8
0
  6
BYBLOCK
 62
     5
 10
300.891
 20
185.447
 30
0.0
 70
    32
  0
VERTEX
  5
1B2F4
  8
0
  6
BYBLOCK
 62
     5
 10
300.891
 20
185.447
 30
0.0
 70
    32
  0
VERTEX
  5
1B2F5
  8
0
  6
BYBLOCK
 62
     5
 10
300.89
 20
185.447
 30
0.0
 70
    32
  0
VERTEX
  5
1B2F6
  8
0
  6
BYBLOCK
 62
     5
 10
300.889
 20
185.447
 30
0.0
 70
    32
  0
VERTEX
  5
1B2F7
  8
0
  6
BYBLOCK
 62
     5
 10
300.888
 20
185.447
 30
0.0
 70
    32
  0
VERTEX
  5
1B2F8
  8
0
  6
BYBLOCK
 62
     5
 10
300.888
 20
185.447
 30
0.0
 70
    32
  0
VERTEX
  5
1B2F9
  8
0
  6
BYBLOCK
 62
     5
 10
300.887
 20
185.447
 30
0.0
 70
    32
  0
VERTEX
  5
1B2FA
  8
0
  6
BYBLOCK
 62
     5
 10
300.886
 20
185.447
 30
0.0
 70
    32
  0
VERTEX
  5
1B2FB
  8
0
  6
BYBLOCK
 62
     5
 10
300.885
 20
185.447
 30
0.0
 70
    32
  0
VERTEX
  5
1B2FC
  8
0
  6
BYBLOCK
 62
     5
 10
300.884
 20
185.447
 30
0.0
 70
    32
  0
VERTEX
  5
1B2FD
  8
0
  6
BYBLOCK
 62
     5
 10
300.884
 20
185.447
 30
0.0
 70
    32
  0
VERTEX
  5
1B2FE
  8
0
  6
BYBLOCK
 62
     5
 10
300.883
 20
185.447
 30
0.0
 70
    32
  0
VERTEX
  5
1B2FF
  8
0
  6
BYBLOCK
 62
     5
 10
300.882
 20
185.447
 30
0.0
 70
    32
  0
VERTEX
  5
1B300
  8
0
  6
BYBLOCK
 62
     5
 10
300.881
 20
185.447
 30
0.0
 70
    32
  0
VERTEX
  5
1B301
  8
0
  6
BYBLOCK
 62
     5
 10
300.881
 20
185.447
 30
0.0
 70
    32
  0
VERTEX
  5
1B302
  8
0
  6
BYBLOCK
 62
     5
 10
300.88
 20
185.447
 30
0.0
 70
    32
  0
VERTEX
  5
1B303
  8
0
  6
BYBLOCK
 62
     5
 10
300.879
 20
185.446
 30
0.0
 70
    32
  0
VERTEX
  5
1B304
  8
0
  6
BYBLOCK
 62
     5
 10
300.878
 20
185.446
 30
0.0
 70
    32
  0
VERTEX
  5
1B305
  8
0
  6
BYBLOCK
 62
     5
 10
300.877
 20
185.446
 30
0.0
 70
    32
  0
VERTEX
  5
1B306
  8
0
  6
BYBLOCK
 62
     5
 10
300.877
 20
185.446
 30
0.0
 70
    32
  0
VERTEX
  5
1B307
  8
0
  6
BYBLOCK
 62
     5
 10
300.876
 20
185.446
 30
0.0
 70
    32
  0
VERTEX
  5
1B308
  8
0
  6
BYBLOCK
 62
     5
 10
300.875
 20
185.446
 30
0.0
 70
    32
  0
VERTEX
  5
1B309
  8
0
  6
BYBLOCK
 62
     5
 10
300.874
 20
185.446
 30
0.0
 70
    32
  0
VERTEX
  5
1B30A
  8
0
  6
BYBLOCK
 62
     5
 10
300.874
 20
185.446
 30
0.0
 70
    32
  0
SEQEND
  5
1B30B
  8
0
  6
BYBLOCK
 62
     5
  0
LINE
  5
1B30C
  8
0
  6
BYBLOCK
 62
     5
 10
367.840239
 20
215.95601
 30
0.0
 11
404.040239
 21
215.95601
 31
0.0
  0
LINE
  5
1B30D
  8
0
  6
BYBLOCK
 62
     5
 10
367.840239
 20
234.95601
 30
0.0
 11
404.040239
 21
234.95601
 31
0.0
  0
LINE
  5
1B30E
  8
0
  6
BYBLOCK
 62
     5
 10
352.440239
 20
185.45601
 30
0.0
 11
352.440239
 21
265.45601
 31
0.0
  0
LINE
  5
1B30F
  8
0
  6
BYBLOCK
 62
     5
 10
364.440239
 20
265.45601
 30
0.0
 11
364.440239
 21
185.45601
 31
0.0
  0
LINE
  5
1B310
  8
0
  6
BYBLOCK
 62
     5
 10
367.240239
 20
260.45601
 30
0.0
 11
367.240239
 21
190.45601
 31
0.0
  0
LINE
  5
1B311
  8
0
  6
BYBLOCK
 62
     5
 10
367.440239
 20
260.256007
 30
0.0
 11
367.440239
 21
190.656013
 31
0.0
  0
LINE
  5
1B312
  8
0
  6
BYBLOCK
 62
     5
 10
364.440239
 20
185.45601
 30
0.0
 11
352.640239
 21
185.45601
 31
0.0
  0
ARC
  5
1B313
  8
0
  6
BYBLOCK
 62
     5
 10
356.240239
 20
199.252199
 30
0.0
 40
0.2
 50
0.0
 51
90.0
  0
ARC
  5
1B314
  8
0
  6
BYBLOCK
 62
     5
 10
352.640239
 20
199.652199
 30
0.0
 40
0.2
 50
180.000004
 51
270.0
  0
LINE
  5
1B315
  8
0
  6
BYBLOCK
 62
     5
 10
352.640239
 20
199.452199
 30
0.0
 11
356.240239
 21
199.452199
 31
0.0
  0
ARC
  5
1B316
  8
0
  6
BYBLOCK
 62
     5
 10
356.640239
 20
185.65601
 30
0.0
 40
0.2
 50
180.0
 51
270.0
  0
ARC
  5
1B317
  8
0
  6
BYBLOCK
 62
     5
 10
352.640239
 20
185.65601
 30
0.0
 40
0.2
 50
180.0
 51
270.0
  0
LINE
  5
1B318
  8
0
  6
BYBLOCK
 62
     5
 10
356.440239
 20
185.65601
 30
0.0
 11
356.440239
 21
199.812828
 31
0.0
  0
LINE
  5
1B319
  8
0
  6
BYBLOCK
 62
     5
 10
364.640239
 20
190.45601
 30
0.0
 11
367.240239
 21
190.45601
 31
0.0
  0
LINE
  5
1B31A
  8
0
  6
BYBLOCK
 62
     5
 10
367.240239
 20
190.45601
 30
0.0
 11
367.440239
 21
190.65601
 31
0.0
  0
ARC
  5
1B31B
  8
0
  6
BYBLOCK
 62
     5
 10
364.640239
 20
190.25601
 30
0.0
 40
0.2
 50
90.0
 51
180.0
  0
ARC
  5
1B31C
  8
0
  6
BYBLOCK
 62
     5
 10
367.840239
 20
215.55601
 30
0.0
 40
0.4
 50
90.0
 51
180.0
  0
LINE
  5
1B31D
  8
0
  6
BYBLOCK
 62
     5
 10
356.440239
 20
251.099192
 30
0.0
 11
356.440239
 21
265.25601
 31
0.0
  0
ARC
  5
1B31E
  8
0
  6
BYBLOCK
 62
     5
 10
356.240239
 20
251.659821
 30
0.0
 40
0.2
 50
270.0
 51
0.0
  0
ARC
  5
1B31F
  8
0
  6
BYBLOCK
 62
     5
 10
352.640239
 20
251.259821
 30
0.0
 40
0.2
 50
90.0
 51
179.999996
  0
LINE
  5
1B320
  8
0
  6
BYBLOCK
 62
     5
 10
356.240239
 20
251.459821
 30
0.0
 11
352.640239
 21
251.459821
 31
0.0
  0
ARC
  5
1B321
  8
0
  6
BYBLOCK
 62
     5
 10
367.840239
 20
235.35601
 30
0.0
 40
0.4
 50
180.0
 51
270.0
  0
LINE
  5
1B322
  8
0
  6
BYBLOCK
 62
     5
 10
352.640239
 20
265.45601
 30
0.0
 11
364.440239
 21
265.45601
 31
0.0
  0
ARC
  5
1B323
  8
0
  6
BYBLOCK
 62
     5
 10
356.640239
 20
265.25601
 30
0.0
 40
0.2
 50
90.0
 51
180.0
  0
ARC
  5
1B324
  8
0
  6
BYBLOCK
 62
     5
 10
352.640239
 20
265.25601
 30
0.0
 40
0.2
 50
90.0
 51
180.0
  0
LINE
  5
1B325
  8
0
  6
BYBLOCK
 62
     5
 10
364.640239
 20
260.45601
 30
0.0
 11
367.240239
 21
260.45601
 31
0.0
  0
LINE
  5
1B326
  8
0
  6
BYBLOCK
 62
     5
 10
367.240239
 20
260.45601
 30
0.0
 11
367.440239
 21
260.25601
 31
0.0
  0
ARC
  5
1B327
  8
0
  6
BYBLOCK
 62
     5
 10
364.640239
 20
260.65601
 30
0.0
 40
0.2
 50
180.0
 51
270.0
  0
LINE
  5
1B328
  8
0
  6
BYBLOCK
 62
     5
 10
404.440239
 20
234.556008
 30
0.0
 11
404.440239
 21
216.356012
 31
0.0
  0
LINE
  5
1B329
  8
0
  6
BYBLOCK
 62
     5
 10
404.040239
 20
234.95601
 30
0.0
 11
404.040239
 21
215.95601
 31
0.0
  0
LINE
  5
1B32A
  8
0
  6
BYBLOCK
 62
     5
 10
404.040239
 20
215.95601
 30
0.0
 11
404.440239
 21
216.35601
 31
0.0
  0
LINE
  5
1B32B
  8
0
  6
BYBLOCK
 62
     5
 10
404.040239
 20
234.95601
 30
0.0
 11
404.440239
 21
234.55601
 31
0.0
  0
LINE
  5
1B32C
  8
CENTER
 10
541.749066
 20
189.570507
 30
0.0
 11
533.689768
 21
197.629805
 31
0.0
  0
ARC
  5
1B32D
  8
CENTER
 10
505.863563
 20
225.45601
 30
0.0
 40
45.0
 50
306.879536
 51
323.819061
  0
ARC
  5
1B32E
  8
CENTER
 10
505.863563
 20
225.45601
 30
0.0
 40
45.0
 50
36.879536
 51
53.819061
  0
LINE
  5
1B32F
  8
CENTER
 10
541.749066
 20
261.341513
 30
0.0
 11
533.689768
 21
253.282215
 31
0.0
  0
CIRCLE
  5
1B330
  8
0
  6
BYBLOCK
 62
     5
 10
537.683368
 20
257.275815
 30
0.0
 40
3.3
  0
ARC
  5
1B331
  8
0
  6
BYBLOCK
 62
     5
 10
541.424502
 20
246.654585
 30
0.0
 40
2.0
 50
255.0
 51
195.0
  0
CIRCLE
  5
1B332
  8
0
  6
BYBLOCK
 62
     5
 10
541.424502
 20
246.654585
 30
0.0
 40
1.65
  0
ARC
  5
1B333
  8
0
  6
BYBLOCK
 62
     5
 10
538.863563
 20
258.45601
 30
0.0
 40
7.0
 50
0.0
 51
90.0
  0
ARC
  5
1B334
  8
0
  6
BYBLOCK
 62
     5
 10
538.863563
 20
192.45601
 30
0.0
 40
7.0
 50
270.0
 51
0.0
  0
CIRCLE
  5
1B335
  8
0
  6
BYBLOCK
 62
     5
 10
537.683368
 20
193.636205
 30
0.0
 40
3.3
  0
LINE
  5
1B336
  8
CENTER
 10
554.092248
 20
225.45601
 30
0.0
 11
463.386796
 21
225.45601
 31
0.0
  0
CIRCLE
  5
1B337
  8
0
  6
BYBLOCK
 62
     5
 10
505.863563
 20
225.45601
 30
0.0
 40
35.0
  0
CIRCLE
  5
1B338
  8
0
  6
BYBLOCK
 62
     5
 10
505.863563
 20
225.45601
 30
0.0
 40
34.8
  0
LINE
  5
1B339
  8
0
  6
BYBLOCK
 62
     5
 10
527.317043
 20
182.45601
 30
0.0
 11
527.317043
 21
178.55601
 31
0.0
  0
LINE
  5
1B33A
  8
0
  6
BYBLOCK
 62
     5
 10
487.122675
 20
182.05601
 30
0.0
 11
487.192967
 21
176.65601
 31
0.0
  0
LINE
  5
1B33B
  8
0
  6
BYBLOCK
 62
     5
 10
486.505263
 20
176.65601
 30
0.0
 11
486.335561
 21
182.05601
 31
0.0
  0
LINE
  5
1B33C
  8
0
  6
BYBLOCK
 62
     5
 10
501.391564
 20
182.05601
 30
0.0
 11
501.221862
 21
176.65601
 31
0.0
  0
LINE
  5
1B33D
  8
0
  6
BYBLOCK
 62
     5
 10
500.534158
 20
176.65601
 30
0.0
 11
500.604451
 21
182.05601
 31
0.0
  0
LINE
  5
1B33E
  8
0
  6
BYBLOCK
 62
     5
 10
521.099809
 20
183.85601
 30
0.0
 11
521.099809
 21
180.85601
 31
0.0
  0
LINE
  5
1B33F
  8
0
  6
BYBLOCK
 62
     5
 10
501.963563
 20
182.05601
 30
0.0
 11
501.963563
 21
181.55601
 31
0.0
  0
LINE
  5
1B340
  8
0
  6
BYBLOCK
 62
     5
 10
505.463563
 20
182.05601
 30
0.0
 11
505.463563
 21
181.55601
 31
0.0
  0
LINE
  5
1B341
  8
0
  6
BYBLOCK
 62
     5
 10
505.963563
 20
180.85601
 30
0.0
 11
505.963563
 21
182.05601
 31
0.0
  0
LINE
  5
1B342
  8
HIDDEN
 10
529.417005
 20
177.95601
 30
0.0
 11
529.417005
 21
183.45601
 31
0.0
  0
LINE
  5
1B343
  8
CENTER
 10
517.363563
 20
186.45601
 30
0.0
 11
517.363563
 21
165.777641
 31
0.0
  0
LINE
  5
1B344
  8
HIDDEN
 10
506.113563
 20
182.05601
 30
0.0
 11
506.113563
 21
180.05601
 31
0.0
  0
LINE
  5
1B345
  8
HIDDEN
 10
481.613563
 20
182.05601
 30
0.0
 11
481.613563
 21
180.05601
 31
0.0
  0
LINE
  5
1B346
  8
CENTER
 10
493.863563
 20
185.75601
 30
0.0
 11
493.863563
 21
165.858448
 31
0.0
  0
LINE
  5
1B347
  8
CENTER
 10
510.863563
 20
189.05601
 30
0.0
 11
510.863563
 21
165.211989
 31
0.0
  0
LINE
  5
1B348
  8
CENTER
 10
505.863563
 20
271.711559
 30
0.0
 11
505.863563
 21
163.999878
 31
0.0
  0
LINE
  5
1B349
  8
0
  6
BYBLOCK
 62
     5
 10
486.505263
 20
176.65601
 30
0.0
 11
501.221862
 21
176.65601
 31
0.0
  0
LINE
  5
1B34A
  8
HIDDEN
 10
488.413563
 20
168.35601
 30
0.0
 11
499.313563
 21
168.35601
 31
0.0
  0
LINE
  5
1B34B
  8
HIDDEN
 10
484.413563
 20
179.55601
 30
0.0
 11
484.413563
 21
172.35601
 31
0.0
  0
ARC
  5
1B34C
  8
HIDDEN
 10
482.113563
 20
180.05601
 30
0.0
 40
0.5
 50
180.0
 51
270.0
  0
LINE
  5
1B34D
  8
HIDDEN
 10
482.113563
 20
179.55601
 30
0.0
 11
484.413563
 21
179.55601
 31
0.0
  0
ARC
  5
1B34E
  8
HIDDEN
 10
488.413563
 20
172.35601
 30
0.0
 40
4.0
 50
180.0
 51
270.0
  0
LINE
  5
1B34F
  8
0
  6
BYBLOCK
 62
     5
 10
523.825451
 20
177.95601
 30
0.0
 11
515.213601
 21
177.95601
 31
0.0
  0
LINE
  5
1B350
  8
0
  6
BYBLOCK
 62
     5
 10
510.863563
 20
180.85601
 30
0.0
 11
521.099809
 21
180.85601
 31
0.0
  0
LINE
  5
1B351
  8
HIDDEN
 10
520.811897
 20
169.456014
 30
0.0
 11
515.120941
 21
169.45601
 31
0.0
  0
LINE
  5
1B352
  8
HIDDEN
 10
521.099764
 20
180.85601
 30
0.0
 11
506.113563
 21
180.85601
 31
0.0
  0
LINE
  5
1B353
  8
0
  6
BYBLOCK
 62
     5
 10
504.863563
 20
180.95601
 30
0.0
 11
503.713563
 21
180.95601
 31
0.0
  0
LINE
  5
1B354
  8
0
  6
BYBLOCK
 62
     5
 10
510.863563
 20
180.85601
 30
0.0
 11
501.353853
 21
180.85601
 31
0.0
  0
LINE
  5
1B355
  8
HIDDEN
 10
505.613563
 20
179.55601
 30
0.0
 11
503.313563
 21
179.55601
 31
0.0
  0
ARC
  5
1B356
  8
HIDDEN
 10
499.313563
 20
172.35601
 30
0.0
 40
4.0
 50
270.0
 51
0.0
  0
LINE
  5
1B357
  8
HIDDEN
 10
503.313563
 20
178.35601
 30
0.0
 11
504.181795
 21
178.35601
 31
0.0
  0
ARC
  5
1B358
  8
0
  6
BYBLOCK
 62
     5
 10
502.563563
 20
181.55601
 30
0.0
 40
0.6
 50
180.0
 51
270.0
  0
LINE
  5
1B359
  8
0
  6
BYBLOCK
 62
     5
 10
502.563563
 20
180.95601
 30
0.0
 11
503.713563
 21
180.95601
 31
0.0
  0
LINE
  5
1B35A
  8
HIDDEN
 10
503.313563
 20
179.55601
 30
0.0
 11
503.313563
 21
172.35601
 31
0.0
  0
ARC
  5
1B35B
  8
0
  6
BYBLOCK
 62
     5
 10
504.863563
 20
181.55601
 30
0.0
 40
0.6
 50
270.0
 51
0.0
  0
LINE
  5
1B35C
  8
0
  6
BYBLOCK
 62
     5
 10
507.313563
 20
175.55601
 30
0.0
 11
507.39427
 21
175.35601
 31
0.0
  0
LINE
  5
1B35D
  8
0
  6
BYBLOCK
 62
     5
 10
515.213563
 20
175.55601
 30
0.0
 11
515.013563
 21
175.35601
 31
0.0
  0
LINE
  5
1B35E
  8
0
  6
BYBLOCK
 62
     5
 10
514.413563
 20
175.55601
 30
0.0
 11
514.332855
 21
175.35601
 31
0.0
  0
LINE
  5
1B35F
  8
0
  6
BYBLOCK
 62
     5
 10
506.513563
 20
175.55601
 30
0.0
 11
506.713563
 21
175.35601
 31
0.0
  0
LINE
  5
1B360
  8
0
  6
BYBLOCK
 62
     5
 10
506.713563
 20
175.35601
 30
0.0
 11
515.013563
 21
175.35601
 31
0.0
  0
LINE
  5
1B361
  8
0
  6
BYBLOCK
 62
     5
 10
506.513563
 20
175.55601
 30
0.0
 11
515.213563
 21
175.55601
 31
0.0
  0
LINE
  5
1B362
  8
0
  6
BYBLOCK
 62
     5
 10
506.513563
 20
180.85601
 30
0.0
 11
506.513563
 21
175.55601
 31
0.0
  0
LINE
  5
1B363
  8
0
  6
BYBLOCK
 62
     5
 10
507.313563
 20
180.85601
 30
0.0
 11
507.313563
 21
175.55601
 31
0.0
  0
LINE
  5
1B364
  8
0
  6
BYBLOCK
 62
     5
 10
515.213563
 20
180.85601
 30
0.0
 11
515.213563
 21
175.55601
 31
0.0
  0
LINE
  5
1B365
  8
0
  6
BYBLOCK
 62
     5
 10
514.413563
 20
180.85601
 30
0.0
 11
514.413563
 21
175.55601
 31
0.0
  0
ARC
  5
1B366
  8
HIDDEN
 10
505.613563
 20
180.05601
 30
0.0
 40
0.5
 50
270.0
 51
0.0
  0
LINE
  5
1B367
  8
HIDDEN
 10
504.181795
 20
173.05601
 30
0.0
 11
504.181795
 21
178.35601
 31
0.0
  0
LINE
  5
1B368
  8
HIDDEN
 10
508.039267
 20
169.05601
 30
0.0
 11
513.139446
 21
169.05601
 31
0.0
  0
ARC
  5
1B369
  8
HIDDEN
 10
527.917005
 20
177.95601
 30
0.0
 40
1.5
 50
270.0
 51
0.0
  0
LINE
  5
1B36A
  8
HIDDEN
 10
517.54533
 20
178.35601
 30
0.0
 11
520.599809
 21
178.35601
 31
0.0
  0
LINE
  5
1B36B
  8
0
  6
BYBLOCK
 62
     5
 10
527.083516
 20
178.55601
 30
0.0
 11
527.083516
 21
178.25601
 31
0.0
  0
LINE
  5
1B36C
  8
0
  6
BYBLOCK
 62
     5
 10
526.785752
 20
177.95601
 30
0.0
 11
527.083516
 21
178.25601
 31
0.0
  0
LINE
  5
1B36D
  8
0
  6
BYBLOCK
 62
     5
 10
521.099809
 20
181.25601
 30
0.0
 11
522.670957
 21
181.25601
 31
0.0
  0
LINE
  5
1B36E
  8
0
  6
BYBLOCK
 62
     5
 10
522.670957
 20
178.25601
 30
0.0
 11
523.862012
 21
178.25601
 31
0.0
  0
LINE
  5
1B36F
  8
0
  6
BYBLOCK
 62
     5
 10
522.390657
 20
177.95601
 30
0.0
 11
522.390657
 21
181.25601
 31
0.0
  0
LINE
  5
1B370
  8
0
  6
BYBLOCK
 62
     5
 10
522.670957
 20
181.25601
 30
0.0
 11
522.670957
 21
178.25601
 31
0.0
  0
LINE
  5
1B371
  8
0
  6
BYBLOCK
 62
     5
 10
523.862012
 20
178.25601
 30
0.0
 11
523.862012
 21
178.55601
 31
0.0
  0
LINE
  5
1B372
  8
0
  6
BYBLOCK
 62
     5
 10
522.670957
 20
178.25601
 30
0.0
 11
522.634396
 21
177.95601
 31
0.0
  0
LINE
  5
1B373
  8
0
  6
BYBLOCK
 62
     5
 10
523.862012
 20
178.25601
 30
0.0
 11
523.825451
 21
177.95601
 31
0.0
  0
LINE
  5
1B374
  8
0
  6
BYBLOCK
 62
     5
 10
526.785752
 20
177.95601
 30
0.0
 11
523.883463
 21
177.95601
 31
0.0
  0
LINE
  5
1B375
  8
0
  6
BYBLOCK
 62
     5
 10
523.862012
 20
178.55601
 30
0.0
 11
527.316946
 21
178.55601
 31
0.0
  0
LINE
  5
1B376
  8
HIDDEN
 10
524.765765
 20
176.45601
 30
0.0
 11
527.917053
 21
176.45601
 31
0.0
  0
LINE
  5
1B377
  8
HIDDEN
 10
524.765765
 20
176.45601
 30
0.0
 11
524.765765
 21
173.844385
 31
0.0
  0
LINE
  5
1B378
  8
HIDDEN
 10
524.743844
 20
173.423432
 30
0.0
 11
524.743839
 21
173.423346
 31
0.0
  0
LINE
  5
1B379
  8
HIDDEN
 10
522.615505
 20
170.171213
 30
0.0
 11
522.615443
 21
170.170905
 31
0.0
  0
LINE
  5
1B37A
  8
HIDDEN
 10
517.54533
 20
178.35601
 30
0.0
 11
517.54533
 21
173.05601
 31
0.0
  0
LINE
  5
1B37B
  8
HIDDEN
 10
521.099809
 20
180.85601
 30
0.0
 11
521.099809
 21
178.85601
 31
0.0
  0
ARC
  5
1B37C
  8
HIDDEN
 10
520.599809
 20
178.85601
 30
0.0
 40
0.5
 50
270.000252
 51
0.0
  0
LINE
  5
1B37D
  8
HIDDEN
 10
522.434643
 20
169.76227
 30
0.0
 11
522.432207
 21
169.760563
 31
0.0
  0
LINE
  5
1B37E
  8
HIDDEN
 10
522.292792
 20
169.690989
 30
0.0
 11
522.292899
 21
169.691024
 31
0.0
  0
LINE
  5
1B37F
  8
0
  6
BYBLOCK
 62
     5
 10
497.37295
 20
182.35601
 30
0.0
 11
490.354175
 21
182.35601
 31
0.0
  0
LINE
  5
1B380
  8
0
  6
BYBLOCK
 62
     5
 10
480.398708
 20
182.05601
 30
0.0
 11
507.197374
 21
182.05601
 31
0.0
  0
LINE
  5
1B381
  8
0
  6
BYBLOCK
 62
     5
 10
472.863563
 20
185.45601
 30
0.0
 11
538.863563
 21
185.45601
 31
0.0
  0
LINE
  5
1B382
  8
0
  6
BYBLOCK
 62
     5
 10
538.863563
 20
265.45601
 30
0.0
 11
472.863563
 21
265.45601
 31
0.0
  0
LINE
  5
1B383
  8
0
  6
BYBLOCK
 62
     5
 10
530.891135
 20
265.759699
 30
0.0
 11
480.83599
 21
265.759699
 31
0.0
  0
LINE
  5
1B384
  8
0
  6
BYBLOCK
 62
     5
 10
465.559873
 20
250.483583
 30
0.0
 11
465.559873
 21
200.428437
 31
0.0
  0
LINE
  5
1B385
  8
0
  6
BYBLOCK
 62
     5
 10
465.863563
 20
258.45601
 30
0.0
 11
465.863563
 21
192.45601
 31
0.0
  0
ARC
  5
1B386
  8
0
  6
BYBLOCK
 62
     5
 10
472.863563
 20
192.45601
 30
0.0
 40
7.0
 50
180.0
 51
270.0
  0
ARC
  5
1B509
  8
0
  6
BYBLOCK
 62
     5
 10
470.302623
 20
204.257435
 30
0.0
 40
2.0
 50
255.0
 51
195.0
  0
CIRCLE
  5
1B50A
  8
0
  6
BYBLOCK
 62
     5
 10
470.302623
 20
204.257435
 30
0.0
 40
1.65
  0
LINE
  5
1B8CF
  8
CENTER
 10
469.978059
 20
189.570507
 30
0.0
 11
478.037357
 21
197.629805
 31
0.0
  0
ARC
  5
1B8D0
  8
CENTER
 10
505.863563
 20
225.45601
 30
0.0
 40
45.0
 50
216.879536
 51
233.819061
  0
LINE
  5
1B8D1
  8
0
  6
BYBLOCK
 62
     5
 10
479.898712
 20
185.443002
 30
0.0
 11
479.972371
 21
185.44621
 31
0.0
  0
LINE
  5
1B8D2
  8
0
  6
BYBLOCK
 62
     5
 10
479.898708
 20
185.442763
 30
0.0
 11
479.898708
 21
182.55601
 31
0.0
  0
ARC
  5
1B8D3
  8
0
  6
BYBLOCK
 62
     5
 10
938.454944
 20
225.45601
 30
0.0
 40
460.303689
 50
184.985246
 51
184.993626
  0
CIRCLE
  5
1B996
  8
0
  6
BYBLOCK
 62
     5
 10
474.043757
 20
193.636205
 30
0.0
 40
3.3
  0
LINE
  5
1B997
  8
0
  6
BYBLOCK
 62
     5
 10
490.363563
 20
182.35601
 30
0.0
 11
490.363563
 21
182.25601
 31
0.0
  0
ARC
  5
1B998
  8
0
  6
BYBLOCK
 62
     5
 10
490.163563
 20
182.25601
 30
0.0
 40
0.2
 50
270.0
 51
0.0
  0
ARC
  5
1BC5D
  8
0
  6
BYBLOCK
 62
     5
 10
472.863563
 20
258.45601
 30
0.0
 40
7.0
 50
90.0
 51
180.0
  0
ARC
  5
1BDE0
  8
CENTER
 10
505.863563
 20
225.45601
 30
0.0
 40
45.0
 50
126.879536
 51
143.819061
  0
LINE
  5
1BF63
  8
CENTER
 10
469.978059
 20
261.341513
 30
0.0
 11
478.037357
 21
253.282215
 31
0.0
  0
CIRCLE
  5
1BF64
  8
0
  6
BYBLOCK
 62
     5
 10
474.043757
 20
257.275815
 30
0.0
 40
3.3
  0
ARC
  5
1BF65
  8
0
  6
BYBLOCK
 62
     5
 10
484.664988
 20
261.01695
 30
0.0
 40
2.0
 50
255.0
 51
195.0
  0
CIRCLE
  5
1BF66
  8
0
  6
BYBLOCK
 62
     5
 10
484.664988
 20
261.01695
 30
0.0
 40
1.65
  0
CIRCLE
  5
1BF67
  8
0
  6
BYBLOCK
 62
     5
 10
505.863563
 20
225.45601
 30
0.0
 40
12.5
  0
CIRCLE
  5
1BF68
  8
0
  6
BYBLOCK
 62
     5
 10
505.863563
 20
225.45601
 30
0.0
 40
9.5
  0
CIRCLE
  5
1BF69
  8
0
  6
BYBLOCK
 62
     5
 10
505.863563
 20
225.45601
 30
0.0
 40
9.1
  0
LINE
  5
1BF6A
  8
0
  6
BYBLOCK
 62
     5
 10
510.863563
 20
184.15601
 30
0.0
 11
520.799809
 21
184.15601
 31
0.0
  0
LINE
  5
1BF6B
  8
0
  6
BYBLOCK
 62
     5
 10
510.863563
 20
183.85601
 30
0.0
 11
521.099809
 21
183.85601
 31
0.0
  0
LINE
  5
1BF6C
  8
0
  6
BYBLOCK
 62
     5
 10
521.011249
 20
184.15601
 30
0.0
 11
507.697374
 21
184.15601
 31
0.0
  0
LINE
  5
1BF6D
  8
0
  6
BYBLOCK
 62
     5
 10
508.128152
 20
185.152321
 30
0.0
 11
530.891135
 21
185.152321
 31
0.0
  0
LINE
  5
1BF6E
  8
0
  6
BYBLOCK
 62
     5
 10
497.363563
 20
182.25601
 30
0.0
 11
497.363563
 21
182.35601
 31
0.0
  0
ARC
  5
1BF6F
  8
0
  6
BYBLOCK
 62
     5
 10
497.563563
 20
182.25601
 30
0.0
 40
0.2
 50
180.0
 51
270.0
  0
LINE
  5
1C152
  8
0
  6
BYBLOCK
 62
     5
 10
510.863563
 20
184.15601
 30
0.0
 11
507.697374
 21
184.15601
 31
0.0
  0
LINE
  5
1C153
  8
0
  6
BYBLOCK
 62
     5
 10
510.863563
 20
183.85601
 30
0.0
 11
507.697374
 21
183.85601
 31
0.0
  0
LINE
  5
1C154
  8
0
  6
BYBLOCK
 62
     5
 10
507.697374
 20
184.732165
 30
0.0
 11
507.697374
 21
182.55601
 31
0.0
  0
ARC
  5
1C155
  8
0
  6
BYBLOCK
 62
     5
 10
507.197374
 20
182.55601
 30
0.0
 40
0.5
 50
270.0
 51
0.0
  0
POLYLINE
  5
1C156
  8
0
  6
BYBLOCK
 62
     5
 66
     1
 10
0.0
 20
0.0
 30
0.0
 70
     8
  0
VERTEX
  5
1C157
  8
0
  6
BYBLOCK
 62
     5
 10
507.697
 20
184.659
 30
0.0
 70
    32
  0
VERTEX
  5
1C158
  8
0
  6
BYBLOCK
 62
     5
 10
507.697
 20
184.659
 30
0.0
 70
    32
  0
VERTEX
  5
1C159
  8
0
  6
BYBLOCK
 62
     5
 10
507.697
 20
184.66
 30
0.0
 70
    32
  0
VERTEX
  5
1C15A
  8
0
  6
BYBLOCK
 62
     5
 10
507.697
 20
184.66
 30
0.0
 70
    32
  0
VERTEX
  5
1C15B
  8
0
  6
BYBLOCK
 62
     5
 10
507.697
 20
184.661
 30
0.0
 70
    32
  0
VERTEX
  5
1C15C
  8
0
  6
BYBLOCK
 62
     5
 10
507.698
 20
184.661
 30
0.0
 70
    32
  0
VERTEX
  5
1C15D
  8
0
  6
BYBLOCK
 62
     5
 10
507.698
 20
184.661
 30
0.0
 70
    32
  0
VERTEX
  5
1C15E
  8
0
  6
BYBLOCK
 62
     5
 10
507.698
 20
184.662
 30
0.0
 70
    32
  0
VERTEX
  5
1C15F
  8
0
  6
BYBLOCK
 62
     5
 10
507.698
 20
184.662
 30
0.0
 70
    32
  0
VERTEX
  5
1C160
  8
0
  6
BYBLOCK
 62
     5
 10
507.698
 20
184.663
 30
0.0
 70
    32
  0
VERTEX
  5
1C161
  8
0
  6
BYBLOCK
 62
     5
 10
507.698
 20
184.663
 30
0.0
 70
    32
  0
VERTEX
  5
1C162
  8
0
  6
BYBLOCK
 62
     5
 10
507.698
 20
184.664
 30
0.0
 70
    32
  0
VERTEX
  5
1C163
  8
0
  6
BYBLOCK
 62
     5
 10
507.698
 20
184.664
 30
0.0
 70
    32
  0
VERTEX
  5
1C164
  8
0
  6
BYBLOCK
 62
     5
 10
507.698
 20
184.665
 30
0.0
 70
    32
  0
VERTEX
  5
1C165
  8
0
  6
BYBLOCK
 62
     5
 10
507.698
 20
184.665
 30
0.0
 70
    32
  0
VERTEX
  5
1C166
  8
0
  6
BYBLOCK
 62
     5
 10
507.698
 20
184.666
 30
0.0
 70
    32
  0
VERTEX
  5
1C167
  8
0
  6
BYBLOCK
 62
     5
 10
507.698
 20
184.666
 30
0.0
 70
    32
  0
VERTEX
  5
1C168
  8
0
  6
BYBLOCK
 62
     5
 10
507.698
 20
184.667
 30
0.0
 70
    32
  0
VERTEX
  5
1C169
  8
0
  6
BYBLOCK
 62
     5
 10
507.698
 20
184.667
 30
0.0
 70
    32
  0
VERTEX
  5
1C16A
  8
0
  6
BYBLOCK
 62
     5
 10
507.698
 20
184.668
 30
0.0
 70
    32
  0
VERTEX
  5
1C16B
  8
0
  6
BYBLOCK
 62
     5
 10
507.698
 20
184.668
 30
0.0
 70
    32
  0
VERTEX
  5
1C16C
  8
0
  6
BYBLOCK
 62
     5
 10
507.698
 20
184.668
 30
0.0
 70
    32
  0
VERTEX
  5
1C16D
  8
0
  6
BYBLOCK
 62
     5
 10
507.698
 20
184.669
 30
0.0
 70
    32
  0
VERTEX
  5
1C16E
  8
0
  6
BYBLOCK
 62
     5
 10
507.698
 20
184.669
 30
0.0
 70
    32
  0
VERTEX
  5
1C16F
  8
0
  6
BYBLOCK
 62
     5
 10
507.698
 20
184.67
 30
0.0
 70
    32
  0
VERTEX
  5
1C170
  8
0
  6
BYBLOCK
 62
     5
 10
507.698
 20
184.67
 30
0.0
 70
    32
  0
VERTEX
  5
1C171
  8
0
  6
BYBLOCK
 62
     5
 10
507.698
 20
184.671
 30
0.0
 70
    32
  0
VERTEX
  5
1C172
  8
0
  6
BYBLOCK
 62
     5
 10
507.698
 20
184.671
 30
0.0
 70
    32
  0
VERTEX
  5
1C173
  8
0
  6
BYBLOCK
 62
     5
 10
507.698
 20
184.672
 30
0.0
 70
    32
  0
VERTEX
  5
1C174
  8
0
  6
BYBLOCK
 62
     5
 10
507.698
 20
184.672
 30
0.0
 70
    32
  0
VERTEX
  5
1C175
  8
0
  6
BYBLOCK
 62
     5
 10
507.698
 20
184.673
 30
0.0
 70
    32
  0
VERTEX
  5
1C176
  8
0
  6
BYBLOCK
 62
     5
 10
507.698
 20
184.673
 30
0.0
 70
    32
  0
VERTEX
  5
1C177
  8
0
  6
BYBLOCK
 62
     5
 10
507.698
 20
184.674
 30
0.0
 70
    32
  0
VERTEX
  5
1C178
  8
0
  6
BYBLOCK
 62
     5
 10
507.698
 20
184.674
 30
0.0
 70
    32
  0
VERTEX
  5
1C179
  8
0
  6
BYBLOCK
 62
     5
 10
507.698
 20
184.674
 30
0.0
 70
    32
  0
VERTEX
  5
1C17A
  8
0
  6
BYBLOCK
 62
     5
 10
507.698
 20
184.675
 30
0.0
 70
    32
  0
VERTEX
  5
1C17B
  8
0
  6
BYBLOCK
 62
     5
 10
507.698
 20
184.675
 30
0.0
 70
    32
  0
VERTEX
  5
1C17C
  8
0
  6
BYBLOCK
 62
     5
 10
507.698
 20
184.676
 30
0.0
 70
    32
  0
VERTEX
  5
1C17D
  8
0
  6
BYBLOCK
 62
     5
 10
507.698
 20
184.676
 30
0.0
 70
    32
  0
VERTEX
  5
1C17E
  8
0
  6
BYBLOCK
 62
     5
 10
507.698
 20
184.677
 30
0.0
 70
    32
  0
VERTEX
  5
1C17F
  8
0
  6
BYBLOCK
 62
     5
 10
507.699
 20
184.677
 30
0.0
 70
    32
  0
VERTEX
  5
1C180
  8
0
  6
BYBLOCK
 62
     5
 10
507.699
 20
184.678
 30
0.0
 70
    32
  0
VERTEX
  5
1C181
  8
0
  6
BYBLOCK
 62
     5
 10
507.699
 20
184.678
 30
0.0
 70
    32
  0
VERTEX
  5
1C182
  8
0
  6
BYBLOCK
 62
     5
 10
507.699
 20
184.679
 30
0.0
 70
    32
  0
VERTEX
  5
1C183
  8
0
  6
BYBLOCK
 62
     5
 10
507.699
 20
184.679
 30
0.0
 70
    32
  0
VERTEX
  5
1C184
  8
0
  6
BYBLOCK
 62
     5
 10
507.699
 20
184.68
 30
0.0
 70
    32
  0
VERTEX
  5
1C185
  8
0
  6
BYBLOCK
 62
     5
 10
507.699
 20
184.68
 30
0.0
 70
    32
  0
VERTEX
  5
1C186
  8
0
  6
BYBLOCK
 62
     5
 10
507.699
 20
184.68
 30
0.0
 70
    32
  0
VERTEX
  5
1C187
  8
0
  6
BYBLOCK
 62
     5
 10
507.699
 20
184.681
 30
0.0
 70
    32
  0
VERTEX
  5
1C188
  8
0
  6
BYBLOCK
 62
     5
 10
507.699
 20
184.681
 30
0.0
 70
    32
  0
VERTEX
  5
1C189
  8
0
  6
BYBLOCK
 62
     5
 10
507.699
 20
184.682
 30
0.0
 70
    32
  0
VERTEX
  5
1C18A
  8
0
  6
BYBLOCK
 62
     5
 10
507.699
 20
184.682
 30
0.0
 70
    32
  0
VERTEX
  5
1C18B
  8
0
  6
BYBLOCK
 62
     5
 10
507.699
 20
184.683
 30
0.0
 70
    32
  0
VERTEX
  5
1C18C
  8
0
  6
BYBLOCK
 62
     5
 10
507.699
 20
184.683
 30
0.0
 70
    32
  0
VERTEX
  5
1C18D
  8
0
  6
BYBLOCK
 62
     5
 10
507.699
 20
184.684
 30
0.0
 70
    32
  0
VERTEX
  5
1C18E
  8
0
  6
BYBLOCK
 62
     5
 10
507.699
 20
184.684
 30
0.0
 70
    32
  0
VERTEX
  5
1C18F
  8
0
  6
BYBLOCK
 62
     5
 10
507.699
 20
184.685
 30
0.0
 70
    32
  0
VERTEX
  5
1C190
  8
0
  6
BYBLOCK
 62
     5
 10
507.699
 20
184.685
 30
0.0
 70
    32
  0
VERTEX
  5
1C191
  8
0
  6
BYBLOCK
 62
     5
 10
507.699
 20
184.686
 30
0.0
 70
    32
  0
VERTEX
  5
1C192
  8
0
  6
BYBLOCK
 62
     5
 10
507.699
 20
184.686
 30
0.0
 70
    32
  0
VERTEX
  5
1C193
  8
0
  6
BYBLOCK
 62
     5
 10
507.699
 20
184.687
 30
0.0
 70
    32
  0
VERTEX
  5
1C194
  8
0
  6
BYBLOCK
 62
     5
 10
507.699
 20
184.687
 30
0.0
 70
    32
  0
VERTEX
  5
1C195
  8
0
  6
BYBLOCK
 62
     5
 10
507.699
 20
184.687
 30
0.0
 70
    32
  0
VERTEX
  5
1C196
  8
0
  6
BYBLOCK
 62
     5
 10
507.699
 20
184.688
 30
0.0
 70
    32
  0
VERTEX
  5
1C197
  8
0
  6
BYBLOCK
 62
     5
 10
507.699
 20
184.688
 30
0.0
 70
    32
  0
VERTEX
  5
1C198
  8
0
  6
BYBLOCK
 62
     5
 10
507.699
 20
184.689
 30
0.0
 70
    32
  0
VERTEX
  5
1C199
  8
0
  6
BYBLOCK
 62
     5
 10
507.699
 20
184.689
 30
0.0
 70
    32
  0
VERTEX
  5
1C19A
  8
0
  6
BYBLOCK
 62
     5
 10
507.699
 20
184.69
 30
0.0
 70
    32
  0
VERTEX
  5
1C19B
  8
0
  6
BYBLOCK
 62
     5
 10
507.699
 20
184.69
 30
0.0
 70
    32
  0
VERTEX
  5
1C19C
  8
0
  6
BYBLOCK
 62
     5
 10
507.699
 20
184.691
 30
0.0
 70
    32
  0
VERTEX
  5
1C19D
  8
0
  6
BYBLOCK
 62
     5
 10
507.699
 20
184.691
 30
0.0
 70
    32
  0
VERTEX
  5
1C19E
  8
0
  6
BYBLOCK
 62
     5
 10
507.699
 20
184.692
 30
0.0
 70
    32
  0
VERTEX
  5
1C19F
  8
0
  6
BYBLOCK
 62
     5
 10
507.699
 20
184.692
 30
0.0
 70
    32
  0
VERTEX
  5
1C1A0
  8
0
  6
BYBLOCK
 62
     5
 10
507.699
 20
184.693
 30
0.0
 70
    32
  0
VERTEX
  5
1C1A1
  8
0
  6
BYBLOCK
 62
     5
 10
507.699
 20
184.693
 30
0.0
 70
    32
  0
VERTEX
  5
1C1A2
  8
0
  6
BYBLOCK
 62
     5
 10
507.7
 20
184.693
 30
0.0
 70
    32
  0
VERTEX
  5
1C1A3
  8
0
  6
BYBLOCK
 62
     5
 10
507.7
 20
184.694
 30
0.0
 70
    32
  0
VERTEX
  5
1C1A4
  8
0
  6
BYBLOCK
 62
     5
 10
507.7
 20
184.694
 30
0.0
 70
    32
  0
VERTEX
  5
1C1A5
  8
0
  6
BYBLOCK
 62
     5
 10
507.7
 20
184.695
 30
0.0
 70
    32
  0
VERTEX
  5
1C1A6
  8
0
  6
BYBLOCK
 62
     5
 10
507.7
 20
184.695
 30
0.0
 70
    32
  0
VERTEX
  5
1C1A7
  8
0
  6
BYBLOCK
 62
     5
 10
507.7
 20
184.696
 30
0.0
 70
    32
  0
VERTEX
  5
1C1A8
  8
0
  6
BYBLOCK
 62
     5
 10
507.7
 20
184.696
 30
0.0
 70
    32
  0
VERTEX
  5
1C1A9
  8
0
  6
BYBLOCK
 62
     5
 10
507.7
 20
184.697
 30
0.0
 70
    32
  0
VERTEX
  5
1C1AA
  8
0
  6
BYBLOCK
 62
     5
 10
507.7
 20
184.697
 30
0.0
 70
    32
  0
VERTEX
  5
1C1AB
  8
0
  6
BYBLOCK
 62
     5
 10
507.7
 20
184.698
 30
0.0
 70
    32
  0
VERTEX
  5
1C1AC
  8
0
  6
BYBLOCK
 62
     5
 10
507.7
 20
184.698
 30
0.0
 70
    32
  0
VERTEX
  5
1C1AD
  8
0
  6
BYBLOCK
 62
     5
 10
507.7
 20
184.699
 30
0.0
 70
    32
  0
VERTEX
  5
1C1AE
  8
0
  6
BYBLOCK
 62
     5
 10
507.7
 20
184.699
 30
0.0
 70
    32
  0
VERTEX
  5
1C1AF
  8
0
  6
BYBLOCK
 62
     5
 10
507.7
 20
184.7
 30
0.0
 70
    32
  0
VERTEX
  5
1C1B0
  8
0
  6
BYBLOCK
 62
     5
 10
507.7
 20
184.7
 30
0.0
 70
    32
  0
VERTEX
  5
1C1B1
  8
0
  6
BYBLOCK
 62
     5
 10
507.7
 20
184.7
 30
0.0
 70
    32
  0
VERTEX
  5
1C1B2
  8
0
  6
BYBLOCK
 62
     5
 10
507.7
 20
184.701
 30
0.0
 70
    32
  0
VERTEX
  5
1C1B3
  8
0
  6
BYBLOCK
 62
     5
 10
507.7
 20
184.701
 30
0.0
 70
    32
  0
VERTEX
  5
1C1B4
  8
0
  6
BYBLOCK
 62
     5
 10
507.7
 20
184.702
 30
0.0
 70
    32
  0
VERTEX
  5
1C1B5
  8
0
  6
BYBLOCK
 62
     5
 10
507.7
 20
184.702
 30
0.0
 70
    32
  0
VERTEX
  5
1C1B6
  8
0
  6
BYBLOCK
 62
     5
 10
507.7
 20
184.703
 30
0.0
 70
    32
  0
VERTEX
  5
1C1B7
  8
0
  6
BYBLOCK
 62
     5
 10
507.7
 20
184.703
 30
0.0
 70
    32
  0
VERTEX
  5
1C1B8
  8
0
  6
BYBLOCK
 62
     5
 10
507.7
 20
184.704
 30
0.0
 70
    32
  0
VERTEX
  5
1C1B9
  8
0
  6
BYBLOCK
 62
     5
 10
507.7
 20
184.704
 30
0.0
 70
    32
  0
VERTEX
  5
1C1BA
  8
0
  6
BYBLOCK
 62
     5
 10
507.7
 20
184.705
 30
0.0
 70
    32
  0
VERTEX
  5
1C1BB
  8
0
  6
BYBLOCK
 62
     5
 10
507.7
 20
184.705
 30
0.0
 70
    32
  0
VERTEX
  5
1C1BC
  8
0
  6
BYBLOCK
 62
     5
 10
507.7
 20
184.706
 30
0.0
 70
    32
  0
VERTEX
  5
1C1BD
  8
0
  6
BYBLOCK
 62
     5
 10
507.7
 20
184.706
 30
0.0
 70
    32
  0
VERTEX
  5
1C1BE
  8
0
  6
BYBLOCK
 62
     5
 10
507.7
 20
184.706
 30
0.0
 70
    32
  0
VERTEX
  5
1C1BF
  8
0
  6
BYBLOCK
 62
     5
 10
507.7
 20
184.707
 30
0.0
 70
    32
  0
VERTEX
  5
1C1C0
  8
0
  6
BYBLOCK
 62
     5
 10
507.7
 20
184.707
 30
0.0
 70
    32
  0
VERTEX
  5
1C1C1
  8
0
  6
BYBLOCK
 62
     5
 10
507.7
 20
184.708
 30
0.0
 70
    32
  0
VERTEX
  5
1C1C2
  8
0
  6
BYBLOCK
 62
     5
 10
507.7
 20
184.708
 30
0.0
 70
    32
  0
VERTEX
  5
1C1C3
  8
0
  6
BYBLOCK
 62
     5
 10
507.7
 20
184.709
 30
0.0
 70
    32
  0
VERTEX
  5
1C1C4
  8
0
  6
BYBLOCK
 62
     5
 10
507.701
 20
184.709
 30
0.0
 70
    32
  0
VERTEX
  5
1C1C5
  8
0
  6
BYBLOCK
 62
     5
 10
507.701
 20
184.71
 30
0.0
 70
    32
  0
VERTEX
  5
1C1C6
  8
0
  6
BYBLOCK
 62
     5
 10
507.701
 20
184.71
 30
0.0
 70
    32
  0
VERTEX
  5
1C1C7
  8
0
  6
BYBLOCK
 62
     5
 10
507.701
 20
184.711
 30
0.0
 70
    32
  0
VERTEX
  5
1C1C8
  8
0
  6
BYBLOCK
 62
     5
 10
507.701
 20
184.711
 30
0.0
 70
    32
  0
VERTEX
  5
1C1C9
  8
0
  6
BYBLOCK
 62
     5
 10
507.701
 20
184.712
 30
0.0
 70
    32
  0
VERTEX
  5
1C1CA
  8
0
  6
BYBLOCK
 62
     5
 10
507.701
 20
184.712
 30
0.0
 70
    32
  0
VERTEX
  5
1C1CB
  8
0
  6
BYBLOCK
 62
     5
 10
507.701
 20
184.712
 30
0.0
 70
    32
  0
VERTEX
  5
1C1CC
  8
0
  6
BYBLOCK
 62
     5
 10
507.701
 20
184.713
 30
0.0
 70
    32
  0
VERTEX
  5
1C1CD
  8
0
  6
BYBLOCK
 62
     5
 10
507.701
 20
184.713
 30
0.0
 70
    32
  0
VERTEX
  5
1C1CE
  8
0
  6
BYBLOCK
 62
     5
 10
507.701
 20
184.714
 30
0.0
 70
    32
  0
VERTEX
  5
1C1CF
  8
0
  6
BYBLOCK
 62
     5
 10
507.701
 20
184.714
 30
0.0
 70
    32
  0
VERTEX
  5
1C1D0
  8
0
  6
BYBLOCK
 62
     5
 10
507.701
 20
184.715
 30
0.0
 70
    32
  0
VERTEX
  5
1C1D1
  8
0
  6
BYBLOCK
 62
     5
 10
507.701
 20
184.715
 30
0.0
 70
    32
  0
VERTEX
  5
1C1D2
  8
0
  6
BYBLOCK
 62
     5
 10
507.701
 20
184.716
 30
0.0
 70
    32
  0
VERTEX
  5
1C1D3
  8
0
  6
BYBLOCK
 62
     5
 10
507.701
 20
184.716
 30
0.0
 70
    32
  0
VERTEX
  5
1C1D4
  8
0
  6
BYBLOCK
 62
     5
 10
507.701
 20
184.717
 30
0.0
 70
    32
  0
VERTEX
  5
1C1D5
  8
0
  6
BYBLOCK
 62
     5
 10
507.701
 20
184.717
 30
0.0
 70
    32
  0
VERTEX
  5
1C1D6
  8
0
  6
BYBLOCK
 62
     5
 10
507.701
 20
184.718
 30
0.0
 70
    32
  0
SEQEND
  5
1C1D7
  8
0
  6
BYBLOCK
 62
     5
  0
POLYLINE
  5
1C3BA
  8
0
  6
BYBLOCK
 62
     5
 66
     1
 10
0.0
 20
0.0
 30
0.0
 70
     8
  0
VERTEX
  5
1C3BB
  8
0
  6
BYBLOCK
 62
     5
 10
507.697
 20
184.659
 30
0.0
 70
    32
  0
VERTEX
  5
1C3BC
  8
0
  6
BYBLOCK
 62
     5
 10
507.697
 20
184.659
 30
0.0
 70
    32
  0
VERTEX
  5
1C3BD
  8
0
  6
BYBLOCK
 62
     5
 10
507.697
 20
184.659
 30
0.0
 70
    32
  0
VERTEX
  5
1C3BE
  8
0
  6
BYBLOCK
 62
     5
 10
507.697
 20
184.66
 30
0.0
 70
    32
  0
VERTEX
  5
1C3BF
  8
0
  6
BYBLOCK
 62
     5
 10
507.697
 20
184.66
 30
0.0
 70
    32
  0
VERTEX
  5
1C3C0
  8
0
  6
BYBLOCK
 62
     5
 10
507.697
 20
184.66
 30
0.0
 70
    32
  0
VERTEX
  5
1C3C1
  8
0
  6
BYBLOCK
 62
     5
 10
507.697
 20
184.66
 30
0.0
 70
    32
  0
VERTEX
  5
1C3C2
  8
0
  6
BYBLOCK
 62
     5
 10
507.697
 20
184.661
 30
0.0
 70
    32
  0
VERTEX
  5
1C3C3
  8
0
  6
BYBLOCK
 62
     5
 10
507.697
 20
184.661
 30
0.0
 70
    32
  0
VERTEX
  5
1C3C4
  8
0
  6
BYBLOCK
 62
     5
 10
507.697
 20
184.661
 30
0.0
 70
    32
  0
VERTEX
  5
1C3C5
  8
0
  6
BYBLOCK
 62
     5
 10
507.697
 20
184.662
 30
0.0
 70
    32
  0
VERTEX
  5
1C3C6
  8
0
  6
BYBLOCK
 62
     5
 10
507.697
 20
184.662
 30
0.0
 70
    32
  0
VERTEX
  5
1C3C7
  8
0
  6
BYBLOCK
 62
     5
 10
507.697
 20
184.662
 30
0.0
 70
    32
  0
VERTEX
  5
1C3C8
  8
0
  6
BYBLOCK
 62
     5
 10
507.697
 20
184.663
 30
0.0
 70
    32
  0
VERTEX
  5
1C3C9
  8
0
  6
BYBLOCK
 62
     5
 10
507.697
 20
184.663
 30
0.0
 70
    32
  0
VERTEX
  5
1C3CA
  8
0
  6
BYBLOCK
 62
     5
 10
507.697
 20
184.663
 30
0.0
 70
    32
  0
VERTEX
  5
1C3CB
  8
0
  6
BYBLOCK
 62
     5
 10
507.697
 20
184.663
 30
0.0
 70
    32
  0
VERTEX
  5
1C3CC
  8
0
  6
BYBLOCK
 62
     5
 10
507.697
 20
184.664
 30
0.0
 70
    32
  0
VERTEX
  5
1C3CD
  8
0
  6
BYBLOCK
 62
     5
 10
507.697
 20
184.664
 30
0.0
 70
    32
  0
VERTEX
  5
1C3CE
  8
0
  6
BYBLOCK
 62
     5
 10
507.697
 20
184.664
 30
0.0
 70
    32
  0
VERTEX
  5
1C3CF
  8
0
  6
BYBLOCK
 62
     5
 10
507.697
 20
184.665
 30
0.0
 70
    32
  0
VERTEX
  5
1C3D0
  8
0
  6
BYBLOCK
 62
     5
 10
507.697
 20
184.665
 30
0.0
 70
    32
  0
VERTEX
  5
1C3D1
  8
0
  6
BYBLOCK
 62
     5
 10
507.697
 20
184.665
 30
0.0
 70
    32
  0
VERTEX
  5
1C3D2
  8
0
  6
BYBLOCK
 62
     5
 10
507.697
 20
184.665
 30
0.0
 70
    32
  0
VERTEX
  5
1C3D3
  8
0
  6
BYBLOCK
 62
     5
 10
507.697
 20
184.666
 30
0.0
 70
    32
  0
VERTEX
  5
1C3D4
  8
0
  6
BYBLOCK
 62
     5
 10
507.697
 20
184.666
 30
0.0
 70
    32
  0
VERTEX
  5
1C3D5
  8
0
  6
BYBLOCK
 62
     5
 10
507.697
 20
184.666
 30
0.0
 70
    32
  0
VERTEX
  5
1C3D6
  8
0
  6
BYBLOCK
 62
     5
 10
507.697
 20
184.667
 30
0.0
 70
    32
  0
VERTEX
  5
1C3D7
  8
0
  6
BYBLOCK
 62
     5
 10
507.697
 20
184.667
 30
0.0
 70
    32
  0
VERTEX
  5
1C3D8
  8
0
  6
BYBLOCK
 62
     5
 10
507.697
 20
184.667
 30
0.0
 70
    32
  0
VERTEX
  5
1C3D9
  8
0
  6
BYBLOCK
 62
     5
 10
507.697
 20
184.668
 30
0.0
 70
    32
  0
VERTEX
  5
1C3DA
  8
0
  6
BYBLOCK
 62
     5
 10
507.697
 20
184.668
 30
0.0
 70
    32
  0
VERTEX
  5
1C3DB
  8
0
  6
BYBLOCK
 62
     5
 10
507.698
 20
184.668
 30
0.0
 70
    32
  0
VERTEX
  5
1C3DC
  8
0
  6
BYBLOCK
 62
     5
 10
507.698
 20
184.668
 30
0.0
 70
    32
  0
VERTEX
  5
1C3DD
  8
0
  6
BYBLOCK
 62
     5
 10
507.698
 20
184.669
 30
0.0
 70
    32
  0
VERTEX
  5
1C3DE
  8
0
  6
BYBLOCK
 62
     5
 10
507.698
 20
184.669
 30
0.0
 70
    32
  0
VERTEX
  5
1C3DF
  8
0
  6
BYBLOCK
 62
     5
 10
507.698
 20
184.669
 30
0.0
 70
    32
  0
VERTEX
  5
1C3E0
  8
0
  6
BYBLOCK
 62
     5
 10
507.698
 20
184.67
 30
0.0
 70
    32
  0
VERTEX
  5
1C3E1
  8
0
  6
BYBLOCK
 62
     5
 10
507.698
 20
184.67
 30
0.0
 70
    32
  0
VERTEX
  5
1C3E2
  8
0
  6
BYBLOCK
 62
     5
 10
507.698
 20
184.67
 30
0.0
 70
    32
  0
VERTEX
  5
1C3E3
  8
0
  6
BYBLOCK
 62
     5
 10
507.698
 20
184.67
 30
0.0
 70
    32
  0
VERTEX
  5
1C3E4
  8
0
  6
BYBLOCK
 62
     5
 10
507.698
 20
184.671
 30
0.0
 70
    32
  0
VERTEX
  5
1C3E5
  8
0
  6
BYBLOCK
 62
     5
 10
507.698
 20
184.671
 30
0.0
 70
    32
  0
VERTEX
  5
1C3E6
  8
0
  6
BYBLOCK
 62
     5
 10
507.698
 20
184.671
 30
0.0
 70
    32
  0
VERTEX
  5
1C3E7
  8
0
  6
BYBLOCK
 62
     5
 10
507.698
 20
184.672
 30
0.0
 70
    32
  0
VERTEX
  5
1C3E8
  8
0
  6
BYBLOCK
 62
     5
 10
507.698
 20
184.672
 30
0.0
 70
    32
  0
VERTEX
  5
1C3E9
  8
0
  6
BYBLOCK
 62
     5
 10
507.698
 20
184.672
 30
0.0
 70
    32
  0
VERTEX
  5
1C3EA
  8
0
  6
BYBLOCK
 62
     5
 10
507.698
 20
184.673
 30
0.0
 70
    32
  0
VERTEX
  5
1C3EB
  8
0
  6
BYBLOCK
 62
     5
 10
507.698
 20
184.673
 30
0.0
 70
    32
  0
VERTEX
  5
1C3EC
  8
0
  6
BYBLOCK
 62
     5
 10
507.698
 20
184.673
 30
0.0
 70
    32
  0
VERTEX
  5
1C3ED
  8
0
  6
BYBLOCK
 62
     5
 10
507.698
 20
184.673
 30
0.0
 70
    32
  0
VERTEX
  5
1C3EE
  8
0
  6
BYBLOCK
 62
     5
 10
507.698
 20
184.674
 30
0.0
 70
    32
  0
VERTEX
  5
1C3EF
  8
0
  6
BYBLOCK
 62
     5
 10
507.698
 20
184.674
 30
0.0
 70
    32
  0
VERTEX
  5
1C3F0
  8
0
  6
BYBLOCK
 62
     5
 10
507.698
 20
184.674
 30
0.0
 70
    32
  0
VERTEX
  5
1C3F1
  8
0
  6
BYBLOCK
 62
     5
 10
507.698
 20
184.675
 30
0.0
 70
    32
  0
VERTEX
  5
1C3F2
  8
0
  6
BYBLOCK
 62
     5
 10
507.698
 20
184.675
 30
0.0
 70
    32
  0
VERTEX
  5
1C3F3
  8
0
  6
BYBLOCK
 62
     5
 10
507.698
 20
184.675
 30
0.0
 70
    32
  0
VERTEX
  5
1C3F4
  8
0
  6
BYBLOCK
 62
     5
 10
507.698
 20
184.675
 30
0.0
 70
    32
  0
VERTEX
  5
1C3F5
  8
0
  6
BYBLOCK
 62
     5
 10
507.698
 20
184.676
 30
0.0
 70
    32
  0
VERTEX
  5
1C3F6
  8
0
  6
BYBLOCK
 62
     5
 10
507.698
 20
184.676
 30
0.0
 70
    32
  0
VERTEX
  5
1C3F7
  8
0
  6
BYBLOCK
 62
     5
 10
507.698
 20
184.676
 30
0.0
 70
    32
  0
VERTEX
  5
1C3F8
  8
0
  6
BYBLOCK
 62
     5
 10
507.698
 20
184.677
 30
0.0
 70
    32
  0
VERTEX
  5
1C3F9
  8
0
  6
BYBLOCK
 62
     5
 10
507.698
 20
184.677
 30
0.0
 70
    32
  0
VERTEX
  5
1C3FA
  8
0
  6
BYBLOCK
 62
     5
 10
507.698
 20
184.677
 30
0.0
 70
    32
  0
VERTEX
  5
1C3FB
  8
0
  6
BYBLOCK
 62
     5
 10
507.698
 20
184.678
 30
0.0
 70
    32
  0
VERTEX
  5
1C3FC
  8
0
  6
BYBLOCK
 62
     5
 10
507.698
 20
184.678
 30
0.0
 70
    32
  0
VERTEX
  5
1C3FD
  8
0
  6
BYBLOCK
 62
     5
 10
507.698
 20
184.678
 30
0.0
 70
    32
  0
VERTEX
  5
1C3FE
  8
0
  6
BYBLOCK
 62
     5
 10
507.698
 20
184.678
 30
0.0
 70
    32
  0
VERTEX
  5
1C3FF
  8
0
  6
BYBLOCK
 62
     5
 10
507.698
 20
184.679
 30
0.0
 70
    32
  0
VERTEX
  5
1C400
  8
0
  6
BYBLOCK
 62
     5
 10
507.698
 20
184.679
 30
0.0
 70
    32
  0
VERTEX
  5
1C401
  8
0
  6
BYBLOCK
 62
     5
 10
507.698
 20
184.679
 30
0.0
 70
    32
  0
VERTEX
  5
1C402
  8
0
  6
BYBLOCK
 62
     5
 10
507.698
 20
184.68
 30
0.0
 70
    32
  0
VERTEX
  5
1C403
  8
0
  6
BYBLOCK
 62
     5
 10
507.698
 20
184.68
 30
0.0
 70
    32
  0
VERTEX
  5
1C404
  8
0
  6
BYBLOCK
 62
     5
 10
507.698
 20
184.68
 30
0.0
 70
    32
  0
VERTEX
  5
1C405
  8
0
  6
BYBLOCK
 62
     5
 10
507.698
 20
184.68
 30
0.0
 70
    32
  0
VERTEX
  5
1C406
  8
0
  6
BYBLOCK
 62
     5
 10
507.698
 20
184.681
 30
0.0
 70
    32
  0
VERTEX
  5
1C407
  8
0
  6
BYBLOCK
 62
     5
 10
507.698
 20
184.681
 30
0.0
 70
    32
  0
VERTEX
  5
1C408
  8
0
  6
BYBLOCK
 62
     5
 10
507.698
 20
184.681
 30
0.0
 70
    32
  0
VERTEX
  5
1C409
  8
0
  6
BYBLOCK
 62
     5
 10
507.698
 20
184.682
 30
0.0
 70
    32
  0
VERTEX
  5
1C40A
  8
0
  6
BYBLOCK
 62
     5
 10
507.698
 20
184.682
 30
0.0
 70
    32
  0
VERTEX
  5
1C40B
  8
0
  6
BYBLOCK
 62
     5
 10
507.698
 20
184.682
 30
0.0
 70
    32
  0
VERTEX
  5
1C40C
  8
0
  6
BYBLOCK
 62
     5
 10
507.698
 20
184.683
 30
0.0
 70
    32
  0
VERTEX
  5
1C40D
  8
0
  6
BYBLOCK
 62
     5
 10
507.698
 20
184.683
 30
0.0
 70
    32
  0
VERTEX
  5
1C40E
  8
0
  6
BYBLOCK
 62
     5
 10
507.698
 20
184.683
 30
0.0
 70
    32
  0
VERTEX
  5
1C40F
  8
0
  6
BYBLOCK
 62
     5
 10
507.698
 20
184.683
 30
0.0
 70
    32
  0
VERTEX
  5
1C410
  8
0
  6
BYBLOCK
 62
     5
 10
507.698
 20
184.684
 30
0.0
 70
    32
  0
VERTEX
  5
1C411
  8
0
  6
BYBLOCK
 62
     5
 10
507.698
 20
184.684
 30
0.0
 70
    32
  0
VERTEX
  5
1C412
  8
0
  6
BYBLOCK
 62
     5
 10
507.698
 20
184.684
 30
0.0
 70
    32
  0
VERTEX
  5
1C413
  8
0
  6
BYBLOCK
 62
     5
 10
507.698
 20
184.685
 30
0.0
 70
    32
  0
VERTEX
  5
1C414
  8
0
  6
BYBLOCK
 62
     5
 10
507.698
 20
184.685
 30
0.0
 70
    32
  0
VERTEX
  5
1C415
  8
0
  6
BYBLOCK
 62
     5
 10
507.698
 20
184.685
 30
0.0
 70
    32
  0
VERTEX
  5
1C416
  8
0
  6
BYBLOCK
 62
     5
 10
507.698
 20
184.685
 30
0.0
 70
    32
  0
VERTEX
  5
1C417
  8
0
  6
BYBLOCK
 62
     5
 10
507.698
 20
184.686
 30
0.0
 70
    32
  0
VERTEX
  5
1C418
  8
0
  6
BYBLOCK
 62
     5
 10
507.698
 20
184.686
 30
0.0
 70
    32
  0
VERTEX
  5
1C419
  8
0
  6
BYBLOCK
 62
     5
 10
507.698
 20
184.686
 30
0.0
 70
    32
  0
VERTEX
  5
1C41A
  8
0
  6
BYBLOCK
 62
     5
 10
507.698
 20
184.687
 30
0.0
 70
    32
  0
VERTEX
  5
1C41B
  8
0
  6
BYBLOCK
 62
     5
 10
507.698
 20
184.687
 30
0.0
 70
    32
  0
VERTEX
  5
1C41C
  8
0
  6
BYBLOCK
 62
     5
 10
507.698
 20
184.687
 30
0.0
 70
    32
  0
VERTEX
  5
1C41D
  8
0
  6
BYBLOCK
 62
     5
 10
507.698
 20
184.688
 30
0.0
 70
    32
  0
VERTEX
  5
1C41E
  8
0
  6
BYBLOCK
 62
     5
 10
507.698
 20
184.688
 30
0.0
 70
    32
  0
VERTEX
  5
1C41F
  8
0
  6
BYBLOCK
 62
     5
 10
507.698
 20
184.688
 30
0.0
 70
    32
  0
VERTEX
  5
1C420
  8
0
  6
BYBLOCK
 62
     5
 10
507.698
 20
184.688
 30
0.0
 70
    32
  0
VERTEX
  5
1C421
  8
0
  6
BYBLOCK
 62
     5
 10
507.698
 20
184.689
 30
0.0
 70
    32
  0
VERTEX
  5
1C422
  8
0
  6
BYBLOCK
 62
     5
 10
507.698
 20
184.689
 30
0.0
 70
    32
  0
VERTEX
  5
1C423
  8
0
  6
BYBLOCK
 62
     5
 10
507.698
 20
184.689
 30
0.0
 70
    32
  0
VERTEX
  5
1C424
  8
0
  6
BYBLOCK
 62
     5
 10
507.698
 20
184.69
 30
0.0
 70
    32
  0
VERTEX
  5
1C425
  8
0
  6
BYBLOCK
 62
     5
 10
507.698
 20
184.69
 30
0.0
 70
    32
  0
VERTEX
  5
1C426
  8
0
  6
BYBLOCK
 62
     5
 10
507.698
 20
184.69
 30
0.0
 70
    32
  0
VERTEX
  5
1C427
  8
0
  6
BYBLOCK
 62
     5
 10
507.698
 20
184.69
 30
0.0
 70
    32
  0
VERTEX
  5
1C428
  8
0
  6
BYBLOCK
 62
     5
 10
507.698
 20
184.691
 30
0.0
 70
    32
  0
VERTEX
  5
1C429
  8
0
  6
BYBLOCK
 62
     5
 10
507.698
 20
184.691
 30
0.0
 70
    32
  0
VERTEX
  5
1C42A
  8
0
  6
BYBLOCK
 62
     5
 10
507.699
 20
184.691
 30
0.0
 70
    32
  0
VERTEX
  5
1C42B
  8
0
  6
BYBLOCK
 62
     5
 10
507.699
 20
184.692
 30
0.0
 70
    32
  0
VERTEX
  5
1C42C
  8
0
  6
BYBLOCK
 62
     5
 10
507.699
 20
184.692
 30
0.0
 70
    32
  0
VERTEX
  5
1C42D
  8
0
  6
BYBLOCK
 62
     5
 10
507.699
 20
184.692
 30
0.0
 70
    32
  0
VERTEX
  5
1C42E
  8
0
  6
BYBLOCK
 62
     5
 10
507.699
 20
184.693
 30
0.0
 70
    32
  0
VERTEX
  5
1C42F
  8
0
  6
BYBLOCK
 62
     5
 10
507.699
 20
184.693
 30
0.0
 70
    32
  0
VERTEX
  5
1C430
  8
0
  6
BYBLOCK
 62
     5
 10
507.699
 20
184.693
 30
0.0
 70
    32
  0
VERTEX
  5
1C431
  8
0
  6
BYBLOCK
 62
     5
 10
507.699
 20
184.693
 30
0.0
 70
    32
  0
VERTEX
  5
1C432
  8
0
  6
BYBLOCK
 62
     5
 10
507.699
 20
184.694
 30
0.0
 70
    32
  0
VERTEX
  5
1C433
  8
0
  6
BYBLOCK
 62
     5
 10
507.699
 20
184.694
 30
0.0
 70
    32
  0
VERTEX
  5
1C434
  8
0
  6
BYBLOCK
 62
     5
 10
507.699
 20
184.694
 30
0.0
 70
    32
  0
VERTEX
  5
1C435
  8
0
  6
BYBLOCK
 62
     5
 10
507.699
 20
184.695
 30
0.0
 70
    32
  0
VERTEX
  5
1C436
  8
0
  6
BYBLOCK
 62
     5
 10
507.699
 20
184.695
 30
0.0
 70
    32
  0
VERTEX
  5
1C437
  8
0
  6
BYBLOCK
 62
     5
 10
507.699
 20
184.695
 30
0.0
 70
    32
  0
VERTEX
  5
1C438
  8
0
  6
BYBLOCK
 62
     5
 10
507.699
 20
184.695
 30
0.0
 70
    32
  0
VERTEX
  5
1C439
  8
0
  6
BYBLOCK
 62
     5
 10
507.699
 20
184.696
 30
0.0
 70
    32
  0
VERTEX
  5
1C43A
  8
0
  6
BYBLOCK
 62
     5
 10
507.699
 20
184.696
 30
0.0
 70
    32
  0
VERTEX
  5
1C43B
  8
0
  6
BYBLOCK
 62
     5
 10
507.699
 20
184.696
 30
0.0
 70
    32
  0
VERTEX
  5
1C43C
  8
0
  6
BYBLOCK
 62
     5
 10
507.699
 20
184.697
 30
0.0
 70
    32
  0
VERTEX
  5
1C43D
  8
0
  6
BYBLOCK
 62
     5
 10
507.699
 20
184.697
 30
0.0
 70
    32
  0
VERTEX
  5
1C43E
  8
0
  6
BYBLOCK
 62
     5
 10
507.699
 20
184.697
 30
0.0
 70
    32
  0
VERTEX
  5
1C43F
  8
0
  6
BYBLOCK
 62
     5
 10
507.699
 20
184.698
 30
0.0
 70
    32
  0
VERTEX
  5
1C440
  8
0
  6
BYBLOCK
 62
     5
 10
507.699
 20
184.698
 30
0.0
 70
    32
  0
VERTEX
  5
1C441
  8
0
  6
BYBLOCK
 62
     5
 10
507.699
 20
184.698
 30
0.0
 70
    32
  0
VERTEX
  5
1C442
  8
0
  6
BYBLOCK
 62
     5
 10
507.699
 20
184.698
 30
0.0
 70
    32
  0
VERTEX
  5
1C443
  8
0
  6
BYBLOCK
 62
     5
 10
507.699
 20
184.699
 30
0.0
 70
    32
  0
VERTEX
  5
1C444
  8
0
  6
BYBLOCK
 62
     5
 10
507.699
 20
184.699
 30
0.0
 70
    32
  0
VERTEX
  5
1C445
  8
0
  6
BYBLOCK
 62
     5
 10
507.699
 20
184.699
 30
0.0
 70
    32
  0
VERTEX
  5
1C446
  8
0
  6
BYBLOCK
 62
     5
 10
507.699
 20
184.7
 30
0.0
 70
    32
  0
VERTEX
  5
1C447
  8
0
  6
BYBLOCK
 62
     5
 10
507.699
 20
184.7
 30
0.0
 70
    32
  0
VERTEX
  5
1C448
  8
0
  6
BYBLOCK
 62
     5
 10
507.699
 20
184.7
 30
0.0
 70
    32
  0
VERTEX
  5
1C449
  8
0
  6
BYBLOCK
 62
     5
 10
507.699
 20
184.7
 30
0.0
 70
    32
  0
VERTEX
  5
1C44A
  8
0
  6
BYBLOCK
 62
     5
 10
507.699
 20
184.701
 30
0.0
 70
    32
  0
VERTEX
  5
1C44B
  8
0
  6
BYBLOCK
 62
     5
 10
507.699
 20
184.701
 30
0.0
 70
    32
  0
VERTEX
  5
1C44C
  8
0
  6
BYBLOCK
 62
     5
 10
507.699
 20
184.701
 30
0.0
 70
    32
  0
VERTEX
  5
1C44D
  8
0
  6
BYBLOCK
 62
     5
 10
507.699
 20
184.702
 30
0.0
 70
    32
  0
VERTEX
  5
1C44E
  8
0
  6
BYBLOCK
 62
     5
 10
507.699
 20
184.702
 30
0.0
 70
    32
  0
VERTEX
  5
1C44F
  8
0
  6
BYBLOCK
 62
     5
 10
507.699
 20
184.702
 30
0.0
 70
    32
  0
VERTEX
  5
1C450
  8
0
  6
BYBLOCK
 62
     5
 10
507.699
 20
184.703
 30
0.0
 70
    32
  0
VERTEX
  5
1C451
  8
0
  6
BYBLOCK
 62
     5
 10
507.699
 20
184.703
 30
0.0
 70
    32
  0
VERTEX
  5
1C452
  8
0
  6
BYBLOCK
 62
     5
 10
507.699
 20
184.703
 30
0.0
 70
    32
  0
VERTEX
  5
1C453
  8
0
  6
BYBLOCK
 62
     5
 10
507.7
 20
184.703
 30
0.0
 70
    32
  0
VERTEX
  5
1C454
  8
0
  6
BYBLOCK
 62
     5
 10
507.7
 20
184.704
 30
0.0
 70
    32
  0
VERTEX
  5
1C455
  8
0
  6
BYBLOCK
 62
     5
 10
507.7
 20
184.704
 30
0.0
 70
    32
  0
VERTEX
  5
1C456
  8
0
  6
BYBLOCK
 62
     5
 10
507.7
 20
184.704
 30
0.0
 70
    32
  0
VERTEX
  5
1C457
  8
0
  6
BYBLOCK
 62
     5
 10
507.7
 20
184.705
 30
0.0
 70
    32
  0
VERTEX
  5
1C458
  8
0
  6
BYBLOCK
 62
     5
 10
507.7
 20
184.705
 30
0.0
 70
    32
  0
VERTEX
  5
1C459
  8
0
  6
BYBLOCK
 62
     5
 10
507.7
 20
184.705
 30
0.0
 70
    32
  0
VERTEX
  5
1C45A
  8
0
  6
BYBLOCK
 62
     5
 10
507.7
 20
184.705
 30
0.0
 70
    32
  0
VERTEX
  5
1C45B
  8
0
  6
BYBLOCK
 62
     5
 10
507.7
 20
184.706
 30
0.0
 70
    32
  0
VERTEX
  5
1C45C
  8
0
  6
BYBLOCK
 62
     5
 10
507.7
 20
184.706
 30
0.0
 70
    32
  0
VERTEX
  5
1C45D
  8
0
  6
BYBLOCK
 62
     5
 10
507.7
 20
184.706
 30
0.0
 70
    32
  0
VERTEX
  5
1C45E
  8
0
  6
BYBLOCK
 62
     5
 10
507.7
 20
184.707
 30
0.0
 70
    32
  0
VERTEX
  5
1C45F
  8
0
  6
BYBLOCK
 62
     5
 10
507.7
 20
184.707
 30
0.0
 70
    32
  0
VERTEX
  5
1C460
  8
0
  6
BYBLOCK
 62
     5
 10
507.7
 20
184.707
 30
0.0
 70
    32
  0
VERTEX
  5
1C461
  8
0
  6
BYBLOCK
 62
     5
 10
507.7
 20
184.707
 30
0.0
 70
    32
  0
VERTEX
  5
1C462
  8
0
  6
BYBLOCK
 62
     5
 10
507.7
 20
184.708
 30
0.0
 70
    32
  0
VERTEX
  5
1C463
  8
0
  6
BYBLOCK
 62
     5
 10
507.7
 20
184.708
 30
0.0
 70
    32
  0
VERTEX
  5
1C464
  8
0
  6
BYBLOCK
 62
     5
 10
507.7
 20
184.708
 30
0.0
 70
    32
  0
VERTEX
  5
1C465
  8
0
  6
BYBLOCK
 62
     5
 10
507.7
 20
184.709
 30
0.0
 70
    32
  0
VERTEX
  5
1C466
  8
0
  6
BYBLOCK
 62
     5
 10
507.7
 20
184.709
 30
0.0
 70
    32
  0
VERTEX
  5
1C467
  8
0
  6
BYBLOCK
 62
     5
 10
507.7
 20
184.709
 30
0.0
 70
    32
  0
VERTEX
  5
1C468
  8
0
  6
BYBLOCK
 62
     5
 10
507.7
 20
184.71
 30
0.0
 70
    32
  0
VERTEX
  5
1C469
  8
0
  6
BYBLOCK
 62
     5
 10
507.7
 20
184.71
 30
0.0
 70
    32
  0
VERTEX
  5
1C46A
  8
0
  6
BYBLOCK
 62
     5
 10
507.7
 20
184.71
 30
0.0
 70
    32
  0
VERTEX
  5
1C46B
  8
0
  6
BYBLOCK
 62
     5
 10
507.7
 20
184.71
 30
0.0
 70
    32
  0
VERTEX
  5
1C46C
  8
0
  6
BYBLOCK
 62
     5
 10
507.7
 20
184.711
 30
0.0
 70
    32
  0
VERTEX
  5
1C46D
  8
0
  6
BYBLOCK
 62
     5
 10
507.7
 20
184.711
 30
0.0
 70
    32
  0
VERTEX
  5
1C46E
  8
0
  6
BYBLOCK
 62
     5
 10
507.7
 20
184.711
 30
0.0
 70
    32
  0
VERTEX
  5
1C46F
  8
0
  6
BYBLOCK
 62
     5
 10
507.7
 20
184.712
 30
0.0
 70
    32
  0
VERTEX
  5
1C470
  8
0
  6
BYBLOCK
 62
     5
 10
507.7
 20
184.712
 30
0.0
 70
    32
  0
VERTEX
  5
1C471
  8
0
  6
BYBLOCK
 62
     5
 10
507.7
 20
184.712
 30
0.0
 70
    32
  0
VERTEX
  5
1C472
  8
0
  6
BYBLOCK
 62
     5
 10
507.7
 20
184.712
 30
0.0
 70
    32
  0
VERTEX
  5
1C473
  8
0
  6
BYBLOCK
 62
     5
 10
507.7
 20
184.713
 30
0.0
 70
    32
  0
VERTEX
  5
1C474
  8
0
  6
BYBLOCK
 62
     5
 10
507.701
 20
184.713
 30
0.0
 70
    32
  0
VERTEX
  5
1C475
  8
0
  6
BYBLOCK
 62
     5
 10
507.701
 20
184.713
 30
0.0
 70
    32
  0
VERTEX
  5
1C476
  8
0
  6
BYBLOCK
 62
     5
 10
507.701
 20
184.714
 30
0.0
 70
    32
  0
VERTEX
  5
1C477
  8
0
  6
BYBLOCK
 62
     5
 10
507.701
 20
184.714
 30
0.0
 70
    32
  0
VERTEX
  5
1C478
  8
0
  6
BYBLOCK
 62
     5
 10
507.701
 20
184.714
 30
0.0
 70
    32
  0
VERTEX
  5
1C479
  8
0
  6
BYBLOCK
 62
     5
 10
507.701
 20
184.715
 30
0.0
 70
    32
  0
VERTEX
  5
1C47A
  8
0
  6
BYBLOCK
 62
     5
 10
507.701
 20
184.715
 30
0.0
 70
    32
  0
SEQEND
  5
1C47B
  8
0
  6
BYBLOCK
 62
     5
  0
LINE
  5
1C9BE
  8
0
  6
BYBLOCK
 62
     5
 10
521.099847
 20
182.45601
 30
0.0
 11
529.417005
 21
182.45601
 31
0.0
  0
ARC
  5
1C9BF
  8
0
  6
BYBLOCK
 62
     5
 10
527.062137
 20
189.89507
 30
0.0
 40
2.0
 50
255.0
 51
195.0
  0
CIRCLE
  5
1C9C0
  8
0
  6
BYBLOCK
 62
     5
 10
527.062137
 20
189.89507
 30
0.0
 40
1.65
  0
LINE
  5
1C9C1
  8
HIDDEN
 10
521.099809
 20
182.45601
 30
0.0
 11
529.416968
 21
182.45601
 31
0.0
  0
LINE
  5
1C9C2
  8
0
  6
BYBLOCK
 62
     5
 10
530.863563
 20
183.45601
 30
0.0
 11
521.099809
 21
183.45601
 31
0.0
  0
LINE
  5
1C9C3
  8
0
  6
BYBLOCK
 62
     5
 10
520.799809
 20
184.15601
 30
0.0
 11
521.099809
 21
183.85601
 31
0.0
  0
POLYLINE
  5
1C9C4
  8
0
  6
BYBLOCK
 62
     5
 66
     1
 10
0.0
 20
0.0
 30
0.0
 70
     8
  0
VERTEX
  5
1C9C5
  8
0
  6
BYBLOCK
 62
     5
 10
524.062
 20
184.956
 30
0.0
 70
    32
  0
VERTEX
  5
1C9C6
  8
0
  6
BYBLOCK
 62
     5
 10
524.061
 20
184.957
 30
0.0
 70
    32
  0
VERTEX
  5
1C9C7
  8
0
  6
BYBLOCK
 62
     5
 10
524.06
 20
184.958
 30
0.0
 70
    32
  0
VERTEX
  5
1C9C8
  8
0
  6
BYBLOCK
 62
     5
 10
524.058
 20
184.959
 30
0.0
 70
    32
  0
VERTEX
  5
1C9C9
  8
0
  6
BYBLOCK
 62
     5
 10
524.057
 20
184.959
 30
0.0
 70
    32
  0
VERTEX
  5
1C9CA
  8
0
  6
BYBLOCK
 62
     5
 10
524.056
 20
184.96
 30
0.0
 70
    32
  0
VERTEX
  5
1C9CB
  8
0
  6
BYBLOCK
 62
     5
 10
524.055
 20
184.961
 30
0.0
 70
    32
  0
VERTEX
  5
1C9CC
  8
0
  6
BYBLOCK
 62
     5
 10
524.054
 20
184.962
 30
0.0
 70
    32
  0
VERTEX
  5
1C9CD
  8
0
  6
BYBLOCK
 62
     5
 10
524.052
 20
184.963
 30
0.0
 70
    32
  0
VERTEX
  5
1C9CE
  8
0
  6
BYBLOCK
 62
     5
 10
524.051
 20
184.964
 30
0.0
 70
    32
  0
VERTEX
  5
1C9CF
  8
0
  6
BYBLOCK
 62
     5
 10
524.05
 20
184.965
 30
0.0
 70
    32
  0
VERTEX
  5
1C9D0
  8
0
  6
BYBLOCK
 62
     5
 10
524.049
 20
184.966
 30
0.0
 70
    32
  0
VERTEX
  5
1C9D1
  8
0
  6
BYBLOCK
 62
     5
 10
524.047
 20
184.966
 30
0.0
 70
    32
  0
VERTEX
  5
1C9D2
  8
0
  6
BYBLOCK
 62
     5
 10
524.046
 20
184.967
 30
0.0
 70
    32
  0
VERTEX
  5
1C9D3
  8
0
  6
BYBLOCK
 62
     5
 10
524.045
 20
184.968
 30
0.0
 70
    32
  0
VERTEX
  5
1C9D4
  8
0
  6
BYBLOCK
 62
     5
 10
524.044
 20
184.969
 30
0.0
 70
    32
  0
VERTEX
  5
1C9D5
  8
0
  6
BYBLOCK
 62
     5
 10
524.043
 20
184.97
 30
0.0
 70
    32
  0
VERTEX
  5
1C9D6
  8
0
  6
BYBLOCK
 62
     5
 10
524.041
 20
184.971
 30
0.0
 70
    32
  0
VERTEX
  5
1C9D7
  8
0
  6
BYBLOCK
 62
     5
 10
524.04
 20
184.972
 30
0.0
 70
    32
  0
VERTEX
  5
1C9D8
  8
0
  6
BYBLOCK
 62
     5
 10
524.039
 20
184.972
 30
0.0
 70
    32
  0
VERTEX
  5
1C9D9
  8
0
  6
BYBLOCK
 62
     5
 10
524.038
 20
184.973
 30
0.0
 70
    32
  0
VERTEX
  5
1C9DA
  8
0
  6
BYBLOCK
 62
     5
 10
524.036
 20
184.974
 30
0.0
 70
    32
  0
VERTEX
  5
1C9DB
  8
0
  6
BYBLOCK
 62
     5
 10
524.035
 20
184.975
 30
0.0
 70
    32
  0
VERTEX
  5
1C9DC
  8
0
  6
BYBLOCK
 62
     5
 10
524.034
 20
184.976
 30
0.0
 70
    32
  0
VERTEX
  5
1C9DD
  8
0
  6
BYBLOCK
 62
     5
 10
524.033
 20
184.977
 30
0.0
 70
    32
  0
VERTEX
  5
1C9DE
  8
0
  6
BYBLOCK
 62
     5
 10
524.032
 20
184.978
 30
0.0
 70
    32
  0
VERTEX
  5
1C9DF
  8
0
  6
BYBLOCK
 62
     5
 10
524.03
 20
184.978
 30
0.0
 70
    32
  0
VERTEX
  5
1C9E0
  8
0
  6
BYBLOCK
 62
     5
 10
524.029
 20
184.979
 30
0.0
 70
    32
  0
VERTEX
  5
1C9E1
  8
0
  6
BYBLOCK
 62
     5
 10
524.028
 20
184.98
 30
0.0
 70
    32
  0
VERTEX
  5
1C9E2
  8
0
  6
BYBLOCK
 62
     5
 10
524.027
 20
184.981
 30
0.0
 70
    32
  0
VERTEX
  5
1C9E3
  8
0
  6
BYBLOCK
 62
     5
 10
524.025
 20
184.982
 30
0.0
 70
    32
  0
VERTEX
  5
1C9E4
  8
0
  6
BYBLOCK
 62
     5
 10
524.024
 20
184.983
 30
0.0
 70
    32
  0
VERTEX
  5
1C9E5
  8
0
  6
BYBLOCK
 62
     5
 10
524.023
 20
184.984
 30
0.0
 70
    32
  0
VERTEX
  5
1C9E6
  8
0
  6
BYBLOCK
 62
     5
 10
524.022
 20
184.985
 30
0.0
 70
    32
  0
VERTEX
  5
1C9E7
  8
0
  6
BYBLOCK
 62
     5
 10
524.021
 20
184.985
 30
0.0
 70
    32
  0
VERTEX
  5
1C9E8
  8
0
  6
BYBLOCK
 62
     5
 10
524.019
 20
184.986
 30
0.0
 70
    32
  0
VERTEX
  5
1C9E9
  8
0
  6
BYBLOCK
 62
     5
 10
524.018
 20
184.987
 30
0.0
 70
    32
  0
VERTEX
  5
1C9EA
  8
0
  6
BYBLOCK
 62
     5
 10
524.017
 20
184.988
 30
0.0
 70
    32
  0
VERTEX
  5
1C9EB
  8
0
  6
BYBLOCK
 62
     5
 10
524.016
 20
184.989
 30
0.0
 70
    32
  0
VERTEX
  5
1C9EC
  8
0
  6
BYBLOCK
 62
     5
 10
524.014
 20
184.99
 30
0.0
 70
    32
  0
VERTEX
  5
1C9ED
  8
0
  6
BYBLOCK
 62
     5
 10
524.013
 20
184.991
 30
0.0
 70
    32
  0
VERTEX
  5
1C9EE
  8
0
  6
BYBLOCK
 62
     5
 10
524.012
 20
184.991
 30
0.0
 70
    32
  0
VERTEX
  5
1C9EF
  8
0
  6
BYBLOCK
 62
     5
 10
524.011
 20
184.992
 30
0.0
 70
    32
  0
VERTEX
  5
1C9F0
  8
0
  6
BYBLOCK
 62
     5
 10
524.01
 20
184.993
 30
0.0
 70
    32
  0
VERTEX
  5
1C9F1
  8
0
  6
BYBLOCK
 62
     5
 10
524.008
 20
184.994
 30
0.0
 70
    32
  0
VERTEX
  5
1C9F2
  8
0
  6
BYBLOCK
 62
     5
 10
524.007
 20
184.995
 30
0.0
 70
    32
  0
VERTEX
  5
1C9F3
  8
0
  6
BYBLOCK
 62
     5
 10
524.006
 20
184.996
 30
0.0
 70
    32
  0
VERTEX
  5
1C9F4
  8
0
  6
BYBLOCK
 62
     5
 10
524.005
 20
184.997
 30
0.0
 70
    32
  0
VERTEX
  5
1C9F5
  8
0
  6
BYBLOCK
 62
     5
 10
524.003
 20
184.998
 30
0.0
 70
    32
  0
VERTEX
  5
1C9F6
  8
0
  6
BYBLOCK
 62
     5
 10
524.002
 20
184.998
 30
0.0
 70
    32
  0
VERTEX
  5
1C9F7
  8
0
  6
BYBLOCK
 62
     5
 10
524.001
 20
184.999
 30
0.0
 70
    32
  0
VERTEX
  5
1C9F8
  8
0
  6
BYBLOCK
 62
     5
 10
524.0
 20
185.0
 30
0.0
 70
    32
  0
VERTEX
  5
1C9F9
  8
0
  6
BYBLOCK
 62
     5
 10
523.999
 20
185.001
 30
0.0
 70
    32
  0
VERTEX
  5
1C9FA
  8
0
  6
BYBLOCK
 62
     5
 10
523.997
 20
185.002
 30
0.0
 70
    32
  0
VERTEX
  5
1C9FB
  8
0
  6
BYBLOCK
 62
     5
 10
523.996
 20
185.003
 30
0.0
 70
    32
  0
VERTEX
  5
1C9FC
  8
0
  6
BYBLOCK
 62
     5
 10
523.995
 20
185.004
 30
0.0
 70
    32
  0
VERTEX
  5
1C9FD
  8
0
  6
BYBLOCK
 62
     5
 10
523.994
 20
185.004
 30
0.0
 70
    32
  0
VERTEX
  5
1C9FE
  8
0
  6
BYBLOCK
 62
     5
 10
523.993
 20
185.005
 30
0.0
 70
    32
  0
VERTEX
  5
1C9FF
  8
0
  6
BYBLOCK
 62
     5
 10
523.991
 20
185.006
 30
0.0
 70
    32
  0
VERTEX
  5
1CA00
  8
0
  6
BYBLOCK
 62
     5
 10
523.99
 20
185.007
 30
0.0
 70
    32
  0
VERTEX
  5
1CA01
  8
0
  6
BYBLOCK
 62
     5
 10
523.989
 20
185.008
 30
0.0
 70
    32
  0
VERTEX
  5
1CA02
  8
0
  6
BYBLOCK
 62
     5
 10
523.988
 20
185.009
 30
0.0
 70
    32
  0
VERTEX
  5
1CA03
  8
0
  6
BYBLOCK
 62
     5
 10
523.986
 20
185.01
 30
0.0
 70
    32
  0
VERTEX
  5
1CA04
  8
0
  6
BYBLOCK
 62
     5
 10
523.985
 20
185.011
 30
0.0
 70
    32
  0
VERTEX
  5
1CA05
  8
0
  6
BYBLOCK
 62
     5
 10
523.984
 20
185.011
 30
0.0
 70
    32
  0
VERTEX
  5
1CA06
  8
0
  6
BYBLOCK
 62
     5
 10
523.983
 20
185.012
 30
0.0
 70
    32
  0
VERTEX
  5
1CA07
  8
0
  6
BYBLOCK
 62
     5
 10
523.982
 20
185.013
 30
0.0
 70
    32
  0
VERTEX
  5
1CA08
  8
0
  6
BYBLOCK
 62
     5
 10
523.98
 20
185.014
 30
0.0
 70
    32
  0
VERTEX
  5
1CA09
  8
0
  6
BYBLOCK
 62
     5
 10
523.979
 20
185.015
 30
0.0
 70
    32
  0
VERTEX
  5
1CA0A
  8
0
  6
BYBLOCK
 62
     5
 10
523.978
 20
185.016
 30
0.0
 70
    32
  0
VERTEX
  5
1CA0B
  8
0
  6
BYBLOCK
 62
     5
 10
523.977
 20
185.017
 30
0.0
 70
    32
  0
VERTEX
  5
1CA0C
  8
0
  6
BYBLOCK
 62
     5
 10
523.975
 20
185.017
 30
0.0
 70
    32
  0
VERTEX
  5
1CA0D
  8
0
  6
BYBLOCK
 62
     5
 10
523.974
 20
185.018
 30
0.0
 70
    32
  0
VERTEX
  5
1CA0E
  8
0
  6
BYBLOCK
 62
     5
 10
523.973
 20
185.019
 30
0.0
 70
    32
  0
VERTEX
  5
1CA0F
  8
0
  6
BYBLOCK
 62
     5
 10
523.972
 20
185.02
 30
0.0
 70
    32
  0
VERTEX
  5
1CA10
  8
0
  6
BYBLOCK
 62
     5
 10
523.971
 20
185.021
 30
0.0
 70
    32
  0
VERTEX
  5
1CA11
  8
0
  6
BYBLOCK
 62
     5
 10
523.969
 20
185.022
 30
0.0
 70
    32
  0
VERTEX
  5
1CA12
  8
0
  6
BYBLOCK
 62
     5
 10
523.968
 20
185.023
 30
0.0
 70
    32
  0
VERTEX
  5
1CA13
  8
0
  6
BYBLOCK
 62
     5
 10
523.967
 20
185.024
 30
0.0
 70
    32
  0
VERTEX
  5
1CA14
  8
0
  6
BYBLOCK
 62
     5
 10
523.966
 20
185.024
 30
0.0
 70
    32
  0
VERTEX
  5
1CA15
  8
0
  6
BYBLOCK
 62
     5
 10
523.964
 20
185.025
 30
0.0
 70
    32
  0
VERTEX
  5
1CA16
  8
0
  6
BYBLOCK
 62
     5
 10
523.963
 20
185.026
 30
0.0
 70
    32
  0
VERTEX
  5
1CA17
  8
0
  6
BYBLOCK
 62
     5
 10
523.962
 20
185.027
 30
0.0
 70
    32
  0
VERTEX
  5
1CA18
  8
0
  6
BYBLOCK
 62
     5
 10
523.961
 20
185.028
 30
0.0
 70
    32
  0
VERTEX
  5
1CA19
  8
0
  6
BYBLOCK
 62
     5
 10
523.96
 20
185.029
 30
0.0
 70
    32
  0
VERTEX
  5
1CA1A
  8
0
  6
BYBLOCK
 62
     5
 10
523.958
 20
185.03
 30
0.0
 70
    32
  0
VERTEX
  5
1CA1B
  8
0
  6
BYBLOCK
 62
     5
 10
523.957
 20
185.031
 30
0.0
 70
    32
  0
VERTEX
  5
1CA1C
  8
0
  6
BYBLOCK
 62
     5
 10
523.956
 20
185.031
 30
0.0
 70
    32
  0
VERTEX
  5
1CA1D
  8
0
  6
BYBLOCK
 62
     5
 10
523.955
 20
185.032
 30
0.0
 70
    32
  0
VERTEX
  5
1CA1E
  8
0
  6
BYBLOCK
 62
     5
 10
523.954
 20
185.033
 30
0.0
 70
    32
  0
VERTEX
  5
1CA1F
  8
0
  6
BYBLOCK
 62
     5
 10
523.952
 20
185.034
 30
0.0
 70
    32
  0
VERTEX
  5
1CA20
  8
0
  6
BYBLOCK
 62
     5
 10
523.951
 20
185.035
 30
0.0
 70
    32
  0
VERTEX
  5
1CA21
  8
0
  6
BYBLOCK
 62
     5
 10
523.95
 20
185.036
 30
0.0
 70
    32
  0
VERTEX
  5
1CA22
  8
0
  6
BYBLOCK
 62
     5
 10
523.949
 20
185.037
 30
0.0
 70
    32
  0
VERTEX
  5
1CA23
  8
0
  6
BYBLOCK
 62
     5
 10
523.947
 20
185.038
 30
0.0
 70
    32
  0
VERTEX
  5
1CA24
  8
0
  6
BYBLOCK
 62
     5
 10
523.946
 20
185.038
 30
0.0
 70
    32
  0
VERTEX
  5
1CA25
  8
0
  6
BYBLOCK
 62
     5
 10
523.945
 20
185.039
 30
0.0
 70
    32
  0
VERTEX
  5
1CA26
  8
0
  6
BYBLOCK
 62
     5
 10
523.944
 20
185.04
 30
0.0
 70
    32
  0
VERTEX
  5
1CA27
  8
0
  6
BYBLOCK
 62
     5
 10
523.943
 20
185.041
 30
0.0
 70
    32
  0
VERTEX
  5
1CA28
  8
0
  6
BYBLOCK
 62
     5
 10
523.941
 20
185.042
 30
0.0
 70
    32
  0
VERTEX
  5
1CA29
  8
0
  6
BYBLOCK
 62
     5
 10
523.94
 20
185.043
 30
0.0
 70
    32
  0
VERTEX
  5
1CA2A
  8
0
  6
BYBLOCK
 62
     5
 10
523.939
 20
185.044
 30
0.0
 70
    32
  0
VERTEX
  5
1CA2B
  8
0
  6
BYBLOCK
 62
     5
 10
523.938
 20
185.045
 30
0.0
 70
    32
  0
VERTEX
  5
1CA2C
  8
0
  6
BYBLOCK
 62
     5
 10
523.936
 20
185.045
 30
0.0
 70
    32
  0
VERTEX
  5
1CA2D
  8
0
  6
BYBLOCK
 62
     5
 10
523.935
 20
185.046
 30
0.0
 70
    32
  0
VERTEX
  5
1CA2E
  8
0
  6
BYBLOCK
 62
     5
 10
523.934
 20
185.047
 30
0.0
 70
    32
  0
VERTEX
  5
1CA2F
  8
0
  6
BYBLOCK
 62
     5
 10
523.933
 20
185.048
 30
0.0
 70
    32
  0
VERTEX
  5
1CA30
  8
0
  6
BYBLOCK
 62
     5
 10
523.932
 20
185.049
 30
0.0
 70
    32
  0
VERTEX
  5
1CA31
  8
0
  6
BYBLOCK
 62
     5
 10
523.93
 20
185.05
 30
0.0
 70
    32
  0
VERTEX
  5
1CA32
  8
0
  6
BYBLOCK
 62
     5
 10
523.929
 20
185.051
 30
0.0
 70
    32
  0
VERTEX
  5
1CA33
  8
0
  6
BYBLOCK
 62
     5
 10
523.928
 20
185.052
 30
0.0
 70
    32
  0
VERTEX
  5
1CA34
  8
0
  6
BYBLOCK
 62
     5
 10
523.927
 20
185.052
 30
0.0
 70
    32
  0
VERTEX
  5
1CA35
  8
0
  6
BYBLOCK
 62
     5
 10
523.926
 20
185.053
 30
0.0
 70
    32
  0
VERTEX
  5
1CA36
  8
0
  6
BYBLOCK
 62
     5
 10
523.924
 20
185.054
 30
0.0
 70
    32
  0
VERTEX
  5
1CA37
  8
0
  6
BYBLOCK
 62
     5
 10
523.923
 20
185.055
 30
0.0
 70
    32
  0
VERTEX
  5
1CA38
  8
0
  6
BYBLOCK
 62
     5
 10
523.922
 20
185.056
 30
0.0
 70
    32
  0
VERTEX
  5
1CA39
  8
0
  6
BYBLOCK
 62
     5
 10
523.921
 20
185.057
 30
0.0
 70
    32
  0
VERTEX
  5
1CA3A
  8
0
  6
BYBLOCK
 62
     5
 10
523.919
 20
185.058
 30
0.0
 70
    32
  0
VERTEX
  5
1CA3B
  8
0
  6
BYBLOCK
 62
     5
 10
523.918
 20
185.059
 30
0.0
 70
    32
  0
VERTEX
  5
1CA3C
  8
0
  6
BYBLOCK
 62
     5
 10
523.917
 20
185.059
 30
0.0
 70
    32
  0
VERTEX
  5
1CA3D
  8
0
  6
BYBLOCK
 62
     5
 10
523.916
 20
185.06
 30
0.0
 70
    32
  0
VERTEX
  5
1CA3E
  8
0
  6
BYBLOCK
 62
     5
 10
523.915
 20
185.061
 30
0.0
 70
    32
  0
VERTEX
  5
1CA3F
  8
0
  6
BYBLOCK
 62
     5
 10
523.913
 20
185.062
 30
0.0
 70
    32
  0
VERTEX
  5
1CA40
  8
0
  6
BYBLOCK
 62
     5
 10
523.912
 20
185.063
 30
0.0
 70
    32
  0
VERTEX
  5
1CA41
  8
0
  6
BYBLOCK
 62
     5
 10
523.911
 20
185.064
 30
0.0
 70
    32
  0
VERTEX
  5
1CA42
  8
0
  6
BYBLOCK
 62
     5
 10
523.91
 20
185.065
 30
0.0
 70
    32
  0
VERTEX
  5
1CA43
  8
0
  6
BYBLOCK
 62
     5
 10
523.909
 20
185.066
 30
0.0
 70
    32
  0
VERTEX
  5
1CA44
  8
0
  6
BYBLOCK
 62
     5
 10
523.907
 20
185.066
 30
0.0
 70
    32
  0
VERTEX
  5
1CA45
  8
0
  6
BYBLOCK
 62
     5
 10
523.906
 20
185.067
 30
0.0
 70
    32
  0
VERTEX
  5
1CA46
  8
0
  6
BYBLOCK
 62
     5
 10
523.905
 20
185.068
 30
0.0
 70
    32
  0
VERTEX
  5
1CA47
  8
0
  6
BYBLOCK
 62
     5
 10
523.904
 20
185.069
 30
0.0
 70
    32
  0
VERTEX
  5
1CA48
  8
0
  6
BYBLOCK
 62
     5
 10
523.903
 20
185.07
 30
0.0
 70
    32
  0
VERTEX
  5
1CA49
  8
0
  6
BYBLOCK
 62
     5
 10
523.901
 20
185.071
 30
0.0
 70
    32
  0
VERTEX
  5
1CA4A
  8
0
  6
BYBLOCK
 62
     5
 10
523.9
 20
185.072
 30
0.0
 70
    32
  0
VERTEX
  5
1CA4B
  8
0
  6
BYBLOCK
 62
     5
 10
523.899
 20
185.073
 30
0.0
 70
    32
  0
VERTEX
  5
1CA4C
  8
0
  6
BYBLOCK
 62
     5
 10
523.898
 20
185.073
 30
0.0
 70
    32
  0
VERTEX
  5
1CA4D
  8
0
  6
BYBLOCK
 62
     5
 10
523.896
 20
185.074
 30
0.0
 70
    32
  0
VERTEX
  5
1CA4E
  8
0
  6
BYBLOCK
 62
     5
 10
523.895
 20
185.075
 30
0.0
 70
    32
  0
VERTEX
  5
1CA4F
  8
0
  6
BYBLOCK
 62
     5
 10
523.894
 20
185.076
 30
0.0
 70
    32
  0
VERTEX
  5
1CA50
  8
0
  6
BYBLOCK
 62
     5
 10
523.893
 20
185.077
 30
0.0
 70
    32
  0
VERTEX
  5
1CA51
  8
0
  6
BYBLOCK
 62
     5
 10
523.892
 20
185.078
 30
0.0
 70
    32
  0
VERTEX
  5
1CA52
  8
0
  6
BYBLOCK
 62
     5
 10
523.89
 20
185.079
 30
0.0
 70
    32
  0
VERTEX
  5
1CA53
  8
0
  6
BYBLOCK
 62
     5
 10
523.889
 20
185.08
 30
0.0
 70
    32
  0
VERTEX
  5
1CA54
  8
0
  6
BYBLOCK
 62
     5
 10
523.888
 20
185.081
 30
0.0
 70
    32
  0
VERTEX
  5
1CA55
  8
0
  6
BYBLOCK
 62
     5
 10
523.887
 20
185.081
 30
0.0
 70
    32
  0
VERTEX
  5
1CA56
  8
0
  6
BYBLOCK
 62
     5
 10
523.886
 20
185.082
 30
0.0
 70
    32
  0
VERTEX
  5
1CA57
  8
0
  6
BYBLOCK
 62
     5
 10
523.884
 20
185.083
 30
0.0
 70
    32
  0
VERTEX
  5
1CA58
  8
0
  6
BYBLOCK
 62
     5
 10
523.883
 20
185.084
 30
0.0
 70
    32
  0
VERTEX
  5
1CA59
  8
0
  6
BYBLOCK
 62
     5
 10
523.882
 20
185.085
 30
0.0
 70
    32
  0
VERTEX
  5
1CA5A
  8
0
  6
BYBLOCK
 62
     5
 10
523.881
 20
185.086
 30
0.0
 70
    32
  0
VERTEX
  5
1CA5B
  8
0
  6
BYBLOCK
 62
     5
 10
523.88
 20
185.087
 30
0.0
 70
    32
  0
VERTEX
  5
1CA5C
  8
0
  6
BYBLOCK
 62
     5
 10
523.878
 20
185.088
 30
0.0
 70
    32
  0
VERTEX
  5
1CA5D
  8
0
  6
BYBLOCK
 62
     5
 10
523.877
 20
185.089
 30
0.0
 70
    32
  0
VERTEX
  5
1CA5E
  8
0
  6
BYBLOCK
 62
     5
 10
523.876
 20
185.089
 30
0.0
 70
    32
  0
VERTEX
  5
1CA5F
  8
0
  6
BYBLOCK
 62
     5
 10
523.875
 20
185.09
 30
0.0
 70
    32
  0
VERTEX
  5
1CA60
  8
0
  6
BYBLOCK
 62
     5
 10
523.874
 20
185.091
 30
0.0
 70
    32
  0
VERTEX
  5
1CA61
  8
0
  6
BYBLOCK
 62
     5
 10
523.872
 20
185.092
 30
0.0
 70
    32
  0
VERTEX
  5
1CA62
  8
0
  6
BYBLOCK
 62
     5
 10
523.871
 20
185.093
 30
0.0
 70
    32
  0
VERTEX
  5
1CA63
  8
0
  6
BYBLOCK
 62
     5
 10
523.87
 20
185.094
 30
0.0
 70
    32
  0
VERTEX
  5
1CA64
  8
0
  6
BYBLOCK
 62
     5
 10
523.869
 20
185.095
 30
0.0
 70
    32
  0
VERTEX
  5
1CA65
  8
0
  6
BYBLOCK
 62
     5
 10
523.867
 20
185.096
 30
0.0
 70
    32
  0
VERTEX
  5
1CA66
  8
0
  6
BYBLOCK
 62
     5
 10
523.866
 20
185.096
 30
0.0
 70
    32
  0
VERTEX
  5
1CA67
  8
0
  6
BYBLOCK
 62
     5
 10
523.865
 20
185.097
 30
0.0
 70
    32
  0
VERTEX
  5
1CA68
  8
0
  6
BYBLOCK
 62
     5
 10
523.864
 20
185.098
 30
0.0
 70
    32
  0
VERTEX
  5
1CA69
  8
0
  6
BYBLOCK
 62
     5
 10
523.863
 20
185.099
 30
0.0
 70
    32
  0
VERTEX
  5
1CA6A
  8
0
  6
BYBLOCK
 62
     5
 10
523.861
 20
185.1
 30
0.0
 70
    32
  0
VERTEX
  5
1CA6B
  8
0
  6
BYBLOCK
 62
     5
 10
523.86
 20
185.101
 30
0.0
 70
    32
  0
VERTEX
  5
1CA6C
  8
0
  6
BYBLOCK
 62
     5
 10
523.859
 20
185.102
 30
0.0
 70
    32
  0
VERTEX
  5
1CA6D
  8
0
  6
BYBLOCK
 62
     5
 10
523.858
 20
185.103
 30
0.0
 70
    32
  0
VERTEX
  5
1CA6E
  8
0
  6
BYBLOCK
 62
     5
 10
523.857
 20
185.104
 30
0.0
 70
    32
  0
VERTEX
  5
1CA6F
  8
0
  6
BYBLOCK
 62
     5
 10
523.855
 20
185.105
 30
0.0
 70
    32
  0
VERTEX
  5
1CA70
  8
0
  6
BYBLOCK
 62
     5
 10
523.854
 20
185.105
 30
0.0
 70
    32
  0
VERTEX
  5
1CA71
  8
0
  6
BYBLOCK
 62
     5
 10
523.853
 20
185.106
 30
0.0
 70
    32
  0
VERTEX
  5
1CA72
  8
0
  6
BYBLOCK
 62
     5
 10
523.852
 20
185.107
 30
0.0
 70
    32
  0
VERTEX
  5
1CA73
  8
0
  6
BYBLOCK
 62
     5
 10
523.851
 20
185.108
 30
0.0
 70
    32
  0
VERTEX
  5
1CA74
  8
0
  6
BYBLOCK
 62
     5
 10
523.849
 20
185.109
 30
0.0
 70
    32
  0
VERTEX
  5
1CA75
  8
0
  6
BYBLOCK
 62
     5
 10
523.848
 20
185.11
 30
0.0
 70
    32
  0
VERTEX
  5
1CA76
  8
0
  6
BYBLOCK
 62
     5
 10
523.847
 20
185.111
 30
0.0
 70
    32
  0
VERTEX
  5
1CA77
  8
0
  6
BYBLOCK
 62
     5
 10
523.846
 20
185.112
 30
0.0
 70
    32
  0
VERTEX
  5
1CA78
  8
0
  6
BYBLOCK
 62
     5
 10
523.845
 20
185.113
 30
0.0
 70
    32
  0
VERTEX
  5
1CA79
  8
0
  6
BYBLOCK
 62
     5
 10
523.843
 20
185.113
 30
0.0
 70
    32
  0
VERTEX
  5
1CA7A
  8
0
  6
BYBLOCK
 62
     5
 10
523.842
 20
185.114
 30
0.0
 70
    32
  0
VERTEX
  5
1CA7B
  8
0
  6
BYBLOCK
 62
     5
 10
523.841
 20
185.115
 30
0.0
 70
    32
  0
VERTEX
  5
1CA7C
  8
0
  6
BYBLOCK
 62
     5
 10
523.84
 20
185.116
 30
0.0
 70
    32
  0
VERTEX
  5
1CA7D
  8
0
  6
BYBLOCK
 62
     5
 10
523.839
 20
185.117
 30
0.0
 70
    32
  0
VERTEX
  5
1CA7E
  8
0
  6
BYBLOCK
 62
     5
 10
523.837
 20
185.118
 30
0.0
 70
    32
  0
VERTEX
  5
1CA7F
  8
0
  6
BYBLOCK
 62
     5
 10
523.836
 20
185.119
 30
0.0
 70
    32
  0
VERTEX
  5
1CA80
  8
0
  6
BYBLOCK
 62
     5
 10
523.835
 20
185.12
 30
0.0
 70
    32
  0
VERTEX
  5
1CA81
  8
0
  6
BYBLOCK
 62
     5
 10
523.834
 20
185.121
 30
0.0
 70
    32
  0
VERTEX
  5
1CA82
  8
0
  6
BYBLOCK
 62
     5
 10
523.833
 20
185.122
 30
0.0
 70
    32
  0
VERTEX
  5
1CA83
  8
0
  6
BYBLOCK
 62
     5
 10
523.831
 20
185.122
 30
0.0
 70
    32
  0
VERTEX
  5
1CA84
  8
0
  6
BYBLOCK
 62
     5
 10
523.83
 20
185.123
 30
0.0
 70
    32
  0
VERTEX
  5
1CA85
  8
0
  6
BYBLOCK
 62
     5
 10
523.829
 20
185.124
 30
0.0
 70
    32
  0
VERTEX
  5
1CA86
  8
0
  6
BYBLOCK
 62
     5
 10
523.828
 20
185.125
 30
0.0
 70
    32
  0
VERTEX
  5
1CA87
  8
0
  6
BYBLOCK
 62
     5
 10
523.827
 20
185.126
 30
0.0
 70
    32
  0
VERTEX
  5
1CA88
  8
0
  6
BYBLOCK
 62
     5
 10
523.825
 20
185.127
 30
0.0
 70
    32
  0
VERTEX
  5
1CA89
  8
0
  6
BYBLOCK
 62
     5
 10
523.824
 20
185.128
 30
0.0
 70
    32
  0
VERTEX
  5
1CA8A
  8
0
  6
BYBLOCK
 62
     5
 10
523.823
 20
185.129
 30
0.0
 70
    32
  0
VERTEX
  5
1CA8B
  8
0
  6
BYBLOCK
 62
     5
 10
523.822
 20
185.13
 30
0.0
 70
    32
  0
VERTEX
  5
1CA8C
  8
0
  6
BYBLOCK
 62
     5
 10
523.821
 20
185.131
 30
0.0
 70
    32
  0
VERTEX
  5
1CA8D
  8
0
  6
BYBLOCK
 62
     5
 10
523.82
 20
185.131
 30
0.0
 70
    32
  0
VERTEX
  5
1CA8E
  8
0
  6
BYBLOCK
 62
     5
 10
523.818
 20
185.132
 30
0.0
 70
    32
  0
VERTEX
  5
1CA8F
  8
0
  6
BYBLOCK
 62
     5
 10
523.817
 20
185.133
 30
0.0
 70
    32
  0
VERTEX
  5
1CA90
  8
0
  6
BYBLOCK
 62
     5
 10
523.816
 20
185.134
 30
0.0
 70
    32
  0
VERTEX
  5
1CA91
  8
0
  6
BYBLOCK
 62
     5
 10
523.815
 20
185.135
 30
0.0
 70
    32
  0
VERTEX
  5
1CA92
  8
0
  6
BYBLOCK
 62
     5
 10
523.814
 20
185.136
 30
0.0
 70
    32
  0
VERTEX
  5
1CA93
  8
0
  6
BYBLOCK
 62
     5
 10
523.812
 20
185.137
 30
0.0
 70
    32
  0
VERTEX
  5
1CA94
  8
0
  6
BYBLOCK
 62
     5
 10
523.811
 20
185.138
 30
0.0
 70
    32
  0
VERTEX
  5
1CA95
  8
0
  6
BYBLOCK
 62
     5
 10
523.81
 20
185.139
 30
0.0
 70
    32
  0
VERTEX
  5
1CA96
  8
0
  6
BYBLOCK
 62
     5
 10
523.809
 20
185.14
 30
0.0
 70
    32
  0
VERTEX
  5
1CA97
  8
0
  6
BYBLOCK
 62
     5
 10
523.808
 20
185.14
 30
0.0
 70
    32
  0
VERTEX
  5
1CA98
  8
0
  6
BYBLOCK
 62
     5
 10
523.806
 20
185.141
 30
0.0
 70
    32
  0
VERTEX
  5
1CA99
  8
0
  6
BYBLOCK
 62
     5
 10
523.805
 20
185.142
 30
0.0
 70
    32
  0
VERTEX
  5
1CA9A
  8
0
  6
BYBLOCK
 62
     5
 10
523.804
 20
185.143
 30
0.0
 70
    32
  0
VERTEX
  5
1CA9B
  8
0
  6
BYBLOCK
 62
     5
 10
523.803
 20
185.144
 30
0.0
 70
    32
  0
VERTEX
  5
1CA9C
  8
0
  6
BYBLOCK
 62
     5
 10
523.802
 20
185.145
 30
0.0
 70
    32
  0
VERTEX
  5
1CA9D
  8
0
  6
BYBLOCK
 62
     5
 10
523.8
 20
185.146
 30
0.0
 70
    32
  0
VERTEX
  5
1CA9E
  8
0
  6
BYBLOCK
 62
     5
 10
523.799
 20
185.147
 30
0.0
 70
    32
  0
VERTEX
  5
1CA9F
  8
0
  6
BYBLOCK
 62
     5
 10
523.798
 20
185.148
 30
0.0
 70
    32
  0
VERTEX
  5
1CAA0
  8
0
  6
BYBLOCK
 62
     5
 10
523.797
 20
185.149
 30
0.0
 70
    32
  0
VERTEX
  5
1CAA1
  8
0
  6
BYBLOCK
 62
     5
 10
523.796
 20
185.15
 30
0.0
 70
    32
  0
VERTEX
  5
1CAA2
  8
0
  6
BYBLOCK
 62
     5
 10
523.794
 20
185.15
 30
0.0
 70
    32
  0
VERTEX
  5
1CAA3
  8
0
  6
BYBLOCK
 62
     5
 10
523.793
 20
185.151
 30
0.0
 70
    32
  0
VERTEX
  5
1CAA4
  8
0
  6
BYBLOCK
 62
     5
 10
523.792
 20
185.152
 30
0.0
 70
    32
  0
SEQEND
  5
1CAA5
  8
0
  6
BYBLOCK
 62
     5
  0
LINE
  5
1CAA6
  8
0
  6
BYBLOCK
 62
     5
 10
521.211251
 20
184.35601
 30
0.0
 11
521.211251
 21
185.152321
 31
0.0
  0
ARC
  5
1CAA7
  8
0
  6
BYBLOCK
 62
     5
 10
521.011251
 20
184.35601
 30
0.0
 40
0.2
 50
270.0
 51
0.0
  0
LINE
  5
1CAA8
  8
0
  6
BYBLOCK
 62
     5
 10
529.417043
 20
182.45601
 30
0.0
 11
529.417043
 21
183.45601
 31
0.0
  0
LINE
  5
1CAA9
  8
0
  6
BYBLOCK
 62
     5
 10
531.063563
 20
185.167513
 30
0.0
 11
531.063563
 21
183.65601
 31
0.0
  0
ARC
  5
1CAAA
  8
0
  6
BYBLOCK
 62
     5
 10
530.563563
 20
184.95601
 30
0.0
 40
0.5
 50
0.0
 51
24.180062
  0
ARC
  5
1CAAB
  8
0
  6
BYBLOCK
 62
     5
 10
530.863563
 20
183.65601
 30
0.0
 40
0.2
 50
270.0
 51
0.0
  0
LINE
  5
1CDB0
  8
0
  6
BYBLOCK
 62
     5
 10
546.167252
 20
200.428437
 30
0.0
 11
546.167252
 21
250.483583
 31
0.0
  0
LINE
  5
1CDB1
  8
0
  6
BYBLOCK
 62
     5
 10
545.863563
 20
192.45601
 30
0.0
 11
545.863563
 21
258.45601
 31
0.0
  0
POLYLINE
  5
1D0B6
  8
HIDDEN
 66
     1
 10
0.0
 20
0.0
 30
0.0
 70
     2
  0
VERTEX
  5
1D0B7
  8
HIDDEN
 10
91.5307
 20
169.456
 30
0.0
 42
-0.026081
  0
VERTEX
  5
1D0B8
  8
HIDDEN
 10
90.985572
 20
169.485606
 30
0.0
 42
-0.036431
 70
     1
  0
VERTEX
  5
1D0B9
  8
HIDDEN
 10
90.600757
 20
169.555327
 30
0.0
 42
-0.009806
  0
VERTEX
  5
1D0BA
  8
HIDDEN
 10
90.105662
 20
169.693245
 30
0.0
 42
-0.024067
 70
     1
  0
VERTEX
  5
1D0BB
  8
HIDDEN
 10
89.9081
 20
169.763
 30
0.0
 42
-0.065267
  0
VERTEX
  5
1D0BC
  8
HIDDEN
 10
89.532957
 20
169.976743
 30
0.0
 42
-0.035259
 70
     1
  0
VERTEX
  5
1D0BD
  8
HIDDEN
 10
88.933227
 20
170.5014
 30
0.0
 42
-0.038737
  0
VERTEX
  5
1D0BE
  8
HIDDEN
 10
88.418517
 20
171.10737
 30
0.0
 42
-0.045981
 70
     1
  0
VERTEX
  5
1D0BF
  8
HIDDEN
 10
88.076927
 20
171.683992
 30
0.0
 42
-0.035841
  0
VERTEX
  5
1D0C0
  8
HIDDEN
 10
87.866953
 20
172.223331
 30
0.0
 42
-0.022293
 70
     1
  0
VERTEX
  5
1D0C1
  8
HIDDEN
 10
87.6324
 20
173.123
 30
0.0
 42
-0.033395
  0
VERTEX
  5
1D0C2
  8
HIDDEN
 10
87.596009
 20
173.374512
 30
0.0
 42
-0.018032
 70
     1
  0
VERTEX
  5
1D0C3
  8
HIDDEN
 10
87.576797
 20
173.844385
 30
0.0
  0
SEQEND
  5
1D0C4
  8
HIDDEN
  0
POLYLINE
  5
1D0C5
  8
HIDDEN
 66
     1
 10
0.0
 20
0.0
 30
0.0
 70
     2
  0
VERTEX
  5
1D0C6
  8
HIDDEN
 10
99.1925
 20
169.057
 30
0.0
 42
-0.012514
  0
VERTEX
  5
1D0C7
  8
HIDDEN
 10
98.799683
 20
169.073525
 30
0.0
 42
-0.024123
 70
     1
  0
VERTEX
  5
1D0C8
  8
HIDDEN
 10
98.597
 20
169.097
 30
0.0
 42
-0.005126
  0
VERTEX
  5
1D0C9
  8
HIDDEN
 10
98.209458
 20
169.165039
 30
0.0
 42
-0.004988
 70
     1
  0
VERTEX
  5
1D0CA
  8
HIDDEN
 10
97.8127
 20
169.243
 30
0.0
 42
-0.035005
  0
VERTEX
  5
1D0CB
  8
HIDDEN
 10
97.599742
 20
169.302851
 30
0.0
 42
-0.017963
 70
     1
  0
VERTEX
  5
1D0CC
  8
HIDDEN
 10
97.19976
 20
169.462555
 30
0.0
  0
SEQEND
  5
1D0CD
  8
HIDDEN
  0
POLYLINE
  5
1D0CE
  8
HIDDEN
 66
     1
 10
0.0
 20
0.0
 30
0.0
 70
     2
  0
VERTEX
  5
1D0CF
  8
HIDDEN
 10
103.538
 20
176.82
 30
0.0
 42
-0.007961
  0
VERTEX
  5
1D0D0
  8
HIDDEN
 10
103.555266
 20
176.219449
 30
0.0
 42
-0.014985
 70
     1
  0
VERTEX
  5
1D0D1
  8
HIDDEN
 10
103.549792
 20
175.900251
 30
0.0
 42
-0.000411
  0
VERTEX
  5
1D0D2
  8
HIDDEN
 10
103.516419
 20
175.204635
 30
0.0
 42
-0.001761
 70
     1
  0
VERTEX
  5
1D0D3
  8
HIDDEN
 10
103.507928
 20
175.042377
 30
0.0
 42
-0.005584
  0
VERTEX
  5
1D0D4
  8
HIDDEN
 10
103.473727
 20
174.53245
 30
0.0
 42
-0.011117
 70
     1
  0
VERTEX
  5
1D0D5
  8
HIDDEN
 10
103.448
 20
174.277
 30
0.0
 42
-0.043945
  0
VERTEX
  5
1D0D6
  8
HIDDEN
 10
103.411977
 20
174.108354
 30
0.0
 42
-0.009318
 70
     1
  0
VERTEX
  5
1D0D7
  8
HIDDEN
 10
103.159
 20
173.337
 30
0.0
 42
-0.013253
  0
VERTEX
  5
1D0D8
  8
HIDDEN
 10
102.836954
 20
172.486707
 30
0.0
 42
-0.013885
 70
     1
  0
VERTEX
  5
1D0D9
  8
HIDDEN
 10
102.486
 20
171.693
 30
0.0
 42
-0.029309
  0
VERTEX
  5
1D0DA
  8
HIDDEN
 10
102.217825
 20
171.205238
 30
0.0
 42
-0.029868
 70
     1
  0
VERTEX
  5
1D0DB
  8
HIDDEN
 10
101.9
 20
170.761
 30
0.0
 42
-0.048045
  0
VERTEX
  5
1D0DC
  8
HIDDEN
 10
101.533894
 20
170.388504
 30
0.0
 42
-0.041202
 70
     1
  0
VERTEX
  5
1D0DD
  8
HIDDEN
 10
101.037
 20
170.037
 30
0.0
 42
-0.026934
  0
VERTEX
  5
1D0DE
  8
HIDDEN
 10
100.509799
 20
169.762892
 30
0.0
 42
-0.041711
 70
     1
  0
VERTEX
  5
1D0DF
  8
HIDDEN
 10
100.148
 20
169.634
 30
0.0
 42
-0.016814
  0
VERTEX
  5
1D0E0
  8
HIDDEN
 10
99.836419
 20
169.562609
 30
0.0
 42
-0.010866
 70
     1
  0
VERTEX
  5
1D0E1
  8
HIDDEN
 10
99.349
 20
169.479
 30
0.0
 42
-0.021892
  0
VERTEX
  5
1D0E2
  8
HIDDEN
 10
99.227148
 20
169.466236
 30
0.0
 42
-0.010414
 70
     1
  0
VERTEX
  5
1D0E3
  8
HIDDEN
 10
98.9699
 20
169.456
 30
0.0
  0
SEQEND
  5
1D0E4
  8
HIDDEN
  0
POLYLINE
  5
1D0E5
  8
HIDDEN
 66
     1
 10
0.0
 20
0.0
 30
0.0
 70
     2
  0
VERTEX
  5
1D0E6
  8
HIDDEN
 10
108.134
 20
173.561
 30
0.0
 42
-0.020008
  0
VERTEX
  5
1D0E7
  8
HIDDEN
 10
108.162909
 20
173.082425
 30
0.0
 42
-0.03696
 70
     1
  0
VERTEX
  5
1D0E8
  8
HIDDEN
 10
108.149
 20
172.823
 30
0.0
 42
-0.012733
  0
VERTEX
  5
1D0E9
  8
HIDDEN
 10
108.029319
 20
172.046454
 30
0.0
 42
-0.032455
 70
     1
  0
VERTEX
  5
1D0EA
  8
HIDDEN
 10
107.955
 20
171.747
 30
0.0
 42
-0.026464
  0
VERTEX
  5
1D0EB
  8
HIDDEN
 10
107.790001
 20
171.310059
 30
0.0
 42
-0.027831
 70
     1
  0
VERTEX
  5
1D0EC
  8
HIDDEN
 10
107.589
 20
170.914
 30
0.0
 42
-0.020893
  0
VERTEX
  5
1D0ED
  8
HIDDEN
 10
107.313571
 20
170.481498
 30
0.0
 42
-0.022019
 70
     1
  0
VERTEX
  5
1D0EE
  8
HIDDEN
 10
107.018
 20
170.095
 30
0.0
 42
-0.018124
  0
VERTEX
  5
1D0EF
  8
HIDDEN
 10
106.835855
 20
169.892751
 30
0.0
 42
-0.023048
 70
     1
  0
VERTEX
  5
1D0F0
  8
HIDDEN
 10
106.68
 20
169.746
 30
0.0
 42
-0.060486
  0
VERTEX
  5
1D0F1
  8
HIDDEN
 10
106.396073
 20
169.55655
 30
0.0
 42
-0.035992
 70
     1
  0
VERTEX
  5
1D0F2
  8
HIDDEN
 10
105.868
 20
169.336
 30
0.0
 42
-0.019989
  0
VERTEX
  5
1D0F3
  8
HIDDEN
 10
105.535381
 20
169.239018
 30
0.0
 42
-0.011029
 70
     1
  0
VERTEX
  5
1D0F4
  8
HIDDEN
 10
104.923
 20
169.101
 30
0.0
 42
-0.031802
  0
VERTEX
  5
1D0F5
  8
HIDDEN
 10
104.710824
 20
169.071957
 30
0.0
 42
-0.016675
 70
     1
  0
VERTEX
  5
1D0F6
  8
HIDDEN
 10
104.303
 20
169.056
 30
0.0
  0
SEQEND
  5
1D0F7
  8
HIDDEN
  0
POLYLINE
  5
1D0F8
  8
HIDDEN
 66
     1
 10
0.0
 20
0.0
 30
0.0
 70
     2
  0
VERTEX
  5
1D0F9
  8
HIDDEN
 10
209.367
 20
176.48
 30
0.0
 42
0.01448
  0
VERTEX
  5
1D0FA
  8
HIDDEN
 10
209.488157
 20
175.541888
 30
0.0
 42
0.024434
 70
     1
  0
VERTEX
  5
1D0FB
  8
HIDDEN
 10
209.603
 20
174.993
 30
0.0
 42
0.007604
  0
VERTEX
  5
1D0FC
  8
HIDDEN
 10
209.976591
 20
173.644788
 30
0.0
 42
0.024953
 70
     1
  0
VERTEX
  5
1D0FD
  8
HIDDEN
 10
210.117
 20
173.242
 30
0.0
 42
0.040097
  0
VERTEX
  5
1D0FE
  8
HIDDEN
 10
210.417169
 20
172.64438
 30
0.0
 42
0.029159
 70
     1
  0
VERTEX
  5
1D0FF
  8
HIDDEN
 10
210.939
 20
171.888
 30
0.0
 42
0.030385
  0
VERTEX
  5
1D100
  8
HIDDEN
 10
211.532353
 20
171.215522
 30
0.0
 42
0.034334
 70
     1
  0
VERTEX
  5
1D101
  8
HIDDEN
 10
212.13
 20
170.693
 30
0.0
 42
0.029253
  0
VERTEX
  5
1D102
  8
HIDDEN
 10
212.777415
 20
170.258297
 30
0.0
 42
0.034257
 70
     1
  0
VERTEX
  5
1D103
  8
HIDDEN
 10
213.373
 20
169.96
 30
0.0
 42
0.025112
  0
VERTEX
  5
1D104
  8
HIDDEN
 10
213.734458
 20
169.829847
 30
0.0
 42
0.010158
 70
     1
  0
VERTEX
  5
1D105
  8
HIDDEN
 10
214.648
 20
169.572
 30
0.0
 42
0.040196
  0
VERTEX
  5
1D106
  8
HIDDEN
 10
215.106186
 20
169.491258
 30
0.0
 42
0.024206
 70
     1
  0
VERTEX
  5
1D107
  8
HIDDEN
 10
215.877166
 20
169.456014
 30
0.0
  0
SEQEND
  5
1D108
  8
HIDDEN
  0
ARC
  5
1D109
  8
HIDDEN
 10
235.542553
 20
181.471642
 30
0.0
 40
1.584503
 50
54.2081
 51
89.22445
  0
POLYLINE
  5
1D10A
  8
HIDDEN
 66
     1
 10
0.0
 20
0.0
 30
0.0
 70
     2
  0
VERTEX
  5
1D10B
  8
HIDDEN
 10
239.108
 20
181.855
 30
0.0
 42
-0.059961
  0
VERTEX
  5
1D10C
  8
HIDDEN
 10
239.41856
 20
181.811091
 30
0.0
 42
-0.087201
 70
     1
  0
VERTEX
  5
1D10D
  8
HIDDEN
 10
239.615
 20
181.72
 30
0.0
 42
-0.032874
  0
VERTEX
  5
1D10E
  8
HIDDEN
 10
239.888782
 20
181.501359
 30
0.0
 42
-0.06524
 70
     1
  0
VERTEX
  5
1D10F
  8
HIDDEN
 10
240.003
 20
181.366
 30
0.0
 42
-0.033402
  0
VERTEX
  5
1D110
  8
HIDDEN
 10
240.083316
 20
181.220307
 30
0.0
 42
-0.013142
 70
     1
  0
VERTEX
  5
1D111
  8
HIDDEN
 10
240.252
 20
180.833
 30
0.0
 42
-0.040495
  0
VERTEX
  5
1D112
  8
HIDDEN
 10
240.338718
 20
180.556128
 30
0.0
 42
-0.029016
 70
     1
  0
VERTEX
  5
1D113
  8
HIDDEN
 10
240.405
 20
180.157
 30
0.0
  0
SEQEND
  5
1D114
  8
HIDDEN
  0
POLYLINE
  5
1D115
  8
HIDDEN
 66
     1
 10
0.0
 20
0.0
 30
0.0
 70
     2
  0
VERTEX
  5
1D116
  8
HIDDEN
 10
239.091162
 20
170.65601
 30
0.0
 42
0.065473
  0
VERTEX
  5
1D117
  8
HIDDEN
 10
239.430164
 20
170.704604
 30
0.0
 42
0.092719
 70
     1
  0
VERTEX
  5
1D118
  8
HIDDEN
 10
239.648
 20
170.812
 30
0.0
 42
0.030035
  0
VERTEX
  5
1D119
  8
HIDDEN
 10
239.90889
 20
171.033087
 30
0.0
 42
0.061931
 70
     1
  0
VERTEX
  5
1D11A
  8
HIDDEN
 10
240.014
 20
171.162
 30
0.0
 42
0.035214
  0
VERTEX
  5
1D11B
  8
HIDDEN
 10
240.175914
 20
171.465605
 30
0.0
 42
0.043853
 70
     1
  0
VERTEX
  5
1D11C
  8
HIDDEN
 10
240.266
 20
171.727
 30
0.0
 42
0.011816
  0
VERTEX
  5
1D11D
  8
HIDDEN
 10
240.35115
 20
172.106698
 30
0.0
 42
0.008418
 70
     1
  0
VERTEX
  5
1D11E
  8
HIDDEN
 10
240.449
 20
172.644
 30
0.0
 42
0.008555
  0
VERTEX
  5
1D11F
  8
HIDDEN
 10
240.457144
 20
172.699309
 30
0.0
 42
0.003108
 70
     1
  0
VERTEX
  5
1D120
  8
HIDDEN
 10
240.476
 20
172.852
 30
0.0
  0
SEQEND
  5
1D121
  8
HIDDEN
  0
ARC
  5
1D122
  8
HIDDEN
 10
235.554448
 20
171.009523
 30
0.0
 40
1.552541
 50
270.278713
 51
306.101787
  0
ARC
  5
1D123
  8
HIDDEN
 10
271.987562
 20
174.976821
 30
0.0
 40
5.930091
 50
179.234963
 51
273.20398
  0
LINE
  5
1D124
  8
HIDDEN
 10
281.412
 20
169.338
 30
0.0
 11
281.477
 21
169.248
 31
0.0
  0
ARC
  5
1D125
  8
HIDDEN
 10
507.881801
 20
172.764167
 30
0.0
 40
3.711499
 50
175.49005
 51
272.431591
  0
LINE
  5
1D126
  8
HIDDEN
 10
508.673
 20
169.056
 30
0.0
 11
508.056
 21
169.124
 31
0.0
  0
ARC
  5
1D127
  8
HIDDEN
 10
513.484665
 20
173.107296
 30
0.0
 40
4.060149
 50
265.809807
 51
358.852691
  0
ARC
  5
1D128
  8
HIDDEN
 10
520.710206
 20
173.510058
 30
0.0
 40
4.05532
 50
271.436902
 51
4.258187
  0
INSERT
  5
24550
  8
1
  2
A$C3C4259C2
 10
325.211752
 20
171.655094
 30
0.0
 41
-1.561577
 42
1.561577
 43
1.561578
  0
POLYLINE
  5
24557
  8
HIDDEN
 66
     1
 10
0.0
 20
0.0
 30
0.0
 70
     8
  0
VERTEX
  5
2479A
  8
0
 10
254.19
 20
176.508
 30
0.0
 70
    32
  0
VERTEX
  5
2479B
  8
0
 10
254.138
 20
176.506
 30
0.0
 70
    32
  0
VERTEX
  5
2479C
  8
0
 10
254.086
 20
176.499
 30
0.0
 70
    32
  0
VERTEX
  5
2479D
  8
0
 10
254.034
 20
176.488
 30
0.0
 70
    32
  0
VERTEX
  5
2479E
  8
0
 10
253.982
 20
176.473
 30
0.0
 70
    32
  0
VERTEX
  5
2479F
  8
0
 10
253.931
 20
176.453
 30
0.0
 70
    32
  0
VERTEX
  5
247A0
  8
0
 10
253.881
 20
176.429
 30
0.0
 70
    32
  0
VERTEX
  5
247A1
  8
0
 10
253.832
 20
176.401
 30
0.0
 70
    32
  0
VERTEX
  5
247A2
  8
0
 10
253.783
 20
176.369
 30
0.0
 70
    32
  0
VERTEX
  5
247A3
  8
0
 10
253.735
 20
176.333
 30
0.0
 70
    32
  0
VERTEX
  5
247A4
  8
0
 10
253.688
 20
176.293
 30
0.0
 70
    32
  0
VERTEX
  5
247A5
  8
0
 10
253.643
 20
176.248
 30
0.0
 70
    32
  0
VERTEX
  5
247A6
  8
0
 10
253.599
 20
176.2
 30
0.0
 70
    32
  0
VERTEX
  5
247A7
  8
0
 10
253.556
 20
176.149
 30
0.0
 70
    32
  0
VERTEX
  5
247A8
  8
0
 10
253.515
 20
176.094
 30
0.0
 70
    32
  0
VERTEX
  5
247A9
  8
0
 10
253.476
 20
176.035
 30
0.0
 70
    32
  0
VERTEX
  5
247AA
  8
0
 10
253.438
 20
175.974
 30
0.0
 70
    32
  0
VERTEX
  5
247AB
  8
0
 10
253.402
 20
175.909
 30
0.0
 70
    32
  0
VERTEX
  5
247AC
  8
0
 10
253.368
 20
175.841
 30
0.0
 70
    32
  0
VERTEX
  5
247AD
  8
0
 10
253.336
 20
175.77
 30
0.0
 70
    32
  0
VERTEX
  5
247AE
  8
0
 10
253.305
 20
175.697
 30
0.0
 70
    32
  0
VERTEX
  5
247AF
  8
0
 10
253.278
 20
175.621
 30
0.0
 70
    32
  0
VERTEX
  5
247B0
  8
0
 10
253.252
 20
175.544
 30
0.0
 70
    32
  0
VERTEX
  5
247B1
  8
0
 10
253.228
 20
175.464
 30
0.0
 70
    32
  0
VERTEX
  5
247B2
  8
0
 10
253.207
 20
175.382
 30
0.0
 70
    32
  0
VERTEX
  5
247B3
  8
0
 10
253.188
 20
175.298
 30
0.0
 70
    32
  0
VERTEX
  5
247B4
  8
0
 10
253.172
 20
175.213
 30
0.0
 70
    32
  0
VERTEX
  5
247B5
  8
0
 10
253.158
 20
175.127
 30
0.0
 70
    32
  0
VERTEX
  5
247B6
  8
0
 10
253.147
 20
175.039
 30
0.0
 70
    32
  0
VERTEX
  5
247B7
  8
0
 10
253.138
 20
174.951
 30
0.0
 70
    32
  0
VERTEX
  5
247B8
  8
0
 10
253.131
 20
174.862
 30
0.0
 70
    32
  0
VERTEX
  5
247B9
  8
0
 10
253.127
 20
174.773
 30
0.0
 70
    32
  0
VERTEX
  5
247BA
  8
0
 10
253.126
 20
174.684
 30
0.0
 70
    32
  0
VERTEX
  5
247BB
  8
0
 10
253.128
 20
174.594
 30
0.0
 70
    32
  0
VERTEX
  5
247BC
  8
0
 10
253.131
 20
174.505
 30
0.0
 70
    32
  0
VERTEX
  5
247BD
  8
0
 10
253.138
 20
174.416
 30
0.0
 70
    32
  0
VERTEX
  5
247BE
  8
0
 10
253.147
 20
174.328
 30
0.0
 70
    32
  0
VERTEX
  5
247BF
  8
0
 10
253.158
 20
174.24
 30
0.0
 70
    32
  0
VERTEX
  5
247C0
  8
0
 10
253.172
 20
174.154
 30
0.0
 70
    32
  0
VERTEX
  5
247C1
  8
0
 10
253.188
 20
174.069
 30
0.0
 70
    32
  0
VERTEX
  5
247C2
  8
0
 10
253.207
 20
173.985
 30
0.0
 70
    32
  0
VERTEX
  5
247C3
  8
0
 10
253.228
 20
173.904
 30
0.0
 70
    32
  0
VERTEX
  5
247C4
  8
0
 10
253.252
 20
173.824
 30
0.0
 70
    32
  0
VERTEX
  5
247C5
  8
0
 10
253.278
 20
173.746
 30
0.0
 70
    32
  0
VERTEX
  5
247C6
  8
0
 10
253.306
 20
173.67
 30
0.0
 70
    32
  0
VERTEX
  5
247C7
  8
0
 10
253.336
 20
173.597
 30
0.0
 70
    32
  0
VERTEX
  5
247C8
  8
0
 10
253.368
 20
173.526
 30
0.0
 70
    32
  0
VERTEX
  5
247C9
  8
0
 10
253.402
 20
173.458
 30
0.0
 70
    32
  0
VERTEX
  5
247CA
  8
0
 10
253.438
 20
173.394
 30
0.0
 70
    32
  0
VERTEX
  5
247CB
  8
0
 10
253.476
 20
173.332
 30
0.0
 70
    32
  0
VERTEX
  5
247CC
  8
0
 10
253.515
 20
173.273
 30
0.0
 70
    32
  0
VERTEX
  5
247CD
  8
0
 10
253.556
 20
173.218
 30
0.0
 70
    32
  0
VERTEX
  5
247CE
  8
0
 10
253.599
 20
173.167
 30
0.0
 70
    32
  0
VERTEX
  5
247CF
  8
0
 10
253.643
 20
173.119
 30
0.0
 70
    32
  0
VERTEX
  5
247D0
  8
0
 10
253.689
 20
173.075
 30
0.0
 70
    32
  0
VERTEX
  5
247D1
  8
0
 10
253.735
 20
173.034
 30
0.0
 70
    32
  0
VERTEX
  5
247D2
  8
0
 10
253.783
 20
172.998
 30
0.0
 70
    32
  0
VERTEX
  5
247D3
  8
0
 10
253.832
 20
172.966
 30
0.0
 70
    32
  0
VERTEX
  5
247D4
  8
0
 10
253.881
 20
172.938
 30
0.0
 70
    32
  0
VERTEX
  5
247D5
  8
0
 10
253.932
 20
172.914
 30
0.0
 70
    32
  0
VERTEX
  5
247D6
  8
0
 10
253.983
 20
172.894
 30
0.0
 70
    32
  0
VERTEX
  5
247D7
  8
0
 10
254.034
 20
172.879
 30
0.0
 70
    32
  0
VERTEX
  5
247D8
  8
0
 10
254.086
 20
172.868
 30
0.0
 70
    32
  0
VERTEX
  5
247D9
  8
0
 10
254.138
 20
172.861
 30
0.0
 70
    32
  0
VERTEX
  5
247DA
  8
0
 10
254.19
 20
172.859
 30
0.0
 70
    32
  0
VERTEX
  5
247DB
  8
0
 10
254.242
 20
172.861
 30
0.0
 70
    32
  0
VERTEX
  5
247DC
  8
0
 10
254.294
 20
172.868
 30
0.0
 70
    32
  0
VERTEX
  5
247DD
  8
0
 10
254.346
 20
172.879
 30
0.0
 70
    32
  0
VERTEX
  5
247DE
  8
0
 10
254.398
 20
172.894
 30
0.0
 70
    32
  0
VERTEX
  5
247DF
  8
0
 10
254.449
 20
172.914
 30
0.0
 70
    32
  0
VERTEX
  5
247E0
  8
0
 10
254.499
 20
172.938
 30
0.0
 70
    32
  0
VERTEX
  5
247E1
  8
0
 10
254.549
 20
172.966
 30
0.0
 70
    32
  0
VERTEX
  5
247E2
  8
0
 10
254.597
 20
172.998
 30
0.0
 70
    32
  0
VERTEX
  5
247E3
  8
0
 10
254.645
 20
173.034
 30
0.0
 70
    32
  0
VERTEX
  5
247E4
  8
0
 10
254.692
 20
173.075
 30
0.0
 70
    32
  0
VERTEX
  5
247E5
  8
0
 10
254.737
 20
173.119
 30
0.0
 70
    32
  0
VERTEX
  5
247E6
  8
0
 10
254.781
 20
173.167
 30
0.0
 70
    32
  0
VERTEX
  5
247E7
  8
0
 10
254.824
 20
173.218
 30
0.0
 70
    32
  0
VERTEX
  5
247E8
  8
0
 10
254.865
 20
173.273
 30
0.0
 70
    32
  0
VERTEX
  5
247E9
  8
0
 10
254.905
 20
173.332
 30
0.0
 70
    32
  0
VERTEX
  5
247EA
  8
0
 10
254.942
 20
173.394
 30
0.0
 70
    32
  0
VERTEX
  5
247EB
  8
0
 10
254.978
 20
173.458
 30
0.0
 70
    32
  0
VERTEX
  5
247EC
  8
0
 10
255.013
 20
173.526
 30
0.0
 70
    32
  0
VERTEX
  5
247ED
  8
0
 10
255.045
 20
173.597
 30
0.0
 70
    32
  0
VERTEX
  5
247EE
  8
0
 10
255.075
 20
173.67
 30
0.0
 70
    32
  0
VERTEX
  5
247EF
  8
0
 10
255.103
 20
173.746
 30
0.0
 70
    32
  0
VERTEX
  5
247F0
  8
0
 10
255.128
 20
173.824
 30
0.0
 70
    32
  0
VERTEX
  5
247F1
  8
0
 10
255.152
 20
173.904
 30
0.0
 70
    32
  0
VERTEX
  5
247F2
  8
0
 10
255.173
 20
173.985
 30
0.0
 70
    32
  0
VERTEX
  5
247F3
  8
0
 10
255.192
 20
174.069
 30
0.0
 70
    32
  0
VERTEX
  5
247F4
  8
0
 10
255.208
 20
174.154
 30
0.0
 70
    32
  0
VERTEX
  5
247F5
  8
0
 10
255.222
 20
174.24
 30
0.0
 70
    32
  0
VERTEX
  5
247F6
  8
0
 10
255.234
 20
174.328
 30
0.0
 70
    32
  0
VERTEX
  5
247F7
  8
0
 10
255.243
 20
174.416
 30
0.0
 70
    32
  0
VERTEX
  5
247F8
  8
0
 10
255.249
 20
174.505
 30
0.0
 70
    32
  0
VERTEX
  5
247F9
  8
0
 10
255.253
 20
174.594
 30
0.0
 70
    32
  0
VERTEX
  5
247FA
  8
0
 10
255.254
 20
174.684
 30
0.0
 70
    32
  0
VERTEX
  5
247FB
  8
0
 10
255.253
 20
174.773
 30
0.0
 70
    32
  0
VERTEX
  5
247FC
  8
0
 10
255.249
 20
174.862
 30
0.0
 70
    32
  0
VERTEX
  5
247FD
  8
0
 10
255.242
 20
174.951
 30
0.0
 70
    32
  0
VERTEX
  5
247FE
  8
0
 10
255.234
 20
175.04
 30
0.0
 70
    32
  0
VERTEX
  5
247FF
  8
0
 10
255.222
 20
175.127
 30
0.0
 70
    32
  0
VERTEX
  5
24800
  8
0
 10
255.208
 20
175.213
 30
0.0
 70
    32
  0
VERTEX
  5
24801
  8
0
 10
255.192
 20
175.298
 30
0.0
 70
    32
  0
VERTEX
  5
24802
  8
0
 10
255.173
 20
175.382
 30
0.0
 70
    32
  0
VERTEX
  5
24803
  8
0
 10
255.152
 20
175.464
 30
0.0
 70
    32
  0
VERTEX
  5
24804
  8
0
 10
255.128
 20
175.544
 30
0.0
 70
    32
  0
VERTEX
  5
24805
  8
0
 10
255.103
 20
175.622
 30
0.0
 70
    32
  0
VERTEX
  5
24806
  8
0
 10
255.075
 20
175.697
 30
0.0
 70
    32
  0
VERTEX
  5
24807
  8
0
 10
255.045
 20
175.77
 30
0.0
 70
    32
  0
VERTEX
  5
24808
  8
0
 10
255.012
 20
175.841
 30
0.0
 70
    32
  0
VERTEX
  5
24809
  8
0
 10
254.978
 20
175.909
 30
0.0
 70
    32
  0
VERTEX
  5
2480A
  8
0
 10
254.942
 20
175.974
 30
0.0
 70
    32
  0
VERTEX
  5
2480B
  8
0
 10
254.904
 20
176.035
 30
0.0
 70
    32
  0
VERTEX
  5
2480C
  8
0
 10
254.865
 20
176.094
 30
0.0
 70
    32
  0
VERTEX
  5
2480D
  8
0
 10
254.824
 20
176.149
 30
0.0
 70
    32
  0
VERTEX
  5
2480E
  8
0
 10
254.781
 20
176.201
 30
0.0
 70
    32
  0
VERTEX
  5
2480F
  8
0
 10
254.737
 20
176.248
 30
0.0
 70
    32
  0
VERTEX
  5
24810
  8
0
 10
254.692
 20
176.293
 30
0.0
 70
    32
  0
VERTEX
  5
24811
  8
0
 10
254.645
 20
176.333
 30
0.0
 70
    32
  0
VERTEX
  5
24812
  8
0
 10
254.597
 20
176.369
 30
0.0
 70
    32
  0
VERTEX
  5
24813
  8
0
 10
254.548
 20
176.401
 30
0.0
 70
    32
  0
VERTEX
  5
24814
  8
0
 10
254.499
 20
176.429
 30
0.0
 70
    32
  0
VERTEX
  5
24815
  8
0
 10
254.449
 20
176.453
 30
0.0
 70
    32
  0
VERTEX
  5
24816
  8
0
 10
254.398
 20
176.473
 30
0.0
 70
    32
  0
VERTEX
  5
24817
  8
0
 10
254.346
 20
176.488
 30
0.0
 70
    32
  0
VERTEX
  5
24818
  8
0
 10
254.294
 20
176.499
 30
0.0
 70
    32
  0
VERTEX
  5
24819
  8
0
 10
254.242
 20
176.506
 30
0.0
 70
    32
  0
VERTEX
  5
2481A
  8
0
 10
254.19
 20
176.508
 30
0.0
 70
    32
  0
SEQEND
  5
2481B
  8
0
  0
POLYLINE
  5
24558
  8
HIDDEN
 66
     1
 10
0.0
 20
0.0
 30
0.0
 70
     8
  0
VERTEX
  5
2481C
  8
0
 10
254.19
 20
176.508
 30
0.0
 70
    32
  0
VERTEX
  5
2481D
  8
0
 10
254.216
 20
176.509
 30
0.0
 70
    32
  0
VERTEX
  5
2481E
  8
0
 10
254.242
 20
176.51
 30
0.0
 70
    32
  0
VERTEX
  5
2481F
  8
0
 10
254.268
 20
176.513
 30
0.0
 70
    32
  0
VERTEX
  5
24820
  8
0
 10
254.294
 20
176.517
 30
0.0
 70
    32
  0
VERTEX
  5
24821
  8
0
 10
254.32
 20
176.522
 30
0.0
 70
    32
  0
VERTEX
  5
24822
  8
0
 10
254.346
 20
176.528
 30
0.0
 70
    32
  0
VERTEX
  5
24823
  8
0
 10
254.372
 20
176.535
 30
0.0
 70
    32
  0
VERTEX
  5
24824
  8
0
 10
254.398
 20
176.543
 30
0.0
 70
    32
  0
VERTEX
  5
24825
  8
0
 10
254.423
 20
176.552
 30
0.0
 70
    32
  0
VERTEX
  5
24826
  8
0
 10
254.449
 20
176.563
 30
0.0
 70
    32
  0
VERTEX
  5
24827
  8
0
 10
254.474
 20
176.574
 30
0.0
 70
    32
  0
VERTEX
  5
24828
  8
0
 10
254.499
 20
176.587
 30
0.0
 70
    32
  0
VERTEX
  5
24829
  8
0
 10
254.524
 20
176.6
 30
0.0
 70
    32
  0
VERTEX
  5
2482A
  8
0
 10
254.549
 20
176.615
 30
0.0
 70
    32
  0
VERTEX
  5
2482B
  8
0
 10
254.573
 20
176.63
 30
0.0
 70
    32
  0
VERTEX
  5
2482C
  8
0
 10
254.597
 20
176.647
 30
0.0
 70
    32
  0
VERTEX
  5
2482D
  8
0
 10
254.621
 20
176.665
 30
0.0
 70
    32
  0
VERTEX
  5
2482E
  8
0
 10
254.645
 20
176.683
 30
0.0
 70
    32
  0
VERTEX
  5
2482F
  8
0
 10
254.668
 20
176.703
 30
0.0
 70
    32
  0
VERTEX
  5
24830
  8
0
 10
254.692
 20
176.723
 30
0.0
 70
    32
  0
VERTEX
  5
24831
  8
0
 10
254.714
 20
176.745
 30
0.0
 70
    32
  0
VERTEX
  5
24832
  8
0
 10
254.737
 20
176.768
 30
0.0
 70
    32
  0
VERTEX
  5
24833
  8
0
 10
254.759
 20
176.791
 30
0.0
 70
    32
  0
VERTEX
  5
24834
  8
0
 10
254.781
 20
176.815
 30
0.0
 70
    32
  0
VERTEX
  5
24835
  8
0
 10
254.803
 20
176.841
 30
0.0
 70
    32
  0
VERTEX
  5
24836
  8
0
 10
254.824
 20
176.867
 30
0.0
 70
    32
  0
VERTEX
  5
24837
  8
0
 10
254.845
 20
176.894
 30
0.0
 70
    32
  0
VERTEX
  5
24838
  8
0
 10
254.865
 20
176.922
 30
0.0
 70
    32
  0
VERTEX
  5
24839
  8
0
 10
254.885
 20
176.951
 30
0.0
 70
    32
  0
VERTEX
  5
2483A
  8
0
 10
254.904
 20
176.981
 30
0.0
 70
    32
  0
VERTEX
  5
2483B
  8
0
 10
254.924
 20
177.011
 30
0.0
 70
    32
  0
VERTEX
  5
2483C
  8
0
 10
254.942
 20
177.042
 30
0.0
 70
    32
  0
VERTEX
  5
2483D
  8
0
 10
254.96
 20
177.074
 30
0.0
 70
    32
  0
VERTEX
  5
2483E
  8
0
 10
254.978
 20
177.107
 30
0.0
 70
    32
  0
VERTEX
  5
2483F
  8
0
 10
254.996
 20
177.141
 30
0.0
 70
    32
  0
VERTEX
  5
24840
  8
0
 10
255.012
 20
177.175
 30
0.0
 70
    32
  0
VERTEX
  5
24841
  8
0
 10
255.029
 20
177.21
 30
0.0
 70
    32
  0
VERTEX
  5
24842
  8
0
 10
255.044
 20
177.246
 30
0.0
 70
    32
  0
VERTEX
  5
24843
  8
0
 10
255.06
 20
177.282
 30
0.0
 70
    32
  0
VERTEX
  5
24844
  8
0
 10
255.075
 20
177.319
 30
0.0
 70
    32
  0
VERTEX
  5
24845
  8
0
 10
255.089
 20
177.356
 30
0.0
 70
    32
  0
VERTEX
  5
24846
  8
0
 10
255.102
 20
177.394
 30
0.0
 70
    32
  0
VERTEX
  5
24847
  8
0
 10
255.116
 20
177.433
 30
0.0
 70
    32
  0
VERTEX
  5
24848
  8
0
 10
255.128
 20
177.472
 30
0.0
 70
    32
  0
VERTEX
  5
24849
  8
0
 10
255.14
 20
177.512
 30
0.0
 70
    32
  0
VERTEX
  5
2484A
  8
0
 10
255.152
 20
177.552
 30
0.0
 70
    32
  0
VERTEX
  5
2484B
  8
0
 10
255.162
 20
177.593
 30
0.0
 70
    32
  0
VERTEX
  5
2484C
  8
0
 10
255.173
 20
177.634
 30
0.0
 70
    32
  0
VERTEX
  5
2484D
  8
0
 10
255.182
 20
177.676
 30
0.0
 70
    32
  0
VERTEX
  5
2484E
  8
0
 10
255.192
 20
177.718
 30
0.0
 70
    32
  0
VERTEX
  5
2484F
  8
0
 10
255.2
 20
177.76
 30
0.0
 70
    32
  0
VERTEX
  5
24850
  8
0
 10
255.208
 20
177.803
 30
0.0
 70
    32
  0
VERTEX
  5
24851
  8
0
 10
255.215
 20
177.846
 30
0.0
 70
    32
  0
VERTEX
  5
24852
  8
0
 10
255.222
 20
177.889
 30
0.0
 70
    32
  0
VERTEX
  5
24853
  8
0
 10
255.228
 20
177.933
 30
0.0
 70
    32
  0
VERTEX
  5
24854
  8
0
 10
255.233
 20
177.977
 30
0.0
 70
    32
  0
VERTEX
  5
24855
  8
0
 10
255.238
 20
178.021
 30
0.0
 70
    32
  0
VERTEX
  5
24856
  8
0
 10
255.242
 20
178.065
 30
0.0
 70
    32
  0
VERTEX
  5
24857
  8
0
 10
255.246
 20
178.109
 30
0.0
 70
    32
  0
VERTEX
  5
24858
  8
0
 10
255.249
 20
178.154
 30
0.0
 70
    32
  0
VERTEX
  5
24859
  8
0
 10
255.251
 20
178.198
 30
0.0
 70
    32
  0
VERTEX
  5
2485A
  8
0
 10
255.252
 20
178.243
 30
0.0
 70
    32
  0
VERTEX
  5
2485B
  8
0
 10
255.253
 20
178.288
 30
0.0
 70
    32
  0
VERTEX
  5
2485C
  8
0
 10
255.254
 20
178.332
 30
0.0
 70
    32
  0
VERTEX
  5
2485D
  8
0
 10
255.253
 20
178.377
 30
0.0
 70
    32
  0
VERTEX
  5
2485E
  8
0
 10
255.252
 20
178.422
 30
0.0
 70
    32
  0
VERTEX
  5
2485F
  8
0
 10
255.251
 20
178.467
 30
0.0
 70
    32
  0
VERTEX
  5
24860
  8
0
 10
255.249
 20
178.511
 30
0.0
 70
    32
  0
VERTEX
  5
24861
  8
0
 10
255.246
 20
178.556
 30
0.0
 70
    32
  0
VERTEX
  5
24862
  8
0
 10
255.242
 20
178.6
 30
0.0
 70
    32
  0
VERTEX
  5
24863
  8
0
 10
255.238
 20
178.644
 30
0.0
 70
    32
  0
VERTEX
  5
24864
  8
0
 10
255.233
 20
178.688
 30
0.0
 70
    32
  0
VERTEX
  5
24865
  8
0
 10
255.228
 20
178.732
 30
0.0
 70
    32
  0
VERTEX
  5
24866
  8
0
 10
255.222
 20
178.776
 30
0.0
 70
    32
  0
VERTEX
  5
24867
  8
0
 10
255.215
 20
178.819
 30
0.0
 70
    32
  0
VERTEX
  5
24868
  8
0
 10
255.208
 20
178.862
 30
0.0
 70
    32
  0
VERTEX
  5
24869
  8
0
 10
255.2
 20
178.905
 30
0.0
 70
    32
  0
VERTEX
  5
2486A
  8
0
 10
255.192
 20
178.947
 30
0.0
 70
    32
  0
VERTEX
  5
2486B
  8
0
 10
255.182
 20
178.989
 30
0.0
 70
    32
  0
VERTEX
  5
2486C
  8
0
 10
255.173
 20
179.031
 30
0.0
 70
    32
  0
VERTEX
  5
2486D
  8
0
 10
255.162
 20
179.072
 30
0.0
 70
    32
  0
VERTEX
  5
2486E
  8
0
 10
255.152
 20
179.112
 30
0.0
 70
    32
  0
VERTEX
  5
2486F
  8
0
 10
255.14
 20
179.153
 30
0.0
 70
    32
  0
VERTEX
  5
24870
  8
0
 10
255.128
 20
179.192
 30
0.0
 70
    32
  0
VERTEX
  5
24871
  8
0
 10
255.116
 20
179.232
 30
0.0
 70
    32
  0
VERTEX
  5
24872
  8
0
 10
255.102
 20
179.27
 30
0.0
 70
    32
  0
VERTEX
  5
24873
  8
0
 10
255.089
 20
179.309
 30
0.0
 70
    32
  0
VERTEX
  5
24874
  8
0
 10
255.075
 20
179.346
 30
0.0
 70
    32
  0
VERTEX
  5
24875
  8
0
 10
255.06
 20
179.383
 30
0.0
 70
    32
  0
VERTEX
  5
24876
  8
0
 10
255.044
 20
179.419
 30
0.0
 70
    32
  0
VERTEX
  5
24877
  8
0
 10
255.029
 20
179.455
 30
0.0
 70
    32
  0
VERTEX
  5
24878
  8
0
 10
255.012
 20
179.49
 30
0.0
 70
    32
  0
VERTEX
  5
24879
  8
0
 10
254.996
 20
179.524
 30
0.0
 70
    32
  0
VERTEX
  5
2487A
  8
0
 10
254.978
 20
179.558
 30
0.0
 70
    32
  0
VERTEX
  5
2487B
  8
0
 10
254.96
 20
179.59
 30
0.0
 70
    32
  0
VERTEX
  5
2487C
  8
0
 10
254.942
 20
179.623
 30
0.0
 70
    32
  0
VERTEX
  5
2487D
  8
0
 10
254.924
 20
179.654
 30
0.0
 70
    32
  0
VERTEX
  5
2487E
  8
0
 10
254.904
 20
179.684
 30
0.0
 70
    32
  0
VERTEX
  5
2487F
  8
0
 10
254.885
 20
179.714
 30
0.0
 70
    32
  0
VERTEX
  5
24880
  8
0
 10
254.865
 20
179.743
 30
0.0
 70
    32
  0
VERTEX
  5
24881
  8
0
 10
254.845
 20
179.771
 30
0.0
 70
    32
  0
VERTEX
  5
24882
  8
0
 10
254.824
 20
179.798
 30
0.0
 70
    32
  0
VERTEX
  5
24883
  8
0
 10
254.803
 20
179.824
 30
0.0
 70
    32
  0
VERTEX
  5
24884
  8
0
 10
254.781
 20
179.849
 30
0.0
 70
    32
  0
VERTEX
  5
24885
  8
0
 10
254.759
 20
179.874
 30
0.0
 70
    32
  0
VERTEX
  5
24886
  8
0
 10
254.737
 20
179.897
 30
0.0
 70
    32
  0
VERTEX
  5
24887
  8
0
 10
254.714
 20
179.92
 30
0.0
 70
    32
  0
VERTEX
  5
24888
  8
0
 10
254.692
 20
179.941
 30
0.0
 70
    32
  0
VERTEX
  5
24889
  8
0
 10
254.668
 20
179.962
 30
0.0
 70
    32
  0
VERTEX
  5
2488A
  8
0
 10
254.645
 20
179.982
 30
0.0
 70
    32
  0
VERTEX
  5
2488B
  8
0
 10
254.621
 20
180.0
 30
0.0
 70
    32
  0
VERTEX
  5
2488C
  8
0
 10
254.597
 20
180.018
 30
0.0
 70
    32
  0
VERTEX
  5
2488D
  8
0
 10
254.573
 20
180.035
 30
0.0
 70
    32
  0
VERTEX
  5
2488E
  8
0
 10
254.549
 20
180.05
 30
0.0
 70
    32
  0
VERTEX
  5
2488F
  8
0
 10
254.524
 20
180.065
 30
0.0
 70
    32
  0
VERTEX
  5
24890
  8
0
 10
254.499
 20
180.078
 30
0.0
 70
    32
  0
VERTEX
  5
24891
  8
0
 10
254.474
 20
180.091
 30
0.0
 70
    32
  0
VERTEX
  5
24892
  8
0
 10
254.449
 20
180.102
 30
0.0
 70
    32
  0
VERTEX
  5
24893
  8
0
 10
254.423
 20
180.113
 30
0.0
 70
    32
  0
VERTEX
  5
24894
  8
0
 10
254.398
 20
180.122
 30
0.0
 70
    32
  0
VERTEX
  5
24895
  8
0
 10
254.372
 20
180.13
 30
0.0
 70
    32
  0
VERTEX
  5
24896
  8
0
 10
254.346
 20
180.137
 30
0.0
 70
    32
  0
VERTEX
  5
24897
  8
0
 10
254.32
 20
180.143
 30
0.0
 70
    32
  0
VERTEX
  5
24898
  8
0
 10
254.294
 20
180.148
 30
0.0
 70
    32
  0
VERTEX
  5
24899
  8
0
 10
254.268
 20
180.152
 30
0.0
 70
    32
  0
VERTEX
  5
2489A
  8
0
 10
254.242
 20
180.155
 30
0.0
 70
    32
  0
VERTEX
  5
2489B
  8
0
 10
254.216
 20
180.156
 30
0.0
 70
    32
  0
VERTEX
  5
2489C
  8
0
 10
254.19
 20
180.157
 30
0.0
 70
    32
  0
SEQEND
  5
2489D
  8
0
  0
ARC
  5
2459D
  8
0
  6
BYBLOCK
 62
     5
 10
530.891405
 20
264.759311
 30
0.0
 40
1.000388
 50
44.141159
 51
90.015432
  0
ARC
  5
2459E
  8
0
  6
BYBLOCK
 62
     5
 10
466.560261
 20
250.483852
 30
0.0
 40
1.000388
 50
134.141159
 51
180.015432
  0
ARC
  5
245A0
  8
0
  6
BYBLOCK
 62
     5
 10
545.166864
 20
200.428168
 30
0.0
 40
1.000388
 50
314.141159
 51
0.015432
  0
ARC
  5
245A1
  8
0
  6
BYBLOCK
 62
     5
 10
480.83572
 20
264.759311
 30
0.0
 40
1.000388
 50
89.984568
 51
135.858841
  0
ARC
  5
245A5
  8
0
  6
BYBLOCK
 62
     5
 10
466.560261
 20
200.428168
 30
0.0
 40
1.000388
 50
179.984568
 51
225.858841
  0
ARC
  5
245A6
  8
0
  6
BYBLOCK
 62
     5
 10
530.891405
 20
186.152709
 30
0.0
 40
1.000388
 50
269.984568
 51
315.858841
  0
ARC
  5
245A7
  8
0
  6
BYBLOCK
 62
     5
 10
545.166864
 20
250.483852
 30
0.0
 40
1.000388
 50
359.984568
 51
45.858841
  0
ARC
  5
245B2
  8
0
  6
BYBLOCK
 62
     5
 10
483.367099
 20
188.851097
 30
0.0
 40
4.728187
 50
225.887138
 51
240.487506
  0
ARC
  5
245B3
  8
0
  6
BYBLOCK
 62
     5
 10
480.406384
 20
182.563687
 30
0.0
 40
0.507735
 50
180.866318
 51
269.133682
  0
ARC
  5
245B6
  8
0
  6
BYBLOCK
 62
     5
 10
508.191573
 20
184.663271
 30
0.0
 40
0.494158
 50
89.378834
 51
180.448848
  0
ARC
  5
245B7
  8
0
  6
BYBLOCK
 62
     5
 10
529.778961
 20
193.11587
 30
0.0
 40
9.963001
 50
233.064484
 51
234.982534
  0
ARC
  5
245C0
  8
0
  6
BYBLOCK
 62
     5
 10
490.373142
 20
182.435406
 30
0.0
 40
0.08163
 50
221.421627
 51
256.564429
  0
ARC
  5
245C1
  8
0
  6
BYBLOCK
 62
     5
 10
491.48248
 20
183.521434
 30
0.0
 40
1.633972
 50
216.200028
 51
224.243329
  0
ARC
  5
245C2
  8
0
  6
BYBLOCK
 62
     5
 10
496.244645
 20
183.521434
 30
0.0
 40
1.633972
 50
315.756671
 51
323.799972
  0
ARC
  5
245C3
  8
0
  6
BYBLOCK
 62
     5
 10
497.353983
 20
182.435406
 30
0.0
 40
0.08163
 50
283.435571
 51
318.578373
  0
ARC
  5
245CD
  8
0
  6
BYBLOCK
 62
     5
 10
230.294037
 20
260.142496
 30
0.0
 40
2.401216
 50
167.872816
 51
176.325164
  0
ARC
  5
245CE
  8
0
  6
BYBLOCK
 62
     5
 10
231.058516
 20
260.253576
 30
0.0
 40
3.161048
 50
179.223774
 51
204.358837
  0
ARC
  5
245CF
  8
0
  6
BYBLOCK
 62
     5
 10
231.052172
 20
261.781643
 30
0.0
 40
3.154725
 50
155.615501
 51
180.803567
  0
ARC
  5
245D5
  8
0
  6
BYBLOCK
 62
     5
 10
230.294036
 20
261.891447
 30
0.0
 40
2.401224
 50
183.678244
 51
192.128205
  0
ARC
  5
245DE
  8
0
  6
BYBLOCK
 62
     5
 10
225.997553
 20
247.356027
 30
0.0
 40
2.203163
 50
150.746002
 51
182.01919
  0
ARC
  5
245DF
  8
0
  6
BYBLOCK
 62
     5
 10
225.181113
 20
247.342684
 30
0.0
 40
1.386846
 50
182.656776
 51
197.11345
  0
ARC
  5
245E0
  8
0
  6
BYBLOCK
 62
     5
 10
225.196216
 20
245.963729
 30
0.0
 40
1.402093
 50
162.960554
 51
177.2336
  0
ARC
  5
245E1
  8
0
  6
BYBLOCK
 62
     5
 10
225.995569
 20
245.952705
 30
0.0
 40
2.201219
 50
177.951189
 51
209.269293
  0
ARC
  5
245EB
  8
0
  6
BYBLOCK
 62
     5
 10
231.055766
 20
205.021363
 30
0.0
 40
3.158315
 50
155.629763
 51
180.797568
  0
ARC
  5
245EC
  8
0
  6
BYBLOCK
 62
     5
 10
230.214253
 20
205.121056
 30
0.0
 40
2.320946
 50
183.548611
 51
192.279495
  0
ARC
  5
245ED
  8
0
  6
BYBLOCK
 62
     5
 10
230.176847
 20
203.399043
 30
0.0
 40
2.283285
 50
167.649055
 51
176.525999
  0
ARC
  5
245EE
  8
0
  6
BYBLOCK
 62
     5
 10
231.063274
 20
203.495072
 30
0.0
 40
3.1658
 50
179.233901
 51
204.339958
  0
ARC
  5
245EF
  8
0
  6
BYBLOCK
 62
     5
 10
225.864254
 20
199.652806
 30
0.0
 40
0.575993
 50
318.666985
 51
359.692828
  0
ARC
  5
24601
  8
0
  6
BYBLOCK
 62
     5
 10
225.864254
 20
199.652806
 30
0.0
 40
0.575993
 50
318.666985
 51
359.692828
  0
ARC
  5
24602
  8
0
  6
BYBLOCK
 62
     5
 10
225.994611
 20
190.597192
 30
0.0
 40
2.200264
 50
150.724001
 51
182.052218
  0
ARC
  5
24603
  8
0
  6
BYBLOCK
 62
     5
 10
225.164085
 20
190.58029
 30
0.0
 40
1.369726
 50
182.589735
 51
197.207905
  0
ARC
  5
24604
  8
0
  6
BYBLOCK
 62
     5
 10
225.427713
 20
189.163953
 30
0.0
 40
1.635489
 50
163.988487
 51
176.233102
  0
ARC
  5
24605
  8
0
  6
BYBLOCK
 62
     5
 10
226.210017
 20
189.2451
 30
0.0
 40
2.414402
 50
179.375863
 51
207.855644
  0
POLYLINE
  5
24649
  8
0
  6
BYBLOCK
 62
     5
 66
     1
 10
0.0
 20
0.0
 30
0.0
 70
     2
  0
VERTEX
  5
2464A
  8
0
  6
BYBLOCK
 62
     5
 10
283.109973
 20
185.153498
 30
0.0
 42
-0.024139
  0
VERTEX
  5
2464B
  8
0
  6
BYBLOCK
 62
     5
 10
283.192382
 20
185.149814
 30
0.0
 42
-0.041431
 70
     1
  0
VERTEX
  5
2464C
  8
0
  6
BYBLOCK
 62
     5
 10
283.239758
 20
185.1414
 30
0.0
 42
-0.009856
  0
VERTEX
  5
2464D
  8
0
  6
BYBLOCK
 62
     5
 10
283.338355
 20
185.113231
 30
0.0
 42
-0.02299
 70
     1
  0
VERTEX
  5
2464E
  8
0
  6
BYBLOCK
 62
     5
 10
283.379758
 20
185.0984
 30
0.0
 42
-0.030621
  0
VERTEX
  5
2464F
  8
0
  6
BYBLOCK
 62
     5
 10
283.466008
 20
185.056612
 30
0.0
 42
-0.033314
 70
     1
  0
VERTEX
  5
24650
  8
0
  6
BYBLOCK
 62
     5
 10
283.539758
 20
185.0084
 30
0.0
 42
-0.021156
  0
VERTEX
  5
24651
  8
0
  6
BYBLOCK
 62
     5
 10
283.596398
 20
184.961853
 30
0.0
 42
-0.028198
 70
     1
  0
VERTEX
  5
24652
  8
0
  6
BYBLOCK
 62
     5
 10
283.635258
 20
184.9229
 30
0.0
 42
-0.020591
  0
VERTEX
  5
24653
  8
0
  6
BYBLOCK
 62
     5
 10
283.672075
 20
184.877986
 30
0.0
 42
-0.027538
 70
     1
  0
VERTEX
  5
24654
  8
0
  6
BYBLOCK
 62
     5
 10
283.696258
 20
184.8419
 30
0.0
 42
-0.022736
  0
VERTEX
  5
24655
  8
0
  6
BYBLOCK
 62
     5
 10
283.714631
 20
184.807444
 30
0.0
 42
-0.028815
 70
     1
  0
VERTEX
  5
24656
  8
0
  6
BYBLOCK
 62
     5
 10
283.726258
 20
184.7789
 30
0.0
 42
-0.029936
  0
VERTEX
  5
24657
  8
0
  6
BYBLOCK
 62
     5
 10
283.730764
 20
184.762575
 30
0.0
 42
-0.010549
 70
     1
  0
VERTEX
  5
24658
  8
0
  6
BYBLOCK
 62
     5
 10
283.739758
 20
184.7154
 30
0.0
 42
-0.045695
  0
VERTEX
  5
24659
  8
0
  6
BYBLOCK
 62
     5
 10
283.741646
 20
184.690583
 30
0.0
 42
-0.028147
 70
     1
  0
VERTEX
  5
2465A
  8
0
  6
BYBLOCK
 62
     5
 10
283.738758
 20
184.650333
 30
0.0
  0
SEQEND
  5
2465B
  8
0
  6
BYBLOCK
 62
     5
  0
POLYLINE
  5
2465C
  8
0
  6
BYBLOCK
 62
     5
 66
     1
 10
0.0
 20
0.0
 30
0.0
 70
     2
  0
VERTEX
  5
2465D
  8
0
  6
BYBLOCK
 62
     5
 10
283.99242
 20
185.443002
 30
0.0
 42
0.037043
  0
VERTEX
  5
2465E
  8
0
  6
BYBLOCK
 62
     5
 10
283.972507
 20
185.437934
 30
0.0
 42
0.077597
 70
     1
  0
VERTEX
  5
2465F
  8
0
  6
BYBLOCK
 62
     5
 10
283.963758
 20
185.4334
 30
0.0
 42
0.06723
  0
VERTEX
  5
24660
  8
0
  6
BYBLOCK
 62
     5
 10
283.936753
 20
185.407356
 30
0.0
 42
0.051902
 70
     1
  0
VERTEX
  5
24661
  8
0
  6
BYBLOCK
 62
     5
 10
283.910758
 20
185.3664
 30
0.0
 42
0.02641
  0
VERTEX
  5
24662
  8
0
  6
BYBLOCK
 62
     5
 10
283.875598
 20
185.285289
 30
0.0
 42
0.024483
 70
     1
  0
VERTEX
  5
24663
  8
0
  6
BYBLOCK
 62
     5
 10
283.846758
 20
185.1944
 30
0.0
 42
0.008177
  0
VERTEX
  5
24664
  8
0
  6
BYBLOCK
 62
     5
 10
283.830775
 20
185.129637
 30
0.0
 42
0.002215
 70
     1
  0
VERTEX
  5
24665
  8
0
  6
BYBLOCK
 62
     5
 10
283.776758
 20
184.8894
 30
0.0
 42
0.012899
  0
VERTEX
  5
24666
  8
0
  6
BYBLOCK
 62
     5
 10
283.761643
 20
184.811204
 30
0.0
 42
0.006517
 70
     1
  0
VERTEX
  5
24667
  8
0
  6
BYBLOCK
 62
     5
 10
283.737758
 20
184.6554
 30
0.0
  0
SEQEND
  5
24668
  8
0
  6
BYBLOCK
 62
     5
  0
POLYLINE
  5
24669
  8
0
  6
BYBLOCK
 62
     5
 66
     1
 10
0.0
 20
0.0
 30
0.0
 70
     2
  0
VERTEX
  5
2466A
  8
0
  6
BYBLOCK
 62
     5
 10
300.873621
 20
185.44621
 30
0.0
 42
0.059183
  0
VERTEX
  5
2466B
  8
0
  6
BYBLOCK
 62
     5
 10
300.908582
 20
185.444727
 30
0.0
 42
0.099447
 70
     1
  0
VERTEX
  5
2466C
  8
0
  6
BYBLOCK
 62
     5
 10
300.928758
 20
185.4504
 30
0.0
 42
0.009031
  0
VERTEX
  5
2466D
  8
0
  6
BYBLOCK
 62
     5
 10
300.951455
 20
185.462518
 30
0.0
 42
-0.015518
 70
     1
  0
VERTEX
  5
2466E
  8
0
  6
BYBLOCK
 62
     5
 10
300.964758
 20
185.4694
 30
0.0
 42
-0.005983
  0
VERTEX
  5
2466F
  8
0
  6
BYBLOCK
 62
     5
 10
300.998406
 20
185.485012
 30
0.0
 42
0.013028
 70
     1
  0
VERTEX
  5
24670
  8
0
  6
BYBLOCK
 62
     5
 10
301.013758
 20
185.4924
 30
0.0
 42
0.005463
  0
VERTEX
  5
24671
  8
0
  6
BYBLOCK
 62
     5
 10
301.02274
 20
185.497139
 30
0.0
 42
0.001249
 70
     1
  0
VERTEX
  5
24672
  8
0
  6
BYBLOCK
 62
     5
 10
301.061758
 20
185.5184
 30
0.0
 42
0.010939
  0
VERTEX
  5
24673
  8
0
  6
BYBLOCK
 62
     5
 10
301.097181
 20
185.538837
 30
0.0
 42
-0.009534
 70
     1
  0
VERTEX
  5
24674
  8
0
  6
BYBLOCK
 62
     5
 10
301.137758
 20
185.5624
 30
0.0
 42
-0.037622
  0
VERTEX
  5
24675
  8
0
  6
BYBLOCK
 62
     5
 10
301.161852
 20
185.573503
 30
0.0
 42
-0.035589
 70
     1
  0
VERTEX
  5
24676
  8
0
  6
BYBLOCK
 62
     5
 10
301.188758
 20
185.5814
 30
0.0
 42
-0.063662
  0
VERTEX
  5
24677
  8
0
  6
BYBLOCK
 62
     5
 10
301.207772
 20
185.583062
 30
0.0
 42
-0.038844
 70
     1
  0
VERTEX
  5
24678
  8
0
  6
BYBLOCK
 62
     5
 10
301.238758
 20
185.5794
 30
0.0
 42
-0.043413
  0
VERTEX
  5
24679
  8
0
  6
BYBLOCK
 62
     5
 10
301.277956
 20
185.568041
 30
0.0
 42
-0.037798
 70
     1
  0
VERTEX
  5
2467A
  8
0
  6
BYBLOCK
 62
     5
 10
301.320258
 20
185.5479
 30
0.0
 42
-0.024611
  0
VERTEX
  5
2467B
  8
0
  6
BYBLOCK
 62
     5
 10
301.37195
 20
185.514828
 30
0.0
 42
-0.024313
 70
     1
  0
VERTEX
  5
2467C
  8
0
  6
BYBLOCK
 62
     5
 10
301.420758
 20
185.4764
 30
0.0
 42
-0.013166
  0
VERTEX
  5
2467D
  8
0
  6
BYBLOCK
 62
     5
 10
301.472344
 20
185.429114
 30
0.0
 42
-0.017116
 70
     1
  0
VERTEX
  5
2467E
  8
0
  6
BYBLOCK
 62
     5
 10
301.509758
 20
185.3904
 30
0.0
 42
-0.01635
  0
VERTEX
  5
2467F
  8
0
  6
BYBLOCK
 62
     5
 10
301.544104
 20
185.349737
 30
0.0
 42
-0.017384
 70
     1
  0
VERTEX
  5
24680
  8
0
  6
BYBLOCK
 62
     5
 10
301.573758
 20
185.3094
 30
0.0
 42
-0.025593
  0
VERTEX
  5
24681
  8
0
  6
BYBLOCK
 62
     5
 10
301.600649
 20
185.26534
 30
0.0
 42
-0.030771
 70
     1
  0
VERTEX
  5
24682
  8
0
  6
BYBLOCK
 62
     5
 10
301.618758
 20
185.2264
 30
0.0
 42
-0.023311
  0
VERTEX
  5
24683
  8
0
  6
BYBLOCK
 62
     5
 10
301.624472
 20
185.209562
 30
0.0
 42
-0.009493
 70
     1
  0
VERTEX
  5
24684
  8
0
  6
BYBLOCK
 62
     5
 10
301.635758
 20
185.1674
 30
0.0
 42
-0.040737
  0
VERTEX
  5
24685
  8
0
  6
BYBLOCK
 62
     5
 10
301.639115
 20
185.146746
 30
0.0
 42
-0.024011
 70
     1
  0
VERTEX
  5
24686
  8
0
  6
BYBLOCK
 62
     5
 10
301.640239
 20
185.111302
 30
0.0
  0
SEQEND
  5
24687
  8
0
  6
BYBLOCK
 62
     5
  0
ARC
  5
246CD
  8
0
  6
BYBLOCK
 62
     5
 10
131.506056
 20
264.759145
 30
0.0
 40
1.000554
 50
4.938544
 51
89.970395
  0
ARC
  5
246CE
  8
0
  6
BYBLOCK
 62
     5
 10
145.782135
 20
250.483066
 30
0.0
 40
1.000554
 50
0.029605
 51
85.061456
  0
ARC
  5
246CF
  8
0
  6
BYBLOCK
 62
     5
 10
67.175865
 20
250.483066
 30
0.0
 40
1.000554
 50
94.938544
 51
179.970395
  0
ARC
  5
246D0
  8
0
  6
BYBLOCK
 62
     5
 10
81.451944
 20
264.759145
 30
0.0
 40
1.000554
 50
90.029605
 51
175.061456
  0
ARC
  5
246D1
  8
0
  6
BYBLOCK
 62
     5
 10
81.451944
 20
186.152875
 30
0.0
 40
1.000554
 50
184.938544
 51
260.046517
  0
ARC
  5
246D2
  8
0
  6
BYBLOCK
 62
     5
 10
67.175865
 20
200.428954
 30
0.0
 40
1.000554
 50
180.029605
 51
265.061456
  0
ARC
  5
246D3
  8
0
  6
BYBLOCK
 62
     5
 10
145.782135
 20
200.428954
 30
0.0
 40
1.000554
 50
274.938544
 51
359.970395
  0
ARC
  5
246DB
  8
0
  6
BYBLOCK
 62
     5
 10
171.89035
 20
181.069393
 30
0.0
 40
39.677542
 50
174.093652
 51
174.814603
  0
ARC
  5
246DC
  8
0
  6
BYBLOCK
 62
     5
 10
131.943792
 20
182.556073
 30
0.0
 40
0.500063
 50
270.007255
 51
359.992745
  0
ENDSEC
  0
EOF
