  0
SECTION
  2
HEADER
  9
$ACADVER
  1
AC1009
  9
$INSBASE
 10
0.0
 20
0.0
 30
0.0
  9
$EXTMIN
 10
-298.45974
 20
-128.36003
 30
0.0
  9
$EXTMAX
 10
349.84259
 20
246.2321
 30
0.0
  9
$LIMMIN
 10
0.0
 20
0.0
  9
$LIMMAX
 10
12.0
 20
9.0
  9
$ORTHOMODE
 70
     0
  9
$REGENMODE
 70
     1
  9
$FILLMODE
 70
     1
  9
$QTEXTMODE
 70
     0
  9
$MIRRTEXT
 70
     1
  9
$DRAGMODE
 70
     2
  9
$LTSCALE
 40
1.0
  9
$OSMODE
 70
     0
  9
$ATTMODE
 70
     1
  9
$TEXTSIZE
 40
0.2
  9
$TRACEWID
 40
0.05
  9
$TEXTSTYLE
  7
STANDARD
  9
$CLAYER
  8
0
  9
$CELTYPE
  6
CONTINUOUS
  9
$CECOLOR
 62
   256
  9
$DIMSCALE
 40
1.0
  9
$DIMASZ
 40
0.18
  9
$DIMEXO
 40
0.0625
  9
$DIMDLI
 40
0.38
  9
$DIMRND
 40
0.0
  9
$DIMDLE
 40
0.0
  9
$DIMEXE
 40
0.18
  9
$DIMTP
 40
0.0
  9
$DIMTM
 40
0.0
  9
$DIMTXT
 40
0.18
  9
$DIMCEN
 40
0.09
  9
$DIMTSZ
 40
0.0
  9
$DIMTOL
 70
     0
  9
$DIMLIM
 70
     0
  9
$DIMTIH
 70
     1
  9
$DIMTOH
 70
     1
  9
$DIMSE1
 70
     0
  9
$DIMSE2
 70
     0
  9
$DIMTAD
 70
     0
  9
$DIMZIN
 70
     0
  9
$DIMBLK
  1

  9
$DIMASO
 70
     1
  9
$DIMSHO
 70
     1
  9
$DIMPOST
  1

  9
$DIMAPOST
  1

  9
$DIMALT
 70
     0
  9
$DIMALTD
 70
     2
  9
$DIMALTF
 40
25.4
  9
$DIMLFAC
 40
1.0
  9
$DIMTOFL
 70
     0
  9
$DIMTVP
 40
0.0
  9
$DIMTIX
 70
     0
  9
$DIMSOXD
 70
     0
  9
$DIMSAH
 70
     0
  9
$DIMBLK1
  1

  9
$DIMBLK2
  1

  9
$DIMSTYLE
  2
STANDARD
  9
$DIMCLRD
 70
     0
  9
$DIMCLRE
 70
     0
  9
$DIMCLRT
 70
     0
  9
$DIMTFAC
 40
1.0
  9
$DIMGAP
 40
0.09
  9
$LUNITS
 70
     2
  9
$LUPREC
 70
     4
  9
$SKETCHINC
 40
0.1
  9
$FILLETRAD
 40
0.0
  9
$AUNITS
 70
     0
  9
$AUPREC
 70
     0
  9
$MENU
  1
.
  9
$ELEVATION
 40
0.0
  9
$PELEVATION
 40
0.0
  9
$THICKNESS
 40
0.0
  9
$LIMCHECK
 70
     0
  9
$BLIPMODE
 70
     0
  9
$CHAMFERA
 40
0.0
  9
$CHAMFERB
 40
0.0
  9
$SKPOLY
 70
     0
  9
$TDCREATE
 40
0.0
  9
$TDUPDATE
 40
0.0
  9
$TDINDWG
 40
0.0
  9
$TDUSRTIMER
 40
0.0
  9
$USRTIMER
 70
     1
  9
$ANGBASE
 50
0.0
  9
$ANGDIR
 70
     0
  9
$PDMODE
 70
     0
  9
$PDSIZE
 40
0.0
  9
$PLINEWID
 40
0.0
  9
$COORDS
 70
     1
  9
$SPLFRAME
 70
     0
  9
$SPLINETYPE
 70
     6
  9
$SPLINESEGS
 70
     8
  9
$ATTDIA
 70
     0
  9
$ATTREQ
 70
     1
  9
$HANDLING
 70
     1
  9
$HANDSEED
  5
1F8
  9
$SURFTAB1
 70
     6
  9
$SURFTAB2
 70
     6
  9
$SURFTYPE
 70
     6
  9
$SURFU
 70
     6
  9
$SURFV
 70
     6
  9
$UCSNAME
  2

  9
$UCSORG
 10
0.0
 20
0.0
 30
0.0
  9
$UCSXDIR
 10
1.0
 20
0.0
 30
0.0
  9
$UCSYDIR
 10
0.0
 20
1.0
 30
0.0
  9
$PUCSNAME
  2

  9
$PUCSORG
 10
0.0
 20
0.0
 30
0.0
  9
$PUCSXDIR
 10
1.0
 20
0.0
 30
0.0
  9
$PUCSYDIR
 10
0.0
 20
1.0
 30
0.0
  9
$USERI1
 70
     0
  9
$USERI2
 70
     0
  9
$USERI3
 70
     0
  9
$USERI4
 70
     0
  9
$USERI5
 70
     0
  9
$USERR1
 40
0.0
  9
$USERR2
 40
0.0
  9
$USERR3
 40
0.0
  9
$USERR4
 40
0.0
  9
$USERR5
 40
0.0
  9
$WORLDVIEW
 70
     1
  9
$SHADEDGE
 70
     3
  9
$SHADEDIF
 70
    70
  9
$TILEMODE
 70
     1
  9
$MAXACTVP
 70
    48
  9
$PLIMCHECK
 70
     0
  9
$PEXTMIN
 10
1.000000E+020
 20
1.000000E+020
 30
1.000000E+020
  9
$PEXTMAX
 10
-1.000000E+020
 20
-1.000000E+020
 30
-1.000000E+020
  9
$PLIMMIN
 10
0.0
 20
0.0
  9
$PLIMMAX
 10
12.0
 20
9.0
  9
$UNITMODE
 70
     0
  9
$VISRETAIN
 70
     1
  9
$PLINEGEN
 70
     0
  9
$PSLTSCALE
 70
     1
  0
ENDSEC
  0
SECTION
  2
TABLES
  0
TABLE
  2
VPORT
 70
     2
  0
VPORT
  2
*ACTIVE
 70
     0
 10
0.0
 20
0.0
 11
1.0
 21
1.0
 12
25.691427
 22
47.458416
 13
0.0
 23
0.0
 14
1.0
 24
1.0
 15
0.0
 25
0.0
 16
0.0
 26
0.0
 36
1.0
 17
0.0
 27
0.0
 37
0.0
 40
451.453007
 41
1.633784
 42
50.0
 43
0.0
 44
0.0
 50
0.0
 51
0.0
 71
     0
 72
   100
 73
     1
 74
     1
 75
     0
 76
     0
 77
     0
 78
     0
  0
ENDTAB
  0
TABLE
  2
LTYPE
 70
     5
  0
LTYPE
  2
CONTINUOUS
 70
     0
  3
Solid line
 72
    65
 73
     0
 40
0.0
  0
LTYPE
  2
DASHED
 70
     0
  3
__ __ __ __ __ __ __ __ __ __ __ __ __ __ __
 72
    65
 73
     2
 40
3.5
 49
2.0
 49
-1.5
  0
LTYPE
  2
CENTER
 70
     0
  3
____ _ ____ _ ____ _ ____ _ ____ _ ____ _ ____
 72
    65
 73
     4
 40
17.5
 49
13.0
 49
-1.5
 49
1.5
 49
-1.5
  0
LTYPE
  2
PHANTOM
 70
     0
  3
_____ _ _ _____ _ _ _____ _ _ _____ _ _ ____  
 72
    65
 73
     6
 40
15.5
 49
8.0
 49
-1.5
 49
1.5
 49
-1.5
 49
1.5
 49
-1.5
  0
LTYPE
  2
DOT
 70
     0
  3
. . . . . . . . . . . . . . . . . . . . . . . .
 72
    65
 73
     2
 40
0.25
 49
0.0
 49
-0.25
  0
ENDTAB
  0
TABLE
  2
LAYER
 70
     1
  0
LAYER
  2
0
 70
     0
 62
     7
  6
CONTINUOUS
  0
ENDTAB
  0
TABLE
  2
STYLE
 70
     1
  0
STYLE
  2
STANDARD
 70
     0
 40
0.0
 41
1.0
 50
0.0
 71
     0
 42
0.2
  3
txt
  4

  0
ENDTAB
  0
TABLE
  2
VIEW
 70
     0
  0
ENDTAB
  0
TABLE
  2
UCS
 70
     0
  0
ENDTAB
  0
TABLE
  2
APPID
 70
     1
  0
APPID
  2
ACAD
 70
     0
  0
ENDTAB
  0
TABLE
  2
DIMSTYLE
 70
     1
  0
DIMSTYLE
  2
STANDARD
 70
     0
  3

  4

  5

  6

  7

 40
1.0
 41
0.18
 42
0.0625
 43
0.38
 44
0.18
 45
0.0
 46
0.0
 47
0.0
 48
0.0
140
0.18
141
0.09
142
0.0
143
25.4
144
1.0
145
0.0
146
1.0
147
0.09
 71
     0
 72
     0
 73
     1
 74
     1
 75
     0
 76
     0
 77
     0
 78
     0
170
     0
171
     2
172
     0
173
     0
174
     0
175
     0
176
     0
177
     0
178
     0
  0
ENDTAB
  0
ENDSEC
  0
SECTION
  2
BLOCKS
  0
BLOCK
  8
0
  2
$MODEL_SPACE
 70
     0
 10
0.0
 20
0.0
 30
0.0
  3
$MODEL_SPACE
  1

  0
ENDBLK
  5
1A
  8
0
  0
BLOCK
 67
     1
  8
0
  2
$PAPER_SPACE
 70
     0
 10
0.0
 20
0.0
 30
0.0
  3
$PAPER_SPACE
  1

  0
ENDBLK
  5
17
 67
     1
  8
0
  0
ENDSEC
  0
SECTION
  2
ENTITIES
  0
POINT
  5
23
  8
0
  6
CONTINUOUS
 62
     3
 10
-25.086872
 20
25.024181
 30
0.0
  0
POINT
  5
24
  8
0
  6
CONTINUOUS
 62
     3
 10
-25.086872
 20
-25.186749
 30
0.0
  0
POINT
  5
25
  8
0
  6
CONTINUOUS
 62
     3
 10
-265.1741
 20
24.918716
 30
0.0
  0
POINT
  5
26
  8
0
  6
CONTINUOUS
 62
     3
 10
-265.1741
 20
24.918716
 30
0.0
  0
POINT
  5
27
  8
0
  6
CONTINUOUS
 62
     3
 10
-265.1741
 20
-25.081284
 30
0.0
  0
POINT
  5
28
  8
0
  6
CONTINUOUS
 62
     3
 10
-265.1741
 20
-25.081284
 30
0.0
  0
POINT
  5
29
  8
0
  6
CONTINUOUS
 62
     3
 10
-149.17409
 20
24.918716
 30
0.0
  0
POINT
  5
2A
  8
0
  6
CONTINUOUS
 62
     3
 10
-149.17409
 20
24.918716
 30
0.0
  0
POINT
  5
2B
  8
0
  6
CONTINUOUS
 62
     3
 10
-149.17409
 20
-25.081284
 30
0.0
  0
POINT
  5
2C
  8
0
  6
CONTINUOUS
 62
     3
 10
-149.17409
 20
-25.081284
 30
0.0
  0
POINT
  5
2D
  8
0
  6
CONTINUOUS
 62
     3
 10
-182.17409
 20
-58.081284
 30
0.0
  0
POINT
  5
2E
  8
0
  6
CONTINUOUS
 62
     3
 10
-182.17409
 20
-58.081284
 30
0.0
  0
POINT
  5
2F
  8
0
  6
CONTINUOUS
 62
     3
 10
-232.17409
 20
-58.081284
 30
0.0
  0
POINT
  5
30
  8
0
  6
CONTINUOUS
 62
     3
 10
-232.17409
 20
-58.081284
 30
0.0
  0
POINT
  5
31
  8
0
  6
CONTINUOUS
 62
     3
 10
-182.17409
 20
57.918716
 30
0.0
  0
POINT
  5
32
  8
0
  6
CONTINUOUS
 62
     3
 10
-182.17409
 20
57.918716
 30
0.0
  0
POINT
  5
33
  8
0
  6
CONTINUOUS
 62
     3
 10
-232.17409
 20
57.918716
 30
0.0
  0
POINT
  5
34
  8
0
  6
CONTINUOUS
 62
     3
 10
-232.17409
 20
57.918716
 30
0.0
  0
POINT
  5
35
  8
0
  6
CONTINUOUS
 62
     3
 10
-214.6601
 20
-66.461678
 30
0.0
  0
POINT
  5
36
  8
0
  6
CONTINUOUS
 62
     3
 10
-214.6601
 20
-66.461678
 30
0.0
  0
POINT
  5
37
  8
0
  6
CONTINUOUS
 62
     3
 10
-199.68764
 20
-66.461678
 30
0.0
  0
POINT
  5
38
  8
0
  6
CONTINUOUS
 62
     3
 10
-199.68764
 20
-66.461678
 30
0.0
  0
POINT
  5
39
  8
0
  6
CONTINUOUS
 62
     7
 10
-193.76996
 20
-70.535301
 30
0.0
  0
POINT
  5
3A
  8
0
  6
CONTINUOUS
 62
     7
 10
-220.60535
 20
-70.535301
 30
0.0
  0
POINT
  5
3B
  8
0
  6
CONTINUOUS
 62
     7
 10
-138.61296
 20
-0.081283
 30
0.0
  0
POINT
  5
3C
  8
0
  6
CONTINUOUS
 62
     7
 10
-194.79002
 20
-71.561661
 30
0.0
  0
POINT
  5
3D
  8
0
  6
CONTINUOUS
 62
     7
 10
-14.797247
 20
-94.519432
 30
0.0
  0
POINT
  5
3E
  8
0
  6
CONTINUOUS
 62
     7
 10
55.202751
 20
-62.081284
 30
0.0
  0
LINE
  5
3F
  8
0
  6
CONTINUOUS
 62
     3
 10
62.702751
 20
-10.081283
 30
0.0
 11
62.702751
 21
9.918717
 31
0.0
  0
LINE
  5
40
  8
0
  6
CONTINUOUS
 62
     3
 10
62.702751
 20
-9.581283
 30
0.0
 11
95.202751
 21
-9.581283
 31
0.0
  0
LINE
  5
41
  8
0
  6
CONTINUOUS
 62
     3
 10
62.702751
 20
9.418717
 30
0.0
 11
95.202751
 21
9.418717
 31
0.0
  0
LINE
  5
42
  8
0
  6
CONTINUOUS
 62
     3
 10
61.202751
 20
-10.081283
 30
0.0
 11
62.702751
 21
-10.081283
 31
0.0
  0
LINE
  5
43
  8
0
  6
CONTINUOUS
 62
     3
 10
61.202751
 20
9.918717
 30
0.0
 11
62.702751
 21
9.918717
 31
0.0
  0
LINE
  5
44
  8
0
  6
CONTINUOUS
 62
     3
 10
0.852753
 20
-76.581284
 30
0.0
 11
0.852753
 21
-79.902573
 31
0.0
  0
LINE
  5
45
  8
0
  6
CONTINUOUS
 62
     3
 10
-1.447247
 20
-76.581284
 30
0.0
 11
-1.447247
 21
-79.902573
 31
0.0
  0
LINE
  5
46
  8
0
  6
CONTINUOUS
 62
     4
 10
-0.297247
 20
-61.392162
 30
0.0
 11
-0.297247
 21
-80.706787
 31
0.0
  0
LINE
  5
47
  8
0
  6
CONTINUOUS
 62
     3
 10
-4.747247
 20
-76.581284
 30
0.0
 11
4.152753
 21
-76.581284
 31
0.0
  0
LINE
  5
48
  8
0
  6
CONTINUOUS
 62
     3
 10
4.902753
 20
-62.081284
 30
0.0
 11
4.902753
 21
-64.081284
 31
0.0
  0
LINE
  5
49
  8
0
  6
CONTINUOUS
 62
     3
 10
4.402753
 20
-64.581284
 30
0.0
 11
-5.397247
 21
-64.581284
 31
0.0
  0
LINE
  5
4A
  8
0
  6
CONTINUOUS
 62
     3
 10
-5.897247
 20
-62.081284
 30
0.0
 11
-5.897247
 21
-64.081284
 31
0.0
  0
LINE
  5
4B
  8
0
  6
CONTINUOUS
 62
     3
 10
281.15518
 20
-116.30096
 30
0.0
 11
281.15518
 21
-111.42596
 31
0.0
  0
LINE
  5
4C
  8
0
  6
CONTINUOUS
 62
     3
 10
281.83017
 20
-116.30096
 30
0.0
 11
281.83017
 21
-111.42596
 31
0.0
  0
LINE
  5
4D
  8
0
  6
CONTINUOUS
 62
     3
 10
281.89246
 20
-116.30096
 30
0.0
 11
284.38016
 21
-116.30096
 31
0.0
  0
LINE
  5
4E
  8
0
  6
CONTINUOUS
 62
     3
 10
284.38016
 20
-116.30096
 30
0.0
 11
284.38016
 21
-111.42596
 31
0.0
  0
LINE
  5
4F
  8
0
  6
CONTINUOUS
 62
     3
 10
278.61615
 20
-116.30096
 30
0.0
 11
281.14246
 21
-116.30096
 31
0.0
  0
LINE
  5
50
  8
0
  6
CONTINUOUS
 62
     3
 10
285.13016
 20
-111.42596
 30
0.0
 11
274.63016
 21
-111.42596
 31
0.0
  0
LINE
  5
51
  8
0
  6
CONTINUOUS
 62
     3
 10
278.60516
 20
-116.30096
 30
0.0
 11
278.60516
 21
-111.42596
 31
0.0
  0
LINE
  5
52
  8
0
  6
CONTINUOUS
 62
     3
 10
277.93018
 20
-116.30096
 30
0.0
 11
277.93018
 21
-111.42596
 31
0.0
  0
LINE
  5
53
  8
0
  6
CONTINUOUS
 62
     3
 10
275.38016
 20
-116.30096
 30
0.0
 11
277.86615
 21
-116.30096
 31
0.0
  0
LINE
  5
54
  8
0
  6
CONTINUOUS
 62
     3
 10
275.38016
 20
-116.30096
 30
0.0
 11
275.38016
 21
-111.42596
 31
0.0
  0
LINE
  5
55
  8
0
  6
CONTINUOUS
 62
     3
 10
286.63016
 20
-106.47597
 30
0.0
 11
286.63016
 21
-103.15884
 31
0.0
  0
LINE
  5
56
  8
0
  6
CONTINUOUS
 62
     3
 10
286.41049
 20
-102.62852
 30
0.0
 11
284.22485
 21
-100.44286
 31
0.0
  0
LINE
  5
57
  8
0
  6
CONTINUOUS
 62
     3
 10
285.13016
 20
-111.42596
 30
0.0
 11
285.13016
 21
-106.55096
 31
0.0
  0
LINE
  5
58
  8
0
  6
CONTINUOUS
 62
     3
 10
273.20517
 20
-106.55096
 30
0.0
 11
286.55518
 21
-106.55096
 31
0.0
  0
LINE
  5
59
  8
0
  6
CONTINUOUS
 62
     3
 10
273.34985
 20
-102.62852
 30
0.0
 11
275.53549
 21
-100.44286
 31
0.0
  0
LINE
  5
5A
  8
0
  6
CONTINUOUS
 62
     3
 10
273.13016
 20
-106.47597
 30
0.0
 11
273.13016
 21
-103.15884
 31
0.0
  0
LINE
  5
5B
  8
0
  6
CONTINUOUS
 62
     3
 10
274.63016
 20
-111.42596
 30
0.0
 11
274.63016
 21
-106.55096
 31
0.0
  0
LINE
  5
5C
  8
0
  6
CENTER
 62
     4
 10
279.99002
 20
-115.77859
 30
0.0
 11
279.99002
 21
70.219177
 31
0.0
  0
LINE
  5
5D
  8
0
  6
CONTINUOUS
 62
     3
 10
284.00516
 20
-99.912521
 30
0.0
 11
284.00516
 21
-91.840355
 31
0.0
  0
LINE
  5
5E
  8
0
  6
CONTINUOUS
 62
     3
 10
283.25516
 20
-91.090355
 30
0.0
 11
276.50516
 21
-91.090355
 31
0.0
  0
LINE
  5
5F
  8
0
  6
CONTINUOUS
 62
     3
 10
275.75516
 20
-91.840355
 30
0.0
 11
275.75516
 21
-99.912521
 31
0.0
  0
LINE
  5
60
  8
0
  6
CONTINUOUS
 62
     3
 10
283.49002
 20
-91.090355
 30
0.0
 11
283.49002
 21
-85.898521
 31
0.0
  0
LINE
  5
61
  8
0
  6
CONTINUOUS
 62
     3
 10
276.49002
 20
-91.090355
 30
0.0
 11
276.49002
 21
-85.898521
 31
0.0
  0
LINE
  5
62
  8
0
  6
CONTINUOUS
 62
     3
 10
281.19
 20
-76.080589
 30
0.0
 11
281.19
 21
-78.420067
 31
0.0
  0
LINE
  5
63
  8
0
  6
CONTINUOUS
 62
     3
 10
286.99002
 20
-76.080589
 30
0.0
 11
286.99002
 21
-78.420067
 31
0.0
  0
LINE
  5
64
  8
0
  6
CONTINUOUS
 62
     3
 10
285.29001
 20
-76.080589
 30
0.0
 11
285.29001
 21
-78.420067
 31
0.0
  0
LINE
  5
65
  8
0
  6
CONTINUOUS
 62
     3
 10
282.89001
 20
-76.080589
 30
0.0
 11
282.89001
 21
-78.420067
 31
0.0
  0
LINE
  5
66
  8
0
  6
CONTINUOUS
 62
     3
 10
283.49002
 20
-76.081284
 30
0.0
 11
283.48999
 21
-83.721748
 31
0.0
  0
LINE
  5
67
  8
0
  6
CONTINUOUS
 62
     3
 10
292.49002
 20
-61.581284
 30
0.0
 11
292.49002
 21
-63.581284
 31
0.0
  0
LINE
  5
68
  8
0
  6
CONTINUOUS
 62
     3
 10
267.49002
 20
-61.581284
 30
0.0
 11
267.49002
 21
-63.581284
 31
0.0
  0
LINE
  5
69
  8
0
  6
CONTINUOUS
 62
     3
 10
291.99002
 20
-64.081284
 30
0.0
 11
267.99002
 21
-64.081284
 31
0.0
  0
LINE
  5
6A
  8
0
  6
CONTINUOUS
 62
     3
 10
270.49002
 20
-76.081284
 30
0.0
 11
289.49002
 21
-76.081284
 31
0.0
  0
LINE
  5
6B
  8
0
  6
CONTINUOUS
 62
     3
 10
274.69
 20
-76.080589
 30
0.0
 11
274.69
 21
-78.420067
 31
0.0
  0
LINE
  5
6C
  8
0
  6
CONTINUOUS
 62
     3
 10
272.99002
 20
-76.080589
 30
0.0
 11
272.99002
 21
-78.420067
 31
0.0
  0
LINE
  5
6D
  8
0
  6
CONTINUOUS
 62
     3
 10
277.09
 20
-76.080589
 30
0.0
 11
277.09
 21
-78.420067
 31
0.0
  0
LINE
  5
6E
  8
0
  6
CONTINUOUS
 62
     3
 10
278.79001
 20
-76.080589
 30
0.0
 11
278.79001
 21
-78.420067
 31
0.0
  0
LINE
  5
6F
  8
0
  6
CONTINUOUS
 62
     3
 10
276.49002
 20
-76.081284
 30
0.0
 11
276.48999
 21
-83.721741
 31
0.0
  0
LINE
  5
70
  8
0
  6
CENTER
 62
     4
 10
-18.538218
 20
24.918716
 30
0.0
 11
-32.038422
 21
24.918716
 31
0.0
  0
LINE
  5
71
  8
0
  6
CONTINUOUS
 62
     3
 10
-24.577286
 20
28.024181
 30
0.0
 11
-23.086872
 21
28.024181
 31
0.0
  0
LINE
  5
72
  8
0
  6
CONTINUOUS
 62
     3
 10
-28.589714
 20
28.518717
 30
0.0
 11
-23.097246
 21
28.518717
 31
0.0
  0
LINE
  5
73
  8
0
  6
CONTINUOUS
 62
     3
 10
-23.097246
 20
28.518717
 30
0.0
 11
-23.097246
 21
21.318716
 31
0.0
  0
LINE
  5
74
  8
0
  6
CONTINUOUS
 62
     3
 10
-25.077286
 20
22.524181
 30
0.0
 11
-25.077286
 21
27.524181
 31
0.0
  0
LINE
  5
75
  8
0
  6
CONTINUOUS
 62
     3
 10
-24.577286
 20
22.024181
 30
0.0
 11
-23.086872
 21
22.024181
 31
0.0
  0
LINE
  5
76
  8
0
  6
CONTINUOUS
 62
     3
 10
-25.086872
 20
27.774181
 30
0.0
 11
-25.825993
 21
27.774181
 31
0.0
  0
LINE
  5
77
  8
0
  6
CONTINUOUS
 62
     3
 10
-25.086872
 20
22.274181
 30
0.0
 11
-25.825993
 21
22.274181
 31
0.0
  0
LINE
  5
78
  8
0
  6
CONTINUOUS
 62
     3
 10
-25.086872
 20
27.774181
 30
0.0
 11
-25.086872
 21
22.274181
 31
0.0
  0
LINE
  5
79
  8
0
  6
CONTINUOUS
 62
     3
 10
-28.698675
 20
21.318716
 30
0.0
 11
-23.097246
 21
21.318716
 31
0.0
  0
LINE
  5
7A
  8
0
  6
CENTER
 62
     4
 10
-26.841887
 20
-25.081284
 30
0.0
 11
-20.405094
 21
-25.081284
 31
0.0
  0
LINE
  5
7B
  8
0
  6
CONTINUOUS
 62
     3
 10
-25.077286
 20
-22.686747
 30
0.0
 11
-25.077286
 21
-27.686747
 31
0.0
  0
LINE
  5
7C
  8
0
  6
CONTINUOUS
 62
     3
 10
-24.577286
 20
-22.186747
 30
0.0
 11
-23.086872
 21
-22.186747
 31
0.0
  0
LINE
  5
7D
  8
0
  6
CONTINUOUS
 62
     3
 10
-24.577286
 20
-28.186747
 30
0.0
 11
-23.086872
 21
-28.186747
 31
0.0
  0
LINE
  5
7E
  8
0
  6
CONTINUOUS
 62
     3
 10
-25.086872
 20
-27.936747
 30
0.0
 11
-25.825993
 21
-27.936747
 31
0.0
  0
LINE
  5
7F
  8
0
  6
CONTINUOUS
 62
     3
 10
-25.086872
 20
-22.436747
 30
0.0
 11
-25.825993
 21
-22.436747
 31
0.0
  0
LINE
  5
80
  8
0
  6
CONTINUOUS
 62
     3
 10
-25.086872
 20
-27.936747
 30
0.0
 11
-25.086872
 21
-22.436747
 31
0.0
  0
LINE
  5
81
  8
0
  6
CONTINUOUS
 62
     3
 10
-23.097246
 20
-28.681284
 30
0.0
 11
-23.097246
 21
-21.481283
 31
0.0
  0
LINE
  5
82
  8
0
  6
CONTINUOUS
 62
     3
 10
-28.589714
 20
-28.681284
 30
0.0
 11
-23.097246
 21
-28.681284
 31
0.0
  0
LINE
  5
83
  8
0
  6
CONTINUOUS
 62
     3
 10
-28.698675
 20
-21.481283
 30
0.0
 11
-23.097246
 21
-21.481283
 31
0.0
  0
LINE
  5
84
  8
0
  6
CENTER
 62
     4
 10
-18.538218
 20
-25.081284
 30
0.0
 11
-33.033451
 21
-25.081284
 31
0.0
  0
LINE
  5
85
  8
0
  6
CENTER
 62
     4
 10
-270.6741
 20
24.918716
 30
0.0
 11
-259.6741
 21
24.918716
 31
0.0
  0
LINE
  5
86
  8
0
  6
CENTER
 62
     4
 10
-270.6741
 20
24.918716
 30
0.0
 11
-259.6741
 21
24.918716
 31
0.0
  0
LINE
  5
87
  8
0
  6
CENTER
 62
     4
 10
-270.6741
 20
24.918716
 30
0.0
 11
-259.6741
 21
24.918716
 31
0.0
  0
LINE
  5
88
  8
0
  6
CENTER
 62
     4
 10
-270.6741
 20
24.918716
 30
0.0
 11
-259.6741
 21
24.918716
 31
0.0
  0
LINE
  5
89
  8
0
  6
CONTINUOUS
 62
     2
 10
-266.41153
 20
26.156151
 30
0.0
 11
-263.93665
 21
23.681284
 31
0.0
  0
LINE
  5
8A
  8
0
  6
CONTINUOUS
 62
     2
 10
-266.41153
 20
23.681278
 30
0.0
 11
-263.93665
 21
26.156157
 31
0.0
  0
LINE
  5
8B
  8
0
  6
CONTINUOUS
 62
     3
 10
-265.1741
 20
21.318716
 30
0.0
 11
-267.25693
 21
21.318716
 31
0.0
  0
LINE
  5
8C
  8
0
  6
CONTINUOUS
 62
     3
 10
-265.1741
 20
28.518717
 30
0.0
 11
-266.79541
 21
28.518717
 31
0.0
  0
LINE
  5
8D
  8
0
  6
CENTER
 62
     4
 10
-265.1741
 20
30.418716
 30
0.0
 11
-265.1741
 21
19.418716
 31
0.0
  0
LINE
  5
8E
  8
0
  6
CENTER
 62
     4
 10
-270.6741
 20
-25.081284
 30
0.0
 11
-259.6741
 21
-25.081284
 31
0.0
  0
LINE
  5
8F
  8
0
  6
CENTER
 62
     4
 10
-270.6741
 20
-25.081284
 30
0.0
 11
-259.6741
 21
-25.081284
 31
0.0
  0
LINE
  5
90
  8
0
  6
CENTER
 62
     4
 10
-270.6741
 20
-25.081284
 30
0.0
 11
-259.6741
 21
-25.081284
 31
0.0
  0
LINE
  5
91
  8
0
  6
CENTER
 62
     4
 10
-270.6741
 20
-25.081284
 30
0.0
 11
-259.6741
 21
-25.081284
 31
0.0
  0
LINE
  5
92
  8
0
  6
CONTINUOUS
 62
     2
 10
-266.41153
 20
-26.318716
 30
0.0
 11
-263.93665
 21
-23.843849
 31
0.0
  0
LINE
  5
93
  8
0
  6
CONTINUOUS
 62
     2
 10
-266.41153
 20
-23.843843
 30
0.0
 11
-263.93665
 21
-26.318722
 31
0.0
  0
LINE
  5
94
  8
0
  6
CONTINUOUS
 62
     3
 10
-265.1741
 20
-21.481283
 30
0.0
 11
-267.25693
 21
-21.481283
 31
0.0
  0
LINE
  5
95
  8
0
  6
CONTINUOUS
 62
     3
 10
-265.1741
 20
-28.681284
 30
0.0
 11
-266.79541
 21
-28.681284
 31
0.0
  0
LINE
  5
96
  8
0
  6
CENTER
 62
     4
 10
-265.1741
 20
-30.581284
 30
0.0
 11
-265.1741
 21
-19.581284
 31
0.0
  0
LINE
  5
97
  8
0
  6
CENTER
 62
     4
 10
-149.17409
 20
-30.581284
 30
0.0
 11
-149.17409
 21
-19.581284
 31
0.0
  0
LINE
  5
98
  8
0
  6
CENTER
 62
     4
 10
-149.17409
 20
30.418716
 30
0.0
 11
-149.17409
 21
19.418716
 31
0.0
  0
LINE
  5
99
  8
0
  6
CENTER
 62
     4
 10
-143.67409
 20
24.918716
 30
0.0
 11
-154.67409
 21
24.918716
 31
0.0
  0
LINE
  5
9A
  8
0
  6
CENTER
 62
     4
 10
-143.67409
 20
24.918716
 30
0.0
 11
-154.67409
 21
24.918716
 31
0.0
  0
LINE
  5
9B
  8
0
  6
CENTER
 62
     4
 10
-143.67409
 20
24.918716
 30
0.0
 11
-154.67409
 21
24.918716
 31
0.0
  0
LINE
  5
9C
  8
0
  6
CENTER
 62
     4
 10
-143.67409
 20
24.918716
 30
0.0
 11
-154.67409
 21
24.918716
 31
0.0
  0
LINE
  5
9D
  8
0
  6
CONTINUOUS
 62
     2
 10
-147.93666
 20
26.156151
 30
0.0
 11
-150.41153
 21
23.681284
 31
0.0
  0
LINE
  5
9E
  8
0
  6
CONTINUOUS
 62
     2
 10
-147.93666
 20
23.681278
 30
0.0
 11
-150.41153
 21
26.156157
 31
0.0
  0
LINE
  5
9F
  8
0
  6
CONTINUOUS
 62
     3
 10
-149.17409
 20
21.318716
 30
0.0
 11
-147.09126
 21
21.318716
 31
0.0
  0
LINE
  5
A0
  8
0
  6
CONTINUOUS
 62
     3
 10
-149.17409
 20
28.518717
 30
0.0
 11
-147.55278
 21
28.518717
 31
0.0
  0
LINE
  5
A1
  8
0
  6
CONTINUOUS
 62
     2
 10
-147.93666
 20
-26.318716
 30
0.0
 11
-150.41153
 21
-23.843849
 31
0.0
  0
LINE
  5
A2
  8
0
  6
CONTINUOUS
 62
     2
 10
-147.93666
 20
-23.843843
 30
0.0
 11
-150.41153
 21
-26.318722
 31
0.0
  0
LINE
  5
A3
  8
0
  6
CENTER
 62
     4
 10
-143.67409
 20
-25.081284
 30
0.0
 11
-154.67409
 21
-25.081284
 31
0.0
  0
LINE
  5
A4
  8
0
  6
CENTER
 62
     4
 10
-143.67409
 20
-25.081284
 30
0.0
 11
-154.67409
 21
-25.081284
 31
0.0
  0
LINE
  5
A5
  8
0
  6
CONTINUOUS
 62
     3
 10
-149.17409
 20
-21.481283
 30
0.0
 11
-147.09126
 21
-21.481283
 31
0.0
  0
LINE
  5
A6
  8
0
  6
CONTINUOUS
 62
     3
 10
-149.17409
 20
-28.681284
 30
0.0
 11
-147.55278
 21
-28.681284
 31
0.0
  0
LINE
  5
A7
  8
0
  6
CONTINUOUS
 62
     2
 10
-183.41153
 20
-59.318722
 30
0.0
 11
-180.93666
 21
-56.843845
 31
0.0
  0
LINE
  5
A8
  8
0
  6
CONTINUOUS
 62
     2
 10
-180.93666
 20
-59.318718
 30
0.0
 11
-183.41153
 21
-56.843845
 31
0.0
  0
LINE
  5
A9
  8
0
  6
CENTER
 62
     4
 10
-182.17409
 20
-63.581284
 30
0.0
 11
-182.17409
 21
-52.581284
 31
0.0
  0
LINE
  5
AA
  8
0
  6
CENTER
 62
     4
 10
-176.67409
 20
-58.081284
 30
0.0
 11
-187.67409
 21
-58.081284
 31
0.0
  0
LINE
  5
AB
  8
0
  6
CONTINUOUS
 62
     3
 10
-178.5741
 20
-58.081284
 30
0.0
 11
-178.5741
 21
-60.581284
 31
0.0
  0
LINE
  5
AC
  8
0
  6
CONTINUOUS
 62
     3
 10
-185.77409
 20
-58.081284
 30
0.0
 11
-185.77409
 21
-60.581284
 31
0.0
  0
LINE
  5
AD
  8
0
  6
CONTINUOUS
 62
     2
 10
-233.41153
 20
-59.318722
 30
0.0
 11
-230.93666
 21
-56.843845
 31
0.0
  0
LINE
  5
AE
  8
0
  6
CONTINUOUS
 62
     2
 10
-230.93666
 20
-59.318718
 30
0.0
 11
-233.41153
 21
-56.843845
 31
0.0
  0
LINE
  5
AF
  8
0
  6
CENTER
 62
     4
 10
-232.17409
 20
-63.581284
 30
0.0
 11
-232.17409
 21
-52.581284
 31
0.0
  0
LINE
  5
B0
  8
0
  6
CENTER
 62
     4
 10
-226.67409
 20
-58.081284
 30
0.0
 11
-237.67409
 21
-58.081284
 31
0.0
  0
LINE
  5
B1
  8
0
  6
CONTINUOUS
 62
     3
 10
-228.5741
 20
-58.081284
 30
0.0
 11
-228.5741
 21
-60.581284
 31
0.0
  0
LINE
  5
B2
  8
0
  6
CONTINUOUS
 62
     3
 10
-235.77409
 20
-58.081284
 30
0.0
 11
-235.77409
 21
-60.581284
 31
0.0
  0
LINE
  5
B3
  8
0
  6
CONTINUOUS
 62
     3
 10
-228.5741
 20
57.918716
 30
0.0
 11
-228.5741
 21
60.418716
 31
0.0
  0
LINE
  5
B4
  8
0
  6
CONTINUOUS
 62
     3
 10
-235.77409
 20
57.918716
 30
0.0
 11
-235.77409
 21
60.418716
 31
0.0
  0
LINE
  5
B5
  8
0
  6
CONTINUOUS
 62
     3
 10
-6.797247
 20
-62.081284
 30
0.0
 11
-6.797247
 21
61.918716
 31
0.0
  0
LINE
  5
B6
  8
0
  6
CENTER
 62
     4
 10
-33.16798
 20
-0.081283
 30
0.0
 11
103.30351
 21
-0.081283
 31
0.0
  0
LINE
  5
B7
  8
0
  6
CENTER
 62
     4
 10
-14.797247
 20
-78.508202
 30
0.0
 11
-14.797247
 21
-69.850395
 31
0.0
  0
LINE
  5
B8
  8
0
  6
CONTINUOUS
 62
     3
 10
-18.297247
 20
-71.881287
 30
0.0
 11
-18.297249
 21
-77.336647
 31
0.0
  0
LINE
  5
B9
  8
0
  6
CONTINUOUS
 62
     3
 10
-11.297247
 20
-71.881279
 30
0.0
 11
-11.297248
 21
-77.336655
 31
0.0
  0
LINE
  5
BA
  8
0
  6
CONTINUOUS
 62
     3
 10
-18.297247
 20
-85.290344
 30
0.0
 11
-18.297247
 21
-79.834969
 31
0.0
  0
LINE
  5
BB
  8
0
  6
CONTINUOUS
 62
     3
 10
-11.297247
 20
-85.490364
 30
0.0
 11
-11.297246
 21
-79.834976
 31
0.0
  0
LINE
  5
BC
  8
0
  6
CENTER
 62
     4
 10
-14.797247
 20
-94.519432
 30
0.0
 11
-14.797247
 21
-78.508202
 31
0.0
  0
LINE
  5
BD
  8
0
  6
CONTINUOUS
 62
     3
 10
-8.047247
 20
-85.390358
 30
0.0
 11
-21.547247
 21
-85.390358
 31
0.0
  0
LINE
  5
BE
  8
0
  6
CONTINUOUS
 62
     3
 10
-8.047247
 20
-100.85097
 30
0.0
 11
-8.047247
 21
-85.390358
 31
0.0
  0
LINE
  5
BF
  8
0
  6
CONTINUOUS
 62
     3
 10
-21.547247
 20
-100.85097
 30
0.0
 11
-21.547247
 21
-85.390358
 31
0.0
  0
LINE
  5
C0
  8
0
  6
CONTINUOUS
 62
     3
 10
-11.422247
 20
-85.390358
 30
0.0
 11
-18.172247
 21
-85.390358
 31
0.0
  0
LINE
  5
C1
  8
0
  6
CONTINUOUS
 62
     3
 10
-14.797247
 20
-71.881287
 30
0.0
 11
-14.797247
 21
18.318716
 31
0.0
  0
LINE
  5
C2
  8
0
  6
CONTINUOUS
 62
     3
 10
-14.797247
 20
-62.081284
 30
0.0
 11
-14.797247
 21
61.918716
 31
0.0
  0
LINE
  5
C3
  8
0
  6
CONTINUOUS
 62
     3
 10
-8.797247
 20
-70.881287
 30
0.0
 11
-8.797247
 21
-63.081284
 31
0.0
  0
LINE
  5
C4
  8
0
  6
CONTINUOUS
 62
     3
 10
-27.915728
 20
61.918716
 30
0.0
 11
55.202751
 21
61.918716
 31
0.0
  0
LINE
  5
C5
  8
0
  6
CONTINUOUS
 62
     3
 10
-27.609648
 20
-71.881287
 30
0.0
 11
-9.797247
 21
-71.881287
 31
0.0
  0
LINE
  5
C6
  8
0
  6
CONTINUOUS
 62
     3
 10
-28.887012
 20
-62.081284
 30
0.0
 11
55.202751
 21
-62.081284
 31
0.0
  0
LINE
  5
C7
  8
0
  6
CONTINUOUS
 62
     3
 10
-29.369589
 20
-42.581284
 30
0.0
 11
55.202751
 21
-42.581284
 31
0.0
  0
LINE
  5
C8
  8
0
  6
CONTINUOUS
 62
     3
 10
-29.369589
 20
42.418716
 30
0.0
 11
55.202751
 21
42.418716
 31
0.0
  0
LINE
  5
C9
  8
0
  6
CONTINUOUS
 62
     3
 10
-178.5741
 20
57.918716
 30
0.0
 11
-178.5741
 21
60.418716
 31
0.0
  0
LINE
  5
CA
  8
0
  6
CONTINUOUS
 62
     3
 10
-185.77409
 20
57.918716
 30
0.0
 11
-185.77409
 21
60.418716
 31
0.0
  0
LINE
  5
CB
  8
0
  6
CONTINUOUS
 62
     2
 10
-183.41153
 20
59.156155
 30
0.0
 11
-180.93666
 21
56.681278
 31
0.0
  0
LINE
  5
CC
  8
0
  6
CONTINUOUS
 62
     2
 10
-180.93666
 20
59.156155
 30
0.0
 11
-183.41153
 21
56.681282
 31
0.0
  0
LINE
  5
CD
  8
0
  6
CONTINUOUS
 62
     2
 10
-233.41153
 20
59.156155
 30
0.0
 11
-230.93666
 21
56.681278
 31
0.0
  0
LINE
  5
CE
  8
0
  6
CONTINUOUS
 62
     2
 10
-230.93666
 20
59.156155
 30
0.0
 11
-233.41153
 21
56.681282
 31
0.0
  0
LINE
  5
CF
  8
0
  6
CENTER
 62
     4
 10
-204.63765
 20
-66.461678
 30
0.0
 11
-194.73763
 21
-66.461678
 31
0.0
  0
LINE
  5
D0
  8
0
  6
CONTINUOUS
 62
     3
 10
-220.60535
 20
-70.535301
 30
0.0
 11
-220.55315
 21
-70.555977
 31
0.0
  0
LINE
  5
D1
  8
0
  6
CENTER
 62
     4
 10
-214.6601
 20
-71.43029
 30
0.0
 11
-214.6601
 21
-62.263309
 31
0.0
  0
LINE
  5
D2
  8
0
  6
CONTINUOUS
 62
     3
 10
-219.58528
 20
-71.561668
 30
0.0
 11
-194.79002
 21
-71.561668
 31
0.0
  0
LINE
  5
D3
  8
0
  6
CENTER
 62
     4
 10
-207.17409
 20
-112.35046
 30
0.0
 11
-207.17409
 21
69.568161
 31
0.0
  0
LINE
  5
D4
  8
0
  6
CONTINUOUS
 62
     3
 10
-221.6989
 20
-64.056572
 30
0.0
 11
-221.7505
 21
-64.040726
 31
0.0
  0
LINE
  5
D5
  8
0
  6
CONTINUOUS
 62
     2
 10
-215.89752
 20
-65.224236
 30
0.0
 11
-213.42265
 21
-67.699112
 31
0.0
  0
LINE
  5
D6
  8
0
  6
CONTINUOUS
 62
     2
 10
-213.42265
 20
-65.224243
 30
0.0
 11
-215.89754
 21
-67.699112
 31
0.0
  0
LINE
  5
D7
  8
0
  6
CONTINUOUS
 62
     3
 10
-221.7505
 20
-64.040726
 30
0.0
 11
-220.57008
 21
-70.735313
 31
0.0
  0
LINE
  5
D8
  8
0
  6
CONTINUOUS
 62
     3
 10
-203.68765
 20
-71.561668
 30
0.0
 11
-203.68765
 21
-77.11705
 31
0.0
  0
LINE
  5
D9
  8
0
  6
CENTER
 62
     4
 10
-207.17409
 20
-105.99426
 30
0.0
 11
-207.17409
 21
-84.913246
 31
0.0
  0
LINE
  5
DA
  8
0
  6
CENTER
 62
     4
 10
-207.17409
 20
-93.041534
 30
0.0
 11
-207.17409
 21
-77.204559
 31
0.0
  0
LINE
  5
DB
  8
0
  6
CONTINUOUS
 62
     3
 10
-192.62822
 20
-64.060333
 30
0.0
 11
-193.80521
 21
-70.735313
 31
0.0
  0
LINE
  5
DC
  8
0
  6
CONTINUOUS
 62
     3
 10
-210.68765
 20
-71.561668
 30
0.0
 11
-210.68765
 21
-77.11705
 31
0.0
  0
LINE
  5
DD
  8
0
  6
CONTINUOUS
 62
     2
 10
-200.92506
 20
-65.224236
 30
0.0
 11
-198.4502
 21
-67.699112
 31
0.0
  0
LINE
  5
DE
  8
0
  6
CONTINUOUS
 62
     2
 10
-198.4502
 20
-65.224243
 30
0.0
 11
-200.92508
 21
-67.699112
 31
0.0
  0
LINE
  5
DF
  8
0
  6
CENTER
 62
     4
 10
-207.17409
 20
-74.826324
 30
0.0
 11
-207.17409
 21
-81.898224
 31
0.0
  0
LINE
  5
E0
  8
0
  6
CENTER
 62
     4
 10
-199.68764
 20
-71.411682
 30
0.0
 11
-199.68764
 21
-61.511669
 31
0.0
  0
LINE
  5
E1
  8
0
  6
CONTINUOUS
 62
     3
 10
-212.42409
 20
-105.32597
 30
0.0
 11
-212.42409
 21
-100.45097
 31
0.0
  0
LINE
  5
E2
  8
0
  6
CONTINUOUS
 62
     3
 10
-201.92409
 20
-105.32597
 30
0.0
 11
-201.92409
 21
-100.45097
 31
0.0
  0
LINE
  5
E3
  8
0
  6
CONTINUOUS
 62
     3
 10
-205.1618
 20
-110.20097
 30
0.0
 11
-202.67409
 21
-110.20097
 31
0.0
  0
LINE
  5
E4
  8
0
  6
CONTINUOUS
 62
     3
 10
-208.43811
 20
-110.20097
 30
0.0
 11
-205.9118
 21
-110.20097
 31
0.0
  0
LINE
  5
E5
  8
0
  6
CONTINUOUS
 62
     3
 10
-208.4491
 20
-110.20097
 30
0.0
 11
-208.4491
 21
-105.32597
 31
0.0
  0
LINE
  5
E6
  8
0
  6
CONTINUOUS
 62
     3
 10
-209.1241
 20
-110.20097
 30
0.0
 11
-209.1241
 21
-105.32597
 31
0.0
  0
LINE
  5
E7
  8
0
  6
CONTINUOUS
 62
     3
 10
-205.22409
 20
-110.20097
 30
0.0
 11
-205.22409
 21
-105.32597
 31
0.0
  0
LINE
  5
E8
  8
0
  6
CONTINUOUS
 62
     3
 10
-202.67409
 20
-110.20097
 30
0.0
 11
-202.67409
 21
-105.32597
 31
0.0
  0
LINE
  5
E9
  8
0
  6
CONTINUOUS
 62
     3
 10
-211.67409
 20
-110.20097
 30
0.0
 11
-211.67409
 21
-105.32597
 31
0.0
  0
LINE
  5
EA
  8
0
  6
CONTINUOUS
 62
     3
 10
-211.67409
 20
-110.20097
 30
0.0
 11
-209.18811
 21
-110.20097
 31
0.0
  0
LINE
  5
EB
  8
0
  6
CONTINUOUS
 62
     3
 10
-201.92409
 20
-105.32597
 30
0.0
 11
-212.42409
 21
-105.32597
 31
0.0
  0
LINE
  5
EC
  8
0
  6
CONTINUOUS
 62
     3
 10
-213.84909
 20
-100.45097
 30
0.0
 11
-200.4991
 21
-100.45097
 31
0.0
  0
LINE
  5
ED
  8
0
  6
CONTINUOUS
 62
     3
 10
-213.70442
 20
-96.528519
 30
0.0
 11
-211.51877
 21
-94.342857
 31
0.0
  0
LINE
  5
EE
  8
0
  6
CONTINUOUS
 62
     3
 10
-200.64377
 20
-96.528519
 30
0.0
 11
-202.82942
 21
-94.342857
 31
0.0
  0
LINE
  5
EF
  8
0
  6
CONTINUOUS
 62
     3
 10
-203.04909
 20
-93.812531
 30
0.0
 11
-203.04909
 21
-85.740356
 31
0.0
  0
LINE
  5
F0
  8
0
  6
CONTINUOUS
 62
     3
 10
-211.29909
 20
-85.740356
 30
0.0
 11
-211.29909
 21
-93.812531
 31
0.0
  0
LINE
  5
F1
  8
0
  6
CONTINUOUS
 62
     3
 10
-200.42409
 20
-100.37597
 30
0.0
 11
-200.42409
 21
-97.058846
 31
0.0
  0
LINE
  5
F2
  8
0
  6
CONTINUOUS
 62
     3
 10
-213.92409
 20
-100.37597
 30
0.0
 11
-213.92409
 21
-97.058846
 31
0.0
  0
LINE
  5
F3
  8
0
  6
CONTINUOUS
 62
     3
 10
-203.79909
 20
-84.990356
 30
0.0
 11
-210.54909
 21
-84.990356
 31
0.0
  0
LINE
  5
F4
  8
0
  6
CENTER
 62
     4
 10
-219.63763
 20
-66.461678
 30
0.0
 11
-209.73763
 21
-66.461678
 31
0.0
  0
LINE
  5
F5
  8
0
  6
CONTINUOUS
 62
     3
 10
-210.67409
 20
-84.89035
 30
0.0
 11
-210.67409
 21
-79.434975
 31
0.0
  0
LINE
  5
F6
  8
0
  6
CONTINUOUS
 62
     3
 10
-203.67409
 20
-85.09037
 30
0.0
 11
-203.67409
 21
-79.434975
 31
0.0
  0
LINE
  5
F7
  8
0
  6
CONTINUOUS
 62
     3
 10
-205.9118
 20
-110.20097
 30
0.0
 11
-205.9118
 21
-105.32597
 31
0.0
  0
LINE
  5
F8
  8
0
  6
CENTER
 62
     4
 10
-143.67409
 20
-25.081284
 30
0.0
 11
-154.67409
 21
-25.081284
 31
0.0
  0
LINE
  5
F9
  8
0
  6
CENTER
 62
     4
 10
-143.67409
 20
-25.081284
 30
0.0
 11
-154.67409
 21
-25.081284
 31
0.0
  0
LINE
  5
FA
  8
0
  6
CENTER
 62
     4
 10
-226.67409
 20
57.918716
 30
0.0
 11
-237.67409
 21
57.918716
 31
0.0
  0
LINE
  5
FB
  8
0
  6
CENTER
 62
     4
 10
-232.17409
 20
63.418716
 30
0.0
 11
-232.17409
 21
52.418716
 31
0.0
  0
LINE
  5
FC
  8
0
  6
CENTER
 62
     4
 10
-176.67409
 20
57.918716
 30
0.0
 11
-187.67409
 21
57.918716
 31
0.0
  0
LINE
  5
FD
  8
0
  6
CENTER
 62
     4
 10
-182.17409
 20
63.418716
 30
0.0
 11
-182.17409
 21
52.418716
 31
0.0
  0
LINE
  5
FE
  8
0
  6
CONTINUOUS
 62
     3
 10
-249.67409
 20
-58.581284
 30
0.0
 11
-249.67409
 21
-54.581284
 31
0.0
  0
LINE
  5
FF
  8
0
  6
CONTINUOUS
 62
     3
 10
-264.10193
 20
42.418716
 30
0.0
 11
-261.6741
 21
42.418716
 31
0.0
  0
LINE
  5
100
  8
0
  6
CONTINUOUS
 62
     3
 10
-264.10193
 20
-42.581284
 30
0.0
 11
-261.6741
 21
-42.581284
 31
0.0
  0
LINE
  5
101
  8
0
  6
CONTINUOUS
 62
     3
 10
-249.67409
 20
54.418716
 30
0.0
 11
-249.67409
 21
58.418716
 31
0.0
  0
LINE
  5
102
  8
0
  6
CENTER
 62
     4
 10
-161.27496
 20
45.817852
 30
0.0
 11
-150.95831
 21
56.134495
 31
0.0
  0
LINE
  5
103
  8
0
  6
CENTER
 62
     4
 10
-161.13809
 20
-46.117287
 30
0.0
 11
-150.55521
 21
-56.700169
 31
0.0
  0
LINE
  5
104
  8
0
  6
CENTER
 62
     4
 10
-263.72974
 20
-56.636917
 30
0.0
 11
-253.19659
 21
-46.103779
 31
0.0
  0
LINE
  5
105
  8
0
  6
CENTER
 62
     4
 10
-263.98215
 20
56.72678
 30
0.0
 11
-252.26942
 21
45.01405
 31
0.0
  0
LINE
  5
106
  8
0
  6
CONTINUOUS
 62
     3
 10
-262.16501
 20
61.418716
 30
0.0
 11
-152.18318
 21
61.418716
 31
0.0
  0
LINE
  5
107
  8
0
  6
CONTINUOUS
 62
     3
 10
-268.6741
 20
-55.072189
 30
0.0
 11
-268.6741
 21
54.909626
 31
0.0
  0
LINE
  5
108
  8
0
  6
CONTINUOUS
 62
     3
 10
-145.67409
 20
-55.072189
 30
0.0
 11
-145.67409
 21
54.909626
 31
0.0
  0
LINE
  5
109
  8
0
  6
CONTINUOUS
 62
     3
 10
-262.16501
 20
-61.581284
 30
0.0
 11
-152.18318
 21
-61.581284
 31
0.0
  0
LINE
  5
10A
  8
0
  6
CONTINUOUS
 62
     3
 10
-164.67409
 20
-58.581284
 30
0.0
 11
-164.67409
 21
-54.581284
 31
0.0
  0
LINE
  5
10B
  8
0
  6
CONTINUOUS
 62
     3
 10
-164.67409
 20
54.418716
 30
0.0
 11
-164.67409
 21
58.418716
 31
0.0
  0
LINE
  5
10C
  8
0
  6
CONTINUOUS
 62
     3
 10
-150.24625
 20
42.418716
 30
0.0
 11
-152.67409
 21
42.418716
 31
0.0
  0
LINE
  5
10D
  8
0
  6
CONTINUOUS
 62
     3
 10
-150.24625
 20
-42.581284
 30
0.0
 11
-152.67409
 21
-42.581284
 31
0.0
  0
LINE
  5
10E
  8
0
  6
CENTER
 62
     4
 10
202.26341
 20
-0.081283
 30
0.0
 11
349.84259
 21
-0.081283
 31
0.0
  0
LINE
  5
10F
  8
0
  6
CENTER
 62
     4
 10
338.59
 20
35.518719
 30
0.0
 11
328.59
 21
35.518719
 31
0.0
  0
LINE
  5
110
  8
0
  6
CENTER
 62
     4
 10
333.59
 20
40.518719
 30
0.0
 11
333.59
 21
30.518717
 31
0.0
  0
LINE
  5
111
  8
0
  6
CENTER
 62
     4
 10
320.59
 20
-53.681282
 30
0.0
 11
310.59
 21
-53.681282
 31
0.0
  0
LINE
  5
112
  8
0
  6
CENTER
 62
     4
 10
315.59
 20
-48.681282
 30
0.0
 11
315.59
 21
-58.681282
 31
0.0
  0
LINE
  5
113
  8
0
  6
CENTER
 62
     4
 10
231.39
 20
-35.681282
 30
0.0
 11
221.39
 21
-35.681282
 31
0.0
  0
LINE
  5
114
  8
0
  6
CENTER
 62
     4
 10
226.39
 20
-30.681284
 30
0.0
 11
226.39
 21
-40.681282
 31
0.0
  0
LINE
  5
115
  8
0
  6
CENTER
 62
     4
 10
249.39
 20
53.518719
 30
0.0
 11
239.39
 21
53.518719
 31
0.0
  0
LINE
  5
116
  8
0
  6
CENTER
 62
     4
 10
244.39
 20
58.518719
 30
0.0
 11
244.39
 21
48.518719
 31
0.0
  0
LINE
  5
117
  8
0
  6
CENTER
 62
     4
 10
-278.14935
 20
-0.081283
 30
0.0
 11
-138.61296
 21
-0.081283
 31
0.0
  0
LINE
  5
118
  8
0
  6
CENTER
 62
     4
 10
325.88913
 20
45.817852
 30
0.0
 11
336.20578
 21
56.134495
 31
0.0
  0
LINE
  5
119
  8
0
  6
CENTER
 62
     4
 10
326.026
 20
-46.117287
 30
0.0
 11
336.60889
 21
-56.700169
 31
0.0
  0
LINE
  5
11A
  8
0
  6
CENTER
 62
     4
 10
223.43437
 20
-56.636917
 30
0.0
 11
233.96751
 21
-46.103779
 31
0.0
  0
LINE
  5
11B
  8
0
  6
CENTER
 62
     4
 10
223.18195
 20
56.72678
 30
0.0
 11
234.89467
 21
45.01405
 31
0.0
  0
LINE
  5
11C
  8
0
  6
CONTINUOUS
 62
     3
 10
224.9991
 20
61.418716
 30
0.0
 11
334.98093
 21
61.418716
 31
0.0
  0
LINE
  5
11D
  8
0
  6
CONTINUOUS
 62
     3
 10
218.49001
 20
-55.072189
 30
0.0
 11
218.49001
 21
54.909626
 31
0.0
  0
LINE
  5
11E
  8
0
  6
CONTINUOUS
 62
     3
 10
341.49002
 20
-55.072189
 30
0.0
 11
341.49002
 21
54.909626
 31
0.0
  0
LINE
  5
11F
  8
0
  6
CONTINUOUS
 62
     3
 10
224.9991
 20
-61.581284
 30
0.0
 11
334.98093
 21
-61.581284
 31
0.0
  0
LINE
  5
120
  8
0
  6
CENTER
 62
     4
 10
279.99002
 20
-115.77859
 30
0.0
 11
279.99002
 21
70.219177
 31
0.0
  0
LINE
  5
121
  8
0
  6
CONTINUOUS
 62
     3
 10
-9.547247
 20
-105.72597
 30
0.0
 11
-20.047247
 21
-105.72597
 31
0.0
  0
LINE
  5
122
  8
0
  6
CONTINUOUS
 62
     3
 10
-19.297247
 20
-110.60097
 30
0.0
 11
-19.297247
 21
-105.72597
 31
0.0
  0
LINE
  5
123
  8
0
  6
CONTINUOUS
 62
     3
 10
-16.061264
 20
-110.60097
 30
0.0
 11
-13.534962
 21
-110.60097
 31
0.0
  0
LINE
  5
124
  8
0
  6
CONTINUOUS
 62
     3
 10
-19.297247
 20
-110.60097
 30
0.0
 11
-16.811264
 21
-110.60097
 31
0.0
  0
LINE
  5
125
  8
0
  6
CONTINUOUS
 62
     3
 10
-16.747248
 20
-110.60097
 30
0.0
 11
-16.747248
 21
-105.72597
 31
0.0
  0
LINE
  5
126
  8
0
  6
CONTINUOUS
 62
     3
 10
-16.072247
 20
-110.60097
 30
0.0
 11
-16.072247
 21
-105.72597
 31
0.0
  0
LINE
  5
127
  8
0
  6
CONTINUOUS
 62
     3
 10
-13.522247
 20
-110.60097
 30
0.0
 11
-13.522247
 21
-105.72597
 31
0.0
  0
LINE
  5
128
  8
0
  6
CONTINUOUS
 62
     3
 10
-12.847247
 20
-110.60097
 30
0.0
 11
-12.847247
 21
-105.72597
 31
0.0
  0
LINE
  5
129
  8
0
  6
CONTINUOUS
 62
     3
 10
-10.469747
 20
-110.60097
 30
0.0
 11
-10.469747
 21
-105.72597
 31
0.0
  0
LINE
  5
12A
  8
0
  6
CONTINUOUS
 62
     3
 10
-12.784962
 20
-110.60097
 30
0.0
 11
-10.297247
 21
-110.60097
 31
0.0
  0
LINE
  5
12B
  8
0
  6
CONTINUOUS
 62
     3
 10
-9.547247
 20
-105.72597
 30
0.0
 11
-9.547247
 21
-100.85097
 31
0.0
  0
LINE
  5
12C
  8
0
  6
CONTINUOUS
 62
     3
 10
-20.047247
 20
-105.72597
 30
0.0
 11
-20.047247
 21
-100.85097
 31
0.0
  0
LINE
  5
12D
  8
0
  6
CONTINUOUS
 62
     3
 10
-8.047247
 20
-100.85097
 30
0.0
 11
-21.547247
 21
-100.85097
 31
0.0
  0
LINE
  5
12E
  8
0
  6
CONTINUOUS
 62
     3
 10
-8.047247
 20
-97.219482
 30
0.0
 11
-21.547247
 21
-97.219482
 31
0.0
  0
LINE
  5
12F
  8
0
  6
CONTINUOUS
 62
     3
 10
-8.047247
 20
-94.519432
 30
0.0
 11
-21.547247
 21
-94.519432
 31
0.0
  0
LINE
  5
130
  8
0
  6
CONTINUOUS
 62
     3
 10
95.202751
 20
-9.581283
 30
0.0
 11
95.202751
 21
9.418717
 31
0.0
  0
LINE
  5
131
  8
0
  6
CONTINUOUS
 62
     3
 10
45.202751
 20
-62.081284
 30
0.0
 11
45.202751
 21
61.918716
 31
0.0
  0
LINE
  5
132
  8
0
  6
CONTINUOUS
 62
     3
 10
58.702751
 20
-40.081284
 30
0.0
 11
61.202751
 21
-40.081284
 31
0.0
  0
LINE
  5
133
  8
0
  6
CONTINUOUS
 62
     3
 10
58.702751
 20
39.918716
 30
0.0
 11
61.202751
 21
39.918716
 31
0.0
  0
LINE
  5
134
  8
0
  6
CONTINUOUS
 62
     3
 10
55.202751
 20
-55.081284
 30
0.0
 11
58.702751
 21
-55.081284
 31
0.0
  0
LINE
  5
135
  8
0
  6
CONTINUOUS
 62
     3
 10
55.202751
 20
54.918716
 30
0.0
 11
58.702751
 21
54.918716
 31
0.0
  0
LINE
  5
136
  8
0
  6
CONTINUOUS
 62
     3
 10
61.202751
 20
-40.081284
 30
0.0
 11
61.202751
 21
39.918716
 31
0.0
  0
LINE
  5
137
  8
0
  6
CONTINUOUS
 62
     3
 10
58.702751
 20
-55.081284
 30
0.0
 11
58.702751
 21
54.918716
 31
0.0
  0
LINE
  5
138
  8
0
  6
CONTINUOUS
 62
     3
 10
55.202751
 20
-62.081284
 30
0.0
 11
55.202751
 21
61.918716
 31
0.0
  0
LINE
  5
139
  8
0
  6
CONTINUOUS
 62
     3
 10
-4.647247
 20
-75.581284
 30
0.0
 11
4.052753
 21
-75.581284
 31
0.0
  0
LINE
  5
13A
  8
0
  6
CONTINUOUS
 62
     3
 10
3.602753
 20
-64.581284
 30
0.0
 11
3.602753
 21
-65.981285
 31
0.0
  0
LINE
  5
13B
  8
0
  6
CONTINUOUS
 62
     3
 10
4.652753
 20
-65.981285
 30
0.0
 11
4.652753
 21
-76.081284
 31
0.0
  0
LINE
  5
13C
  8
0
  6
CONTINUOUS
 62
     3
 10
4.652753
 20
-65.981285
 30
0.0
 11
-5.247247
 21
-65.981285
 31
0.0
  0
LINE
  5
13D
  8
0
  6
CONTINUOUS
 62
     3
 10
-4.197247
 20
-64.581284
 30
0.0
 11
-4.197247
 21
-65.981285
 31
0.0
  0
LINE
  5
13E
  8
0
  6
CONTINUOUS
 62
     3
 10
-5.247247
 20
-65.981285
 30
0.0
 11
-5.247247
 21
-76.081284
 31
0.0
  0
LINE
  5
13F
  8
0
  6
CONTINUOUS
 62
     3
 10
288.99002
 20
-65.481285
 30
0.0
 11
289.99002
 21
-65.481285
 31
0.0
  0
LINE
  5
140
  8
0
  6
CONTINUOUS
 62
     3
 10
288.99002
 20
-64.081284
 30
0.0
 11
288.99002
 21
-65.481285
 31
0.0
  0
LINE
  5
141
  8
0
  6
CONTINUOUS
 62
     3
 10
289.99002
 20
-65.481285
 30
0.0
 11
289.99002
 21
-75.581284
 31
0.0
  0
LINE
  5
142
  8
0
  6
CONTINUOUS
 62
     3
 10
269.99002
 20
-65.481285
 30
0.0
 11
288.99002
 21
-65.481285
 31
0.0
  0
LINE
  5
143
  8
0
  6
CONTINUOUS
 62
     3
 10
270.99002
 20
-64.081284
 30
0.0
 11
270.99002
 21
-65.481285
 31
0.0
  0
LINE
  5
144
  8
0
  6
CONTINUOUS
 62
     3
 10
269.99002
 20
-65.481285
 30
0.0
 11
269.99002
 21
-75.581284
 31
0.0
  0
LINE
  5
145
  8
0
  6
CONTINUOUS
 62
     3
 10
289.49002
 20
-75.081284
 30
0.0
 11
270.49002
 21
-75.081284
 31
0.0
  0
LINE
  5
146
  8
0
  6
CONTINUOUS
 62
     4
 10
-136.61296
 20
-0.081283
 30
0.0
 11
-125.06889
 21
-0.081283
 31
0.0
  0
LINE
  5
147
  8
0
  6
CONTINUOUS
 62
     4
 10
-14.797247
 20
-96.519432
 30
0.0
 11
-14.797247
 21
-128.36003
 31
0.0
  0
CIRCLE
  5
148
  8
0
  6
CONTINUOUS
 62
     3
 10
279.99002
 20
-0.081283
 30
0.0
 40
17.5
  0
CIRCLE
  5
149
  8
0
  6
CONTINUOUS
 62
     3
 10
279.99002
 20
-0.081283
 30
0.0
 40
10.0
  0
CIRCLE
  5
14A
  8
0
  6
CONTINUOUS
 62
     3
 10
279.99002
 20
-0.081283
 30
0.0
 40
9.5
  0
ARC
  5
14B
  8
0
  6
CONTINUOUS
 62
     4
 10
0.277753
 20
-80.898506
 30
0.0
 40
1.15
 50
60.000002
 51
120.0
  0
ARC
  5
14C
  8
0
  6
CONTINUOUS
 62
     4
 10
0.277753
 20
-78.906647
 30
0.0
 40
1.15
 50
240.0
 51
300.0
  0
ARC
  5
14D
  8
0
  6
CONTINUOUS
 62
     4
 10
-0.872247
 20
-78.906647
 30
0.0
 40
1.15
 50
240.0
 51
300.0
  0
ARC
  5
14E
  8
0
  6
CONTINUOUS
 62
     3
 10
4.152753
 20
-76.081284
 30
0.0
 40
0.5
 50
270.0
 51
0.0
  0
ARC
  5
14F
  8
0
  6
CONTINUOUS
 62
     3
 10
-4.747247
 20
-76.081284
 30
0.0
 40
0.5
 50
180.00001
 51
270.0
  0
ARC
  5
150
  8
0
  6
CONTINUOUS
 62
     3
 10
4.402753
 20
-64.081284
 30
0.0
 40
0.5
 50
270.0
 51
0.0
  0
ARC
  5
151
  8
0
  6
CONTINUOUS
 62
     3
 10
-5.397247
 20
-64.081284
 30
0.0
 40
0.5
 50
180.00001
 51
270.0
  0
ARC
  5
152
  8
0
  6
CONTINUOUS
 62
     3
 10
284.75516
 20
-99.912521
 30
0.0
 40
0.75
 50
180.00001
 51
225.0
  0
ARC
  5
153
  8
0
  6
CONTINUOUS
 62
     3
 10
285.88016
 20
-103.15884
 30
0.0
 40
0.75
 50
0.0
 51
45.000001
  0
ARC
  5
154
  8
0
  6
CONTINUOUS
 62
     3
 10
286.55518
 20
-106.47597
 30
0.0
 40
0.075
 50
270.0
 51
0.0
  0
ARC
  5
155
  8
0
  6
CONTINUOUS
 62
     3
 10
273.88016
 20
-103.15884
 30
0.0
 40
0.75
 50
135.0
 51
180.00001
  0
ARC
  5
156
  8
0
  6
CONTINUOUS
 62
     3
 10
275.00516
 20
-99.912521
 30
0.0
 40
0.75
 50
315.0
 51
0.0
  0
ARC
  5
157
  8
0
  6
CONTINUOUS
 62
     3
 10
275.38016
 20
-100.06786
 30
0.0
 40
0.375
 50
315.0
 51
0.0
  0
ARC
  5
158
  8
0
  6
CONTINUOUS
 62
     3
 10
273.20517
 20
-106.47597
 30
0.0
 40
0.075
 50
180.00001
 51
270.0
  0
ARC
  5
159
  8
0
  6
CONTINUOUS
 62
     3
 10
276.50516
 20
-91.840355
 30
0.0
 40
0.75
 50
90.000003
 51
180.00001
  0
ARC
  5
15A
  8
0
  6
CONTINUOUS
 62
     3
 10
283.25516
 20
-91.840355
 30
0.0
 40
0.75
 50
0.0
 51
90.000003
  0
ARC
  5
15B
  8
0
  6
CONTINUOUS
 62
     4
 10
281.74002
 20
-80.690659
 30
0.0
 40
3.5
 50
239.99998
 51
299.99998
  0
ARC
  5
15C
  8
0
  6
CONTINUOUS
 62
     4
 10
281.74002
 20
-88.929611
 30
0.0
 40
3.5
 50
59.999988
 51
119.99999
  0
ARC
  5
15D
  8
0
  6
CONTINUOUS
 62
     4
 10
281.74002
 20
-82.867439
 30
0.0
 40
3.5
 50
239.99998
 51
299.99998
  0
ARC
  5
15E
  8
0
  6
CONTINUOUS
 62
     4
 10
278.24002
 20
-88.929611
 30
0.0
 40
3.5
 50
59.999988
 51
119.99999
  0
ARC
  5
15F
  8
0
  6
CONTINUOUS
 62
     4
 10
278.24002
 20
-80.690659
 30
0.0
 40
3.5
 50
239.99998
 51
299.99998
  0
ARC
  5
160
  8
0
  6
CONTINUOUS
 62
     4
 10
278.23999
 20
-86.752831
 30
0.0
 40
3.5
 50
59.999988
 51
119.99999
  0
ARC
  5
161
  8
0
  6
CONTINUOUS
 62
     4
 10
281.61502
 20
-77.66745
 30
0.0
 40
0.85
 50
240.0
 51
300.0
  0
ARC
  5
162
  8
0
  6
CONTINUOUS
 62
     4
 10
281.61502
 20
-79.139694
 30
0.0
 40
0.85
 50
60.000002
 51
120.0
  0
ARC
  5
163
  8
0
  6
CONTINUOUS
 62
     3
 10
289.49002
 20
-75.581284
 30
0.0
 40
0.5
 50
270.0
 51
0.0
  0
ARC
  5
164
  8
0
  6
CONTINUOUS
 62
     3
 10
289.49002
 20
-74.581284
 30
0.0
 40
0.5
 50
270.0
 51
0.0
  0
ARC
  5
165
  8
0
  6
CONTINUOUS
 62
     4
 10
286.565
 20
-77.679016
 30
0.0
 40
0.85
 50
240.0
 51
300.0
  0
ARC
  5
166
  8
0
  6
CONTINUOUS
 62
     4
 10
285.715
 20
-77.679016
 30
0.0
 40
0.85
 50
240.0
 51
300.0
  0
ARC
  5
167
  8
0
  6
CONTINUOUS
 62
     4
 10
285.715
 20
-79.15126
 30
0.0
 40
0.85
 50
60.000002
 51
120.0
  0
ARC
  5
168
  8
0
  6
CONTINUOUS
 62
     4
 10
282.465
 20
-77.66745
 30
0.0
 40
0.85
 50
240.0
 51
300.0
  0
ARC
  5
169
  8
0
  6
CONTINUOUS
 62
     3
 10
291.99002
 20
-63.581284
 30
0.0
 40
0.5
 50
270.0
 51
0.0
  0
ARC
  5
16A
  8
0
  6
CONTINUOUS
 62
     3
 10
267.99002
 20
-63.581284
 30
0.0
 40
0.5
 50
180.00001
 51
270.0
  0
ARC
  5
16B
  8
0
  6
CONTINUOUS
 62
     3
 10
270.49002
 20
-75.581284
 30
0.0
 40
0.5
 50
180.00001
 51
270.0
  0
ARC
  5
16C
  8
0
  6
CONTINUOUS
 62
     3
 10
270.49002
 20
-74.581284
 30
0.0
 40
0.5
 50
180.00001
 51
270.0
  0
ARC
  5
16D
  8
0
  6
CONTINUOUS
 62
     4
 10
273.41501
 20
-77.679016
 30
0.0
 40
0.85
 50
240.0
 51
300.0
  0
ARC
  5
16E
  8
0
  6
CONTINUOUS
 62
     4
 10
274.26501
 20
-79.15126
 30
0.0
 40
0.85
 50
60.000002
 51
120.0
  0
ARC
  5
16F
  8
0
  6
CONTINUOUS
 62
     4
 10
274.26501
 20
-77.679016
 30
0.0
 40
0.85
 50
240.0
 51
300.0
  0
ARC
  5
170
  8
0
  6
CONTINUOUS
 62
     4
 10
278.36502
 20
-79.139694
 30
0.0
 40
0.85
 50
60.000002
 51
120.0
  0
ARC
  5
171
  8
0
  6
CONTINUOUS
 62
     4
 10
278.36502
 20
-77.66745
 30
0.0
 40
0.85
 50
240.0
 51
300.0
  0
ARC
  5
172
  8
0
  6
CONTINUOUS
 62
     4
 10
277.51501
 20
-77.66745
 30
0.0
 40
0.85
 50
240.0
 51
300.0
  0
ARC
  5
173
  8
0
  6
CONTINUOUS
 62
     3
 10
-28.589714
 20
29.518717
 30
0.0
 40
1.0
 50
179.19658
 51
270.0
  0
ARC
  5
174
  8
0
  6
CONTINUOUS
 62
     3
 10
-24.577286
 20
27.524181
 30
0.0
 40
0.5
 50
90.000003
 51
180.00001
  0
ARC
  5
175
  8
0
  6
CONTINUOUS
 62
     3
 10
-28.698675
 20
20.318716
 30
0.0
 40
1.0
 50
90.000003
 51
179.44631
  0
ARC
  5
176
  8
0
  6
CONTINUOUS
 62
     3
 10
-24.577286
 20
22.524181
 30
0.0
 40
0.5
 50
180.00001
 51
270.0
  0
ARC
  5
177
  8
0
  6
CONTINUOUS
 62
     3
 10
-25.825993
 20
26.774181
 30
0.0
 40
1.0
 50
90.000003
 51
163.04226
  0
ARC
  5
178
  8
0
  6
CONTINUOUS
 62
     3
 10
-25.825993
 20
23.274181
 30
0.0
 40
1.0
 50
196.95781
 51
270.0
  0
ARC
  5
179
  8
0
  6
CONTINUOUS
 62
     3
 10
-20.086872
 20
25.024181
 30
0.0
 40
7.0
 50
163.04226
 51
196.95775
  0
ARC
  5
17A
  8
0
  6
CONTINUOUS
 62
     3
 10
-24.577286
 20
-22.686747
 30
0.0
 40
0.5
 50
90.000003
 51
180.00001
  0
ARC
  5
17B
  8
0
  6
CONTINUOUS
 62
     3
 10
-24.577286
 20
-27.686747
 30
0.0
 40
0.5
 50
180.00001
 51
270.0
  0
ARC
  5
17C
  8
0
  6
CONTINUOUS
 62
     3
 10
-25.825993
 20
-26.936747
 30
0.0
 40
1.0
 50
196.95774
 51
270.0
  0
ARC
  5
17D
  8
0
  6
CONTINUOUS
 62
     3
 10
-25.825993
 20
-23.436747
 30
0.0
 40
1.0
 50
90.000003
 51
163.04219
  0
ARC
  5
17E
  8
0
  6
CONTINUOUS
 62
     3
 10
-20.086872
 20
-25.186749
 30
0.0
 40
7.0
 50
163.04224
 51
196.95774
  0
ARC
  5
17F
  8
0
  6
CONTINUOUS
 62
     3
 10
-28.589714
 20
-29.681284
 30
0.0
 40
1.0
 50
90.000003
 51
180.80341
  0
ARC
  5
180
  8
0
  6
CONTINUOUS
 62
     3
 10
-28.698675
 20
-20.481283
 30
0.0
 40
1.0
 50
180.55369
 51
270.0
  0
ARC
  5
181
  8
0
  6
CONTINUOUS
 62
     3
 10
-219.58528
 20
-70.561668
 30
0.0
 40
1.0
 50
189.99991
 51
270.0
  0
ARC
  5
182
  8
0
  6
CONTINUOUS
 62
     3
 10
-194.79002
 20
-70.561668
 30
0.0
 40
1.0
 50
270.0
 51
349.99987
  0
ARC
  5
183
  8
0
  6
CONTINUOUS
 62
     3
 10
-189.6738
 20
-64.581284
 30
0.0
 40
3.0
 50
90.000003
 51
169.99987
  0
ARC
  5
184
  8
0
  6
CONTINUOUS
 62
     3
 10
-265.1741
 20
24.918716
 30
0.0
 40
3.6
 50
270.0
 51
90.000003
  0
CIRCLE
  5
185
  8
0
  6
CONTINUOUS
 62
     3
 10
-265.1741
 20
24.918716
 30
0.0
 40
2.749999
  0
ARC
  5
186
  8
0
  6
CONTINUOUS
 62
     3
 10
-267.25693
 20
20.318716
 30
0.0
 40
1.0
 50
90.000003
 51
177.65699
  0
ARC
  5
187
  8
0
  6
CONTINUOUS
 62
     3
 10
-266.79541
 20
29.518717
 30
0.0
 40
1.0
 50
176.59929
 51
270.0
  0
ARC
  5
188
  8
0
  6
CONTINUOUS
 62
     3
 10
-266.79541
 20
-29.681284
 30
0.0
 40
1.0
 50
90.000003
 51
183.4007
  0
ARC
  5
189
  8
0
  6
CONTINUOUS
 62
     3
 10
-267.25693
 20
-20.481283
 30
0.0
 40
1.0
 50
182.34301
 51
270.0
  0
ARC
  5
18A
  8
0
  6
CONTINUOUS
 62
     3
 10
-265.1741
 20
-25.081284
 30
0.0
 40
3.6
 50
270.0
 51
90.000003
  0
CIRCLE
  5
18B
  8
0
  6
CONTINUOUS
 62
     3
 10
-265.1741
 20
-25.081284
 30
0.0
 40
2.749999
  0
ARC
  5
18C
  8
0
  6
CONTINUOUS
 62
     3
 10
-149.17409
 20
24.918716
 30
0.0
 40
3.6
 50
90.000003
 51
270.0
  0
CIRCLE
  5
18D
  8
0
  6
CONTINUOUS
 62
     3
 10
-149.17409
 20
24.918716
 30
0.0
 40
2.749999
  0
ARC
  5
18E
  8
0
  6
CONTINUOUS
 62
     3
 10
-147.09126
 20
20.318716
 30
0.0
 40
1.0
 50
2.343005
 51
90.000003
  0
ARC
  5
18F
  8
0
  6
CONTINUOUS
 62
     3
 10
-147.55278
 20
29.518717
 30
0.0
 40
1.0
 50
270.0
 51
3.400704
  0
ARC
  5
190
  8
0
  6
CONTINUOUS
 62
     3
 10
-147.55278
 20
-29.681284
 30
0.0
 40
1.0
 50
356.5993
 51
90.000003
  0
ARC
  5
191
  8
0
  6
CONTINUOUS
 62
     3
 10
-147.09126
 20
-20.481283
 30
0.0
 40
1.0
 50
270.0
 51
357.65699
  0
CIRCLE
  5
192
  8
0
  6
CONTINUOUS
 62
     3
 10
-149.17409
 20
-25.081284
 30
0.0
 40
2.749999
  0
ARC
  5
193
  8
0
  6
CONTINUOUS
 62
     3
 10
-149.17409
 20
-25.081284
 30
0.0
 40
3.6
 50
90.000003
 51
270.0
  0
CIRCLE
  5
194
  8
0
  6
CONTINUOUS
 62
     3
 10
-182.17409
 20
-58.081284
 30
0.0
 40
2.749999
  0
ARC
  5
195
  8
0
  6
CONTINUOUS
 62
     3
 10
-177.5741
 20
-60.581284
 30
0.0
 40
1.0
 50
180.00001
 51
270.0
  0
ARC
  5
196
  8
0
  6
CONTINUOUS
 62
     3
 10
-186.77409
 20
-60.581284
 30
0.0
 40
1.0
 50
270.0
 51
0.0
  0
ARC
  5
197
  8
0
  6
CONTINUOUS
 62
     3
 10
-182.17409
 20
-58.081284
 30
0.0
 40
3.6
 50
0.0
 51
180.00001
  0
CIRCLE
  5
198
  8
0
  6
CONTINUOUS
 62
     3
 10
-232.17409
 20
-58.081284
 30
0.0
 40
2.749999
  0
ARC
  5
199
  8
0
  6
CONTINUOUS
 62
     3
 10
-232.17409
 20
-58.081284
 30
0.0
 40
3.6
 50
0.0
 51
180.00001
  0
ARC
  5
19A
  8
0
  6
CONTINUOUS
 62
     3
 10
-227.5741
 20
-60.581284
 30
0.0
 40
1.0
 50
180.00001
 51
270.0
  0
ARC
  5
19B
  8
0
  6
CONTINUOUS
 62
     3
 10
-236.77409
 20
-60.581284
 30
0.0
 40
1.0
 50
270.0
 51
0.0
  0
ARC
  5
19C
  8
0
  6
CONTINUOUS
 62
     3
 10
-227.5741
 20
60.418716
 30
0.0
 40
1.0
 50
90.000003
 51
180.00001
  0
ARC
  5
19D
  8
0
  6
CONTINUOUS
 62
     3
 10
-236.77409
 20
60.418716
 30
0.0
 40
1.0
 50
0.0
 51
90.000003
  0
ARC
  5
19E
  8
0
  6
CONTINUOUS
 62
     3
 10
-232.17409
 20
57.918716
 30
0.0
 40
3.6
 50
180.00001
 51
0.00001
  0
ARC
  5
19F
  8
0
  6
CONTINUOUS
 62
     3
 10
-182.17409
 20
57.918716
 30
0.0
 40
3.6
 50
180.00001
 51
0.00001
  0
ARC
  5
1A0
  8
0
  6
CONTINUOUS
 62
     4
 10
-16.547249
 20
-80.367737
 30
0.0
 40
3.5
 50
59.999988
 51
119.99999
  0
ARC
  5
1A1
  8
0
  6
CONTINUOUS
 62
     4
 10
-16.547247
 20
-74.305557
 30
0.0
 40
3.5
 50
239.99998
 51
299.99998
  0
ARC
  5
1A2
  8
0
  6
CONTINUOUS
 62
     4
 10
-13.047247
 20
-74.305565
 30
0.0
 40
3.5
 50
239.99998
 51
299.99998
  0
ARC
  5
1A3
  8
0
  6
CONTINUOUS
 62
     4
 10
-16.547247
 20
-82.866058
 30
0.0
 40
3.5
 50
59.999988
 51
119.99999
  0
ARC
  5
1A4
  8
0
  6
CONTINUOUS
 62
     4
 10
-13.047245
 20
-76.803886
 30
0.0
 40
3.5
 50
239.99998
 51
299.99998
  0
ARC
  5
1A5
  8
0
  6
CONTINUOUS
 62
     4
 10
-13.047247
 20
-82.866058
 30
0.0
 40
3.5
 50
59.999988
 51
119.99999
  0
ARC
  5
1A6
  8
0
  6
CONTINUOUS
 62
     3
 10
-9.797247
 20
-70.881287
 30
0.0
 40
1.0
 50
270.0
 51
0.0
  0
ARC
  5
1A7
  8
0
  6
CONTINUOUS
 62
     3
 10
-7.797247
 20
-63.081284
 30
0.0
 40
1.0
 50
90.000003
 51
180.00001
  0
ARC
  5
1A8
  8
0
  6
CONTINUOUS
 62
     3
 10
-27.915728
 20
60.918716
 30
0.0
 40
1.0
 50
90.000003
 51
178.34413
  0
ARC
  5
1A9
  8
0
  6
CONTINUOUS
 62
     3
 10
-27.609648
 20
-70.881287
 30
0.0
 40
1.0
 50
181.92198
 51
270.0
  0
ARC
  5
1AA
  8
0
  6
CONTINUOUS
 62
     3
 10
2082.2026
 20
-0.081283
 30
0.0
 40
2112.0
 50
178.34413
 51
181.92198
  0
ARC
  5
1AB
  8
0
  6
CONTINUOUS
 62
     3
 10
-246.67409
 20
-58.581284
 30
0.0
 40
3.0
 50
180.00001
 51
270.0
  0
ARC
  5
1AC
  8
0
  6
CONTINUOUS
 62
     3
 10
-186.77409
 20
60.418716
 30
0.0
 40
1.0
 50
0.0
 51
90.000003
  0
ARC
  5
1AD
  8
0
  6
CONTINUOUS
 62
     3
 10
-177.5741
 20
60.418716
 30
0.0
 40
1.0
 50
90.000003
 51
180.00001
  0
CIRCLE
  5
1AE
  8
0
  6
CONTINUOUS
 62
     3
 10
-182.17409
 20
57.918716
 30
0.0
 40
2.749999
  0
CIRCLE
  5
1AF
  8
0
  6
CONTINUOUS
 62
     3
 10
-232.17409
 20
57.918716
 30
0.0
 40
2.749999
  0
CIRCLE
  5
1B0
  8
0
  6
CONTINUOUS
 62
     3
 10
-214.6601
 20
-66.461678
 30
0.0
 40
3.5
  0
CIRCLE
  5
1B1
  8
0
  6
CONTINUOUS
 62
     3
 10
-199.68764
 20
-66.461678
 30
0.0
 40
3.5
  0
ARC
  5
1B2
  8
0
  6
CONTINUOUS
 62
     3
 10
-224.70494
 20
-64.561653
 30
0.0
 40
3.0
 50
9.99969
 51
90.000003
  0
CIRCLE
  5
1B3
  8
0
  6
CONTINUOUS
 62
     3
 10
-214.6601
 20
-66.461678
 30
0.0
 40
2.749999
  0
ARC
  5
1B4
  8
0
  6
CONTINUOUS
 62
     4
 10
-205.43765
 20
-74.08596
 30
0.0
 40
3.5
 50
239.99998
 51
299.99998
  0
CIRCLE
  5
1B5
  8
0
  6
CONTINUOUS
 62
     3
 10
-199.68764
 20
-66.461678
 30
0.0
 40
2.749999
  0
ARC
  5
1B6
  8
0
  6
CONTINUOUS
 62
     4
 10
-208.93765
 20
-80.14814
 30
0.0
 40
3.5
 50
59.999988
 51
119.99999
  0
ARC
  5
1B7
  8
0
  6
CONTINUOUS
 62
     4
 10
-208.93765
 20
-74.08596
 30
0.0
 40
3.5
 50
239.99998
 51
299.99998
  0
ARC
  5
1B8
  8
0
  6
CONTINUOUS
 62
     3
 10
-200.4991
 20
-100.37597
 30
0.0
 40
0.075
 50
270.0
 51
0.0
  0
ARC
  5
1B9
  8
0
  6
CONTINUOUS
 62
     3
 10
-210.54909
 20
-85.740356
 30
0.0
 40
0.75
 50
90.000003
 51
180.00001
  0
ARC
  5
1BA
  8
0
  6
CONTINUOUS
 62
     3
 10
-212.04909
 20
-93.812531
 30
0.0
 40
0.75
 50
315.0
 51
0.0
  0
ARC
  5
1BB
  8
0
  6
CONTINUOUS
 62
     3
 10
-213.17409
 20
-97.058846
 30
0.0
 40
0.75
 50
135.0
 51
180.00001
  0
ARC
  5
1BC
  8
0
  6
CONTINUOUS
 62
     3
 10
-201.17409
 20
-97.058846
 30
0.0
 40
0.75
 50
0.0
 51
45.000001
  0
ARC
  5
1BD
  8
0
  6
CONTINUOUS
 62
     3
 10
-202.29909
 20
-93.812531
 30
0.0
 40
0.75
 50
180.00001
 51
225.0
  0
ARC
  5
1BE
  8
0
  6
CONTINUOUS
 62
     3
 10
-203.79909
 20
-85.740356
 30
0.0
 40
0.75
 50
0.0
 51
90.000003
  0
ARC
  5
1BF
  8
0
  6
CONTINUOUS
 62
     3
 10
-211.67409
 20
-93.967857
 30
0.0
 40
0.375
 50
315.0
 51
0.0
  0
ARC
  5
1C0
  8
0
  6
CONTINUOUS
 62
     4
 10
-208.92409
 20
-82.466064
 30
0.0
 40
3.5
 50
59.999988
 51
119.99999
  0
ARC
  5
1C1
  8
0
  6
CONTINUOUS
 62
     4
 10
-205.42409
 20
-76.403885
 30
0.0
 40
3.5
 50
239.99998
 51
299.99998
  0
ARC
  5
1C2
  8
0
  6
CONTINUOUS
 62
     4
 10
-205.42409
 20
-82.466064
 30
0.0
 40
3.5
 50
59.999988
 51
119.99999
  0
ARC
  5
1C3
  8
0
  6
CONTINUOUS
 62
     3
 10
-207.17409
 20
-0.081283
 30
0.0
 40
82.5
 50
131.80185
 51
138.19815
  0
ARC
  5
1C4
  8
0
  6
CONTINUOUS
 62
     3
 10
-207.17409
 20
-0.081283
 30
0.0
 40
82.5
 50
221.80185
 51
228.19815
  0
ARC
  5
1C5
  8
0
  6
CONTINUOUS
 62
     3
 10
-207.17409
 20
-0.081283
 30
0.0
 40
82.5
 50
311.80184
 51
318.19816
  0
ARC
  5
1C6
  8
0
  6
CONTINUOUS
 62
     3
 10
-207.17409
 20
-0.081283
 30
0.0
 40
82.5
 50
41.801844
 51
48.198155
  0
ARC
  5
1C7
  8
0
  6
CONTINUOUS
 62
     3
 10
-152.67409
 20
54.418716
 30
0.0
 40
12.0
 50
180.00001
 51
225.0
  0
ARC
  5
1C8
  8
0
  6
CONTINUOUS
 62
     3
 10
-152.67409
 20
-54.581284
 30
0.0
 40
12.0
 50
90.000003
 51
180.00001
  0
ARC
  5
1C9
  8
0
  6
CONTINUOUS
 62
     3
 10
-261.6741
 20
-54.581284
 30
0.0
 40
12.0
 50
0.0
 51
90.000003
  0
ARC
  5
1CA
  8
0
  6
CONTINUOUS
 62
     3
 10
-261.6741
 20
54.418716
 30
0.0
 40
12.0
 50
270.0
 51
0.0
  0
ARC
  5
1CB
  8
0
  6
CENTER
 62
     4
 10
-207.17409
 20
-0.081283
 30
0.0
 40
72.5
 50
39.661638
 51
50.009607
  0
CIRCLE
  5
1CC
  8
0
  6
CONTINUOUS
 62
     3
 10
-155.90886
 20
51.18396
 30
0.0
 40
4.5
  0
CIRCLE
  5
1CD
  8
0
  6
CONTINUOUS
 62
     3
 10
-258.43933
 20
51.18396
 30
0.0
 40
4.5
  0
CIRCLE
  5
1CE
  8
0
  6
CONTINUOUS
 62
     3
 10
-258.43933
 20
-51.346523
 30
0.0
 40
4.5
  0
CIRCLE
  5
1CF
  8
0
  6
CONTINUOUS
 62
     3
 10
-155.90886
 20
-51.346523
 30
0.0
 40
4.5
  0
ARC
  5
1D0
  8
0
  6
CENTER
 62
     4
 10
-207.17409
 20
-0.081283
 30
0.0
 40
72.5
 50
308.34353
 51
321.41591
  0
ARC
  5
1D1
  8
0
  6
CENTER
 62
     4
 10
-207.17409
 20
-0.081283
 30
0.0
 40
72.5
 50
219.39084
 51
230.9321
  0
ARC
  5
1D2
  8
0
  6
CENTER
 62
     4
 10
-207.17409
 20
-0.081283
 30
0.0
 40
72.5
 50
128.48684
 51
141.80807
  0
ARC
  5
1D3
  8
0
  6
CONTINUOUS
 62
     3
 10
-246.67409
 20
58.418716
 30
0.0
 40
3.0
 50
90.000003
 51
180.00001
  0
ARC
  5
1D4
  8
0
  6
CONTINUOUS
 62
     3
 10
231.32591
 20
-0.081283
 30
0.0
 40
500.0
 50
175.44151
 51
184.5585
  0
ARC
  5
1D5
  8
0
  6
CONTINUOUS
 62
     3
 10
-264.10193
 20
39.418716
 30
0.0
 40
3.0
 50
90.000003
 51
175.44151
  0
ARC
  5
1D6
  8
0
  6
CONTINUOUS
 62
     3
 10
-264.10193
 20
-39.581284
 30
0.0
 40
3.0
 50
184.55849
 51
270.0
  0
ARC
  5
1D7
  8
0
  6
CONTINUOUS
 62
     3
 10
-167.67409
 20
58.418716
 30
0.0
 40
3.0
 50
0.0
 51
90.000003
  0
ARC
  5
1D8
  8
0
  6
CONTINUOUS
 62
     3
 10
-150.24625
 20
39.418716
 30
0.0
 40
3.0
 50
4.558496
 51
90.000003
  0
ARC
  5
1D9
  8
0
  6
CONTINUOUS
 62
     3
 10
-645.67407
 20
-0.081283
 30
0.0
 40
500.0
 50
355.4415
 51
4.558496
  0
ARC
  5
1DA
  8
0
  6
CONTINUOUS
 62
     3
 10
-150.24625
 20
-39.581284
 30
0.0
 40
3.0
 50
270.0
 51
355.4415
  0
ARC
  5
1DB
  8
0
  6
CONTINUOUS
 62
     3
 10
-152.67409
 20
54.418716
 30
0.0
 40
12.0
 50
180.00001
 51
270.0
  0
ARC
  5
1DC
  8
0
  6
CONTINUOUS
 62
     3
 10
-167.67409
 20
-58.581284
 30
0.0
 40
3.0
 50
270.0
 51
0.0
  0
CIRCLE
  5
1DD
  8
0
  6
CONTINUOUS
 62
     3
 10
279.99002
 20
-0.081283
 30
0.0
 40
55.0
  0
CIRCLE
  5
1DE
  8
0
  6
CONTINUOUS
 62
     3
 10
279.99002
 20
-0.081283
 30
0.0
 40
40.0
  0
CIRCLE
  5
1DF
  8
0
  6
CONTINUOUS
 62
     4
 10
315.59
 20
-53.681282
 30
0.0
 40
3.0
  0
CIRCLE
  5
1E0
  8
0
  6
CONTINUOUS
 62
     3
 10
315.59
 20
-53.681282
 30
0.0
 40
2.5
  0
CIRCLE
  5
1E1
  8
0
  6
CONTINUOUS
 62
     4
 10
333.59
 20
35.518719
 30
0.0
 40
3.0
  0
CIRCLE
  5
1E2
  8
0
  6
CONTINUOUS
 62
     3
 10
333.59
 20
35.518719
 30
0.0
 40
2.5
  0
CIRCLE
  5
1E3
  8
0
  6
CONTINUOUS
 62
     4
 10
244.39
 20
53.518719
 30
0.0
 40
3.0
  0
CIRCLE
  5
1E4
  8
0
  6
CONTINUOUS
 62
     3
 10
244.39
 20
53.518719
 30
0.0
 40
2.5
  0
CIRCLE
  5
1E5
  8
0
  6
CONTINUOUS
 62
     3
 10
226.39
 20
-35.681282
 30
0.0
 40
2.5
  0
CIRCLE
  5
1E6
  8
0
  6
CONTINUOUS
 62
     4
 10
226.39
 20
-35.681282
 30
0.0
 40
3.0
  0
ARC
  5
1E7
  8
0
  6
CONTINUOUS
 62
     3
 10
279.99002
 20
-0.081283
 30
0.0
 40
82.5
 50
131.80185
 51
138.19815
  0
ARC
  5
1E8
  8
0
  6
CONTINUOUS
 62
     3
 10
279.99002
 20
-0.081283
 30
0.0
 40
82.5
 50
221.80185
 51
228.19815
  0
ARC
  5
1E9
  8
0
  6
CONTINUOUS
 62
     3
 10
279.99002
 20
-0.081283
 30
0.0
 40
82.5
 50
311.80184
 51
318.19816
  0
ARC
  5
1EA
  8
0
  6
CONTINUOUS
 62
     3
 10
279.99002
 20
-0.081283
 30
0.0
 40
82.5
 50
41.801844
 51
48.198155
  0
ARC
  5
1EB
  8
0
  6
CENTER
 62
     4
 10
279.99002
 20
-0.081283
 30
0.0
 40
72.5
 50
39.661638
 51
50.009607
  0
CIRCLE
  5
1EC
  8
0
  6
CONTINUOUS
 62
     3
 10
331.25525
 20
51.18396
 30
0.0
 40
4.5
  0
CIRCLE
  5
1ED
  8
0
  6
CONTINUOUS
 62
     3
 10
228.72476
 20
51.18396
 30
0.0
 40
4.5
  0
CIRCLE
  5
1EE
  8
0
  6
CONTINUOUS
 62
     3
 10
228.72476
 20
-51.346523
 30
0.0
 40
4.5
  0
CIRCLE
  5
1EF
  8
0
  6
CONTINUOUS
 62
     3
 10
331.25525
 20
-51.346523
 30
0.0
 40
4.5
  0
ARC
  5
1F0
  8
0
  6
CENTER
 62
     4
 10
279.99002
 20
-0.081283
 30
0.0
 40
72.5
 50
308.34353
 51
321.41591
  0
ARC
  5
1F1
  8
0
  6
CENTER
 62
     4
 10
279.99002
 20
-0.081283
 30
0.0
 40
72.5
 50
219.39084
 51
230.9321
  0
ARC
  5
1F2
  8
0
  6
CENTER
 62
     4
 10
279.99002
 20
-0.081283
 30
0.0
 40
72.5
 50
128.48684
 51
141.80807
  0
ARC
  5
1F3
  8
0
  6
CONTINUOUS
 62
     3
 10
4.052753
 20
-74.981285
 30
0.0
 40
0.6
 50
270.0
 51
0.0
  0
ARC
  5
1F4
  8
0
  6
CONTINUOUS
 62
     3
 10
-4.647247
 20
-74.981285
 30
0.0
 40
0.6
 50
180.00001
 51
270.0
  0
TEXT
  5
1F5
  8
0
  6
CONTINUOUS
 62
     7
 10
-298.45974
 20
229.29876
 30
0.0
 40
8.4666
  1
HC-UF73
  0
ENDSEC
  0
EOF
