  0
SECTION
  2
HEADER
  9
$ACADVER
  1
AC1014
  9
$ACADMAINTVER
 70
     9
  9
$DWGCODEPAGE
  3
ANSI_932
  9
$INSBASE
 10
-204.2232220663054
 20
588.6720575702687
 30
0.0
  9
$EXTMIN
 10
0.0
 20
-0.0000000000000284
 30
0.0
  9
$EXTMAX
 10
401.0499999999997
 20
248.0000000000001
 30
0.0
  9
$LIMMIN
 10
0.0
 20
0.0
  9
$LIMMAX
 10
420.0
 20
297.0
  9
$ORTHOMODE
 70
     1
  9
$REGENMODE
 70
     1
  9
$FILLMODE
 70
     1
  9
$QTEXTMODE
 70
     0
  9
$MIRRTEXT
 70
     1
  9
$DRAGMODE
 70
     2
  9
$LTSCALE
 40
1.0
  9
$OSMODE
 70
    39
  9
$ATTMODE
 70
     1
  9
$TEXTSIZE
 40
2.5
  9
$TRACEWID
 40
1.0
  9
$TEXTSTYLE
  7
STANDARD
  9
$CLAYER
  8
10
  9
$CELTYPE
  6
BYLAYER
  9
$CECOLOR
 62
   256
  9
$CELTSCALE
 40
1.0
  9
$DELOBJ
 70
     1
  9
$DISPSILH
 70
     0
  9
$DIMSCALE
 40
1.0
  9
$DIMASZ
 40
2.5
  9
$DIMEXO
 40
0.625
  9
$DIMDLI
 40
3.75
  9
$DIMRND
 40
0.0
  9
$DIMDLE
 40
0.0
  9
$DIMEXE
 40
1.25
  9
$DIMTP
 40
0.0
  9
$DIMTM
 40
0.0
  9
$DIMTXT
 40
2.5
  9
$DIMCEN
 40
2.5
  9
$DIMTSZ
 40
0.0
  9
$DIMTOL
 70
     0
  9
$DIMLIM
 70
     0
  9
$DIMTIH
 70
     0
  9
$DIMTOH
 70
     0
  9
$DIMSE1
 70
     0
  9
$DIMSE2
 70
     0
  9
$DIMTAD
 70
     1
  9
$DIMZIN
 70
     8
  9
$DIMBLK
  1

  9
$DIMASO
 70
     1
  9
$DIMSHO
 70
     1
  9
$DIMPOST
  1

  9
$DIMAPOST
  1

  9
$DIMALT
 70
     0
  9
$DIMALTD
 70
     4
  9
$DIMALTF
 40
0.0394
  9
$DIMLFAC
 40
1.0
  9
$DIMTOFL
 70
     1
  9
$DIMTVP
 40
0.0
  9
$DIMTIX
 70
     0
  9
$DIMSOXD
 70
     0
  9
$DIMSAH
 70
     0
  9
$DIMBLK1
  1

  9
$DIMBLK2
  1

  9
$DIMSTYLE
  2
STANDARD
  9
$DIMCLRD
 70
   256
  9
$DIMCLRE
 70
   256
  9
$DIMCLRT
 70
   256
  9
$DIMTFAC
 40
1.0
  9
$DIMGAP
 40
0.625
  9
$DIMJUST
 70
     0
  9
$DIMSD1
 70
     0
  9
$DIMSD2
 70
     0
  9
$DIMTOLJ
 70
     1
  9
$DIMTZIN
 70
     0
  9
$DIMALTZ
 70
     0
  9
$DIMALTTZ
 70
     0
  9
$DIMFIT
 70
     0
  9
$DIMUPT
 70
     0
  9
$DIMUNIT
 70
     8
  9
$DIMDEC
 70
     4
  9
$DIMTDEC
 70
     4
  9
$DIMALTU
 70
     8
  9
$DIMALTTD
 70
     4
  9
$DIMTXSTY
  7
STANDARD
  9
$DIMAUNIT
 70
     1
  9
$LUNITS
 70
     2
  9
$LUPREC
 70
     4
  9
$SKETCHINC
 40
1.0
  9
$FILLETRAD
 40
10.0
  9
$AUNITS
 70
     0
  9
$AUPREC
 70
     0
  9
$MENU
  1
acad
  9
$ELEVATION
 40
0.0
  9
$PELEVATION
 40
0.0
  9
$THICKNESS
 40
0.0
  9
$LIMCHECK
 70
     0
  9
$BLIPMODE
 70
     0
  9
$CHAMFERA
 40
0.0
  9
$CHAMFERB
 40
0.0
  9
$CHAMFERC
 40
20.0
  9
$CHAMFERD
 40
0.0
  9
$SKPOLY
 70
     0
  9
$TDCREATE
 40
2451661.477957870
  9
$TDUPDATE
 40
2453426.635432581
  9
$TDINDWG
 40
0.7055379167
  9
$TDUSRTIMER
 40
0.7055379167
  9
$USRTIMER
 70
     1
  9
$ANGBASE
 50
0.0
  9
$ANGDIR
 70
     0
  9
$PDMODE
 70
     0
  9
$PDSIZE
 40
0.0
  9
$PLINEWID
 40
0.0
  9
$COORDS
 70
     2
  9
$SPLFRAME
 70
     0
  9
$SPLINETYPE
 70
     6
  9
$SPLINESEGS
 70
     8
  9
$ATTDIA
 70
     0
  9
$ATTREQ
 70
     1
  9
$HANDLING
 70
 22529
  9
$HANDSEED
  5
1541
  9
$SURFTAB1
 70
     6
  9
$SURFTAB2
 70
     6
  9
$SURFTYPE
 70
     6
  9
$SURFU
 70
     6
  9
$SURFV
 70
     6
  9
$UCSNAME
  2

  9
$UCSORG
 10
0.0
 20
0.0
 30
0.0
  9
$UCSXDIR
 10
1.0
 20
0.0
 30
0.0
  9
$UCSYDIR
 10
0.0
 20
1.0
 30
0.0
  9
$PUCSNAME
  2

  9
$PUCSORG
 10
0.0
 20
0.0
 30
0.0
  9
$PUCSXDIR
 10
1.0
 20
0.0
 30
0.0
  9
$PUCSYDIR
 10
0.0
 20
1.0
 30
0.0
  9
$USERI1
 70
     0
  9
$USERI2
 70
     0
  9
$USERI3
 70
     0
  9
$USERI4
 70
     0
  9
$USERI5
 70
     0
  9
$USERR1
 40
0.0
  9
$USERR2
 40
0.0
  9
$USERR3
 40
0.0
  9
$USERR4
 40
0.0
  9
$USERR5
 40
0.0
  9
$WORLDVIEW
 70
     1
  9
$SHADEDGE
 70
     3
  9
$SHADEDIF
 70
    70
  9
$TILEMODE
 70
     1
  9
$MAXACTVP
 70
    48
  9
$PINSBASE
 10
0.0
 20
0.0
 30
0.0
  9
$PLIMCHECK
 70
     0
  9
$PEXTMIN
 10
1.000000000000000E+20
 20
1.000000000000000E+20
 30
1.000000000000000E+20
  9
$PEXTMAX
 10
-1.000000000000000E+20
 20
-1.000000000000000E+20
 30
-1.000000000000000E+20
  9
$PLIMMIN
 10
0.0
 20
0.0
  9
$PLIMMAX
 10
420.0
 20
297.0
  9
$UNITMODE
 70
     0
  9
$VISRETAIN
 70
     1
  9
$PLINEGEN
 70
     0
  9
$PSLTSCALE
 70
     1
  9
$TREEDEPTH
 70
  3020
  9
$PICKSTYLE
 70
     1
  9
$CMLSTYLE
  2
STANDARD
  9
$CMLJUST
 70
     0
  9
$CMLSCALE
 40
20.0
  9
$PROXYGRAPHICS
 70
     1
  9
$MEASUREMENT
 70
     0
  0
ENDSEC
  0
SECTION
  2
CLASSES
  0
CLASS
  1
XRECORD
  2
AcDbXrecord
  3
AutoCAD 2000
 90
        0
280
     0
281
     0
  0
CLASS
  1
ACDBDICTIONARYWDFLT
  2
AcDbDictionaryWithDefault
  3
AutoCAD 2000
 90
        0
280
     0
281
     0
  0
CLASS
  1
ACDBPLACEHOLDER
  2
AcDbPlaceHolder
  3
AutoCAD 2000
 90
        0
280
     0
281
     0
  0
CLASS
  1
LAYOUT
  2
AcDbLayout
  3
AutoCAD 2000
 90
        0
280
     0
281
     0
  0
CLASS
  1
DICTIONARYVAR
  2
AcDbDictionaryVar
  3
AutoCAD 2000
 90
        0
280
     0
281
     0
  0
CLASS
  1
LONG_TRANSACTION
  2
AcDbLongTransaction
  3
AutoCAD 2000
 90
        0
280
     0
281
     0
  0
CLASS
  1
LWPOLYLINE
  2
AcDbPolyline
  3
AutoCAD 2000
 90
        0
280
     0
281
     1
  0
CLASS
  1
HATCH
  2
AcDbHatch
  3
AutoCAD 2000
 90
        0
280
     0
281
     1
  0
CLASS
  1
XRECORD
  2
AcDbXrecord
  3
AutoCAD 2000
 90
        0
280
     0
281
     0
  0
CLASS
  1
LONG_TRANSACTION
  2
AcDbLongTransaction
  3
AutoCAD 2000
 90
        0
280
     0
281
     0
  0
CLASS
  1
LWPOLYLINE
  2
AcDbPolyline
  3
AutoCAD 2000
 90
        0
280
     0
281
     1
  0
CLASS
  1
HATCH
  2
AcDbHatch
  3
AutoCAD 2000
 90
        0
280
     0
281
     1
  0
CLASS
  1
XRECORD
  2
AcDbXrecord
  3
AutoCAD 2000
 90
        0
280
     0
281
     0
  0
ENDSEC
  0
SECTION
  2
TABLES
  0
TABLE
  2
VPORT
  5
12
330
0
100
AcDbSymbolTable
 70
     3
  0
VPORT
  5
151D
330
12
100
AcDbSymbolTableRecord
100
AcDbViewportTableRecord
  2
*ACTIVE
 70
     0
 10
0.0
 20
0.0
 11
1.0
 21
1.0
 12
200.5308637365265
 22
124.0034295434681
 13
0.0
 23
0.0
 14
10.0
 24
10.0
 15
10.0
 25
10.0
 16
0.0
 26
0.0
 36
1.0
 17
0.0
 27
0.0
 37
0.0
 40
249.5592070256882
 41
1.621149897330595
 42
50.0
 43
0.0
 44
0.0
 50
0.0
 51
0.0
 71
     0
 72
   100
 73
     1
 74
     0
 75
     0
 76
     0
 77
     0
 78
     0
  0
ENDTAB
  0
TABLE
  2
LTYPE
  5
D
330
0
100
AcDbSymbolTable
 70
     3
  0
LTYPE
  5
E
330
D
100
AcDbSymbolTableRecord
100
AcDbLinetypeTableRecord
  2
BYBLOCK
 70
     0
  3

 72
    65
 73
     0
 40
0.0
  0
LTYPE
  5
F
330
D
100
AcDbSymbolTableRecord
100
AcDbLinetypeTableRecord
  2
BYLAYER
 70
     0
  3

 72
    65
 73
     0
 40
0.0
  0
LTYPE
  5
5
330
D
100
AcDbSymbolTableRecord
100
AcDbLinetypeTableRecord
  2
CONTINUOUS
 70
     0
  3
Solid line
 72
    65
 73
     0
 40
0.0
  0
LTYPE
  5
1C
330
D
100
AcDbSymbolTableRecord
100
AcDbLinetypeTableRecord
  2
CENTER
 70
     0
  3
Center ____ _ ____ _ ____ _ ____ _ ____ _ ____
 72
    65
 73
     4
 40
50.8
 49
31.75
 74
     0
 49
-6.349999999999999
 74
     0
 49
6.349999999999999
 74
     0
 49
-6.349999999999999
 74
     0
  0
LTYPE
  5
24
330
D
100
AcDbSymbolTableRecord
100
AcDbLinetypeTableRecord
  2
PHANTOM
 70
     0
  3
Phantom ______  __  __  ______  __  __  ______
 72
    65
 73
     6
 40
63.5
 49
31.75
 74
     0
 49
-6.349999999999999
 74
     0
 49
6.349999999999999
 74
     0
 49
-6.349999999999999
 74
     0
 49
6.349999999999999
 74
     0
 49
-6.349999999999999
 74
     0
  0
ENDTAB
  0
TABLE
  2
LAYER
  5
A
102
{ACAD_XDICTIONARY
360
10F6
102
}
330
0
100
AcDbSymbolTable
 70
     8
  0
LAYER
  5
4
330
A
100
AcDbSymbolTableRecord
100
AcDbLayerTableRecord
  2
0
 70
     0
 62
     7
  6
CONTINUOUS
  0
LAYER
  5
29
330
A
100
AcDbSymbolTableRecord
100
AcDbLayerTableRecord
  2
10
 70
     0
 62
     3
  6
CONTINUOUS
  0
LAYER
  5
158
330
A
100
AcDbSymbolTableRecord
100
AcDbLayerTableRecord
  2
11
 70
     0
 62
     2
  6
CONTINUOUS
  0
LAYER
  5
33
330
A
100
AcDbSymbolTableRecord
100
AcDbLayerTableRecord
  2
12
 70
     0
 62
     7
  6
CONTINUOUS
  0
LAYER
  5
1B
330
A
100
AcDbSymbolTableRecord
100
AcDbLayerTableRecord
  2
16
 70
     0
 62
     7
  6
CENTER
  0
LAYER
  5
2F
330
A
100
AcDbSymbolTableRecord
100
AcDbLayerTableRecord
  2
17
 70
     0
 62
     6
  6
CENTER
  0
LAYER
  5
23
330
A
100
AcDbSymbolTableRecord
100
AcDbLayerTableRecord
  2
18
 70
     0
 62
     1
  6
PHANTOM
  0
LAYER
  5
20
330
A
100
AcDbSymbolTableRecord
100
AcDbLayerTableRecord
  2
19
 70
     0
 62
     2
  6
CONTINUOUS
  0
ENDTAB
  0
TABLE
  2
STYLE
  5
B
330
0
100
AcDbSymbolTable
 70
     2
  0
STYLE
  5
C
330
B
100
AcDbSymbolTableRecord
100
AcDbTextStyleTableRecord
  2
STANDARD
 70
     0
 40
0.0
 41
1.0
 50
0.0
 71
     0
 42
2.5
  3
txt
  4

  0
STYLE
  5
21
330
B
100
AcDbSymbolTableRecord
100
AcDbTextStyleTableRecord
  2
STANDARD1
 70
     0
 40
0.0
 41
1.0
 50
0.0
 71
     0
 42
3.0
  3
MONOTXT
  4
BIGFONT
  0
ENDTAB
  0
TABLE
  2
VIEW
  5
10
330
0
100
AcDbSymbolTable
 70
     0
  0
ENDTAB
  0
TABLE
  2
UCS
  5
11
330
0
100
AcDbSymbolTable
 70
     0
  0
ENDTAB
  0
TABLE
  2
APPID
  5
14
330
0
100
AcDbSymbolTable
 70
     3
  0
APPID
  5
15
330
14
100
AcDbSymbolTableRecord
100
AcDbRegAppTableRecord
  2
ACAD
 70
     0
  0
APPID
  5
AE8
330
14
100
AcDbSymbolTableRecord
100
AcDbRegAppTableRecord
  2
CONTENTTABDATA
 70
     0
  0
APPID
  5
AE9
330
14
100
AcDbSymbolTableRecord
100
AcDbRegAppTableRecord
  2
CONTENTCURRENTTAB
 70
     0
  0
ENDTAB
  0
TABLE
  2
DIMSTYLE
  5
16
330
0
100
AcDbSymbolTable
 70
     1
  0
DIMSTYLE
105
1E
330
16
100
AcDbSymbolTableRecord
100
AcDbDimStyleTableRecord
  2
STANDARD
 70
     0
  3

  4

  5

  6

  7

 40
1.0
 41
2.5
 42
0.625
 43
3.75
 44
1.25
 45
0.0
 46
0.0
 47
0.0
 48
0.0
140
2.5
141
2.5
142
0.0
143
0.0394
144
1.0
145
0.0
146
1.0
147
0.625
 71
     0
 72
     0
 73
     0
 74
     0
 75
     0
 76
     0
 77
     1
 78
     8
170
     0
171
     4
172
     1
173
     0
174
     0
175
     0
176
   256
177
   256
178
   256
270
     8
271
     4
272
     4
273
     8
274
     4
340
C
275
     1
280
     0
281
     0
282
     0
283
     1
284
     0
285
     0
286
     0
287
     0
288
     0
  0
ENDTAB
  0
TABLE
  2
BLOCK_RECORD
  5
1
330
0
100
AcDbSymbolTable
 70
     0
  0
BLOCK_RECORD
  5
2
102
{ACAD_XDICTIONARY
360
10E7
102
}
330
1
100
AcDbSymbolTableRecord
100
AcDbBlockTableRecord
  2
*MODEL_SPACE
  0
BLOCK_RECORD
  5
7
102
{ACAD_XDICTIONARY
360
10E9
102
}
330
1
100
AcDbSymbolTableRecord
100
AcDbBlockTableRecord
  2
*PAPER_SPACE
  0
ENDTAB
  0
ENDSEC
  0
SECTION
  2
BLOCKS
  0
BLOCK
  5
3
330
2
100
AcDbEntity
  8
0
100
AcDbBlockBegin
  2
*MODEL_SPACE
 70
     0
 10
0.0
 20
0.0
 30
0.0
  3
*MODEL_SPACE
  1

  0
ENDBLK
  5
6
330
2
100
AcDbEntity
  8
0
100
AcDbBlockEnd
  0
BLOCK
  5
8
330
7
100
AcDbEntity
 67
     1
  8
0
100
AcDbBlockBegin
  2
*PAPER_SPACE
 70
     0
 10
0.0
 20
0.0
 30
0.0
  3
*PAPER_SPACE
  1

  0
ENDBLK
  5
9
330
7
100
AcDbEntity
 67
     1
  8
0
100
AcDbBlockEnd
  0
ENDSEC
  0
SECTION
  2
ENTITIES
  0
TEXT
  5
B01
330
2
100
AcDbEntity
  8
19
100
AcDbText
 10
330.0
 20
20.0
 30
0.0
 40
7.0
  1
j3_010ba
 50
0.0000025044776584
 41
0.7
  7
STANDARD1
100
AcDbText
  0
LINE
  5
DD9
330
2
100
AcDbEntity
  8
10
100
AcDbLine
 10
17.69999999999991
 20
105.4000015259
 30
0.0
 11
17.69999999999981
 21
82.59999084470001
 31
0.0
  0
LINE
  5
DDA
330
2
100
AcDbEntity
  8
10
100
AcDbLine
 10
16.8499999999999
 20
180.0
 30
0.0
 11
16.8499999999999
 21
82.50000000000005
 31
0.0
  0
LINE
  5
DDB
330
2
100
AcDbEntity
  8
10
100
AcDbLine
 10
30.34999999999989
 20
81.50000000000005
 30
0.0
 11
30.34999999999989
 21
181.0
 31
0.0
  0
LINE
  5
DDE
330
2
100
AcDbEntity
  8
10
100
AcDbLine
 10
26.10000152590008
 20
86.0999984741
 30
0.0
 11
26.10000152590008
 21
95.59999847410001
 31
0.0
  0
LINE
  5
DE0
330
2
100
AcDbEntity
  8
10
100
AcDbLine
 10
18.50000305179992
 20
104.5999984740999
 30
0.0
 11
18.50000305179992
 21
83.39999389650012
 31
0.0
  0
LINE
  5
DE1
330
2
100
AcDbEntity
  8
10
100
AcDbLine
 10
24.89999694829977
 20
104.5999984740999
 30
0.0
 11
24.89999694829974
 21
83.39999389650012
 31
0.0
  0
LINE
  5
DE2
330
2
100
AcDbEntity
  8
10
100
AcDbLine
 10
49.99999999999992
 20
41.00000000000005
 30
0.0
 11
49.99999999999999
 21
182.6499919999999
 31
0.0
  0
LINE
  5
DE3
330
2
100
AcDbEntity
  8
10
100
AcDbLine
 10
10.0
 20
182.6499919999999
 30
0.0
 11
10.0
 21
47.50000000000006
 31
0.0
  0
LINE
  5
DE5
330
2
100
AcDbEntity
  8
10
100
AcDbLine
 10
44.85000000000006
 20
81.50000000000007
 30
0.0
 11
17.84999999999991
 21
81.50000000000005
 31
0.0
  0
LINE
  5
DE6
330
2
100
AcDbEntity
  8
10
100
AcDbLine
 10
43.45000000000003
 20
79.00000000000005
 30
0.0
 11
26.45000000000003
 21
79.00000000000005
 31
0.0
  0
LINE
  5
DE7
330
2
100
AcDbEntity
  8
10
100
AcDbLine
 10
26.45000000000003
 20
55.50000000000006
 30
0.0
 11
36.45000000000003
 21
55.50000000000006
 31
0.0
  0
LINE
  5
DE8
330
2
100
AcDbEntity
  8
10
100
AcDbLine
 10
36.95000000000003
 20
56.50000000000005
 30
0.0
 11
26.95000000000003
 21
56.50000000000005
 31
0.0
  0
LINE
  5
DE9
330
2
100
AcDbEntity
  8
10
100
AcDbLine
 10
26.95000000000003
 20
67.50000000000006
 30
0.0
 11
42.95000000000003
 21
67.50000000000006
 31
0.0
  0
ARC
  5
DEA
330
2
100
AcDbEntity
  8
10
100
AcDbCircle
 10
37.50000000000092
 20
44.00000000000005
 30
0.0
 40
3.5
100
AcDbArc
 50
121.0027191338718
 51
58.9972808661281
  0
ARC
  5
DEB
330
2
100
AcDbEntity
  8
10
100
AcDbCircle
 10
37.50000000000092
 20
44.00000000000005
 30
0.0
 40
4.0
100
AcDbArc
 50
131.4096221092689
 51
48.59037789073106
  0
LINE
  5
DED
330
2
100
AcDbEntity
  8
10
100
AcDbLine
 10
19.99999999998817
 20
40.00000000000006
 30
0.0
 11
49.0000000000009
 21
40.00000000000006
 31
0.0
  0
LINE
  5
DEE
330
2
100
AcDbEntity
  8
10
100
AcDbLine
 10
10.5
 20
47.00000000000005
 30
0.0
 11
49.49999999999999
 21
47.00000000000005
 31
0.0
  0
LINE
  5
DEF
330
2
100
AcDbEntity
  8
10
100
AcDbLine
 10
41.39993743900094
 20
77.20000457760017
 30
0.0
 11
27.29994659430075
 21
77.20000457760017
 31
0.0
  0
LINE
  5
DF0
330
2
100
AcDbEntity
  8
10
100
AcDbLine
 10
27.29994659430075
 20
69.80000305180016
 30
0.0
 11
41.39993743900094
 21
69.80000305180016
 31
0.0
  0
LINE
  5
DF1
330
2
100
AcDbEntity
  8
10
100
AcDbLine
 10
27.69994049080104
 20
68.70000457760017
 30
0.0
 11
41.09994201670086
 21
68.70000457760017
 31
0.0
  0
LINE
  5
DF2
330
2
100
AcDbEntity
  8
10
100
AcDbLine
 10
39.89994506840092
 20
75.50000000000029
 30
0.0
 11
29.89994506840092
 21
75.50000000000029
 31
0.0
  0
LINE
  5
DF3
330
2
100
AcDbEntity
  8
10
100
AcDbLine
 10
39.89994506840092
 20
71.50000000000028
 30
0.0
 11
29.89994506840092
 21
71.50000000000028
 31
0.0
  0
LINE
  5
DF4
330
2
100
AcDbEntity
  8
10
100
AcDbLine
 10
41.09994201670086
 20
78.29999542240017
 30
0.0
 11
27.69994049080104
 21
78.29999542240017
 31
0.0
  0
LINE
  5
DF5
330
2
100
AcDbEntity
  8
12
100
AcDbLine
 10
11.53749164826967
 20
46.00000000000005
 30
0.0
 11
20.46250835170667
 21
46.00000000000005
 31
0.0
  0
ARC
  5
DF6
330
2
100
AcDbEntity
  8
12
100
AcDbCircle
 10
19.99999999998817
 20
41.00000000000005
 30
0.0
 40
1.000000000000002
100
AcDbArc
 50
180.0
 51
270.0
  0
LINE
  5
DF7
330
2
100
AcDbEntity
  8
12
100
AcDbLine
 10
15.99999999998817
 20
50.46250835171832
 30
0.0
 11
15.99999999998817
 21
41.53749164828179
 31
0.0
  0
LINE
  5
DF8
330
2
100
AcDbEntity
  8
12
100
AcDbLine
 10
12.99999999998817
 20
46.00000000000005
 30
0.0
 11
12.99999999998817
 21
44.50000000000005
 31
0.0
  0
LINE
  5
DF9
330
2
100
AcDbEntity
  8
12
100
AcDbLine
 10
18.99999999998817
 20
41.00000000000005
 30
0.0
 11
18.99999999998817
 21
46.00000000000005
 31
0.0
  0
ARC
  5
DFA
330
2
100
AcDbEntity
  8
12
100
AcDbCircle
 10
11.49999999998817
 20
44.50000000000005
 30
0.0
 40
1.500000000000003
100
AcDbArc
 50
180.0
 51
0.000000000000007
  0
ARC
  5
DFB
330
2
100
AcDbEntity
  8
10
100
AcDbCircle
 10
10.5
 20
47.50000000000006
 30
0.0
 40
0.5
100
AcDbArc
 50
180.0
 51
270.0
  0
ARC
  5
DFC
330
2
100
AcDbEntity
  8
12
100
AcDbCircle
 10
15.99999999998817
 20
46.00000000000005
 30
0.0
 40
3.000000000000007
100
AcDbArc
 50
0.0
 51
180.0
  0
LINE
  5
DFD
330
2
100
AcDbEntity
  8
10
100
AcDbLine
 10
26.90000006576748
 20
46.04999997854321
 30
0.0
 11
26.90000003298384
 21
45.29999997854321
 31
0.0
  0
LINE
  5
DFE
330
2
100
AcDbEntity
  8
10
100
AcDbLine
 10
28.1000001134512
 20
46.04999992608947
 30
0.0
 11
28.10000008066755
 21
45.29999992608947
 31
0.0
  0
ARC
  5
DFF
330
2
100
AcDbEntity
  8
10
100
AcDbCircle
 10
27.50000000000092
 20
44.00000000000005
 30
0.0
 40
4.0
100
AcDbArc
 50
131.4096221092689
 51
157.9756871629568
  0
ARC
  5
E00
330
2
100
AcDbEntity
  8
10
100
AcDbCircle
 10
27.50000000000092
 20
44.00000000000005
 30
0.0
 40
3.5
100
AcDbArc
 50
121.0027191338718
 51
154.6230664748482
  0
ARC
  5
E01
330
2
100
AcDbEntity
  8
10
100
AcDbCircle
 10
27.50000000000092
 20
44.00000000000005
 30
0.0
 40
3.5
100
AcDbArc
 50
180.0
 51
58.9972808661281
  0
ARC
  5
E02
330
2
100
AcDbEntity
  8
10
100
AcDbCircle
 10
27.50000000000092
 20
44.00000000000005
 30
0.0
 40
4.0
100
AcDbArc
 50
180.0
 51
48.59037789073106
  0
LINE
  5
E03
330
2
100
AcDbEntity
  8
10
100
AcDbLine
 10
23.69999999999981
 20
47.00000000000005
 30
0.0
 11
23.69999999999981
 21
45.50000000000006
 31
0.0
  0
LINE
  5
E04
330
2
100
AcDbEntity
  8
10
100
AcDbLine
 10
22.19999999999981
 20
47.00000000000005
 30
0.0
 11
22.19999999999981
 21
44.00000000000005
 31
0.0
  0
ARC
  5
E05
330
2
100
AcDbEntity
  8
10
100
AcDbCircle
 10
26.20000010450941
 20
45.30000000914111
 30
0.0
 40
0.6999999880790711
100
AcDbArc
 50
269.9999974955215
 51
0.0
  0
LINE
  5
E06
330
2
100
AcDbEntity
  8
10
100
AcDbLine
 10
28.09999993423436
 20
41.9500000214569
 30
0.0
 11
26.89999988655064
 21
41.95000007391064
 31
0.0
  0
ARC
  5
E07
330
2
100
AcDbEntity
  8
10
100
AcDbCircle
 10
26.19999999085986
 20
42.70000010450854
 30
0.0
 40
0.6999999880790711
100
AcDbArc
 50
0.0
 51
90.00000250447845
  0
LINE
  5
E08
330
2
100
AcDbEntity
  8
10
100
AcDbLine
 10
22.19999999999981
 20
44.00000000000005
 30
0.0
 11
24.89999999999965
 21
44.00000000000005
 31
0.0
  0
LINE
  5
E09
330
2
100
AcDbEntity
  8
10
100
AcDbLine
 10
26.20000007391174
 20
44.60000008066669
 30
0.0
 11
25.45000007391173
 21
44.60000011345033
 31
0.0
  0
LINE
  5
E0A
330
2
100
AcDbEntity
  8
10
100
AcDbLine
 10
26.89999991933429
 20
42.70000007391064
 30
0.0
 11
26.89999988655064
 21
41.95000007391064
 31
0.0
  0
LINE
  5
E0B
330
2
100
AcDbEntity
  8
10
100
AcDbLine
 10
26.20000002145754
 20
43.40000003298297
 30
0.0
 11
25.45000002145754
 21
43.40000006576661
 31
0.0
  0
LINE
  5
E0C
330
2
100
AcDbEntity
  8
10
100
AcDbLine
 10
25.45000007391173
 20
44.60000011345033
 30
0.0
 11
25.45000002145754
 21
43.40000006576661
 31
0.0
  0
LINE
  5
E0D
330
2
100
AcDbEntity
  8
10
100
AcDbLine
 10
23.69999999999981
 20
45.50000000000006
 30
0.0
 11
24.90000000000009
 21
45.50000000000006
 31
0.0
  0
LINE
  5
E0E
330
2
100
AcDbEntity
  8
10
100
AcDbLine
 10
24.89999999999965
 20
44.00000000000005
 30
0.0
 11
24.89999999999963
 21
45.50000000000006
 31
0.0
  0
LINE
  5
E0F
330
2
100
AcDbEntity
  8
10
100
AcDbLine
 10
29.54999997854431
 20
44.59999993423349
 30
0.0
 11
28.7999999785443
 21
44.59999996701713
 31
0.0
  0
ARC
  5
E10
330
2
100
AcDbEntity
  8
10
100
AcDbCircle
 10
28.80000000914198
 20
45.29999989549156
 30
0.0
 40
0.6999999880790711
100
AcDbArc
 50
179.9999949910434
 51
269.9999974955215
  0
LINE
  5
E11
330
2
100
AcDbEntity
  8
10
100
AcDbLine
 10
29.5499999260901
 20
43.39999988654978
 30
0.0
 11
28.79999992609011
 21
43.39999991933342
 31
0.0
  0
LINE
  5
E12
330
2
100
AcDbEntity
  8
10
100
AcDbLine
 10
29.54999997854431
 20
44.59999993423349
 30
0.0
 11
29.5499999260901
 21
43.39999988654978
 31
0.0
  0
ARC
  5
E13
330
2
100
AcDbEntity
  8
10
100
AcDbCircle
 10
28.79999989549243
 20
42.69999999085899
 30
0.0
 40
0.6999999880790711
100
AcDbArc
 50
89.99998884410013
 51
179.9999981787669
  0
LINE
  5
E14
330
2
100
AcDbEntity
  8
10
100
AcDbLine
 10
28.09999996701801
 20
42.7000000214569
 30
0.0
 11
28.09999993423436
 21
41.9500000214569
 31
0.0
  0
LINE
  5
E15
330
2
100
AcDbEntity
  8
10
100
AcDbLine
 10
28.1000001134512
 20
46.04999992608947
 30
0.0
 11
26.90000006576748
 21
46.04999997854321
 31
0.0
  0
CIRCLE
  5
E16
330
2
100
AcDbEntity
  8
10
100
AcDbCircle
 10
18.32500000000209
 20
74.9999999999971
 30
0.0
 40
2.249999999991104
  0
LINE
  5
E17
330
2
100
AcDbEntity
  8
10
100
AcDbLine
 10
25.45000000000003
 20
56.50000000000005
 30
0.0
 11
25.45000000000003
 21
78.00000000000006
 31
0.0
  0
LINE
  5
E18
330
2
100
AcDbEntity
  8
10
100
AcDbLine
 10
27.29994659430075
 20
77.20000457760017
 30
0.0
 11
27.29994659430075
 21
69.80000305180016
 31
0.0
  0
LINE
  5
E19
330
2
100
AcDbEntity
  8
10
100
AcDbLine
 10
26.19994049080104
 20
76.69999694820018
 30
0.0
 11
26.19994049080104
 21
70.30000305180016
 31
0.0
  0
LINE
  5
E1A
330
2
100
AcDbEntity
  8
10
100
AcDbLine
 10
29.89994506840092
 20
75.50000000000029
 30
0.0
 11
29.89994506840092
 21
71.50000000000028
 31
0.0
  0
LINE
  5
E1B
330
2
100
AcDbEntity
  8
10
100
AcDbLine
 10
26.45000000000003
 20
67.00000000000006
 30
0.0
 11
26.45000000000003
 21
57.00000000000006
 31
0.0
  0
ARC
  5
E1C
330
2
100
AcDbEntity
  8
10
100
AcDbCircle
 10
26.95000000000003
 20
57.00000000000006
 30
0.0
 40
0.5
100
AcDbArc
 50
180.0
 51
270.0
  0
ARC
  5
E1D
330
2
100
AcDbEntity
  8
10
100
AcDbCircle
 10
26.45000000000003
 20
56.50000000000005
 30
0.0
 40
1.0
100
AcDbArc
 50
180.0
 51
270.0
  0
LINE
  5
E1E
330
2
100
AcDbEntity
  8
10
100
AcDbLine
 10
25.45000000000003
 20
62.75000000000005
 30
0.0
 11
26.45000000000003
 21
62.75000000000005
 31
0.0
  0
LINE
  5
E1F
330
2
100
AcDbEntity
  8
10
100
AcDbLine
 10
26.45000000000003
 20
61.25000000000006
 30
0.0
 11
25.45000000000003
 21
61.25000000000006
 31
0.0
  0
LINE
  5
E20
330
2
100
AcDbEntity
  8
10
100
AcDbLine
 10
26.89994506840092
 20
69.40000152590011
 30
0.0
 11
27.69994049080104
 21
69.40000152590011
 31
0.0
  0
LINE
  5
E21
330
2
100
AcDbEntity
  8
10
100
AcDbLine
 10
27.29994659430075
 20
70.30000305180016
 30
0.0
 11
26.19994049080104
 21
70.30000305180016
 31
0.0
  0
ARC
  5
E22
330
2
100
AcDbEntity
  8
10
100
AcDbCircle
 10
26.95000000000003
 20
67.00000000000006
 30
0.0
 40
0.5
100
AcDbArc
 50
90.0
 51
180.0
  0
LINE
  5
E23
330
2
100
AcDbEntity
  8
10
100
AcDbLine
 10
26.89994506840092
 20
70.30000305180016
 30
0.0
 11
26.89994506840092
 21
69.40000152590011
 31
0.0
  0
LINE
  5
E24
330
2
100
AcDbEntity
  8
10
100
AcDbLine
 10
27.69994049080104
 20
68.70000457760017
 30
0.0
 11
27.69994049080104
 21
69.80000305180016
 31
0.0
  0
LINE
  5
E25
330
2
100
AcDbEntity
  8
10
100
AcDbLine
 10
17.69999999999981
 20
82.59999084470001
 30
0.0
 11
29.10000152590008
 21
82.59999084470001
 31
0.0
  0
LINE
  5
E26
330
2
100
AcDbEntity
  8
10
100
AcDbLine
 10
18.50000305179992
 20
83.39999389650012
 30
0.0
 11
28.30000610349996
 21
83.39999389650012
 31
0.0
  0
ARC
  5
E27
330
2
100
AcDbEntity
  8
10
100
AcDbCircle
 10
17.84999999999991
 20
82.50000000000005
 30
0.0
 40
1.0
100
AcDbArc
 50
180.0
 51
270.0
  0
LINE
  5
E28
330
2
100
AcDbEntity
  8
10
100
AcDbLine
 10
28.30000610349996
 20
83.39999389650012
 30
0.0
 11
28.30000610349996
 21
85.30000305169989
 31
0.0
  0
LINE
  5
E29
330
2
100
AcDbEntity
  8
10
100
AcDbLine
 10
29.10000152590008
 20
82.59999084470001
 30
0.0
 11
29.10000152590008
 21
86.0999984741
 31
0.0
  0
LINE
  5
E2A
330
2
100
AcDbEntity
  8
10
100
AcDbLine
 10
26.89994506840092
 20
77.60000610350022
 30
0.0
 11
27.69994049080104
 21
77.60000610350022
 31
0.0
  0
LINE
  5
E2B
330
2
100
AcDbEntity
  8
10
100
AcDbLine
 10
27.29994659430075
 20
76.69999694820018
 30
0.0
 11
26.19994049080104
 21
76.69999694820018
 31
0.0
  0
ARC
  5
E2C
330
2
100
AcDbEntity
  8
10
100
AcDbCircle
 10
26.45000000000003
 20
78.00000000000006
 30
0.0
 40
1.0
100
AcDbArc
 50
90.0
 51
180.0
  0
LINE
  5
E2D
330
2
100
AcDbEntity
  8
10
100
AcDbLine
 10
26.89994506840092
 20
77.60000610350022
 30
0.0
 11
26.89994506840092
 21
76.69999694820018
 31
0.0
  0
LINE
  5
E2E
330
2
100
AcDbEntity
  8
10
100
AcDbLine
 10
27.69994049080104
 20
77.20000457760017
 30
0.0
 11
27.69994049080104
 21
78.29999542240017
 31
0.0
  0
LINE
  5
E2F
330
2
100
AcDbEntity
  8
10
100
AcDbLine
 10
26.10000152590008
 20
86.0999984741
 30
0.0
 11
29.10000152590008
 21
86.0999984741
 31
0.0
  0
LINE
  5
E30
330
2
100
AcDbEntity
  8
10
100
AcDbLine
 10
24.89999694829975
 20
85.30000305169989
 30
0.0
 11
28.30000610349996
 21
85.30000305169989
 31
0.0
  0
LINE
  5
E31
330
2
100
AcDbEntity
  8
10
100
AcDbLine
 10
21.10000152590009
 20
85.90000152590011
 30
0.0
 11
22.29999847409999
 21
85.90000152590011
 31
0.0
  0
LINE
  5
E32
330
2
100
AcDbEntity
  8
10
100
AcDbLine
 10
21.10000152590009
 20
87.09999847410001
 30
0.0
 11
21.10000152590009
 21
85.90000152590011
 31
0.0
  0
LINE
  5
E33
330
2
100
AcDbEntity
  8
10
100
AcDbLine
 10
22.29999847409999
 20
85.90000152590011
 30
0.0
 11
22.29999847409999
 21
87.09999847410001
 31
0.0
  0
LINE
  5
E34
330
2
100
AcDbEntity
  8
10
100
AcDbLine
 10
21.10000152590009
 20
87.09999847410001
 30
0.0
 11
22.29999847409999
 21
87.09999847410001
 31
0.0
  0
ARC
  5
E35
330
2
100
AcDbEntity
  8
10
100
AcDbCircle
 10
36.45000000000003
 20
54.50000000000006
 30
0.0
 40
1.0
100
AcDbArc
 50
0.0
 51
90.0
  0
LINE
  5
E36
330
2
100
AcDbEntity
  8
10
100
AcDbLine
 10
44.45000000000002
 20
78.00000000000006
 30
0.0
 11
44.45000000000002
 21
50.00000000000006
 31
0.0
  0
LINE
  5
E37
330
2
100
AcDbEntity
  8
10
100
AcDbLine
 10
43.39994506840092
 20
50.40783341368143
 30
0.0
 11
43.39994506840092
 21
55.40783341368143
 31
0.0
  0
LINE
  5
E38
330
2
100
AcDbEntity
  8
10
100
AcDbLine
 10
38.79994659430074
 20
55.90783341368143
 30
0.0
 11
38.79994659430074
 21
49.90783341368143
 31
0.0
  0
LINE
  5
E39
330
2
100
AcDbEntity
  8
10
100
AcDbLine
 10
39.19994812020103
 20
55.40783341368143
 30
0.0
 11
39.19994812020103
 21
50.40783341368143
 31
0.0
  0
LINE
  5
E3A
330
2
100
AcDbEntity
  8
10
100
AcDbLine
 10
43.79994659430072
 20
55.90783341368143
 30
0.0
 11
43.79994659430077
 21
49.90783341368143
 31
0.0
  0
LINE
  5
E3B
330
2
100
AcDbEntity
  8
10
100
AcDbLine
 10
36.90000006576748
 20
46.04999997854321
 30
0.0
 11
36.90000003298384
 21
45.29999997854321
 31
0.0
  0
LINE
  5
E3C
330
2
100
AcDbEntity
  8
10
100
AcDbLine
 10
38.1000001134512
 20
46.04999992608947
 30
0.0
 11
38.10000008066755
 21
45.29999992608947
 31
0.0
  0
LINE
  5
E3D
330
2
100
AcDbEntity
  8
10
100
AcDbLine
 10
48.49999999999998
 20
45.50000000000006
 30
0.0
 11
48.49999999999998
 21
47.00000000000005
 31
0.0
  0
ARC
  5
E3E
330
2
100
AcDbEntity
  8
10
100
AcDbCircle
 10
38.80000000914198
 20
45.29999989549156
 30
0.0
 40
0.6999999880790711
100
AcDbArc
 50
179.9999949910434
 51
269.9999974955215
  0
ARC
  5
E3F
330
2
100
AcDbEntity
  8
10
100
AcDbCircle
 10
38.79999989549243
 20
42.69999999085899
 30
0.0
 40
0.6999999880790711
100
AcDbArc
 50
89.99998884410013
 51
179.9999981787669
  0
LINE
  5
E40
330
2
100
AcDbEntity
  8
10
100
AcDbLine
 10
36.20000007391174
 20
44.60000008066669
 30
0.0
 11
35.45000007391173
 21
44.60000011345033
 31
0.0
  0
ARC
  5
E41
330
2
100
AcDbEntity
  8
10
100
AcDbCircle
 10
36.20000010450941
 20
45.30000000914111
 30
0.0
 40
0.6999999880790711
100
AcDbArc
 50
269.9999974955215
 51
0.0
  0
LINE
  5
E42
330
2
100
AcDbEntity
  8
10
100
AcDbLine
 10
38.09999993423436
 20
41.9500000214569
 30
0.0
 11
36.89999988655064
 21
41.95000007391064
 31
0.0
  0
LINE
  5
E43
330
2
100
AcDbEntity
  8
10
100
AcDbLine
 10
38.09999996701801
 20
42.7000000214569
 30
0.0
 11
38.09999993423436
 21
41.9500000214569
 31
0.0
  0
LINE
  5
E44
330
2
100
AcDbEntity
  8
10
100
AcDbLine
 10
36.89999991933429
 20
42.70000007391064
 30
0.0
 11
36.89999988655064
 21
41.95000007391064
 31
0.0
  0
LINE
  5
E45
330
2
100
AcDbEntity
  8
10
100
AcDbLine
 10
36.20000002145754
 20
43.40000003298297
 30
0.0
 11
35.45000002145754
 21
43.40000006576661
 31
0.0
  0
ARC
  5
E46
330
2
100
AcDbEntity
  8
10
100
AcDbCircle
 10
36.19999999085986
 20
42.70000010450854
 30
0.0
 40
0.6999999880790711
100
AcDbArc
 50
0.0
 51
90.00000250447845
  0
LINE
  5
E47
330
2
100
AcDbEntity
  8
10
100
AcDbLine
 10
35.45000007391173
 20
44.60000011345033
 30
0.0
 11
35.45000002145754
 21
43.40000006576661
 31
0.0
  0
LINE
  5
E48
330
2
100
AcDbEntity
  8
10
100
AcDbLine
 10
39.54999997854431
 20
44.59999993423349
 30
0.0
 11
39.5499999260901
 21
43.39999988654978
 31
0.0
  0
LINE
  5
E49
330
2
100
AcDbEntity
  8
10
100
AcDbLine
 10
39.5499999260901
 20
43.39999988654978
 30
0.0
 11
38.79999992609011
 21
43.39999991933342
 31
0.0
  0
LINE
  5
E4A
330
2
100
AcDbEntity
  8
10
100
AcDbLine
 10
39.54999997854431
 20
44.59999993423349
 30
0.0
 11
38.7999999785443
 21
44.59999996701713
 31
0.0
  0
ARC
  5
E4B
330
2
100
AcDbEntity
  8
10
100
AcDbCircle
 10
49.0000000000009
 20
41.00000000000005
 30
0.0
 40
0.9999999999999998
100
AcDbArc
 50
269.9999999999979
 51
0.0
  0
LINE
  5
E4C
330
2
100
AcDbEntity
  8
10
100
AcDbLine
 10
47.30000000000017
 20
45.50000000000006
 30
0.0
 11
47.30000000000017
 21
44.00000000000005
 31
0.0
  0
LINE
  5
E4D
330
2
100
AcDbEntity
  8
10
100
AcDbLine
 10
48.49999999999998
 20
45.50000000000006
 30
0.0
 11
47.30000000000017
 21
45.50000000000006
 31
0.0
  0
LINE
  5
E4E
330
2
100
AcDbEntity
  8
10
100
AcDbLine
 10
49.99999999999999
 20
44.00000000000005
 30
0.0
 11
47.30000000000017
 21
44.00000000000005
 31
0.0
  0
LINE
  5
E4F
330
2
100
AcDbEntity
  8
10
100
AcDbLine
 10
38.45000000000003
 20
49.00000000000005
 30
0.0
 11
43.45000000000003
 21
49.00000000000005
 31
0.0
  0
LINE
  5
E50
330
2
100
AcDbEntity
  8
10
100
AcDbLine
 10
43.79994659430077
 20
49.90783341368143
 30
0.0
 11
38.79994659430074
 21
49.90783341368143
 31
0.0
  0
LINE
  5
E51
330
2
100
AcDbEntity
  8
10
100
AcDbLine
 10
43.39994506840092
 20
50.40783341368143
 30
0.0
 11
39.19994812020103
 21
50.40783341368143
 31
0.0
  0
LINE
  5
E52
330
2
100
AcDbEntity
  8
10
100
AcDbLine
 10
37.45000000000003
 20
54.50000000000006
 30
0.0
 11
37.45000000000003
 21
50.00000000000006
 31
0.0
  0
ARC
  5
E53
330
2
100
AcDbEntity
  8
10
100
AcDbCircle
 10
38.45000000000003
 20
50.00000000000006
 30
0.0
 40
1.0
100
AcDbArc
 50
180.0
 51
270.0
  0
LINE
  5
E54
330
2
100
AcDbEntity
  8
10
100
AcDbLine
 10
38.1000001134512
 20
46.04999992608947
 30
0.0
 11
36.90000006576748
 21
46.04999997854321
 31
0.0
  0
LINE
  5
E55
330
2
100
AcDbEntity
  8
10
100
AcDbLine
 10
40.05119781500069
 20
51.65784104308142
 30
0.0
 11
40.05119781500069
 21
52.15784104308141
 31
0.0
  0
LINE
  5
E56
330
2
100
AcDbEntity
  8
10
100
AcDbLine
 10
40.05119781500069
 20
53.65784104308142
 30
0.0
 11
40.05119781500069
 21
54.15784104308142
 31
0.0
  0
LINE
  5
E57
330
2
100
AcDbEntity
  8
10
100
AcDbLine
 10
40.05119781500069
 20
52.15784104308141
 30
0.0
 11
39.54994659430075
 21
52.15784104308141
 31
0.0
  0
LINE
  5
E58
330
2
100
AcDbEntity
  8
10
100
AcDbLine
 10
39.54994659430075
 20
52.15784104308141
 30
0.0
 11
39.54994659430075
 21
51.65784104308142
 31
0.0
  0
LINE
  5
E59
330
2
100
AcDbEntity
  8
10
100
AcDbLine
 10
40.05119781500069
 20
51.65784104308142
 30
0.0
 11
39.54994659430075
 21
51.65784104308142
 31
0.0
  0
LINE
  5
E5A
330
2
100
AcDbEntity
  8
10
100
AcDbLine
 10
40.05119781500069
 20
54.15784104308142
 30
0.0
 11
39.54994659430075
 21
54.15784104308142
 31
0.0
  0
LINE
  5
E5B
330
2
100
AcDbEntity
  8
10
100
AcDbLine
 10
39.54994659430075
 20
54.15784104308142
 30
0.0
 11
39.54994659430075
 21
53.65784104308142
 31
0.0
  0
LINE
  5
E5C
330
2
100
AcDbEntity
  8
10
100
AcDbLine
 10
40.05119781500069
 20
53.65784104308142
 30
0.0
 11
39.54994659430075
 21
53.65784104308142
 31
0.0
  0
ARC
  5
E5D
330
2
100
AcDbEntity
  8
10
100
AcDbCircle
 10
43.45000000000003
 20
50.00000000000006
 30
0.0
 40
1.0
100
AcDbArc
 50
270.0
 51
0.0
  0
ARC
  5
E5E
330
2
100
AcDbEntity
  8
10
100
AcDbCircle
 10
49.49999999999999
 20
47.50000000000006
 30
0.0
 40
0.5
100
AcDbArc
 50
270.0
 51
0.0
  0
LINE
  5
E5F
330
2
100
AcDbEntity
  8
10
100
AcDbLine
 10
42.49994354260069
 20
70.90000152590011
 30
0.0
 11
42.49994354260069
 21
76.09999847410023
 31
0.0
  0
LINE
  5
E60
330
2
100
AcDbEntity
  8
10
100
AcDbLine
 10
43.59993438730088
 20
71.30000305180016
 30
0.0
 11
43.59993438730088
 21
75.69999694820018
 31
0.0
  0
LINE
  5
E61
330
2
100
AcDbEntity
  8
10
100
AcDbLine
 10
39.89994506840092
 20
75.50000000000029
 30
0.0
 11
39.89994506840092
 21
71.50000000000028
 31
0.0
  0
LINE
  5
E62
330
2
100
AcDbEntity
  8
10
100
AcDbLine
 10
43.45000000000003
 20
57.50000000000006
 30
0.0
 11
43.45000000000003
 21
67.00000000000006
 31
0.0
  0
LINE
  5
E63
330
2
100
AcDbEntity
  8
10
100
AcDbLine
 10
42.95000000000003
 20
57.00000000000006
 30
0.0
 11
37.81602540380002
 21
57.00000000000006
 31
0.0
  0
LINE
  5
E64
330
2
100
AcDbEntity
  8
10
100
AcDbLine
 10
43.39994506840092
 20
55.40783341368143
 30
0.0
 11
39.19994812020103
 21
55.40783341368143
 31
0.0
  0
LINE
  5
E65
330
2
100
AcDbEntity
  8
10
100
AcDbLine
 10
43.79994659430072
 20
55.90783341368143
 30
0.0
 11
38.79994659430074
 21
55.90783341368143
 31
0.0
  0
ARC
  5
E66
330
2
100
AcDbEntity
  8
10
100
AcDbCircle
 10
36.95000000000003
 20
57.00000000000006
 30
0.0
 40
0.5
100
AcDbArc
 50
270.0
 51
330.0000000000034
  0
ARC
  5
E67
330
2
100
AcDbEntity
  8
10
100
AcDbCircle
 10
37.81602540380002
 20
56.50000000000005
 30
0.0
 40
0.5
100
AcDbArc
 50
90.0
 51
150.0000000000035
  0
ARC
  5
E68
330
2
100
AcDbEntity
  8
10
100
AcDbCircle
 10
42.95000000000003
 20
57.50000000000006
 30
0.0
 40
0.5
100
AcDbArc
 50
270.0
 51
0.0
  0
LINE
  5
E69
330
2
100
AcDbEntity
  8
10
100
AcDbLine
 10
43.45000000000003
 20
62.75000000000005
 30
0.0
 11
44.45000000000002
 21
62.75000000000005
 31
0.0
  0
LINE
  5
E6A
330
2
100
AcDbEntity
  8
10
100
AcDbLine
 10
44.45000000000002
 20
61.25000000000006
 30
0.0
 11
43.45000000000003
 21
61.25000000000006
 31
0.0
  0
LINE
  5
E6B
330
2
100
AcDbEntity
  8
10
100
AcDbLine
 10
43.59993438730088
 20
71.30000305180016
 30
0.0
 11
42.49994354260069
 21
71.30000305180016
 31
0.0
  0
LINE
  5
E6C
330
2
100
AcDbEntity
  8
10
100
AcDbLine
 10
41.39993743900094
 20
69.40000152590011
 30
0.0
 11
42.89994506840092
 21
70.90000152590011
 31
0.0
  0
LINE
  5
E6D
330
2
100
AcDbEntity
  8
10
100
AcDbLine
 10
41.09994201670086
 20
69.80000305180016
 30
0.0
 11
41.09994201670086
 21
68.70000457760017
 31
0.0
  0
LINE
  5
E6E
330
2
100
AcDbEntity
  8
10
100
AcDbLine
 10
41.39993743900094
 20
69.40000152590011
 30
0.0
 11
41.09994201670086
 21
69.40000152590011
 31
0.0
  0
LINE
  5
E6F
330
2
100
AcDbEntity
  8
10
100
AcDbLine
 10
42.49994354260069
 20
70.90000152590011
 30
0.0
 11
41.39993743900094
 21
69.80000305180016
 31
0.0
  0
ARC
  5
E70
330
2
100
AcDbEntity
  8
10
100
AcDbCircle
 10
42.95000000000003
 20
67.00000000000006
 30
0.0
 40
0.5
100
AcDbArc
 50
0.0
 51
90.0
  0
LINE
  5
E71
330
2
100
AcDbEntity
  8
10
100
AcDbLine
 10
42.89994506840092
 20
70.90000152590011
 30
0.0
 11
42.89994506840092
 21
71.30000305180016
 31
0.0
  0
LINE
  5
E73
330
2
100
AcDbEntity
  8
10
100
AcDbLine
 10
43.59993438730088
 20
75.69999694820018
 30
0.0
 11
42.49994354260069
 21
75.69999694820018
 31
0.0
  0
LINE
  5
E74
330
2
100
AcDbEntity
  8
10
100
AcDbLine
 10
42.89994506840092
 20
76.09999847410023
 30
0.0
 11
41.39993743900094
 21
77.60000610350022
 31
0.0
  0
LINE
  5
E75
330
2
100
AcDbEntity
  8
10
100
AcDbLine
 10
41.39993743900094
 20
77.60000610350022
 30
0.0
 11
41.09994201670086
 21
77.60000610350022
 31
0.0
  0
LINE
  5
E76
330
2
100
AcDbEntity
  8
10
100
AcDbLine
 10
41.09994201670086
 20
78.29999542240017
 30
0.0
 11
41.09994201670086
 21
77.20000457760017
 31
0.0
  0
LINE
  5
E77
330
2
100
AcDbEntity
  8
10
100
AcDbLine
 10
41.39993743900094
 20
77.20000457760017
 30
0.0
 11
42.49994354260069
 21
76.09999847410023
 31
0.0
  0
ARC
  5
E78
330
2
100
AcDbEntity
  8
10
100
AcDbCircle
 10
43.45000000000003
 20
78.00000000000006
 30
0.0
 40
1.0
100
AcDbArc
 50
0.0
 51
90.0
  0
LINE
  5
E79
330
2
100
AcDbEntity
  8
10
100
AcDbLine
 10
42.89994506840092
 20
76.09999847410023
 30
0.0
 11
42.89994506840092
 21
75.69999694820018
 31
0.0
  0
LINE
  5
E86
330
2
100
AcDbEntity
  8
10
100
AcDbLine
 10
32.95000000000003
 20
81.50000000000005
 30
0.0
 11
32.95000000000003
 21
164.0
 31
0.0
  0
LINE
  5
E87
330
2
100
AcDbEntity
  8
10
100
AcDbLine
 10
22.29999847409999
 20
168.0999984740999
 30
0.0
 11
22.29999847409999
 21
169.2999954223999
 31
0.0
  0
LINE
  5
E88
330
2
100
AcDbEntity
  8
10
100
AcDbLine
 10
21.10000152590009
 20
169.2999954223999
 30
0.0
 11
21.10000152590009
 21
168.0999984740999
 31
0.0
  0
LINE
  5
E89
330
2
100
AcDbEntity
  8
10
100
AcDbLine
 10
24.89999694829982
 20
179.2999954223999
 30
0.0
 11
24.89999694829975
 21
135.5999984741
 31
0.0
  0
LINE
  5
E8C
330
2
100
AcDbEntity
  8
10
100
AcDbLine
 10
18.50000305179992
 20
179.2999954223999
 30
0.0
 11
18.50000305179992
 21
135.5999984741
 31
0.0
  0
LINE
  5
E8D
330
2
100
AcDbEntity
  8
10
100
AcDbLine
 10
26.10000152590008
 20
142.7999954223999
 30
0.0
 11
26.10000152590008
 21
172.0999984740999
 31
0.0
  0
LINE
  5
E8E
330
2
100
AcDbEntity
  8
10
100
AcDbLine
 10
17.70000000000027
 20
180.0999984741
 30
0.0
 11
17.70000000000005
 21
134.7999954223999
 31
0.0
  0
LINE
  5
E97
330
2
100
AcDbEntity
  8
10
100
AcDbLine
 10
17.70000000000005
 20
133.9999923705998
 30
0.0
 11
17.69999999999991
 21
106.1999893187999
 31
0.0
  0
LINE
  5
E98
330
2
100
AcDbEntity
  8
10
100
AcDbLine
 10
24.89999694829975
 20
133.1999893187999
 30
0.0
 11
24.89999694829975
 21
106.9999923705998
 31
0.0
  0
LINE
  5
E99
330
2
100
AcDbEntity
  8
10
100
AcDbLine
 10
18.50000305179992
 20
133.1999893187999
 30
0.0
 11
18.50000305179992
 21
106.9999923705998
 31
0.0
  0
LINE
  5
E9A
330
2
100
AcDbEntity
  8
10
100
AcDbLine
 10
26.10000152590008
 20
129.2499923705998
 30
0.0
 11
26.10000152590008
 21
133.9999923705998
 31
0.0
  0
LINE
  5
E9B
330
2
100
AcDbEntity
  8
10
100
AcDbLine
 10
29.10000152590008
 20
110.9499893187999
 30
0.0
 11
29.10000152590008
 21
114.4499893187999
 31
0.0
  0
LINE
  5
E9C
330
2
100
AcDbEntity
  8
10
100
AcDbLine
 10
28.30000610349996
 20
111.7499923705998
 30
0.0
 11
28.30000610349996
 21
113.6499862671001
 31
0.0
  0
LINE
  5
E9D
330
2
100
AcDbEntity
  8
10
100
AcDbLine
 10
26.10000152590008
 20
105.4000015259
 30
0.0
 11
17.69999999999981
 21
105.4000015259
 31
0.0
  0
LINE
  5
E9E
330
2
100
AcDbEntity
  8
10
100
AcDbLine
 10
26.10000152590008
 20
106.1999893187999
 30
0.0
 11
17.69999999999981
 21
106.1999893187999
 31
0.0
  0
LINE
  5
E9F
330
2
100
AcDbEntity
  8
10
100
AcDbLine
 10
24.89999694829975
 20
104.5999984740999
 30
0.0
 11
18.50000305179992
 21
104.5999984740999
 31
0.0
  0
LINE
  5
EA0
330
2
100
AcDbEntity
  8
10
100
AcDbLine
 10
24.89999694829975
 20
106.9999923705998
 30
0.0
 11
18.50000305179992
 21
106.9999923705998
 31
0.0
  0
LINE
  5
EA1
330
2
100
AcDbEntity
  8
10
100
AcDbLine
 10
26.10000152590008
 20
99.09999084470001
 30
0.0
 11
26.10000152590008
 21
105.4000015259
 31
0.0
  0
LINE
  5
EA2
330
2
100
AcDbEntity
  8
10
100
AcDbLine
 10
24.89999694829975
 20
96.40000152590012
 30
0.0
 11
28.30000610349996
 21
96.40000152590012
 31
0.0
  0
LINE
  5
EA3
330
2
100
AcDbEntity
  8
10
100
AcDbLine
 10
24.89999694829975
 20
98.29999542239995
 30
0.0
 11
28.30000610349996
 21
98.29999542239995
 31
0.0
  0
LINE
  5
EA4
330
2
100
AcDbEntity
  8
10
100
AcDbLine
 10
26.10000152590008
 20
95.59999847410001
 30
0.0
 11
29.10000152590008
 21
95.59999847410001
 31
0.0
  0
LINE
  5
EA5
330
2
100
AcDbEntity
  8
10
100
AcDbLine
 10
26.10000152590008
 20
99.09999084470001
 30
0.0
 11
29.10000152590008
 21
99.09999084470001
 31
0.0
  0
LINE
  5
EA6
330
2
100
AcDbEntity
  8
10
100
AcDbLine
 10
21.10000152590009
 20
94.59999847410001
 30
0.0
 11
21.10000152590009
 21
93.39998626710013
 31
0.0
  0
LINE
  5
EA7
330
2
100
AcDbEntity
  8
10
100
AcDbLine
 10
22.29999847409999
 20
93.39998626710013
 30
0.0
 11
22.29999847409999
 21
94.59999847410001
 31
0.0
  0
LINE
  5
EA8
330
2
100
AcDbEntity
  8
10
100
AcDbLine
 10
21.10000152590009
 20
94.59999847410001
 30
0.0
 11
22.29999847409999
 21
94.59999847410001
 31
0.0
  0
LINE
  5
EA9
330
2
100
AcDbEntity
  8
10
100
AcDbLine
 10
21.10000152590009
 20
93.39998626710013
 30
0.0
 11
22.29999847409999
 21
93.39998626710013
 31
0.0
  0
LINE
  5
EAA
330
2
100
AcDbEntity
  8
10
100
AcDbLine
 10
21.10000152590009
 20
102.0999984741
 30
0.0
 11
21.10000152590009
 21
100.8999862671001
 31
0.0
  0
LINE
  5
EAB
330
2
100
AcDbEntity
  8
10
100
AcDbLine
 10
22.29999847409999
 20
100.8999862671001
 30
0.0
 11
22.29999847409999
 21
102.0999984741
 31
0.0
  0
LINE
  5
EAC
330
2
100
AcDbEntity
  8
10
100
AcDbLine
 10
21.10000152590009
 20
102.0999984741
 30
0.0
 11
22.29999847409999
 21
102.0999984741
 31
0.0
  0
LINE
  5
EAD
330
2
100
AcDbEntity
  8
10
100
AcDbLine
 10
21.10000152590009
 20
100.8999862671001
 30
0.0
 11
22.29999847409999
 21
100.8999862671001
 31
0.0
  0
LINE
  5
EAE
330
2
100
AcDbEntity
  8
10
100
AcDbLine
 10
29.10000152590008
 20
95.59999847410001
 30
0.0
 11
29.10000152590008
 21
99.09999084470001
 31
0.0
  0
LINE
  5
EAF
330
2
100
AcDbEntity
  8
10
100
AcDbLine
 10
28.30000610349996
 20
96.40000152590012
 30
0.0
 11
28.30000610349996
 21
98.29999542239995
 31
0.0
  0
LINE
  5
EB0
330
2
100
AcDbEntity
  8
10
100
AcDbLine
 10
24.89999694829975
 20
111.7499923705998
 30
0.0
 11
28.30000610349996
 21
111.7499923705998
 31
0.0
  0
LINE
  5
EB1
330
2
100
AcDbEntity
  8
10
100
AcDbLine
 10
26.10000152590008
 20
110.9499893187999
 30
0.0
 11
29.10000152590008
 21
110.9499893187999
 31
0.0
  0
LINE
  5
EB2
330
2
100
AcDbEntity
  8
10
100
AcDbLine
 10
26.10000152590008
 20
110.9499893187999
 30
0.0
 11
26.10000152590008
 21
106.1999893187999
 31
0.0
  0
LINE
  5
EB3
330
2
100
AcDbEntity
  8
10
100
AcDbLine
 10
21.10000152590009
 20
110.6999893187999
 30
0.0
 11
22.29999847409999
 21
110.6999893187999
 31
0.0
  0
LINE
  5
EB4
330
2
100
AcDbEntity
  8
10
100
AcDbLine
 10
21.10000152590009
 20
109.4999923705998
 30
0.0
 11
21.10000152590009
 21
110.6999893187999
 31
0.0
  0
LINE
  5
EB5
330
2
100
AcDbEntity
  8
10
100
AcDbLine
 10
21.10000152590009
 20
109.4999923705998
 30
0.0
 11
22.29999847409999
 21
109.4999923705998
 31
0.0
  0
LINE
  5
EB6
330
2
100
AcDbEntity
  8
10
100
AcDbLine
 10
22.29999847409999
 20
110.6999893187999
 30
0.0
 11
22.29999847409999
 21
109.4999923705998
 31
0.0
  0
LINE
  5
EB7
330
2
100
AcDbEntity
  8
10
100
AcDbLine
 10
26.10000152590008
 20
114.4499893187999
 30
0.0
 11
26.10000152590008
 21
125.7499923705998
 31
0.0
  0
LINE
  5
EB8
330
2
100
AcDbEntity
  8
10
100
AcDbLine
 10
24.89999694829975
 20
113.6499862671001
 30
0.0
 11
28.30000610349996
 21
113.6499862671001
 31
0.0
  0
LINE
  5
EB9
330
2
100
AcDbEntity
  8
10
100
AcDbLine
 10
26.10000152590008
 20
114.4499893187999
 30
0.0
 11
29.10000152590008
 21
114.4499893187999
 31
0.0
  0
LINE
  5
EBA
330
2
100
AcDbEntity
  8
10
100
AcDbLine
 10
21.10000152590009
 20
115.6999893187999
 30
0.0
 11
22.29999847409999
 21
115.6999893187999
 31
0.0
  0
LINE
  5
EBB
330
2
100
AcDbEntity
  8
10
100
AcDbLine
 10
21.10000152590009
 20
114.4999923705998
 30
0.0
 11
22.29999847409999
 21
114.4999923705998
 31
0.0
  0
LINE
  5
EBC
330
2
100
AcDbEntity
  8
10
100
AcDbLine
 10
22.29999847409999
 20
114.4999923705998
 30
0.0
 11
22.29999847409999
 21
115.6999893187999
 31
0.0
  0
LINE
  5
EBD
330
2
100
AcDbEntity
  8
10
100
AcDbLine
 10
21.10000152590009
 20
115.6999893187999
 30
0.0
 11
21.10000152590009
 21
114.4999923705998
 31
0.0
  0
LINE
  5
EBE
330
2
100
AcDbEntity
  8
10
100
AcDbLine
 10
21.10000152590009
 20
120.6999893187999
 30
0.0
 11
22.29999847409999
 21
120.6999893187999
 31
0.0
  0
LINE
  5
EBF
330
2
100
AcDbEntity
  8
10
100
AcDbLine
 10
21.10000152590009
 20
119.4999923705998
 30
0.0
 11
22.29999847409999
 21
119.4999923705998
 31
0.0
  0
LINE
  5
EC0
330
2
100
AcDbEntity
  8
10
100
AcDbLine
 10
22.29999847409999
 20
119.4999923705998
 30
0.0
 11
22.29999847409999
 21
120.6999893187999
 31
0.0
  0
LINE
  5
EC1
330
2
100
AcDbEntity
  8
10
100
AcDbLine
 10
21.10000152590009
 20
120.6999893187999
 30
0.0
 11
21.10000152590009
 21
119.4999923705998
 31
0.0
  0
LINE
  5
EC2
330
2
100
AcDbEntity
  8
10
100
AcDbLine
 10
24.89999694829975
 20
128.4499893187999
 30
0.0
 11
28.30000610349996
 21
128.4499893187999
 31
0.0
  0
LINE
  5
EC3
330
2
100
AcDbEntity
  8
10
100
AcDbLine
 10
24.89999694829975
 20
126.5499954223999
 30
0.0
 11
28.30000610349996
 21
126.5499954223999
 31
0.0
  0
LINE
  5
EC4
330
2
100
AcDbEntity
  8
10
100
AcDbLine
 10
26.10000152590008
 20
125.7499923705998
 30
0.0
 11
29.10000152590008
 21
125.7499923705998
 31
0.0
  0
LINE
  5
EC5
330
2
100
AcDbEntity
  8
10
100
AcDbLine
 10
26.10000152590008
 20
129.2499923705998
 30
0.0
 11
29.10000152590008
 21
129.2499923705998
 31
0.0
  0
LINE
  5
EC6
330
2
100
AcDbEntity
  8
10
100
AcDbLine
 10
21.10000152590009
 20
124.4999923705998
 30
0.0
 11
22.29999847409999
 21
124.4999923705998
 31
0.0
  0
LINE
  5
EC7
330
2
100
AcDbEntity
  8
10
100
AcDbLine
 10
22.29999847409999
 20
124.4999923705998
 30
0.0
 11
22.29999847409999
 21
125.6999893187999
 31
0.0
  0
LINE
  5
EC8
330
2
100
AcDbEntity
  8
10
100
AcDbLine
 10
21.10000152590009
 20
125.6999893187999
 30
0.0
 11
22.29999847409999
 21
125.6999893187999
 31
0.0
  0
LINE
  5
EC9
330
2
100
AcDbEntity
  8
10
100
AcDbLine
 10
21.10000152590009
 20
125.6999893187999
 30
0.0
 11
21.10000152590009
 21
124.4999923705998
 31
0.0
  0
LINE
  5
ECA
330
2
100
AcDbEntity
  8
10
100
AcDbLine
 10
21.10000152590009
 20
129.4999923705998
 30
0.0
 11
22.29999847409999
 21
129.4999923705998
 31
0.0
  0
LINE
  5
ECB
330
2
100
AcDbEntity
  8
10
100
AcDbLine
 10
22.29999847409999
 20
129.4999923705998
 30
0.0
 11
22.29999847409999
 21
130.6999893187999
 31
0.0
  0
LINE
  5
ECC
330
2
100
AcDbEntity
  8
10
100
AcDbLine
 10
21.10000152590009
 20
130.6999893187999
 30
0.0
 11
22.29999847409999
 21
130.6999893187999
 31
0.0
  0
LINE
  5
ECD
330
2
100
AcDbEntity
  8
10
100
AcDbLine
 10
21.10000152590009
 20
130.6999893187999
 30
0.0
 11
21.10000152590009
 21
129.4999923705998
 31
0.0
  0
LINE
  5
ECE
330
2
100
AcDbEntity
  8
10
100
AcDbLine
 10
29.10000152590008
 20
125.7499923705998
 30
0.0
 11
29.10000152590008
 21
129.2499923705998
 31
0.0
  0
LINE
  5
ECF
330
2
100
AcDbEntity
  8
10
100
AcDbLine
 10
28.30000610349996
 20
126.5499954223999
 30
0.0
 11
28.30000610349996
 21
128.4499893187999
 31
0.0
  0
LINE
  5
ED3
330
2
100
AcDbEntity
  8
10
100
AcDbLine
 10
26.10000152590008
 20
133.9999923705998
 30
0.0
 11
17.69999999999981
 21
133.9999923705998
 31
0.0
  0
LINE
  5
ED4
330
2
100
AcDbEntity
  8
10
100
AcDbLine
 10
26.10000152590008
 20
134.7999954223999
 30
0.0
 11
17.69999999999981
 21
134.7999954223999
 31
0.0
  0
LINE
  5
ED5
330
2
100
AcDbEntity
  8
10
100
AcDbLine
 10
24.89999694829975
 20
133.1999893187999
 30
0.0
 11
18.50000305179992
 21
133.1999893187999
 31
0.0
  0
LINE
  5
ED6
330
2
100
AcDbEntity
  8
10
100
AcDbLine
 10
24.89999694829975
 20
135.5999984741
 30
0.0
 11
18.50000305179992
 21
135.5999984741
 31
0.0
  0
LINE
  5
ED7
330
2
100
AcDbEntity
  8
10
100
AcDbLine
 10
29.10000152590008
 20
139.2999954223999
 30
0.0
 11
29.10000152590008
 21
142.7999954223999
 31
0.0
  0
LINE
  5
ED8
330
2
100
AcDbEntity
  8
10
100
AcDbLine
 10
28.30000610349996
 20
140.0999984741
 30
0.0
 11
28.30000610349996
 21
141.9999923705998
 31
0.0
  0
LINE
  5
ED9
330
2
100
AcDbEntity
  8
10
100
AcDbLine
 10
24.89999694829975
 20
140.0999984741
 30
0.0
 11
28.30000610349996
 21
140.0999984741
 31
0.0
  0
LINE
  5
EDA
330
2
100
AcDbEntity
  8
10
100
AcDbLine
 10
26.10000152590008
 20
139.2999954223999
 30
0.0
 11
29.10000152590008
 21
139.2999954223999
 31
0.0
  0
LINE
  5
EDB
330
2
100
AcDbEntity
  8
10
100
AcDbLine
 10
26.10000152590008
 20
139.2999954223999
 30
0.0
 11
26.10000152590008
 21
134.7999954223999
 31
0.0
  0
LINE
  5
EDC
330
2
100
AcDbEntity
  8
10
100
AcDbLine
 10
21.10000152590009
 20
139.2999954223999
 30
0.0
 11
22.29999847409999
 21
139.2999954223999
 31
0.0
  0
LINE
  5
EDD
330
2
100
AcDbEntity
  8
10
100
AcDbLine
 10
21.10000152590009
 20
138.0999832153
 30
0.0
 11
21.10000152590009
 21
139.2999954223999
 31
0.0
  0
LINE
  5
EDE
330
2
100
AcDbEntity
  8
10
100
AcDbLine
 10
21.10000152590009
 20
138.0999832153
 30
0.0
 11
22.29999847409999
 21
138.0999832153
 31
0.0
  0
LINE
  5
EDF
330
2
100
AcDbEntity
  8
10
100
AcDbLine
 10
22.29999847409999
 20
139.2999954223999
 30
0.0
 11
22.29999847409999
 21
138.0999832153
 31
0.0
  0
LINE
  5
EE2
330
2
100
AcDbEntity
  8
10
100
AcDbLine
 10
24.89999694829975
 20
141.9999923705998
 30
0.0
 11
28.30000610349996
 21
141.9999923705998
 31
0.0
  0
LINE
  5
EE3
330
2
100
AcDbEntity
  8
10
100
AcDbLine
 10
26.10000152590008
 20
142.7999954223999
 30
0.0
 11
29.10000152590008
 21
142.7999954223999
 31
0.0
  0
LINE
  5
EE4
330
2
100
AcDbEntity
  8
10
100
AcDbLine
 10
21.10000152590009
 20
146.7999801635999
 30
0.0
 11
22.29999847409999
 21
146.7999801635999
 31
0.0
  0
LINE
  5
EE5
330
2
100
AcDbEntity
  8
10
100
AcDbLine
 10
21.10000152590009
 20
145.5999832153
 30
0.0
 11
22.29999847409999
 21
145.5999832153
 31
0.0
  0
LINE
  5
EE6
330
2
100
AcDbEntity
  8
10
100
AcDbLine
 10
22.29999847409999
 20
145.5999832153
 30
0.0
 11
22.29999847409999
 21
146.7999801635999
 31
0.0
  0
LINE
  5
EE7
330
2
100
AcDbEntity
  8
10
100
AcDbLine
 10
21.10000152590009
 20
146.7999801635999
 30
0.0
 11
21.10000152590009
 21
145.5999832153
 31
0.0
  0
LINE
  5
EE8
330
2
100
AcDbEntity
  8
10
100
AcDbLine
 10
21.10000152590009
 20
154.2999954223999
 30
0.0
 11
22.29999847409999
 21
154.2999954223999
 31
0.0
  0
LINE
  5
EE9
330
2
100
AcDbEntity
  8
10
100
AcDbLine
 10
21.10000152590009
 20
153.0999832153
 30
0.0
 11
22.29999847409999
 21
153.0999832153
 31
0.0
  0
LINE
  5
EEA
330
2
100
AcDbEntity
  8
10
100
AcDbLine
 10
22.29999847409999
 20
153.0999832153
 30
0.0
 11
22.29999847409999
 21
154.2999954223999
 31
0.0
  0
LINE
  5
EEB
330
2
100
AcDbEntity
  8
10
100
AcDbLine
 10
21.10000152590009
 20
154.2999954223999
 30
0.0
 11
21.10000152590009
 21
153.0999832153
 31
0.0
  0
LINE
  5
EED
330
2
100
AcDbEntity
  8
10
100
AcDbLine
 10
21.10000152590009
 20
161.7999954223999
 30
0.0
 11
22.29999847409999
 21
161.7999954223999
 31
0.0
  0
LINE
  5
EEE
330
2
100
AcDbEntity
  8
10
100
AcDbLine
 10
21.10000152590009
 20
160.5999984741
 30
0.0
 11
22.29999847409999
 21
160.5999984741
 31
0.0
  0
LINE
  5
EEF
330
2
100
AcDbEntity
  8
10
100
AcDbLine
 10
22.29999847409999
 20
160.5999984741
 30
0.0
 11
22.29999847409999
 21
161.7999954223999
 31
0.0
  0
LINE
  5
EF0
330
2
100
AcDbEntity
  8
10
100
AcDbLine
 10
21.10000152590009
 20
161.7999954223999
 30
0.0
 11
21.10000152590009
 21
160.5999984741
 31
0.0
  0
LINE
  5
EF1
330
2
100
AcDbEntity
  8
10
100
AcDbLine
 10
21.10000152590009
 20
168.0999984740999
 30
0.0
 11
22.29999847409999
 21
168.0999984740999
 31
0.0
  0
LINE
  5
F24
330
2
100
AcDbEntity
  8
11
100
AcDbLine
 10
49.99999999999999
 20
182.6499919999999
 30
0.0
 11
10.0
 21
182.6499919999999
 31
0.0
  0
LINE
  5
F25
330
2
100
AcDbEntity
  8
11
100
AcDbLine
 10
49.49999999999999
 20
208.0
 30
0.0
 11
10.5
 21
208.0
 31
0.0
  0
LINE
  5
F26
330
2
100
AcDbEntity
  8
10
100
AcDbLine
 10
49.99999999999999
 20
182.5
 30
0.0
 11
10.0
 21
182.5
 31
0.0
  0
LINE
  5
F27
330
2
100
AcDbEntity
  8
11
100
AcDbLine
 10
10.0
 20
182.6499919999999
 30
0.0
 11
10.0
 21
207.5
 31
0.0
  0
LINE
  5
F28
330
2
100
AcDbEntity
  8
10
100
AcDbLine
 10
17.84999999999991
 20
181.0
 30
0.0
 11
31.95000000000003
 21
181.0
 31
0.0
  0
LINE
  5
F29
330
2
100
AcDbEntity
  8
10
100
AcDbLine
 10
26.10000152590008
 20
180.0999984741
 30
0.0
 11
17.69999999999981
 21
180.0999984741
 31
0.0
  0
LINE
  5
F2A
330
2
100
AcDbEntity
  8
10
100
AcDbLine
 10
24.89999694829975
 20
179.2999954223999
 30
0.0
 11
18.50000305179992
 21
179.2999954223999
 31
0.0
  0
LINE
  5
F2B
330
2
100
AcDbEntity
  8
10
100
AcDbLine
 10
14.29999100000009
 20
177.6314561436
 30
0.0
 11
14.29999100000009
 21
182.5
 31
0.0
  0
ARC
  5
F2C
330
2
100
AcDbEntity
  8
10
100
AcDbCircle
 10
13.49999100000013
 20
180.0
 30
0.0
 40
2.5
100
AcDbArc
 50
270.0
 51
0.0
  0
LINE
  5
F2D
330
2
100
AcDbEntity
  8
10
100
AcDbLine
 10
13.49999100000013
 20
177.5
 30
0.0
 11
10.0
 21
177.5
 31
0.0
  0
LINE
  5
F2E
330
2
100
AcDbEntity
  8
10
100
AcDbLine
 10
15.99999100000013
 20
182.5
 30
0.0
 11
15.99999100000013
 21
180.0
 31
0.0
  0
ARC
  5
F2F
330
2
100
AcDbEntity
  8
10
100
AcDbCircle
 10
17.84999999999991
 20
180.0
 30
0.0
 40
1.0
100
AcDbArc
 50
90.0
 51
180.0
  0
LINE
  5
F30
330
2
100
AcDbEntity
  8
10
100
AcDbLine
 10
26.10000152590008
 20
175.5999832153
 30
0.0
 11
26.10000152590008
 21
180.0999984741
 31
0.0
  0
LINE
  5
F31
330
2
100
AcDbEntity
  8
10
100
AcDbLine
 10
24.89999694829975
 20
172.8999862670999
 30
0.0
 11
28.30000610349996
 21
172.8999862670999
 31
0.0
  0
LINE
  5
F32
330
2
100
AcDbEntity
  8
10
100
AcDbLine
 10
24.89999694829975
 20
174.7999801635999
 30
0.0
 11
28.30000610349996
 21
174.7999801635999
 31
0.0
  0
LINE
  5
F33
330
2
100
AcDbEntity
  8
10
100
AcDbLine
 10
26.10000152590008
 20
175.5999832153
 30
0.0
 11
29.10000152590008
 21
175.5999832153
 31
0.0
  0
LINE
  5
F34
330
2
100
AcDbEntity
  8
10
100
AcDbLine
 10
26.10000152590008
 20
172.0999984740999
 30
0.0
 11
29.10000152590008
 21
172.0999984740999
 31
0.0
  0
LINE
  5
F35
330
2
100
AcDbEntity
  8
10
100
AcDbLine
 10
21.10000152590009
 20
169.2999954223999
 30
0.0
 11
22.29999847409999
 21
169.2999954223999
 31
0.0
  0
LINE
  5
F36
330
2
100
AcDbEntity
  8
10
100
AcDbLine
 10
21.10000152590009
 20
175.5999832153
 30
0.0
 11
22.29999847409999
 21
175.5999832153
 31
0.0
  0
LINE
  5
F37
330
2
100
AcDbEntity
  8
10
100
AcDbLine
 10
22.29999847409999
 20
175.5999832153
 30
0.0
 11
22.29999847409999
 21
176.7999801635999
 31
0.0
  0
LINE
  5
F38
330
2
100
AcDbEntity
  8
10
100
AcDbLine
 10
21.10000152590009
 20
176.7999801635999
 30
0.0
 11
21.10000152590009
 21
175.5999832153
 31
0.0
  0
LINE
  5
F39
330
2
100
AcDbEntity
  8
10
100
AcDbLine
 10
21.10000152590009
 20
176.7999801635999
 30
0.0
 11
22.29999847409999
 21
176.7999801635999
 31
0.0
  0
LINE
  5
F3A
330
2
100
AcDbEntity
  8
10
100
AcDbLine
 10
28.30000610349996
 20
172.8999862670999
 30
0.0
 11
28.30000610349996
 21
174.7999801635999
 31
0.0
  0
LINE
  5
F3B
330
2
100
AcDbEntity
  8
10
100
AcDbLine
 10
29.10000152590008
 20
172.0999984740999
 30
0.0
 11
29.10000152590008
 21
175.5999832153
 31
0.0
  0
ARC
  5
F3C
330
2
100
AcDbEntity
  8
10
100
AcDbCircle
 10
31.95000000000003
 20
180.0
 30
0.0
 40
1.0
100
AcDbArc
 50
0.0
 51
90.0
  0
LINE
  5
F3D
330
2
100
AcDbEntity
  8
12
100
AcDbLine
 10
11.53749164826967
 20
202.0
 30
0.0
 11
20.46250835170667
 21
202.0
 31
0.0
  0
CIRCLE
  5
F3E
330
2
100
AcDbEntity
  8
12
100
AcDbCircle
 10
15.99999999998817
 20
202.0
 30
0.0
 40
3.0
  0
LINE
  5
F3F
330
2
100
AcDbEntity
  8
12
100
AcDbLine
 10
15.99999999998817
 20
206.4625083517183
 30
0.0
 11
15.99999999998817
 21
197.5374916482817
 31
0.0
  0
ARC
  5
F40
330
2
100
AcDbEntity
  8
11
100
AcDbCircle
 10
10.5
 20
207.5
 30
0.0
 40
0.5
100
AcDbArc
 50
90.0
 51
180.0
  0
LINE
  5
F41
330
2
100
AcDbEntity
  8
11
100
AcDbLine
 10
49.99999999999999
 20
182.6499919999999
 30
0.0
 11
49.99999999999999
 21
207.5
 31
0.0
  0
ARC
  5
F74
330
2
100
AcDbEntity
  8
11
100
AcDbCircle
 10
49.49999999999999
 20
207.5
 30
0.0
 40
0.5
100
AcDbArc
 50
0.0
 51
90.0
  0
ARC
  5
F75
330
2
100
AcDbEntity
  8
11
100
AcDbCircle
 10
49.49999999999999
 20
207.5
 30
0.0
 40
0.5000000000000049
100
AcDbArc
 50
0.0
 51
90.0
  0
LINE
  5
F76
330
2
100
AcDbEntity
  8
10
100
AcDbLine
 10
271.4999999999994
 20
50.00000100000017
 30
0.0
 11
271.4999999999994
 21
207.5000010000001
 31
0.0
  0
LINE
  5
F77
330
2
100
AcDbEntity
  8
10
100
AcDbLine
 10
263.4999999999994
 20
140.5000010000001
 30
0.0
 11
263.4999999999994
 21
68.50000100000016
 31
0.0
  0
LINE
  5
F78
330
2
100
AcDbEntity
  8
10
100
AcDbLine
 10
260.9999999999994
 20
75.00000099999994
 30
0.0
 11
260.9999999999994
 21
140.5000009999997
 31
0.0
  0
LINE
  5
F79
330
2
100
AcDbEntity
  8
10
100
AcDbLine
 10
260.4999999999999
 20
75.50000100000016
 30
0.0
 11
260.4999999999999
 21
139.0250564585429
 31
0.0
  0
LINE
  5
F7A
330
2
100
AcDbEntity
  8
10
100
AcDbLine
 10
295.4999999999994
 20
206.618001
 30
0.0
 11
295.4999999999994
 21
50.0000009999988
 31
0.0
  0
LINE
  5
F7B
330
2
100
AcDbEntity
  8
10
100
AcDbLine
 10
293.4999999999994
 20
206.618001
 30
0.0
 11
293.4999999999994
 21
50.00000100000017
 31
0.0
  0
LINE
  5
F7C
330
2
100
AcDbEntity
  8
10
100
AcDbLine
 10
300.9999999999999
 20
50.0000009999988
 30
0.0
 11
300.9999999999999
 21
208.0000010000001
 31
0.0
  0
LINE
  5
F7D
330
2
100
AcDbEntity
  8
10
100
AcDbLine
 10
287.4999999999995
 20
204.1180010000001
 30
0.0
 11
287.4999999999995
 21
50.00000100000017
 31
0.0
  0
LINE
  5
F7E
330
2
100
AcDbEntity
  8
10
100
AcDbLine
 10
285.4999999999995
 20
204.1180010000001
 30
0.0
 11
285.4999999999995
 21
50.00000100000017
 31
0.0
  0
LINE
  5
F7F
330
2
100
AcDbEntity
  8
10
100
AcDbLine
 10
277.4999999999995
 20
206.1180010000001
 30
0.0
 11
277.4999999999995
 21
50.00000100000017
 31
0.0
  0
LINE
  5
F80
330
2
100
AcDbEntity
  8
10
100
AcDbLine
 10
279.4999999999995
 20
206.1180010000001
 30
0.0
 11
279.4999999999995
 21
50.00000100000017
 31
0.0
  0
LINE
  5
F81
330
2
100
AcDbEntity
  8
10
100
AcDbLine
 10
269.4999999999994
 20
140.5000010000001
 30
0.0
 11
269.4999999999994
 21
68.50000100000016
 31
0.0
  0
LINE
  5
F82
330
2
100
AcDbEntity
  8
10
100
AcDbLine
 10
304.7000000000002
 20
177.7000009999999
 30
0.0
 11
304.7000000000002
 21
70.30000099999989
 31
0.0
  0
LINE
  5
F83
330
2
100
AcDbEntity
  8
10
100
AcDbLine
 10
235.4999999999999
 20
106.2499999999998
 30
0.0
 11
235.4999999999999
 21
83.74999999999984
 31
0.0
  0
LINE
  5
F84
330
2
100
AcDbEntity
  8
10
100
AcDbLine
 10
237.9999999999999
 20
83.74999999999984
 30
0.0
 11
237.9999999999999
 21
106.2499999999998
 31
0.0
  0
LINE
  5
F85
330
2
100
AcDbEntity
  8
10
100
AcDbLine
 10
240.4999999999999
 20
106.2499999999998
 30
0.0
 11
240.4999999999999
 21
83.74999999999984
 31
0.0
  0
LINE
  5
F86
330
2
100
AcDbEntity
  8
10
100
AcDbLine
 10
242.9999999999999
 20
83.74999999999984
 30
0.0
 11
242.9999999999999
 21
106.2499999999998
 31
0.0
  0
LINE
  5
F87
330
2
100
AcDbEntity
  8
10
100
AcDbLine
 10
245.4999999999999
 20
106.2499999999998
 30
0.0
 11
245.4999999999999
 21
83.74999999999984
 31
0.0
  0
LINE
  5
F88
330
2
100
AcDbEntity
  8
10
100
AcDbLine
 10
247.9999999999999
 20
83.74999999999984
 30
0.0
 11
247.9999999999999
 21
106.2499999999998
 31
0.0
  0
LINE
  5
F89
330
2
100
AcDbEntity
  8
10
100
AcDbLine
 10
250.4999999999999
 20
106.2499999999998
 30
0.0
 11
250.4999999999999
 21
83.74999999999984
 31
0.0
  0
LINE
  5
F8A
330
2
100
AcDbEntity
  8
10
100
AcDbLine
 10
252.9999999999999
 20
83.74999999999984
 30
0.0
 11
252.9999999999999
 21
106.2499999999998
 31
0.0
  0
LINE
  5
F8B
330
2
100
AcDbEntity
  8
10
100
AcDbLine
 10
181.4999999999998
 20
74.4999975000008
 30
0.0
 11
181.4999999999998
 21
181.0000025000006
 31
0.0
  0
LINE
  5
F8C
330
2
100
AcDbEntity
  8
10
100
AcDbLine
 10
170.0000000000071
 20
182.5
 30
0.0
 11
170.0000000000071
 21
47.50000000000006
 31
0.0
  0
LINE
  5
F8D
330
2
100
AcDbEntity
  8
10
100
AcDbLine
 10
181.9999999999998
 20
180.4999999999996
 30
0.0
 11
181.9999999999998
 21
74.9999999999996
 31
0.0
  0
LINE
  5
F8E
330
2
100
AcDbEntity
  8
10
100
AcDbLine
 10
238.2000000000002
 20
45.51004918326128
 30
0.0
 11
233.9999999999994
 21
45.51004918326128
 31
0.0
  0
LINE
  5
F8F
330
2
100
AcDbEntity
  8
10
100
AcDbLine
 10
246.2499999999995
 20
47.00000100000017
 30
0.0
 11
234.4999999999994
 21
47.00000100000017
 31
0.0
  0
LINE
  5
F90
330
2
100
AcDbEntity
  8
10
100
AcDbLine
 10
260.9999999999994
 20
75.00000099999994
 30
0.0
 11
234.4999999999994
 21
75.00000099999994
 31
0.0
  0
LINE
  5
F91
330
2
100
AcDbEntity
  8
10
100
AcDbLine
 10
233.9999999999999
 20
75.50000100000016
 30
0.0
 11
260.4999999999999
 21
75.50000100000016
 31
0.0
  0
LINE
  5
F92
330
2
100
AcDbEntity
  8
10
100
AcDbLine
 10
173.0000000000071
 20
44.00000000000005
 30
0.0
 11
172.0000000000071
 21
45.00000000000006
 31
0.0
  0
LINE
  5
F93
330
2
100
AcDbEntity
  8
10
100
AcDbLine
 10
171.5000000000071
 20
52.79999999999978
 30
0.0
 11
175.3
 21
52.79999999999978
 31
0.0
  0
LINE
  5
F94
330
2
100
AcDbEntity
  8
10
100
AcDbLine
 10
175.3
 20
63.79999999999978
 30
0.0
 11
171.5000000000071
 21
63.79999999999978
 31
0.0
  0
LINE
  5
F95
330
2
100
AcDbEntity
  8
10
100
AcDbLine
 10
171.5000000000071
 20
52.79999999999978
 30
0.0
 11
171.5000000000071
 21
63.79999999999978
 31
0.0
  0
LINE
  5
F96
330
2
100
AcDbEntity
  8
10
100
AcDbLine
 10
172.0000000000071
 20
47.00000000000005
 30
0.0
 11
172.0000000000071
 21
45.00000000000006
 31
0.0
  0
LINE
  5
F97
330
2
100
AcDbEntity
  8
10
100
AcDbLine
 10
172.0000000000071
 20
47.00000000000005
 30
0.0
 11
170.5000000000071
 21
47.00000000000005
 31
0.0
  0
ARC
  5
F98
330
2
100
AcDbEntity
  8
10
100
AcDbCircle
 10
170.5000000000071
 20
47.50000000000006
 30
0.0
 40
0.4999999999999978
100
AcDbArc
 50
180.0
 51
270.0
  0
LINE
  5
F99
330
2
100
AcDbEntity
  8
10
100
AcDbLine
 10
164.4000396729051
 20
71.29999160764993
 30
0.0
 11
164.4000396729051
 21
75.70000076294997
 31
0.0
  0
LINE
  5
F9A
330
2
100
AcDbEntity
  8
10
100
AcDbLine
 10
164.0000419617052
 20
78.29999923704992
 30
0.0
 11
164.0000419617061
 21
68.69999313354998
 31
0.0
  0
LINE
  5
F9B
330
2
100
AcDbEntity
  8
10
100
AcDbLine
 10
170.0000000000049
 20
69.39999771115009
 30
0.0
 11
164.4000396729051
 21
69.39999771115009
 31
0.0
  0
LINE
  5
F9C
330
2
100
AcDbEntity
  8
10
100
AcDbLine
 10
164.600040435805
 20
70.8999900817501
 30
0.0
 11
170.0000000000049
 21
70.8999900817501
 31
0.0
  0
LINE
  5
F9D
330
2
100
AcDbEntity
  8
10
100
AcDbLine
 10
164.4000396729051
 20
68.69999313354998
 30
0.0
 11
164.4000396729051
 21
69.39999771115009
 31
0.0
  0
LINE
  5
F9E
330
2
100
AcDbEntity
  8
10
100
AcDbLine
 10
164.0000419617061
 20
68.69999313354998
 30
0.0
 11
164.4000396729051
 21
68.69999313354998
 31
0.0
  0
LINE
  5
F9F
330
2
100
AcDbEntity
  8
10
100
AcDbLine
 10
164.000041961706
 20
69.79999160764993
 30
0.0
 11
164.600040435805
 21
69.79999160764993
 31
0.0
  0
LINE
  5
FA0
330
2
100
AcDbEntity
  8
10
100
AcDbLine
 10
164.0000419617059
 20
70.29999160764993
 30
0.0
 11
164.600040435805
 21
70.29999160764993
 31
0.0
  0
LINE
  5
FA1
330
2
100
AcDbEntity
  8
10
100
AcDbLine
 10
164.0000419617058
 20
71.29999160764993
 30
0.0
 11
164.4000396729051
 21
71.29999160764993
 31
0.0
  0
LINE
  5
FA2
330
2
100
AcDbEntity
  8
10
100
AcDbLine
 10
164.600040435805
 20
69.39999771115009
 30
0.0
 11
164.600040435805
 21
70.8999900817501
 31
0.0
  0
LINE
  5
FA3
330
2
100
AcDbEntity
  8
10
100
AcDbLine
 10
164.4000396729051
 20
77.59998703005004
 30
0.0
 11
170.0000000000049
 21
77.59998703005004
 31
0.0
  0
LINE
  5
FA4
330
2
100
AcDbEntity
  8
10
100
AcDbLine
 10
170.0000000000049
 20
76.09999465934999
 30
0.0
 11
164.600040435805
 21
76.09999465934999
 31
0.0
  0
LINE
  5
FA5
330
2
100
AcDbEntity
  8
10
100
AcDbLine
 10
164.4000396729051
 20
78.29999923704992
 30
0.0
 11
164.0000419617052
 21
78.29999923704992
 31
0.0
  0
LINE
  5
FA6
330
2
100
AcDbEntity
  8
10
100
AcDbLine
 10
164.600040435805
 20
77.19999313354998
 30
0.0
 11
164.0000419617053
 21
77.19999313354998
 31
0.0
  0
LINE
  5
FA7
330
2
100
AcDbEntity
  8
10
100
AcDbLine
 10
164.600040435805
 20
76.69999313354998
 30
0.0
 11
164.0000419617053
 21
76.69999313354998
 31
0.0
  0
LINE
  5
FA8
330
2
100
AcDbEntity
  8
10
100
AcDbLine
 10
164.4000396729051
 20
75.70000076294997
 30
0.0
 11
164.0000419617055
 21
75.70000076294997
 31
0.0
  0
LINE
  5
FA9
330
2
100
AcDbEntity
  8
10
100
AcDbLine
 10
164.600040435805
 20
76.09999465934999
 30
0.0
 11
164.600040435805
 21
77.59998703005004
 31
0.0
  0
LINE
  5
FAA
330
2
100
AcDbEntity
  8
10
100
AcDbLine
 10
164.4000396729051
 20
77.59998703005004
 30
0.0
 11
164.4000396729051
 21
78.29999923704992
 31
0.0
  0
LINE
  5
FB0
330
2
100
AcDbEntity
  8
10
100
AcDbLine
 10
234.4999999999994
 20
47.00000100000017
 30
0.0
 11
234.4999999999994
 21
75.00000099999994
 31
0.0
  0
LINE
  5
FB1
330
2
100
AcDbEntity
  8
10
100
AcDbLine
 10
184.9999999999998
 20
43.99999999999983
 30
0.0
 11
184.9999999999998
 21
59.9999999999996
 31
0.0
  0
LINE
  5
FB2
330
2
100
AcDbEntity
  8
10
100
AcDbLine
 10
184.4999999999998
 20
44.00000000000005
 30
0.0
 11
184.4999999999998
 21
60.4999975000008
 31
0.0
  0
LINE
  5
FB3
330
2
100
AcDbEntity
  8
10
100
AcDbLine
 10
175.3
 20
52.79999999999978
 30
0.0
 11
175.3
 21
63.79999999999978
 31
0.0
  0
LINE
  5
FB4
330
2
100
AcDbEntity
  8
10
100
AcDbLine
 10
233.9999999999999
 20
44.00000000000005
 30
0.0
 11
233.9999999999999
 21
75.50000100000016
 31
0.0
  0
LINE
  5
FB5
330
2
100
AcDbEntity
  8
10
100
AcDbLine
 10
216.4999999999994
 20
60.7000000000001
 30
0.0
 11
216.4999999999998
 21
53.30000000000001
 31
0.0
  0
LINE
  5
FB6
330
2
100
AcDbEntity
  8
10
100
AcDbLine
 10
221.9999999999999
 20
53.30000000000001
 30
0.0
 11
222.0000000000004
 21
60.7000000000001
 31
0.0
  0
LINE
  5
FB7
330
2
100
AcDbEntity
  8
10
100
AcDbLine
 10
233.9999999999999
 20
44.00000000000005
 30
0.0
 11
184.9999999999998
 21
43.99999999999983
 31
0.0
  0
LINE
  5
FB8
330
2
100
AcDbEntity
  8
10
100
AcDbLine
 10
173.0000000000071
 20
44.00000000000005
 30
0.0
 11
184.5000000000003
 21
44.00000000000005
 31
0.0
  0
LINE
  5
FB9
330
2
100
AcDbEntity
  8
10
100
AcDbLine
 10
184.4999999999998
 20
47.30000000000001
 30
0.0
 11
184.9999999999998
 21
47.30000000000001
 31
0.0
  0
LINE
  5
FBA
330
2
100
AcDbEntity
  8
10
100
AcDbLine
 10
216.7999999999996
 20
53.00000000000006
 30
0.0
 11
221.7000000000002
 21
53.00000000000006
 31
0.0
  0
ARC
  5
FBB
330
2
100
AcDbEntity
  8
10
100
AcDbCircle
 10
216.7999999999996
 20
53.30000000000001
 30
0.0
 40
0.3
100
AcDbArc
 50
180.0
 51
270.0
  0
ARC
  5
FBC
330
2
100
AcDbEntity
  8
10
100
AcDbCircle
 10
221.7000000000002
 20
53.30000000000001
 30
0.0
 40
0.3
100
AcDbArc
 50
270.0
 51
0.0
  0
ARC
  5
FBD
330
2
100
AcDbEntity
  8
10
100
AcDbCircle
 10
203.7500000000071
 20
81.24999999999984
 30
0.0
 40
1.25
100
AcDbArc
 50
0.0
 51
180.0
  0
ARC
  5
FBE
330
2
100
AcDbEntity
  8
10
100
AcDbCircle
 10
203.7500000000071
 20
58.75000000000006
 30
0.0
 40
1.25
100
AcDbArc
 50
180.0
 51
0.0
  0
LINE
  5
FBF
330
2
100
AcDbEntity
  8
10
100
AcDbLine
 10
193.0000167847014
 20
60.4999975000008
 30
0.0
 11
193.0000167847014
 21
74.4999975000008
 31
0.0
  0
LINE
  5
FC0
330
2
100
AcDbEntity
  8
10
100
AcDbLine
 10
195.4999999999999
 20
59.9999999999996
 30
0.0
 11
195.4999999999999
 21
74.9999999999996
 31
0.0
  0
LINE
  5
FC1
330
2
100
AcDbEntity
  8
10
100
AcDbLine
 10
202.5000000000071
 20
81.24999999999984
 30
0.0
 11
202.5000000000071
 21
58.74999999999983
 31
0.0
  0
LINE
  5
FC2
330
2
100
AcDbEntity
  8
10
100
AcDbLine
 10
184.4999999999998
 20
60.4999975000008
 30
0.0
 11
193.0000167847014
 21
60.4999975000008
 31
0.0
  0
LINE
  5
FC3
330
2
100
AcDbEntity
  8
10
100
AcDbLine
 10
184.9999999999998
 20
59.9999999999996
 30
0.0
 11
195.4999999999999
 21
59.9999999999996
 31
0.0
  0
LINE
  5
FC4
330
2
100
AcDbEntity
  8
10
100
AcDbLine
 10
181.4999999999998
 20
74.4999975000008
 30
0.0
 11
193.0000167847014
 21
74.4999975000008
 31
0.0
  0
LINE
  5
FC5
330
2
100
AcDbEntity
  8
10
100
AcDbLine
 10
195.4999999999999
 20
74.9999999999996
 30
0.0
 11
181.9999999999998
 21
74.9999999999996
 31
0.0
  0
LINE
  5
FC6
330
2
100
AcDbEntity
  8
10
100
AcDbLine
 10
222.4999999999999
 20
81.24999999999984
 30
0.0
 11
222.4999999999999
 21
65.24999999999983
 31
0.0
  0
LINE
  5
FC7
330
2
100
AcDbEntity
  8
10
100
AcDbLine
 10
224.9999999999999
 20
65.25000000000005
 30
0.0
 11
224.9999999999999
 21
81.24999999999984
 31
0.0
  0
LINE
  5
FC8
330
2
100
AcDbEntity
  8
10
100
AcDbLine
 10
215.0000000000071
 20
81.24999999999984
 30
0.0
 11
215.0000000000071
 21
58.74999999999983
 31
0.0
  0
LINE
  5
FC9
330
2
100
AcDbEntity
  8
10
100
AcDbLine
 10
212.5000000000071
 20
81.24999999999984
 30
0.0
 11
212.5000000000071
 21
58.74999999999983
 31
0.0
  0
LINE
  5
FCA
330
2
100
AcDbEntity
  8
10
100
AcDbLine
 10
209.9999999999998
 20
58.74999999999983
 30
0.0
 11
209.9999999999998
 21
81.24999999999984
 31
0.0
  0
LINE
  5
FCB
330
2
100
AcDbEntity
  8
10
100
AcDbLine
 10
207.4999999999998
 20
81.24999999999984
 30
0.0
 11
207.4999999999998
 21
58.74999999999983
 31
0.0
  0
LINE
  5
FCC
330
2
100
AcDbEntity
  8
10
100
AcDbLine
 10
205.0000000000071
 20
81.24999999999984
 30
0.0
 11
205.0000000000071
 21
58.75000000000006
 31
0.0
  0
LINE
  5
FCD
330
2
100
AcDbEntity
  8
10
100
AcDbLine
 10
217.4999999999998
 20
81.24999999999984
 30
0.0
 11
217.4999999999998
 21
65.24999999999983
 31
0.0
  0
LINE
  5
FCE
330
2
100
AcDbEntity
  8
10
100
AcDbLine
 10
219.9999999999999
 20
65.25000000000005
 30
0.0
 11
219.9999999999999
 21
81.24999999999984
 31
0.0
  0
LINE
  5
FCF
330
2
100
AcDbEntity
  8
10
100
AcDbLine
 10
221.7000000000002
 20
61.00000000000005
 30
0.0
 11
216.7999999999996
 21
60.99999999999983
 31
0.0
  0
ARC
  5
FD0
330
2
100
AcDbEntity
  8
10
100
AcDbCircle
 10
218.7499999999999
 20
65.25000000000005
 30
0.0
 40
1.25
100
AcDbArc
 50
180.0
 51
0.0
  0
ARC
  5
FD1
330
2
100
AcDbEntity
  8
10
100
AcDbCircle
 10
208.7499999999999
 20
58.74999999999983
 30
0.0
 40
1.25
100
AcDbArc
 50
180.0
 51
0.0
  0
ARC
  5
FD2
330
2
100
AcDbEntity
  8
10
100
AcDbCircle
 10
213.7500000000071
 20
58.74999999999983
 30
0.0
 40
1.25
100
AcDbArc
 50
180.0
 51
0.0
  0
ARC
  5
FD3
330
2
100
AcDbEntity
  8
10
100
AcDbCircle
 10
216.7999999999996
 20
60.7000000000001
 30
0.0
 40
0.3
100
AcDbArc
 50
90.0
 51
180.0
  0
ARC
  5
FD4
330
2
100
AcDbEntity
  8
10
100
AcDbCircle
 10
223.7499999999999
 20
65.25000000000005
 30
0.0
 40
1.25
100
AcDbArc
 50
180.0
 51
0.0
  0
ARC
  5
FD5
330
2
100
AcDbEntity
  8
10
100
AcDbCircle
 10
221.7000000000002
 20
60.7000000000001
 30
0.0
 40
0.3
100
AcDbArc
 50
0.0
 51
90.0
  0
ARC
  5
FD6
330
2
100
AcDbEntity
  8
10
100
AcDbCircle
 10
218.7499999999999
 20
81.24999999999984
 30
0.0
 40
1.25
100
AcDbArc
 50
0.0
 51
180.0
  0
ARC
  5
FD7
330
2
100
AcDbEntity
  8
10
100
AcDbCircle
 10
208.7499999999999
 20
81.24999999999984
 30
0.0
 40
1.25
100
AcDbArc
 50
0.0
 51
180.0
  0
ARC
  5
FD8
330
2
100
AcDbEntity
  8
10
100
AcDbCircle
 10
213.7500000000071
 20
81.24999999999984
 30
0.0
 40
1.25
100
AcDbArc
 50
0.0
 51
180.0
  0
ARC
  5
FD9
330
2
100
AcDbEntity
  8
10
100
AcDbCircle
 10
223.7499999999999
 20
81.24999999999984
 30
0.0
 40
1.25
100
AcDbArc
 50
0.0
 51
180.0
  0
LINE
  5
FDA
330
2
100
AcDbEntity
  8
10
100
AcDbLine
 10
300.9999999999999
 20
50.0000009999988
 30
0.0
 11
295.4999999999994
 21
50.0000009999988
 31
0.0
  0
LINE
  5
FDB
330
2
100
AcDbEntity
  8
10
100
AcDbLine
 10
304.9999999999999
 20
40.00000100000017
 30
0.0
 11
258.4999999999949
 21
40.00000100000017
 31
0.0
  0
LINE
  5
FDC
330
2
100
AcDbEntity
  8
10
100
AcDbLine
 10
264.5000000000038
 20
66.00000099999994
 30
0.0
 11
264.5000000000038
 21
55.00000100000017
 31
0.0
  0
LINE
  5
FDD
330
2
100
AcDbEntity
  8
10
100
AcDbLine
 10
262.4999999999997
 20
55.00000100000017
 30
0.0
 11
262.4999999999997
 21
66.00000099999994
 31
0.0
  0
LINE
  5
FDE
330
2
100
AcDbEntity
  8
10
100
AcDbLine
 10
258.5000000000001
 20
55.00000100000017
 30
0.0
 11
258.5000000000001
 21
66.00000100000016
 31
0.0
  0
LINE
  5
FDF
330
2
100
AcDbEntity
  8
10
100
AcDbLine
 10
258.4999999999949
 20
49.50000100000017
 30
0.0
 11
240.7499999999994
 21
49.50000100000017
 31
0.0
  0
ARC
  5
FE0
330
2
100
AcDbEntity
  8
10
100
AcDbCircle
 10
238.1000295560888
 20
45.9999531640006
 30
0.0
 40
0.5
100
AcDbArc
 50
281.5335023359357
 51
0.0
  0
ARC
  5
FE1
330
2
100
AcDbEntity
  8
10
100
AcDbCircle
 10
238.1000295560888
 20
45.9999531640006
 30
0.0
 40
2.5
100
AcDbArc
 50
270.0
 51
0.0
  0
LINE
  5
FE2
330
2
100
AcDbEntity
  8
10
100
AcDbLine
 10
236.6000600736887
 20
45.51004918326128
 30
0.0
 11
236.6000600736887
 21
43.4999531640006
 31
0.0
  0
LINE
  5
FE3
330
2
100
AcDbEntity
  8
10
100
AcDbLine
 10
236.6000600736887
 20
43.4999531640006
 30
0.0
 11
238.1000295560888
 21
43.4999531640006
 31
0.0
  0
LINE
  5
FE4
330
2
100
AcDbEntity
  8
10
100
AcDbLine
 10
246.2500615995681
 20
48.4999531640006
 30
0.0
 11
240.7499999999967
 21
48.50000100000016
 31
0.0
  0
LINE
  5
FE5
330
2
100
AcDbEntity
  8
10
100
AcDbLine
 10
240.6000600736887
 20
45.9999531640006
 30
0.0
 11
238.6000600736887
 21
45.9999531640006
 31
0.0
  0
LINE
  5
FE6
330
2
100
AcDbEntity
  8
10
100
AcDbLine
 10
238.6000600736887
 20
45.9999531640006
 30
0.0
 11
238.6000600736887
 21
46.99998368160055
 31
0.0
  0
LINE
  5
FE7
330
2
100
AcDbEntity
  8
10
100
AcDbLine
 10
240.6000600736887
 20
46.99996567024249
 30
0.0
 11
240.6000600736887
 21
45.9999531640006
 31
0.0
  0
LINE
  5
FE8
330
2
100
AcDbEntity
  8
10
100
AcDbLine
 10
241.4999999999995
 20
49.50000100000017
 30
0.0
 11
241.4999999999995
 21
48.49999447698229
 31
0.0
  0
LINE
  5
FE9
330
2
100
AcDbEntity
  8
10
100
AcDbLine
 10
240.7499999999994
 20
47.00000100000017
 30
0.0
 11
240.7499999999994
 21
49.50000100000017
 31
0.0
  0
LINE
  5
FEA
330
2
100
AcDbEntity
  8
10
100
AcDbLine
 10
246.2500615995681
 20
48.4999531640006
 30
0.0
 11
246.2499999999995
 21
47.00000100000017
 31
0.0
  0
LINE
  5
FEB
330
2
100
AcDbEntity
  8
10
100
AcDbLine
 10
245.9999999999995
 20
49.50000100000017
 30
0.0
 11
245.9999999999995
 21
48.49995533887562
 31
0.0
  0
ARC
  5
FEC
330
2
100
AcDbEntity
  8
10
100
AcDbCircle
 10
258.6000003814646
 20
44.00000000000005
 30
0.0
 40
4.199997901916503
100
AcDbArc
 50
140.833200458867
 51
219.166782238289
  0
LINE
  5
FED
330
2
100
AcDbEntity
  8
10
100
AcDbLine
 10
256.9999999999943
 20
47.79999995231634
 30
0.0
 11
256.9999999999949
 21
40.20000004768377
 31
0.0
  0
LINE
  5
FEE
330
2
100
AcDbEntity
  8
10
100
AcDbLine
 10
257.9999999999949
 20
48.00000000000006
 30
0.0
 11
257.9999999999949
 21
40.00000000000006
 31
0.0
  0
LINE
  5
FEF
330
2
100
AcDbEntity
  8
10
100
AcDbLine
 10
258.4999999999949
 20
49.50000100000017
 30
0.0
 11
258.4999999999949
 21
40.00000100000017
 31
0.0
  0
LINE
  5
FF0
330
2
100
AcDbEntity
  8
10
100
AcDbLine
 10
257.9999999999949
 20
40.00000000000006
 30
0.0
 11
258.4999999999949
 21
40.00000000000006
 31
0.0
  0
ARC
  5
FF1
330
2
100
AcDbEntity
  8
10
100
AcDbCircle
 10
257.1269106864878
 20
42.7999992370606
 30
0.0
 40
2.299999237060546
100
AcDbArc
 50
219.1668541826462
 51
266.8369300606996
  0
LINE
  5
FF2
330
2
100
AcDbEntity
  8
10
100
AcDbLine
 10
256.9999999999949
 20
40.20000004768377
 30
0.0
 11
257.9999999999949
 21
40.20000004768377
 31
0.0
  0
LINE
  5
FF3
330
2
100
AcDbEntity
  8
10
100
AcDbLine
 10
257.9999999999949
 20
48.00000000000006
 30
0.0
 11
258.4999999999949
 21
48.00000000000006
 31
0.0
  0
LINE
  5
FF4
330
2
100
AcDbEntity
  8
10
100
AcDbLine
 10
256.9999999999949
 20
47.79999995231634
 30
0.0
 11
257.9999999999949
 21
47.79999995231634
 31
0.0
  0
ARC
  5
FF5
330
2
100
AcDbEntity
  8
10
100
AcDbCircle
 10
257.1269106864878
 20
45.19999980926519
 30
0.0
 40
2.299999237060546
100
AcDbArc
 50
93.16306993930023
 51
140.8331458173535
  0
LINE
  5
FF6
330
2
100
AcDbEntity
  8
10
100
AcDbLine
 10
258.5000000000001
 20
55.00000100000017
 30
0.0
 11
264.5000000000038
 21
55.00000100000017
 31
0.0
  0
LINE
  5
FF7
330
2
100
AcDbEntity
  8
10
100
AcDbLine
 10
285.4999999999995
 20
50.00000100000017
 30
0.0
 11
279.4999999999995
 21
50.00000100000017
 31
0.0
  0
LINE
  5
FF8
330
2
100
AcDbEntity
  8
10
100
AcDbLine
 10
277.4999999999995
 20
50.00000100000017
 30
0.0
 11
271.4999999999994
 21
50.00000100000017
 31
0.0
  0
LINE
  5
FF9
330
2
100
AcDbEntity
  8
10
100
AcDbLine
 10
293.4999999999994
 20
50.00000100000017
 30
0.0
 11
287.4999999999995
 21
50.00000100000017
 31
0.0
  0
LINE
  5
FFA
330
2
100
AcDbEntity
  8
10
100
AcDbLine
 10
263.4999999999994
 20
68.50000100000016
 30
0.0
 11
269.4999999999994
 21
68.50000100000016
 31
0.0
  0
LINE
  5
FFB
330
2
100
AcDbEntity
  8
10
100
AcDbLine
 10
264.5000000000038
 20
66.00000099999994
 30
0.0
 11
258.5000000000001
 21
66.00000099999994
 31
0.0
  0
ARC
  5
FFC
330
2
100
AcDbEntity
  8
10
100
AcDbCircle
 10
251.7499999999999
 20
83.74999999999984
 30
0.0
 40
1.25
100
AcDbArc
 50
180.0
 51
0.0
  0
ARC
  5
FFD
330
2
100
AcDbEntity
  8
10
100
AcDbCircle
 10
236.7499999999999
 20
83.74999999999984
 30
0.0
 40
1.25
100
AcDbArc
 50
180.0
 51
0.0
  0
ARC
  5
FFE
330
2
100
AcDbEntity
  8
10
100
AcDbCircle
 10
241.7499999999999
 20
83.74999999999984
 30
0.0
 40
1.25
100
AcDbArc
 50
180.0
 51
0.0
  0
ARC
  5
FFF
330
2
100
AcDbEntity
  8
10
100
AcDbCircle
 10
246.7499999999999
 20
83.74999999999984
 30
0.0
 40
1.25
100
AcDbArc
 50
180.0
 51
0.0
  0
LINE
  5
1000
330
2
100
AcDbEntity
  8
10
100
AcDbLine
 10
304.9999999999999
 20
40.00000100000017
 30
0.0
 11
304.9999999999999
 21
70.00000100000017
 31
0.0
  0
LINE
  5
1001
330
2
100
AcDbEntity
  8
10
100
AcDbLine
 10
304.9999999999999
 20
70.00000100000017
 30
0.0
 11
304.7000000000002
 21
70.30000099999989
 31
0.0
  0
LINE
  5
1002
330
2
100
AcDbEntity
  8
10
100
AcDbLine
 10
184.9999999999998
 20
208.0
 30
0.0
 11
304.9999999999999
 21
207.9999999999999
 31
0.0
  0
LINE
  5
1003
330
2
100
AcDbEntity
  8
10
100
AcDbLine
 10
234.4999999999999
 20
196.0000010000001
 30
0.0
 11
237.4999999999999
 21
196.0000010000001
 31
0.0
  0
LINE
  5
1004
330
2
100
AcDbEntity
  8
10
100
AcDbLine
 10
236.9999999999999
 20
196.9999999999998
 30
0.0
 11
233.9999999999999
 21
196.9999999999998
 31
0.0
  0
LINE
  5
1005
330
2
100
AcDbEntity
  8
10
100
AcDbLine
 10
234.4999999999999
 20
181.5000010000001
 30
0.0
 11
260.9999999999999
 21
181.5000010000001
 31
0.0
  0
LINE
  5
1006
330
2
100
AcDbEntity
  8
10
100
AcDbLine
 10
260.4999999999998
 20
181.0000010000001
 30
0.0
 11
233.9999999999999
 21
181.0000010000001
 31
0.0
  0
LINE
  5
1014
330
2
100
AcDbEntity
  8
10
100
AcDbLine
 10
225.4999999999999
 20
163.3000009999999
 30
0.0
 11
225.4999999999999
 21
130.5000000000002
 31
0.0
  0
LINE
  5
1015
330
2
100
AcDbEntity
  8
10
100
AcDbLine
 10
219.3000000000001
 20
130.5000000000002
 30
0.0
 11
219.3000000000001
 21
163.3000009999999
 31
0.0
  0
LINE
  5
1016
330
2
100
AcDbEntity
  8
10
100
AcDbLine
 10
225.4999999999999
 20
130.5000000000002
 30
0.0
 11
219.3000000000001
 21
130.5000000000002
 31
0.0
  0
LINE
  5
1017
330
2
100
AcDbEntity
  8
10
100
AcDbLine
 10
213.2999999999999
 20
155.1500000000002
 30
0.0
 11
213.2999999999999
 21
139.1500000000002
 31
0.0
  0
LINE
  5
1018
330
2
100
AcDbEntity
  8
10
100
AcDbLine
 10
219.2999999999999
 20
138.6500000000002
 30
0.0
 11
213.7999999999999
 21
138.6500000000002
 31
0.0
  0
ARC
  5
1019
330
2
100
AcDbEntity
  8
10
100
AcDbCircle
 10
213.7999999999999
 20
139.1500000000002
 30
0.0
 40
0.5
100
AcDbArc
 50
180.0
 51
270.0
  0
LINE
  5
101A
330
2
100
AcDbEntity
  8
10
100
AcDbLine
 10
227.9999849999998
 20
167.4999999999998
 30
0.0
 11
216.9999849999998
 21
167.4999999999998
 31
0.0
  0
LINE
  5
101B
330
2
100
AcDbEntity
  8
10
100
AcDbLine
 10
225.4999999999999
 20
164.0999930000001
 30
0.0
 11
219.3000000000001
 21
164.0999930000001
 31
0.0
  0
LINE
  5
101C
330
2
100
AcDbEntity
  8
10
100
AcDbLine
 10
219.2999999999999
 20
155.6500000000002
 30
0.0
 11
213.7999999999999
 21
155.6500000000002
 31
0.0
  0
ARC
  5
101D
330
2
100
AcDbEntity
  8
10
100
AcDbCircle
 10
213.7999999999999
 20
155.1500000000002
 30
0.0
 40
0.5
100
AcDbArc
 50
90.0
 51
180.0
  0
ARC
  5
101E
330
2
100
AcDbEntity
  8
10
100
AcDbCircle
 10
217.9999810000002
 20
164.8000009999998
 30
0.0
 40
1.000000000000004
100
AcDbArc
 50
180.0
 51
270.0
  0
LINE
  5
101F
330
2
100
AcDbEntity
  8
10
100
AcDbLine
 10
219.3000000000001
 20
164.0999930000001
 30
0.0
 11
219.3000000000001
 21
163.3000009999999
 31
0.0
  0
LINE
  5
1020
330
2
100
AcDbEntity
  8
10
100
AcDbLine
 10
219.3000000000001
 20
163.8000009999998
 30
0.0
 11
217.9999810000002
 21
163.8000009999998
 31
0.0
  0
LINE
  5
1021
330
2
100
AcDbEntity
  8
10
100
AcDbLine
 10
216.9999849999998
 20
167.4999999999998
 30
0.0
 11
216.9999810000002
 21
166.4999999999998
 31
0.0
  0
LINE
  5
1022
330
2
100
AcDbEntity
  8
10
100
AcDbLine
 10
216.9999810000002
 20
164.8000009999998
 30
0.0
 11
216.9999810000002
 21
166.4999999999998
 31
0.0
  0
ARC
  5
1023
330
2
100
AcDbEntity
  8
10
100
AcDbCircle
 10
226.9999849999998
 20
164.8000009999998
 30
0.0
 40
0.9999999999999964
100
AcDbArc
 50
270.0
 51
0.0
  0
LINE
  5
1024
330
2
100
AcDbEntity
  8
10
100
AcDbLine
 10
225.4999999999999
 20
163.3000009999999
 30
0.0
 11
225.4999999999999
 21
164.0999930000001
 31
0.0
  0
LINE
  5
1025
330
2
100
AcDbEntity
  8
10
100
AcDbLine
 10
225.4999999999999
 20
163.8000009999998
 30
0.0
 11
226.9999849999998
 21
163.8000009999998
 31
0.0
  0
LINE
  5
1026
330
2
100
AcDbEntity
  8
10
100
AcDbLine
 10
227.9999849999998
 20
167.4999999999998
 30
0.0
 11
227.9999849999998
 21
164.8000009999998
 31
0.0
  0
ARC
  5
1027
330
2
100
AcDbEntity
  8
10
100
AcDbCircle
 10
173.9999999999994
 20
206.0
 30
0.0
 40
2.00000000000001
100
AcDbArc
 50
90.0
 51
240.0000000000152
  0
LINE
  5
1028
330
2
100
AcDbEntity
  8
10
100
AcDbLine
 10
184.4999999999998
 20
208.0
 30
0.0
 11
171.1163944872182
 21
208.0
 31
0.0
  0
LINE
  5
1029
330
2
100
AcDbEntity
  8
10
100
AcDbLine
 10
172.9999999999998
 20
182.9055520556283
 30
0.0
 11
170.7000000000074
 21
182.5
 31
0.0
  0
ARC
  5
102A
330
2
100
AcDbEntity
  8
10
100
AcDbCircle
 10
171.1163944872182
 20
206.5
 30
0.0
 40
1.5
100
AcDbArc
 50
90.0
 51
163.7258356755209
  0
ARC
  5
102B
330
2
100
AcDbEntity
  8
10
100
AcDbCircle
 10
209.8431473434247
 20
195.1944582535622
 30
0.0
 40
41.8432356283696
100
AcDbArc
 50
163.7258356755208
 51
196.9375159971031
  0
ARC
  5
102C
330
2
100
AcDbEntity
  8
10
100
AcDbCircle
 10
170.2932558554342
 20
183.1499899999996
 30
0.0
 40
0.5
100
AcDbArc
 50
196.9375159971031
 51
270.000000000013
  0
LINE
  5
102D
330
2
100
AcDbEntity
  8
10
100
AcDbLine
 10
171.5506355601295
 20
182.6499899999999
 30
0.0
 11
170.2932558554343
 21
182.6499899999996
 31
0.0
  0
LINE
  5
102E
330
2
100
AcDbEntity
  8
10
100
AcDbLine
 10
170.0000000000071
 20
182.5
 30
0.0
 11
170.7000000000075
 21
182.5
 31
0.0
  0
LINE
  5
102F
330
2
100
AcDbEntity
  8
10
100
AcDbLine
 10
184.4999999999998
 20
207.5
 30
0.0
 11
184.4999999999998
 21
195.0000025000006
 31
0.0
  0
LINE
  5
1030
330
2
100
AcDbEntity
  8
10
100
AcDbLine
 10
184.9999999999998
 20
195.4999999999996
 30
0.0
 11
184.9999999999998
 21
207.4999999999998
 31
0.0
  0
LINE
  5
1031
330
2
100
AcDbEntity
  8
10
100
AcDbLine
 10
205.4999999999998
 20
208.0
 30
0.0
 11
205.4999999999998
 21
205.5000000000002
 31
0.0
  0
LINE
  5
1032
330
2
100
AcDbEntity
  8
10
100
AcDbLine
 10
216.5000000000008
 20
208.0
 30
0.0
 11
216.4999999999985
 21
205.4999999999998
 31
0.0
  0
ARC
  5
1033
330
2
100
AcDbEntity
  8
10
100
AcDbCircle
 10
203.7499999999998
 20
173.7499999999998
 30
0.0
 40
1.25
100
AcDbArc
 50
180.0
 51
0.0
  0
ARC
  5
1034
330
2
100
AcDbEntity
  8
10
100
AcDbCircle
 10
203.7499999999998
 20
196.2499999999998
 30
0.0
 40
1.25
100
AcDbArc
 50
0.0
 51
180.0
  0
LINE
  5
1035
330
2
100
AcDbEntity
  8
10
100
AcDbLine
 10
193.0000167847014
 20
181.0000025000006
 30
0.0
 11
193.0000167847014
 21
195.0000025000006
 31
0.0
  0
LINE
  5
1036
330
2
100
AcDbEntity
  8
10
100
AcDbLine
 10
172.9999999999998
 20
204.2679491924308
 30
0.0
 11
172.9999999999998
 21
182.9055520556283
 31
0.0
  0
LINE
  5
1037
330
2
100
AcDbEntity
  8
10
100
AcDbLine
 10
195.4999999999994
 20
195.4999999999996
 30
0.0
 11
195.4999999999994
 21
180.4999999999996
 31
0.0
  0
LINE
  5
1038
330
2
100
AcDbEntity
  8
10
100
AcDbLine
 10
202.4999999999999
 20
196.2499999999998
 30
0.0
 11
202.4999999999999
 21
173.7499999999998
 31
0.0
  0
LINE
  5
1039
330
2
100
AcDbEntity
  8
10
100
AcDbLine
 10
181.4999999999998
 20
181.0000025000006
 30
0.0
 11
193.0000167847014
 21
181.0000025000006
 31
0.0
  0
LINE
  5
103A
330
2
100
AcDbEntity
  8
10
100
AcDbLine
 10
181.9999999999998
 20
180.4999999999996
 30
0.0
 11
195.4999999999994
 21
180.4999999999996
 31
0.0
  0
LINE
  5
103B
330
2
100
AcDbEntity
  8
10
100
AcDbLine
 10
184.4999999999998
 20
195.0000025000006
 30
0.0
 11
193.0000167847014
 21
195.0000025000006
 31
0.0
  0
LINE
  5
103C
330
2
100
AcDbEntity
  8
10
100
AcDbLine
 10
184.9999999999998
 20
195.4999999999996
 30
0.0
 11
195.4999999999994
 21
195.4999999999996
 31
0.0
  0
LINE
  5
103D
330
2
100
AcDbEntity
  8
10
100
AcDbLine
 10
174.5000000000003
 20
199.2000000000001
 30
0.0
 11
174.5000000000003
 21
188.2000000000001
 31
0.0
  0
LINE
  5
103E
330
2
100
AcDbEntity
  8
10
100
AcDbLine
 10
178.2999999999996
 20
188.2000000000001
 30
0.0
 11
178.2999999999996
 21
199.2000000000001
 31
0.0
  0
LINE
  5
103F
330
2
100
AcDbEntity
  8
10
100
AcDbLine
 10
174.5000000000003
 20
188.2000000000001
 30
0.0
 11
178.2999999999996
 21
188.2000000000001
 31
0.0
  0
LINE
  5
1040
330
2
100
AcDbEntity
  8
10
100
AcDbLine
 10
178.2999999999996
 20
199.2000000000001
 30
0.0
 11
174.5000000000003
 21
199.2000000000001
 31
0.0
  0
LINE
  5
1041
330
2
100
AcDbEntity
  8
10
100
AcDbLine
 10
234.4999999999999
 20
181.5000010000001
 30
0.0
 11
234.4999999999999
 21
196.0000010000001
 31
0.0
  0
LINE
  5
1042
330
2
100
AcDbEntity
  8
10
100
AcDbLine
 10
233.9999999999999
 20
196.9999999999998
 30
0.0
 11
233.9999999999999
 21
181.0000010000001
 31
0.0
  0
LINE
  5
1043
330
2
100
AcDbEntity
  8
10
100
AcDbLine
 10
222.4999999999999
 20
192.7499999999998
 30
0.0
 11
222.4999999999999
 21
173.7499999999998
 31
0.0
  0
LINE
  5
1044
330
2
100
AcDbEntity
  8
10
100
AcDbLine
 10
224.9999999999999
 20
173.7499999999998
 30
0.0
 11
224.9999999999999
 21
192.7499999999998
 31
0.0
  0
LINE
  5
1045
330
2
100
AcDbEntity
  8
10
100
AcDbLine
 10
212.4999999999999
 20
196.2499999999998
 30
0.0
 11
212.4999999999999
 21
173.7499999999998
 31
0.0
  0
LINE
  5
1046
330
2
100
AcDbEntity
  8
10
100
AcDbLine
 10
214.9999999999999
 20
173.7499999999998
 30
0.0
 11
214.9999999999999
 21
196.2499999999998
 31
0.0
  0
LINE
  5
1047
330
2
100
AcDbEntity
  8
10
100
AcDbLine
 10
209.9999999999998
 20
173.7499999999998
 30
0.0
 11
209.9999999999998
 21
196.2499999999998
 31
0.0
  0
LINE
  5
1048
330
2
100
AcDbEntity
  8
10
100
AcDbLine
 10
207.4999999999998
 20
196.2499999999998
 30
0.0
 11
207.4999999999998
 21
173.7499999999998
 31
0.0
  0
LINE
  5
1049
330
2
100
AcDbEntity
  8
10
100
AcDbLine
 10
204.9999999999998
 20
173.7499999999998
 30
0.0
 11
204.9999999999998
 21
196.2499999999998
 31
0.0
  0
LINE
  5
104A
330
2
100
AcDbEntity
  8
10
100
AcDbLine
 10
219.9999999999999
 20
173.7499999999998
 30
0.0
 11
219.9999999999999
 21
192.7499999999998
 31
0.0
  0
LINE
  5
104B
330
2
100
AcDbEntity
  8
10
100
AcDbLine
 10
217.4999999999998
 20
192.7499999999998
 30
0.0
 11
217.4999999999998
 21
173.7499999999998
 31
0.0
  0
ARC
  5
104C
330
2
100
AcDbEntity
  8
10
100
AcDbCircle
 10
218.7499999999999
 20
173.7499999999998
 30
0.0
 40
1.25
100
AcDbArc
 50
180.0
 51
0.0
  0
ARC
  5
104D
330
2
100
AcDbEntity
  8
10
100
AcDbCircle
 10
208.7499999999999
 20
173.7499999999998
 30
0.0
 40
1.25
100
AcDbArc
 50
180.0
 51
0.0
  0
ARC
  5
104E
330
2
100
AcDbEntity
  8
10
100
AcDbCircle
 10
213.7499999999998
 20
173.7499999999998
 30
0.0
 40
1.25
100
AcDbArc
 50
180.0
 51
0.0
  0
ARC
  5
104F
330
2
100
AcDbEntity
  8
10
100
AcDbCircle
 10
223.7499999999999
 20
173.7499999999998
 30
0.0
 40
1.25
100
AcDbArc
 50
180.0
 51
0.0
  0
ARC
  5
1050
330
2
100
AcDbEntity
  8
10
100
AcDbCircle
 10
218.7499999999999
 20
192.7499999999998
 30
0.0
 40
1.25
100
AcDbArc
 50
0.0
 51
180.0
  0
LINE
  5
1051
330
2
100
AcDbEntity
  8
10
100
AcDbLine
 10
217.7999999999996
 20
204.9999999999998
 30
0.0
 11
222.1999999999997
 21
205.0000000000002
 31
0.0
  0
LINE
  5
1052
330
2
100
AcDbEntity
  8
10
100
AcDbLine
 10
217.7999999999996
 20
197.0
 30
0.0
 11
222.1999999999997
 21
197.0
 31
0.0
  0
ARC
  5
1053
330
2
100
AcDbEntity
  8
10
100
AcDbCircle
 10
213.7499999999998
 20
196.2499999999998
 30
0.0
 40
1.25
100
AcDbArc
 50
0.0
 51
180.0
  0
ARC
  5
1054
330
2
100
AcDbEntity
  8
10
100
AcDbCircle
 10
208.7499999999999
 20
196.2499999999998
 30
0.0
 40
1.25
100
AcDbArc
 50
0.0
 51
180.0
  0
LINE
  5
1055
330
2
100
AcDbEntity
  8
10
100
AcDbLine
 10
217.4999999999998
 20
197.3
 30
0.0
 11
217.4999999999998
 21
204.6999999999998
 31
0.0
  0
ARC
  5
1056
330
2
100
AcDbEntity
  8
10
100
AcDbCircle
 10
217.7999999999996
 20
197.3
 30
0.0
 40
0.3
100
AcDbArc
 50
180.0
 51
270.0
  0
LINE
  5
1057
330
2
100
AcDbEntity
  8
10
100
AcDbLine
 10
216.4999999999985
 20
205.4999999999902
 30
0.0
 11
205.4999999999998
 21
205.5000000000002
 31
0.0
  0
ARC
  5
1058
330
2
100
AcDbEntity
  8
10
100
AcDbCircle
 10
217.7999999999996
 20
204.6999999999998
 30
0.0
 40
0.3
100
AcDbArc
 50
90.0
 51
180.0
  0
LINE
  5
1059
330
2
100
AcDbEntity
  8
10
100
AcDbLine
 10
222.4999999999999
 20
197.3
 30
0.0
 11
222.4999999999994
 21
204.7000000000001
 31
0.0
  0
ARC
  5
105A
330
2
100
AcDbEntity
  8
10
100
AcDbCircle
 10
223.7499999999999
 20
192.7499999999998
 30
0.0
 40
1.25
100
AcDbArc
 50
0.0
 51
180.0
  0
ARC
  5
105B
330
2
100
AcDbEntity
  8
10
100
AcDbCircle
 10
222.1999999999997
 20
197.3
 30
0.0
 40
0.3
100
AcDbArc
 50
270.0
 51
0.0
  0
ARC
  5
105C
330
2
100
AcDbEntity
  8
10
100
AcDbCircle
 10
222.1999999999997
 20
204.7000000000001
 30
0.0
 40
0.3
100
AcDbArc
 50
0.0
 51
90.0
  0
LINE
  5
105D
330
2
100
AcDbEntity
  8
10
100
AcDbLine
 10
184.9999999999998
 20
207.7
 30
0.0
 11
184.4999999999998
 21
207.7
 31
0.0
  0
LINE
  5
105E
330
2
100
AcDbEntity
  8
10
100
AcDbLine
 10
269.4999999999994
 20
147.5000010000001
 30
0.0
 11
269.4999999999994
 21
189.0000010000001
 31
0.0
  0
LINE
  5
105F
330
2
100
AcDbEntity
  8
10
100
AcDbLine
 10
263.4999999999994
 20
189.0000010000001
 30
0.0
 11
263.499999999997
 21
147.5000010000001
 31
0.0
  0
LINE
  5
1060
330
2
100
AcDbEntity
  8
10
100
AcDbLine
 10
260.9999999999999
 20
147.5000009999997
 30
0.0
 11
260.9999999999999
 21
181.5000010000001
 31
0.0
  0
LINE
  5
1061
330
2
100
AcDbEntity
  8
10
100
AcDbLine
 10
260.4999999999999
 20
148.974913541457
 30
0.0
 11
260.4999999999998
 21
181.0000010000001
 31
0.0
  0
LINE
  5
1062
330
2
100
AcDbEntity
  8
10
100
AcDbLine
 10
235.4999999999999
 20
171.2499999999998
 30
0.0
 11
235.4999999999999
 21
148.7499999999998
 31
0.0
  0
LINE
  5
1063
330
2
100
AcDbEntity
  8
10
100
AcDbLine
 10
237.9999999999999
 20
148.7499999999998
 30
0.0
 11
237.9999999999999
 21
171.2499999999998
 31
0.0
  0
LINE
  5
1064
330
2
100
AcDbEntity
  8
10
100
AcDbLine
 10
240.4999999999999
 20
171.2499999999998
 30
0.0
 11
240.4999999999999
 21
148.7499999999998
 31
0.0
  0
LINE
  5
1065
330
2
100
AcDbEntity
  8
10
100
AcDbLine
 10
242.9999999999999
 20
148.7499999999998
 30
0.0
 11
242.9999999999999
 21
171.2499999999998
 31
0.0
  0
LINE
  5
1066
330
2
100
AcDbEntity
  8
10
100
AcDbLine
 10
245.4999999999999
 20
171.2499999999998
 30
0.0
 11
245.4999999999999
 21
148.7499999999998
 31
0.0
  0
LINE
  5
1067
330
2
100
AcDbEntity
  8
10
100
AcDbLine
 10
247.9999999999999
 20
148.7499999999998
 30
0.0
 11
247.9999999999999
 21
171.2499999999998
 31
0.0
  0
LINE
  5
1068
330
2
100
AcDbEntity
  8
10
100
AcDbLine
 10
250.4999999999999
 20
171.2499999999998
 30
0.0
 11
250.4999999999999
 21
148.7499999999998
 31
0.0
  0
LINE
  5
1069
330
2
100
AcDbEntity
  8
10
100
AcDbLine
 10
252.9999999999999
 20
148.7499999999998
 30
0.0
 11
252.9999999999999
 21
171.2499999999998
 31
0.0
  0
ARC
  5
106A
330
2
100
AcDbEntity
  8
10
100
AcDbCircle
 10
251.7499999999999
 20
106.2499999999998
 30
0.0
 40
1.25
100
AcDbArc
 50
0.0
 51
180.0
  0
ARC
  5
106B
330
2
100
AcDbEntity
  8
10
100
AcDbCircle
 10
241.7499999999999
 20
106.2499999999998
 30
0.0
 40
1.25
100
AcDbArc
 50
0.0
 51
180.0
  0
ARC
  5
106C
330
2
100
AcDbEntity
  8
10
100
AcDbCircle
 10
236.7499999999999
 20
106.2499999999998
 30
0.0
 40
1.25
100
AcDbArc
 50
0.0
 51
180.0
  0
ARC
  5
106D
330
2
100
AcDbEntity
  8
10
100
AcDbCircle
 10
246.7499999999999
 20
106.2499999999998
 30
0.0
 40
1.25
100
AcDbArc
 50
0.0
 51
180.0
  0
LINE
  5
106E
330
2
100
AcDbEntity
  8
10
100
AcDbLine
 10
263.4999999999994
 20
140.5000010000001
 30
0.0
 11
269.4999999999994
 21
140.5000010000001
 31
0.0
  0
LINE
  5
106F
330
2
100
AcDbEntity
  8
10
100
AcDbLine
 10
263.499999999997
 20
147.5000010000001
 30
0.0
 11
269.4999999999994
 21
147.5000010000001
 31
0.0
  0
CIRCLE
  5
1070
330
2
100
AcDbEntity
  8
10
100
AcDbCircle
 10
267.9999999999953
 20
144.0000009999997
 30
0.0
 40
2.0
  0
ARC
  5
1071
330
2
100
AcDbEntity
  8
10
100
AcDbCircle
 10
251.7499999999999
 20
148.7499999999998
 30
0.0
 40
1.25
100
AcDbArc
 50
180.0
 51
0.0
  0
ARC
  5
1072
330
2
100
AcDbEntity
  8
10
100
AcDbCircle
 10
241.7499999999999
 20
148.7499999999998
 30
0.0
 40
1.25
100
AcDbArc
 50
180.0
 51
0.0
  0
ARC
  5
1073
330
2
100
AcDbEntity
  8
10
100
AcDbCircle
 10
236.7499999999999
 20
148.7499999999998
 30
0.0
 40
1.25
100
AcDbArc
 50
180.0
 51
0.0
  0
ARC
  5
1074
330
2
100
AcDbEntity
  8
10
100
AcDbCircle
 10
246.7499999999999
 20
148.7499999999998
 30
0.0
 40
1.25
100
AcDbArc
 50
180.0
 51
0.0
  0
ARC
  5
1075
330
2
100
AcDbEntity
  8
10
100
AcDbCircle
 10
259.9999999999999
 20
144.0000009999997
 30
0.0
 40
3.499999999999996
100
AcDbArc
 50
90.0
 51
270.0
  0
ARC
  5
1076
330
2
100
AcDbEntity
  8
10
100
AcDbCircle
 10
260.0000860000004
 20
143.9999849999999
 30
0.0
 40
3.999999999999997
100
AcDbArc
 50
95.74016093024608
 51
264.2598390697539
  0
LINE
  5
1077
330
2
100
AcDbEntity
  8
10
100
AcDbLine
 10
259.9999999999999
 20
140.5000009999997
 30
0.0
 11
260.9999999999994
 21
140.5000009999997
 31
0.0
  0
ARC
  5
1078
330
2
100
AcDbEntity
  8
10
100
AcDbCircle
 10
259.4999999999999
 20
139.0250564585429
 30
0.0
 40
1.0
100
AcDbArc
 50
0.0
 51
84.25983906975391
  0
LINE
  5
1079
330
2
100
AcDbEntity
  8
10
100
AcDbLine
 10
259.9999999999999
 20
147.5000009999997
 30
0.0
 11
260.9999999999999
 21
147.5000009999997
 31
0.0
  0
ARC
  5
107A
330
2
100
AcDbEntity
  8
10
100
AcDbCircle
 10
259.4999999999999
 20
148.974913541457
 30
0.0
 40
1.0
100
AcDbArc
 50
275.740160930246
 51
0.0
  0
LINE
  5
107B
330
2
100
AcDbEntity
  8
12
100
AcDbLine
 10
295.9999999999995
 20
202.0
 30
0.0
 11
309.9999999999999
 21
202.0
 31
0.0
  0
LINE
  5
107C
330
2
100
AcDbEntity
  8
10
100
AcDbLine
 10
293.4999999999994
 20
206.618001
 30
0.0
 11
293.2242099741337
 21
208.0000010000001
 31
0.0
  0
LINE
  5
107D
330
2
100
AcDbEntity
  8
10
100
AcDbLine
 10
295.4999999999994
 20
206.618001
 30
0.0
 11
295.7757900258656
 21
208.0000010000001
 31
0.0
  0
LINE
  5
107E
330
2
100
AcDbEntity
  8
10
100
AcDbLine
 10
279.4999999999995
 20
206.1180010000001
 30
0.0
 11
279.7757900258651
 21
207.5000009999997
 31
0.0
  0
LINE
  5
107F
330
2
100
AcDbEntity
  8
10
100
AcDbLine
 10
277.4999999999995
 20
206.1180010000001
 30
0.0
 11
277.2242099741337
 21
207.5000010000001
 31
0.0
  0
LINE
  5
1080
330
2
100
AcDbEntity
  8
10
100
AcDbLine
 10
291.9999999999904
 20
205.5000010000001
 30
0.0
 11
291.9999999999904
 21
208.0000010000001
 31
0.0
  0
LINE
  5
1081
330
2
100
AcDbEntity
  8
10
100
AcDbLine
 10
281.9999999999904
 20
207.5000010000001
 30
0.0
 11
281.9999999999904
 21
205.5000010000001
 31
0.0
  0
LINE
  5
1082
330
2
100
AcDbEntity
  8
10
100
AcDbLine
 10
245.9999999999999
 20
205.5000010000001
 30
0.0
 11
245.9999999999999
 21
207.5000010000001
 31
0.0
  0
LINE
  5
1083
330
2
100
AcDbEntity
  8
10
100
AcDbLine
 10
236.9999999999999
 20
196.9999999999998
 30
0.0
 11
236.9999999999998
 21
208.0
 31
0.0
  0
LINE
  5
1084
330
2
100
AcDbEntity
  8
10
100
AcDbLine
 10
269.4999999999994
 20
189.0000010000001
 30
0.0
 11
263.4999999999994
 21
189.0000010000001
 31
0.0
  0
ARC
  5
1085
330
2
100
AcDbEntity
  8
10
100
AcDbCircle
 10
251.7499999999999
 20
171.2499999999998
 30
0.0
 40
1.25
100
AcDbArc
 50
0.0
 51
180.0
  0
ARC
  5
1086
330
2
100
AcDbEntity
  8
10
100
AcDbCircle
 10
241.7499999999999
 20
171.2499999999998
 30
0.0
 40
1.25
100
AcDbArc
 50
0.0
 51
180.0
  0
ARC
  5
1087
330
2
100
AcDbEntity
  8
10
100
AcDbCircle
 10
236.7499999999999
 20
171.2499999999998
 30
0.0
 40
1.25
100
AcDbArc
 50
0.0
 51
180.0
  0
ARC
  5
1088
330
2
100
AcDbEntity
  8
10
100
AcDbCircle
 10
246.7499999999999
 20
171.2499999999998
 30
0.0
 40
1.25
100
AcDbArc
 50
0.0
 51
180.0
  0
LINE
  5
1089
330
2
100
AcDbEntity
  8
10
100
AcDbLine
 10
237.4999999999999
 20
196.0000010000001
 30
0.0
 11
237.4999999999999
 21
205.5000010000001
 31
0.0
  0
LINE
  5
108A
330
2
100
AcDbEntity
  8
10
100
AcDbLine
 10
245.9999999999999
 20
205.5000010000001
 30
0.0
 11
237.4999999999999
 21
205.5000010000001
 31
0.0
  0
LINE
  5
108B
330
2
100
AcDbEntity
  8
10
100
AcDbLine
 10
264.5000000000024
 20
202.5000010000001
 30
0.0
 11
264.5000000000024
 21
191.5000009999999
 31
0.0
  0
LINE
  5
108C
330
2
100
AcDbEntity
  8
10
100
AcDbLine
 10
262.4999999999988
 20
202.5000010000001
 30
0.0
 11
262.4999999999988
 21
191.5000010000001
 31
0.0
  0
LINE
  5
108D
330
2
100
AcDbEntity
  8
10
100
AcDbLine
 10
258.5000000000001
 20
191.5000010000001
 30
0.0
 11
258.5000000000001
 21
202.5000010000001
 31
0.0
  0
LINE
  5
108E
330
2
100
AcDbEntity
  8
10
100
AcDbLine
 10
264.5000000000024
 20
191.5000009999999
 30
0.0
 11
258.5000000000001
 21
191.5000009999999
 31
0.0
  0
LINE
  5
108F
330
2
100
AcDbEntity
  8
10
100
AcDbLine
 10
258.5000000000001
 20
202.5000010000001
 30
0.0
 11
264.5000000000024
 21
202.5000010000001
 31
0.0
  0
LINE
  5
1090
330
2
100
AcDbEntity
  8
10
100
AcDbLine
 10
279.4999999999995
 20
206.1180010000001
 30
0.0
 11
277.4999999999995
 21
206.1180010000001
 31
0.0
  0
LINE
  5
1091
330
2
100
AcDbEntity
  8
10
100
AcDbLine
 10
291.9999999999904
 20
205.5000010000001
 30
0.0
 11
281.9999999999904
 21
205.5000010000001
 31
0.0
  0
LINE
  5
1092
330
2
100
AcDbEntity
  8
10
100
AcDbLine
 10
287.4999999999995
 20
204.1180010000001
 30
0.0
 11
285.4999999999995
 21
204.1180010000001
 31
0.0
  0
LINE
  5
1093
330
2
100
AcDbEntity
  8
10
100
AcDbLine
 10
285.4999999999995
 20
204.1180010000001
 30
0.0
 11
285.2242099741337
 21
205.5000010000001
 31
0.0
  0
LINE
  5
1094
330
2
100
AcDbEntity
  8
10
100
AcDbLine
 10
287.4999999999995
 20
204.1180010000001
 30
0.0
 11
287.7757900258656
 21
205.5000010000001
 31
0.0
  0
LINE
  5
1095
330
2
100
AcDbEntity
  8
10
100
AcDbLine
 10
295.4999999999994
 20
206.618001
 30
0.0
 11
293.4999999999994
 21
206.618001
 31
0.0
  0
LINE
  5
1096
330
2
100
AcDbEntity
  8
10
100
AcDbLine
 10
281.9999999999904
 20
207.5000010000001
 30
0.0
 11
245.9999999999999
 21
207.5000010000001
 31
0.0
  0
LINE
  5
1097
330
2
100
AcDbEntity
  8
10
100
AcDbLine
 10
304.9999999999999
 20
178.0000010000001
 30
0.0
 11
304.9999999999999
 21
208.0000010000001
 31
0.0
  0
LINE
  5
1098
330
2
100
AcDbEntity
  8
10
100
AcDbLine
 10
304.7000000000002
 20
177.7000009999999
 30
0.0
 11
304.9999999999999
 21
178.0000010000001
 31
0.0
  0
LINE
  5
1099
330
2
100
AcDbEntity
  8
12
100
AcDbLine
 10
10.0
 20
47.50000000000006
 30
0.0
 11
10.0
 21
44.50000000000005
 31
0.0
  0
LINE
  5
109A
330
2
100
AcDbEntity
  8
12
100
AcDbLine
 10
295.9999999999995
 20
46.00000000000005
 30
0.0
 11
309.9999999999999
 21
46.00000000000005
 31
0.0
  0
LINE
  5
109D
330
2
100
AcDbEntity
  8
17
100
AcDbLine
 10
27.50000000000092
 20
49.00000000000005
 30
0.0
 11
27.50000000000092
 21
39.00000000000005
 31
0.0
  0
LINE
  5
109E
330
2
100
AcDbEntity
  8
17
100
AcDbLine
 10
22.50000000000092
 20
44.00000000000005
 30
0.0
 11
32.50000000000092
 21
44.00000000000005
 31
0.0
  0
LINE
  5
109F
330
2
100
AcDbEntity
  8
17
100
AcDbLine
 10
37.50000000000092
 20
49.00000000000005
 30
0.0
 11
37.50000000000092
 21
39.00000000000005
 31
0.0
  0
LINE
  5
10A0
330
2
100
AcDbEntity
  8
17
100
AcDbLine
 10
32.50000000000092
 20
44.00000000000005
 30
0.0
 11
42.50000000000092
 21
44.00000000000005
 31
0.0
  0
LINE
  5
10A1
330
2
100
AcDbEntity
  8
17
100
AcDbLine
 10
258.4999999999949
 20
49.00000000000005
 30
0.0
 11
258.4999999999949
 21
39.00000000000005
 31
0.0
  0
LINE
  5
10A2
330
2
100
AcDbEntity
  8
17
100
AcDbLine
 10
253.4999999999949
 20
44.00000000000005
 30
0.0
 11
263.4999999999949
 21
44.00000000000005
 31
0.0
  0
LINE
  5
10A3
330
2
100
AcDbEntity
  8
16
100
AcDbLine
 10
29.99999999999999
 20
219.555133269799
 30
0.0
 11
29.99999999999999
 21
28.44486673020111
 31
0.0
  0
LINE
  5
10A4
330
2
100
AcDbEntity
  8
18
100
AcDbLine
 10
60.00000000000001
 20
248.0
 30
0.0
 11
0.0000000000000036
 21
248.0000000000001
 31
0.0
  0
LINE
  5
10A5
330
2
100
AcDbEntity
  8
18
100
AcDbLine
 10
59.99999999999992
 20
0.0
 30
0.0
 11
0.0
 21
0.0
 31
0.0
  0
LINE
  5
10A6
330
2
100
AcDbEntity
  8
18
100
AcDbLine
 10
59.99999999999992
 20
0.0
 30
0.0
 11
60.00000000000001
 21
248.0
 31
0.0
  0
LINE
  5
10A7
330
2
100
AcDbEntity
  8
18
100
AcDbLine
 10
0.0000000000000036
 20
248.0000000000001
 30
0.0
 11
0.0
 21
0.0
 31
0.0
  0
LINE
  5
10A8
330
2
100
AcDbEntity
  8
18
100
AcDbLine
 10
304.9999999999999
 20
-0.0000000000000284
 30
0.0
 11
304.9999999999999
 21
248.0
 31
0.0
  0
LINE
  5
10A9
330
2
100
AcDbEntity
  8
18
100
AcDbLine
 10
304.9999999999999
 20
-0.0000000000000284
 30
0.0
 11
89.99999999999991
 21
0.0
 31
0.0
  0
LINE
  5
10AA
330
2
100
AcDbEntity
  8
18
100
AcDbLine
 10
304.9999999999999
 20
248.0
 30
0.0
 11
89.99999999999991
 21
248.0000000000001
 31
0.0
  0
LINE
  5
10AB
330
2
100
AcDbEntity
  8
18
100
AcDbLine
 10
89.99999999999991
 20
0.0
 30
0.0
 11
89.99999999999991
 21
248.0000000000001
 31
0.0
  0
TEXT
  5
10C0
330
2
100
AcDbEntity
  8
19
100
AcDbText
 10
330.0
 20
47.0
 30
0.0
 40
7.0
  1
MR-J3-10B/20B
 50
0.0000025044776584
 41
0.7
  7
STANDARD1
100
AcDbText
  0
TEXT
  5
10C1
330
2
100
AcDbEntity
  8
19
100
AcDbText
 10
330.0
 20
35.0
 30
0.0
 40
7.0
  1
MR-J3-10B1/20B1
 50
0.0000025044776584
 41
0.7
  7
STANDARD1
100
AcDbText
  0
ARC
  5
1432
330
2
100
AcDbEntity
  8
10
100
AcDbCircle
 10
43.00000305180127
 20
173.6150054932002
 30
0.0
 40
0.6999999881
100
AcDbArc
 50
270.0
 51
0.0
  0
LINE
  5
1433
330
2
100
AcDbEntity
  8
10
100
AcDbLine
 10
44.45000000000002
 20
172.0
 30
0.0
 11
44.45000000000002
 21
180.5
 31
0.0
  0
ARC
  5
1434
330
2
100
AcDbEntity
  8
10
100
AcDbCircle
 10
42.17797393800127
 20
172.6150054932002
 30
0.0
 40
0.6999999881
100
AcDbArc
 50
90.0
 51
134.7232109213987
  0
LINE
  5
1435
330
2
100
AcDbEntity
  8
10
100
AcDbLine
 10
40.15000457770109
 20
179.4000091553001
 30
0.0
 11
40.15000457770109
 21
173.1000061035002
 31
0.0
  0
LINE
  5
1436
330
2
100
AcDbEntity
  8
10
100
AcDbLine
 10
39.75001068120126
 20
179.4000091553001
 30
0.0
 11
39.75001068120126
 21
173.1000061035002
 31
0.0
  0
LINE
  5
1437
330
2
100
AcDbEntity
  8
10
100
AcDbLine
 10
39.45000000000003
 20
180.5
 30
0.0
 11
39.45000000000003
 21
172.0
 31
0.0
  0
ARC
  5
1438
330
2
100
AcDbEntity
  8
10
100
AcDbCircle
 10
41.24658508300124
 20
173.1000061035002
 30
0.0
 40
0.6999999881
100
AcDbArc
 50
270.0
 51
314.723210921399
  0
ARC
  5
1439
330
2
100
AcDbEntity
  8
10
100
AcDbCircle
 10
41.24658508300124
 20
173.1000061035002
 30
0.0
 40
0.2999999821
100
AcDbArc
 50
270.0
 51
314.7232132009999
  0
LINE
  5
143A
330
2
100
AcDbEntity
  8
10
100
AcDbLine
 10
39.95000000000003
 20
171.5
 30
0.0
 11
43.95000000000003
 21
171.5
 31
0.0
  0
ARC
  5
143B
330
2
100
AcDbEntity
  8
10
100
AcDbCircle
 10
40.45000000000117
 20
173.1000061035002
 30
0.0
 40
0.6999999881
100
AcDbArc
 50
180.0
 51
270.0
  0
LINE
  5
143C
330
2
100
AcDbEntity
  8
10
100
AcDbLine
 10
41.24658508300124
 20
172.4000091553
 30
0.0
 11
40.45000000000117
 21
172.4000091553
 31
0.0
  0
ARC
  5
143D
330
2
100
AcDbEntity
  8
10
100
AcDbCircle
 10
40.45000000000117
 20
173.1000061035002
 30
0.0
 40
0.2999999821
100
AcDbArc
 50
180.0
 51
270.0
  0
LINE
  5
143E
330
2
100
AcDbEntity
  8
10
100
AcDbLine
 10
41.24658508300124
 20
172.8000030518001
 30
0.0
 11
40.45000000000117
 21
172.8000030518001
 31
0.0
  0
ARC
  5
143F
330
2
100
AcDbEntity
  8
10
100
AcDbCircle
 10
39.95000000000003
 20
172.0
 30
0.0
 40
0.5
100
AcDbArc
 50
180.0
 51
270.0
  0
LINE
  5
1440
330
2
100
AcDbEntity
  8
10
100
AcDbLine
 10
41.68538970950111
 20
173.1123657227001
 30
0.0
 11
41.45769042970139
 21
172.8868408203
 31
0.0
  0
LINE
  5
1441
330
2
100
AcDbEntity
  8
10
100
AcDbLine
 10
41.73916931150141
 20
172.602645874
 30
0.0
 11
41.96686859130112
 21
172.8281555176002
 31
0.0
  0
ARC
  5
1442
330
2
100
AcDbEntity
  8
10
100
AcDbCircle
 10
42.17797393800127
 20
172.6150054932002
 30
0.0
 40
0.2999999821
100
AcDbArc
 50
90.0
 51
134.723213201
  0
LINE
  5
1443
330
2
100
AcDbEntity
  8
10
100
AcDbLine
 10
43.00000305180127
 20
172.9150085449003
 30
0.0
 11
42.17797393800127
 21
172.9150085449003
 31
0.0
  0
ARC
  5
1444
330
2
100
AcDbEntity
  8
10
100
AcDbCircle
 10
43.95000000000003
 20
172.0
 30
0.0
 40
0.5
100
AcDbArc
 50
270.0
 51
0.0
  0
ARC
  5
1445
330
2
100
AcDbEntity
  8
10
100
AcDbCircle
 10
41.24658508300124
 20
179.4000091553001
 30
0.0
 40
0.6999999881
100
AcDbArc
 50
45.27678907860095
 51
90.0
  0
LINE
  5
1446
330
2
100
AcDbEntity
  8
10
100
AcDbLine
 10
42.04999847410134
 20
178.5500030518001
 30
0.0
 11
41.29999847410134
 21
178.5500030518001
 31
0.0
  0
ARC
  5
1447
330
2
100
AcDbEntity
  8
10
100
AcDbCircle
 10
41.24658508300124
 20
179.4000091553001
 30
0.0
 40
0.2999999821
100
AcDbArc
 50
45.27678679900001
 51
90.0
  0
LINE
  5
1448
330
2
100
AcDbEntity
  8
10
100
AcDbLine
 10
42.04999847410134
 20
173.9499969482001
 30
0.0
 11
41.29999847410134
 21
173.9499969482001
 31
0.0
  0
LINE
  5
1449
330
2
100
AcDbEntity
  8
10
100
AcDbLine
 10
43.95000000000003
 20
181.0
 30
0.0
 11
39.95000000000003
 21
181.0
 31
0.0
  0
LINE
  5
144A
330
2
100
AcDbEntity
  8
10
100
AcDbLine
 10
41.29999847410134
 20
178.5500030518001
 30
0.0
 11
41.29999847410134
 21
173.9499969482001
 31
0.0
  0
ARC
  5
144B
330
2
100
AcDbEntity
  8
10
100
AcDbCircle
 10
39.95000000000003
 20
180.5
 30
0.0
 40
0.5
100
AcDbArc
 50
90.0
 51
180.0
  0
ARC
  5
144C
330
2
100
AcDbEntity
  8
10
100
AcDbCircle
 10
40.45000000000117
 20
179.4000091553001
 30
0.0
 40
0.2999999821
100
AcDbArc
 50
90.0
 51
180.0
  0
LINE
  5
144D
330
2
100
AcDbEntity
  8
10
100
AcDbLine
 10
41.24658508300124
 20
179.7000122070001
 30
0.0
 11
40.45000000000117
 21
179.7000122070001
 31
0.0
  0
LINE
  5
144E
330
2
100
AcDbEntity
  8
10
100
AcDbLine
 10
41.24658508300124
 20
180.1000061035002
 30
0.0
 11
40.45000000000117
 21
180.1000061035002
 31
0.0
  0
ARC
  5
144F
330
2
100
AcDbEntity
  8
10
100
AcDbCircle
 10
40.45000000000117
 20
179.4000091553001
 30
0.0
 40
0.6999999881
100
AcDbArc
 50
90.0
 51
180.0
  0
ARC
  5
1450
330
2
100
AcDbEntity
  8
10
100
AcDbCircle
 10
42.95000762940115
 20
178.8849945068003
 30
0.0
 40
0.2999999821
100
AcDbArc
 50
0.0
 51
90.0
  0
ARC
  5
1451
330
2
100
AcDbEntity
  8
10
100
AcDbCircle
 10
43.00000305180127
 20
178.8849945068003
 30
0.0
 40
0.6999999881
100
AcDbArc
 50
0.0
 51
90.0
  0
ARC
  5
1452
330
2
100
AcDbEntity
  8
10
100
AcDbCircle
 10
42.95000762940115
 20
173.6150054932002
 30
0.0
 40
0.2999999821
100
AcDbArc
 50
270.0
 51
0.0
  0
LINE
  5
1453
330
2
100
AcDbEntity
  8
10
100
AcDbLine
 10
43.69994659430129
 20
173.606116137064
 30
0.0
 11
43.69994659430129
 21
178.8938838629366
 31
0.0
  0
LINE
  5
1454
330
2
100
AcDbEntity
  8
10
100
AcDbLine
 10
42.85000152590145
 20
177.7500000000002
 30
0.0
 11
42.85000152590145
 21
174.7500000000002
 31
0.0
  0
LINE
  5
1455
330
2
100
AcDbEntity
  8
10
100
AcDbLine
 10
43.25000305180127
 20
178.8849945068003
 30
0.0
 11
43.25000305180127
 21
173.6150054932002
 31
0.0
  0
LINE
  5
1456
330
2
100
AcDbEntity
  8
10
100
AcDbLine
 10
43.70000000000117
 20
173.6150054932002
 30
0.0
 11
43.70000000000117
 21
178.8849945068003
 31
0.0
  0
LINE
  5
1457
330
2
100
AcDbEntity
  8
10
100
AcDbLine
 10
42.95000762940115
 20
173.3150024414001
 30
0.0
 11
42.17797393800127
 21
173.3150024414001
 31
0.0
  0
LINE
  5
1458
330
2
100
AcDbEntity
  8
10
100
AcDbLine
 10
42.04999847410134
 20
173.9499969482001
 30
0.0
 11
42.85000152590145
 21
174.7500000000002
 31
0.0
  0
LINE
  5
1459
330
2
100
AcDbEntity
  8
10
100
AcDbLine
 10
42.85000152590145
 20
177.7500000000002
 30
0.0
 11
42.04999847410134
 21
178.5500030518001
 31
0.0
  0
ARC
  5
145A
330
2
100
AcDbEntity
  8
10
100
AcDbCircle
 10
43.95000000000003
 20
180.5
 30
0.0
 40
0.5
100
AcDbArc
 50
0.0
 51
90.0
  0
LINE
  5
145B
330
2
100
AcDbEntity
  8
10
100
AcDbLine
 10
41.68538970950111
 20
179.3876495361003
 30
0.0
 11
41.45769042970139
 21
179.6131439209
 31
0.0
  0
ARC
  5
145C
330
2
100
AcDbEntity
  8
10
100
AcDbCircle
 10
42.17797393800127
 20
179.8850097656002
 30
0.0
 40
0.2999999821
100
AcDbArc
 50
225.276786799
 51
270.0
  0
ARC
  5
145D
330
2
100
AcDbEntity
  8
10
100
AcDbCircle
 10
42.17797393800127
 20
179.8850097656002
 30
0.0
 40
0.6999999881
100
AcDbArc
 50
225.2767890786012
 51
270.0
  0
LINE
  5
145E
330
2
100
AcDbEntity
  8
10
100
AcDbLine
 10
41.73916931150141
 20
179.897354126
 30
0.0
 11
41.96686859130112
 21
179.6718444824003
 31
0.0
  0
LINE
  5
145F
330
2
100
AcDbEntity
  8
10
100
AcDbLine
 10
43.00000305180127
 20
179.5849914551002
 30
0.0
 11
42.17797393800127
 21
179.5849914551002
 31
0.0
  0
LINE
  5
1460
330
2
100
AcDbEntity
  8
10
100
AcDbLine
 10
42.95000762940115
 20
179.1849975586001
 30
0.0
 11
42.17797393800127
 21
179.1849975586001
 31
0.0
  0
LINE
  5
1461
330
2
100
AcDbEntity
  8
10
100
AcDbLine
 10
40.34994668966827
 20
154.0
 30
0.0
 11
40.34994668966827
 21
140.0
 31
0.0
  0
LINE
  5
1462
330
2
100
AcDbEntity
  8
10
100
AcDbLine
 10
37.34994668966827
 20
140.0
 30
0.0
 11
37.34994668966827
 21
154.0
 31
0.0
  0
LINE
  5
1463
330
2
100
AcDbEntity
  8
10
100
AcDbLine
 10
43.69994659430084
 20
163.6999969482422
 30
0.0
 11
43.69994659430084
 21
130.3000030517578
 31
0.0
  0
LINE
  5
1464
330
2
100
AcDbEntity
  8
10
100
AcDbLine
 10
42.14994640356597
 20
140.4492614746094
 30
0.0
 11
42.14994640356597
 21
153.5507385253906
 31
0.0
  0
LINE
  5
1465
330
2
100
AcDbEntity
  8
10
100
AcDbLine
 10
44.44999999999974
 20
130.0
 30
0.0
 11
44.44999999999974
 21
164.0
 31
0.0
  0
LINE
  5
1466
330
2
100
AcDbEntity
  8
10
100
AcDbLine
 10
33.69994659430084
 20
130.3000030517578
 30
0.0
 11
33.69994659430084
 21
163.6999969482422
 31
0.0
  0
LINE
  5
1467
330
2
100
AcDbEntity
  8
10
100
AcDbLine
 10
43.69994659430084
 20
130.3000030517578
 30
0.0
 11
43.69994659430084
 21
163.6999969482422
 31
0.0
  0
LINE
  5
1468
330
2
100
AcDbEntity
  8
10
100
AcDbLine
 10
35.54994792944488
 20
154.45
 30
0.0
 11
35.54994792944488
 21
139.55
 31
0.0
  0
LINE
  5
1469
330
2
100
AcDbEntity
  8
10
100
AcDbLine
 10
42.54994657045902
 20
137.6000054931641
 30
0.0
 11
35.14994621283106
 21
137.6000054931641
 31
0.0
  0
LINE
  5
146A
330
2
100
AcDbEntity
  8
10
100
AcDbLine
 10
34.69994659430084
 20
128.4999999999996
 30
0.0
 11
43.69994659430084
 21
128.4999999999996
 31
0.0
  0
LINE
  5
146B
330
2
100
AcDbEntity
  8
10
100
AcDbLine
 10
33.69994659430084
 20
130.3000030517578
 30
0.0
 11
43.69994659430084
 21
130.3000030517578
 31
0.0
  0
LINE
  5
146C
330
2
100
AcDbEntity
  8
10
100
AcDbLine
 10
40.34994668966827
 20
135.2000054931641
 30
0.0
 11
42.54994657045902
 21
135.2000054931641
 31
0.0
  0
CIRCLE
  5
146D
330
2
100
AcDbEntity
  8
10
100
AcDbCircle
 10
38.84994668966827
 20
133.2750091552735
 30
0.0
 40
1.299999952316284
  0
CIRCLE
  5
146E
330
2
100
AcDbEntity
  8
10
100
AcDbCircle
 10
38.84994668966827
 20
133.2750091552735
 30
0.0
 40
0.899999976158142
  0
LINE
  5
146F
330
2
100
AcDbEntity
  8
10
100
AcDbLine
 10
35.14994621283106
 20
135.2000054931641
 30
0.0
 11
37.34994668966827
 21
135.2000054931641
 31
0.0
  0
LINE
  5
1470
330
2
100
AcDbEntity
  8
10
100
AcDbLine
 10
35.14994621283106
 20
137.6000054931641
 30
0.0
 11
35.14994621283106
 21
135.2000054931641
 31
0.0
  0
LINE
  5
1471
330
2
100
AcDbEntity
  8
10
100
AcDbLine
 10
37.34994668966827
 20
137.0
 30
0.0
 11
40.34994668966827
 21
137.0
 31
0.0
  0
LINE
  5
1472
330
2
100
AcDbEntity
  8
10
100
AcDbLine
 10
37.34994668966827
 20
135.2000054931641
 30
0.0
 11
37.34994668966838
 21
137.6000054931641
 31
0.0
  0
LINE
  5
1473
330
2
100
AcDbEntity
  8
10
100
AcDbLine
 10
40.34994668966816
 20
137.6000054931641
 30
0.0
 11
40.34994668966827
 21
135.2000054931641
 31
0.0
  0
ARC
  5
1474
330
2
100
AcDbEntity
  8
10
100
AcDbCircle
 10
44.85000000000006
 20
129.0
 30
0.0
 40
1.0
100
AcDbArc
 50
0.0
 51
90.0
  0
LINE
  5
1475
330
2
100
AcDbEntity
  8
10
100
AcDbLine
 10
44.85000000000006
 20
130.0
 30
0.0
 11
44.44999999999974
 21
130.0
 31
0.0
  0
LINE
  5
1476
330
2
100
AcDbEntity
  8
10
100
AcDbLine
 10
42.54994657045902
 20
135.2000054931641
 30
0.0
 11
42.54994657045902
 21
137.6000054931641
 31
0.0
  0
LINE
  5
1477
330
2
100
AcDbEntity
  8
10
100
AcDbLine
 10
36.43018312460479
 20
138.8113859176636
 30
0.0
 11
41.53018326765594
 21
139.7106531143189
 31
0.0
  0
ARC
  5
1478
330
2
100
AcDbEntity
  8
10
100
AcDbCircle
 10
36.29994745260772
 20
139.55
 30
0.0
 40
0.7499999999999993
100
AcDbArc
 50
179.999994991043
 51
280.0000005060242
  0
LINE
  5
1479
330
2
100
AcDbEntity
  8
10
100
AcDbLine
 10
37.34994668966827
 20
140.0
 30
0.0
 11
40.34994668966827
 21
140.0
 31
0.0
  0
ARC
  5
147A
330
2
100
AcDbEntity
  8
10
100
AcDbCircle
 10
41.39994592672882
 20
140.4492614746094
 30
0.0
 40
0.7500000000000001
100
AcDbArc
 50
280.0000005060242
 51
0.0000050089569452
  0
ARC
  5
147B
330
2
100
AcDbEntity
  8
10
100
AcDbCircle
 10
33.94999999999974
 20
164.0
 30
0.0
 40
1.0
100
AcDbArc
 50
90.0
 51
180.0
  0
LINE
  5
147C
330
2
100
AcDbEntity
  8
10
100
AcDbLine
 10
43.44999999999974
 20
165.0
 30
0.0
 11
32.94999999999975
 21
165.0
 31
0.0
  0
CIRCLE
  5
147D
330
2
100
AcDbEntity
  8
10
100
AcDbCircle
 10
38.84994668966838
 20
160.7250061035156
 30
0.0
 40
1.299999952316284
  0
LINE
  5
147E
330
2
100
AcDbEntity
  8
10
100
AcDbLine
 10
36.43018455511627
 20
155.1886074066161
 30
0.0
 11
41.53018183714446
 21
154.289340686798
 31
0.0
  0
LINE
  5
147F
330
2
100
AcDbEntity
  8
10
100
AcDbLine
 10
42.54994657045902
 20
156.3999945068359
 30
0.0
 11
35.14994621283106
 21
156.3999945068359
 31
0.0
  0
LINE
  5
1480
330
2
100
AcDbEntity
  8
10
100
AcDbLine
 10
40.34994668966827
 20
158.7999945068359
 30
0.0
 11
42.54994657045902
 21
158.7999945068359
 31
0.0
  0
ARC
  5
1481
330
2
100
AcDbEntity
  8
10
100
AcDbCircle
 10
36.29994745260784
 20
154.45
 30
0.0
 40
0.7499999999999992
100
AcDbArc
 50
79.99999949397575
 51
180.0000086514213
  0
LINE
  5
1482
330
2
100
AcDbEntity
  8
10
100
AcDbLine
 10
37.34994668966827
 20
154.0
 30
0.0
 11
40.34994668966827
 21
154.0
 31
0.0
  0
LINE
  5
1483
330
2
100
AcDbEntity
  8
10
100
AcDbLine
 10
35.14994621283106
 20
158.7999945068359
 30
0.0
 11
37.34994668966827
 21
158.7999945068359
 31
0.0
  0
LINE
  5
1484
330
2
100
AcDbEntity
  8
10
100
AcDbLine
 10
35.14994621283106
 20
156.3999945068359
 30
0.0
 11
35.14994621283106
 21
158.7999945068359
 31
0.0
  0
LINE
  5
1485
330
2
100
AcDbEntity
  8
10
100
AcDbLine
 10
40.34994668966816
 20
156.3999945068359
 30
0.0
 11
40.34994668966827
 21
158.7999945068359
 31
0.0
  0
LINE
  5
1486
330
2
100
AcDbEntity
  8
10
100
AcDbLine
 10
37.34994668966827
 20
158.7999945068359
 30
0.0
 11
37.34994668966838
 21
156.3999945068359
 31
0.0
  0
LINE
  5
1487
330
2
100
AcDbEntity
  8
10
100
AcDbLine
 10
37.34994668966827
 20
157.0
 30
0.0
 11
40.34994668966827
 21
157.0
 31
0.0
  0
CIRCLE
  5
1488
330
2
100
AcDbEntity
  8
10
100
AcDbCircle
 10
38.84994668966838
 20
160.7250061035156
 30
0.0
 40
0.899999976158142
  0
ARC
  5
1489
330
2
100
AcDbEntity
  8
10
100
AcDbCircle
 10
41.39994592672893
 20
153.5507385253906
 30
0.0
 40
0.7500000000000001
100
AcDbArc
 50
359.9999913485786
 51
80.0000026816992
  0
LINE
  5
148A
330
2
100
AcDbEntity
  8
10
100
AcDbLine
 10
42.54994657045902
 20
158.7999945068359
 30
0.0
 11
42.54994657045902
 21
156.3999945068359
 31
0.0
  0
LINE
  5
148B
330
2
100
AcDbEntity
  8
10
100
AcDbLine
 10
43.69994659430084
 20
163.6999969482422
 30
0.0
 11
33.69994659430084
 21
163.6999969482422
 31
0.0
  0
ARC
  5
148C
330
2
100
AcDbEntity
  8
10
100
AcDbCircle
 10
43.44999999999974
 20
164.0
 30
0.0
 40
1.0
100
AcDbArc
 50
0.0
 51
90.0
  0
LINE
  5
148D
330
2
100
AcDbEntity
  8
10
100
AcDbLine
 10
43.69994659430084
 20
104.9999999999996
 30
0.0
 11
43.69994659430084
 21
82.99999999999711
 31
0.0
  0
LINE
  5
148E
330
2
100
AcDbEntity
  8
10
100
AcDbLine
 10
43.69994659430084
 20
104.9999999999996
 30
0.0
 11
43.69994659430084
 21
82.99999999999959
 31
0.0
  0
LINE
  5
148F
330
2
100
AcDbEntity
  8
10
100
AcDbLine
 10
34.69994659430084
 20
104.9999999999996
 30
0.0
 11
34.69994659430084
 21
82.99999999999959
 31
0.0
  0
LINE
  5
1490
330
2
100
AcDbEntity
  8
10
100
AcDbLine
 10
45.85000000000007
 20
82.50000000000005
 30
0.0
 11
45.85000000000007
 21
129.0
 31
0.0
  0
LINE
  5
1491
330
2
100
AcDbEntity
  8
10
100
AcDbLine
 10
35.69994659430084
 20
101.9999999999995
 30
0.0
 11
35.69994659430084
 21
85.99999999999957
 31
0.0
  0
LINE
  5
1492
330
2
100
AcDbEntity
  8
10
100
AcDbLine
 10
41.69994659430083
 20
100.9999999999995
 30
0.0
 11
41.69994659430083
 21
86.9999999999996
 31
0.0
  0
LINE
  5
1493
330
2
100
AcDbEntity
  8
10
100
AcDbLine
 10
40.69994659430084
 20
85.9999999999996
 30
0.0
 11
41.69994659430083
 21
86.9999999999996
 31
0.0
  0
LINE
  5
1494
330
2
100
AcDbEntity
  8
10
100
AcDbLine
 10
34.69994659430084
 20
82.99999999999959
 30
0.0
 11
43.69994659430084
 21
82.99999999999959
 31
0.0
  0
LINE
  5
1495
330
2
100
AcDbEntity
  8
10
100
AcDbLine
 10
35.69994659430084
 20
85.99999999999957
 30
0.0
 11
37.94994659430084
 21
85.99999999999957
 31
0.0
  0
LINE
  5
1496
330
2
100
AcDbEntity
  8
10
100
AcDbLine
 10
39.59994659430082
 20
85.99999999999957
 30
0.0
 11
40.69994659430084
 21
85.9999999999996
 31
0.0
  0
LINE
  5
1497
330
2
100
AcDbEntity
  8
10
100
AcDbLine
 10
39.59994659430087
 20
85.99999999999957
 30
0.0
 11
39.59994659430082
 21
84.89999999999961
 31
0.0
  0
LINE
  5
1498
330
2
100
AcDbEntity
  8
10
100
AcDbLine
 10
37.94994659430084
 20
85.99999999999957
 30
0.0
 11
37.94994659430084
 21
84.89999999999961
 31
0.0
  0
LINE
  5
1499
330
2
100
AcDbEntity
  8
10
100
AcDbLine
 10
37.94994659430084
 20
84.89999999999961
 30
0.0
 11
39.59994659430082
 21
84.89999999999961
 31
0.0
  0
CIRCLE
  5
149A
330
2
100
AcDbEntity
  8
10
100
AcDbCircle
 10
38.69994659430084
 20
88.99999999999961
 30
0.0
 40
1.25
  0
ARC
  5
149B
330
2
100
AcDbEntity
  8
10
100
AcDbCircle
 10
44.85000000000006
 20
82.50000000000005
 30
0.0
 40
1.0
100
AcDbArc
 50
270.0
 51
0.0
  0
LINE
  5
149C
330
2
100
AcDbEntity
  8
10
100
AcDbLine
 10
40.69994659430084
 20
101.9999999999995
 30
0.0
 11
41.69994659430083
 21
100.9999999999995
 31
0.0
  0
CIRCLE
  5
149D
330
2
100
AcDbEntity
  8
10
100
AcDbCircle
 10
38.69994659430084
 20
98.99999999999961
 30
0.0
 40
1.25
  0
LINE
  5
149E
330
2
100
AcDbEntity
  8
10
100
AcDbLine
 10
35.69994659430084
 20
101.9999999999995
 30
0.0
 11
37.94994659430084
 21
101.9999999999995
 31
0.0
  0
LINE
  5
149F
330
2
100
AcDbEntity
  8
10
100
AcDbLine
 10
39.59994659430082
 20
101.9999999999995
 30
0.0
 11
40.69994659430084
 21
101.9999999999995
 31
0.0
  0
LINE
  5
14A0
330
2
100
AcDbEntity
  8
10
100
AcDbLine
 10
39.59994659430082
 20
103.0999999999995
 30
0.0
 11
39.59994659430082
 21
101.9999999999995
 31
0.0
  0
LINE
  5
14A1
330
2
100
AcDbEntity
  8
10
100
AcDbLine
 10
37.94994659430084
 20
103.0999999999995
 30
0.0
 11
37.94994659430084
 21
101.9999999999995
 31
0.0
  0
LINE
  5
14A2
330
2
100
AcDbEntity
  8
10
100
AcDbLine
 10
37.94994659430084
 20
103.0999999999995
 30
0.0
 11
39.59994659430082
 21
103.0999999999995
 31
0.0
  0
LINE
  5
14A3
330
2
100
AcDbEntity
  8
10
100
AcDbLine
 10
43.69994659430084
 20
128.4999999999971
 30
0.0
 11
43.69994659430084
 21
106.4999999999995
 31
0.0
  0
LINE
  5
14A4
330
2
100
AcDbEntity
  8
10
100
AcDbLine
 10
43.69994659430084
 20
128.4999999999996
 30
0.0
 11
43.69994659430084
 21
106.4999999999995
 31
0.0
  0
LINE
  5
14A5
330
2
100
AcDbEntity
  8
10
100
AcDbLine
 10
34.69994659430084
 20
128.4999999999996
 30
0.0
 11
34.69994659430084
 21
106.4999999999995
 31
0.0
  0
LINE
  5
14A6
330
2
100
AcDbEntity
  8
10
100
AcDbLine
 10
41.69994659430083
 20
124.4999999999995
 30
0.0
 11
41.69994659430083
 21
110.4999999999995
 31
0.0
  0
LINE
  5
14A7
330
2
100
AcDbEntity
  8
10
100
AcDbLine
 10
35.69994659430084
 20
125.4999999999995
 30
0.0
 11
35.69994659430084
 21
109.4999999999995
 31
0.0
  0
LINE
  5
14A8
330
2
100
AcDbEntity
  8
10
100
AcDbLine
 10
40.69994659430084
 20
109.4999999999995
 30
0.0
 11
41.69994659430083
 21
110.4999999999995
 31
0.0
  0
LINE
  5
14A9
330
2
100
AcDbEntity
  8
10
100
AcDbLine
 10
34.69994659430084
 20
106.4999999999995
 30
0.0
 11
43.69994659430084
 21
106.4999999999995
 31
0.0
  0
LINE
  5
14AA
330
2
100
AcDbEntity
  8
10
100
AcDbLine
 10
34.69994659430084
 20
104.9999999999996
 30
0.0
 11
43.69994659430084
 21
104.9999999999996
 31
0.0
  0
LINE
  5
14AB
330
2
100
AcDbEntity
  8
10
100
AcDbLine
 10
39.59994659430087
 20
109.4999999999995
 30
0.0
 11
39.59994659430082
 21
108.3999999999996
 31
0.0
  0
LINE
  5
14AC
330
2
100
AcDbEntity
  8
10
100
AcDbLine
 10
37.94994659430084
 20
109.4999999999995
 30
0.0
 11
37.94994659430084
 21
108.3999999999996
 31
0.0
  0
LINE
  5
14AD
330
2
100
AcDbEntity
  8
10
100
AcDbLine
 10
37.94994659430084
 20
108.3999999999996
 30
0.0
 11
39.59994659430082
 21
108.3999999999996
 31
0.0
  0
LINE
  5
14AE
330
2
100
AcDbEntity
  8
10
100
AcDbLine
 10
35.69994659430084
 20
109.4999999999995
 30
0.0
 11
37.94994659430084
 21
109.4999999999995
 31
0.0
  0
LINE
  5
14AF
330
2
100
AcDbEntity
  8
10
100
AcDbLine
 10
39.59994659430082
 20
109.4999999999995
 30
0.0
 11
40.69994659430084
 21
109.4999999999995
 31
0.0
  0
CIRCLE
  5
14B0
330
2
100
AcDbEntity
  8
10
100
AcDbCircle
 10
38.69994659430084
 20
112.4999999999996
 30
0.0
 40
1.25
  0
LINE
  5
14B1
330
2
100
AcDbEntity
  8
10
100
AcDbLine
 10
40.69994659430084
 20
125.4999999999995
 30
0.0
 11
41.69994659430083
 21
124.4999999999995
 31
0.0
  0
LINE
  5
14B2
330
2
100
AcDbEntity
  8
10
100
AcDbLine
 10
35.69994659430084
 20
125.4999999999995
 30
0.0
 11
37.94994659430084
 21
125.4999999999995
 31
0.0
  0
LINE
  5
14B3
330
2
100
AcDbEntity
  8
10
100
AcDbLine
 10
39.59994659430082
 20
125.4999999999995
 30
0.0
 11
40.69994659430084
 21
125.4999999999995
 31
0.0
  0
LINE
  5
14B4
330
2
100
AcDbEntity
  8
10
100
AcDbLine
 10
39.59994659430082
 20
126.5999999999995
 30
0.0
 11
39.59994659430082
 21
125.4999999999995
 31
0.0
  0
LINE
  5
14B5
330
2
100
AcDbEntity
  8
10
100
AcDbLine
 10
37.94994659430084
 20
126.5999999999995
 30
0.0
 11
37.94994659430084
 21
125.4999999999995
 31
0.0
  0
LINE
  5
14B6
330
2
100
AcDbEntity
  8
10
100
AcDbLine
 10
37.94994659430084
 20
126.5999999999995
 30
0.0
 11
39.59994659430082
 21
126.5999999999995
 31
0.0
  0
CIRCLE
  5
14B7
330
2
100
AcDbEntity
  8
10
100
AcDbCircle
 10
38.69994659430084
 20
122.4999999999996
 30
0.0
 40
1.25
  0
LINE
  5
14B8
330
2
100
AcDbEntity
  8
10
100
AcDbLine
 10
32.95000000000003
 20
165.0
 30
0.0
 11
32.95000000000003
 21
180.0
 31
0.0
  0
LINE
  5
14B9
330
2
100
AcDbEntity
  8
10
100
AcDbLine
 10
168.5000000000071
 20
82.99999999999959
 30
0.0
 11
170.0000000000071
 21
82.99999999999959
 31
0.0
  0
LINE
  5
14BA
330
2
100
AcDbEntity
  8
10
100
AcDbLine
 10
168.5000000000071
 20
104.9999999999996
 30
0.0
 11
170.0000000000071
 21
104.9999999999996
 31
0.0
  0
LINE
  5
14BB
330
2
100
AcDbEntity
  8
10
100
AcDbLine
 10
168.5000000000071
 20
106.4999999999995
 30
0.0
 11
170.0000000000071
 21
106.4999999999995
 31
0.0
  0
LINE
  5
14BC
330
2
100
AcDbEntity
  8
10
100
AcDbLine
 10
168.5000000000071
 20
128.4999999999996
 30
0.0
 11
170.0000000000071
 21
128.4999999999996
 31
0.0
  0
LINE
  5
14BD
330
2
100
AcDbEntity
  8
10
100
AcDbLine
 10
168.5000000000071
 20
128.4999999999996
 30
0.0
 11
168.5000000000071
 21
106.4999999999995
 31
0.0
  0
LINE
  5
14BE
330
2
100
AcDbEntity
  8
10
100
AcDbLine
 10
168.5000000000071
 20
104.9999999999996
 30
0.0
 11
168.5000000000071
 21
82.99999999999959
 31
0.0
  0
LINE
  5
14D2
330
2
100
AcDbEntity
  8
10
100
AcDbLine
 10
166.7000312805074
 20
155.1472320557
 30
0.0
 11
166.7000312805074
 21
138.8527832031
 31
0.0
  0
LINE
  5
14D3
330
2
100
AcDbEntity
  8
10
100
AcDbLine
 10
166.7000312805074
 20
138.8527832031
 30
0.0
 11
170.0000000000071
 21
138.8527832031
 31
0.0
  0
LINE
  5
14D4
330
2
100
AcDbEntity
  8
10
100
AcDbLine
 10
170.0000038147076
 20
137.0
 30
0.0
 11
167.5195693970075
 21
137.0
 31
0.0
  0
LINE
  5
14D5
330
2
100
AcDbEntity
  8
10
100
AcDbLine
 10
169.9999847412071
 20
137.5000076293
 30
0.0
 11
166.6535453797072
 21
137.5000076293
 31
0.0
  0
LINE
  5
14D6
330
2
100
AcDbEntity
  8
10
100
AcDbLine
 10
166.6535453797072
 20
137.5000076293
 30
0.0
 11
167.9670181275072
 21
135.2250061034999
 31
0.0
  0
LINE
  5
14D7
330
2
100
AcDbEntity
  8
10
100
AcDbLine
 10
168.4000282288073
 20
135.4750137328999
 30
0.0
 11
167.5195693970075
 21
137.0
 31
0.0
  0
LINE
  5
14D8
330
2
100
AcDbEntity
  8
10
100
AcDbLine
 10
167.9670181275072
 20
135.2250061034999
 30
0.0
 11
168.4000282288073
 21
135.4750137328999
 31
0.0
  0
LINE
  5
14D9
330
2
100
AcDbEntity
  8
10
100
AcDbLine
 10
166.6535453797072
 20
156.5
 30
0.0
 11
167.9670181275072
 21
158.7749938964998
 31
0.0
  0
LINE
  5
14DA
330
2
100
AcDbEntity
  8
10
100
AcDbLine
 10
169.9999847412071
 20
156.5
 30
0.0
 11
166.6535453797072
 21
156.5
 31
0.0
  0
LINE
  5
14DB
330
2
100
AcDbEntity
  8
10
100
AcDbLine
 10
170.0000000000071
 20
155.1472320557
 30
0.0
 11
166.7000312805074
 21
155.1472320557
 31
0.0
  0
LINE
  5
14DC
330
2
100
AcDbEntity
  8
10
100
AcDbLine
 10
170.0000038147076
 20
157.0
 30
0.0
 11
167.5195693970075
 21
157.0
 31
0.0
  0
LINE
  5
14DD
330
2
100
AcDbEntity
  8
10
100
AcDbLine
 10
168.4000282288073
 20
158.5249938964999
 30
0.0
 11
167.5195693970075
 21
157.0
 31
0.0
  0
LINE
  5
14DE
330
2
100
AcDbEntity
  8
10
100
AcDbLine
 10
167.9670181275072
 20
158.7749938964998
 30
0.0
 11
168.4000282288073
 21
158.5249938964999
 31
0.0
  0
ENDSEC
  0
SECTION
  2
OBJECTS
  0
DICTIONARY
  5
1A
330
0
100
AcDbDictionary
  3
ACAD_GROUP
350
18
  3
ACAD_LAYOUT
350
10B1
  3
ACAD_MLINESTYLE
350
19
  3
ACAD_PLOTSETTINGS
350
10B2
  3
ACAD_PLOTSTYLENAME
350
10AF
  3
ACDBHEADERROUNDTRIPXREC
350
151E
  3
ACDBVARIABLEDICTIONARY
350
10EF
  3
CONTENTDICTIONARY
350
AE7
  3
DWGPROPS
350
151C
  0
DICTIONARY
  5
10F6
330
A
100
AcDbDictionary
280
     1
  3
ACAD_LAYERFILTERS
360
10F7
  0
DICTIONARY
  5
10E7
330
2
100
AcDbDictionary
280
     1
  3
ACAD_LAYOUTSELFREF
360
153F
  0
DICTIONARY
  5
10E9
330
7
100
AcDbDictionary
280
     1
  3
ACAD_LAYOUTSELFREF
360
1540
  0
DICTIONARY
  5
18
102
{ACAD_REACTORS
330
1A
102
}
330
1A
100
AcDbDictionary
  0
DICTIONARY
  5
10B1
102
{ACAD_REACTORS
330
1A
102
}
330
1A
100
AcDbDictionary
  0
DICTIONARY
  5
19
102
{ACAD_REACTORS
330
1A
102
}
330
1A
100
AcDbDictionary
  3
STANDARD
350
1D
  0
DICTIONARY
  5
10B2
102
{ACAD_REACTORS
330
1A
102
}
330
1A
100
AcDbDictionary
  0
ACDBDICTIONARYWDFLT
  5
10AF
102
{ACAD_REACTORS
330
1A
102
}
330
1A
100
AcDbDictionary
281
     1
  3
Normal
350
10B0
100
AcDbDictionaryWithDefault
340
10B0
  0
DICTIONARY
  5
151E
102
{ACAD_REACTORS
330
1A
102
}
330
1A
100
AcDbDictionary
  3
CEPSNTYPE
350
1528
  3
DIMSTYLEDATA
350
152C
  3
FINGERPRINTGUID
350
1529
  3
HYPERLINKBASE
350
1521
  3
INSUNITS
350
1527
  3
LAYOUTDICT
350
1523
  3
LWETCUNION
350
1526
  3
PLOTSETDICT
350
1524
  3
PLOTSTYLNAMDICT
350
1525
  3
PSVPSCALE
350
152B
  3
PUCSBASE
350
152F
  3
PUCSORGBACK
350
1535
  3
PUCSORGBOTTOM
350
1531
  3
PUCSORGFRONT
350
1534
  3
PUCSORGLEFT
350
1532
  3
PUCSORGRIGHT
350
1533
  3
PUCSORGTOP
350
1530
  3
PUCSORTHOREF
350
152D
  3
PUCSORTHOVIEW
350
152E
  3
STYLESHEET
350
1522
  3
TSTACKALIGN
350
151F
  3
TSTACKSIZE
350
1520
  3
UCSBASE
350
1538
  3
UCSORGBACK
350
153E
  3
UCSORGBOTTOM
350
153A
  3
UCSORGFRONT
350
153D
  3
UCSORGLEFT
350
153B
  3
UCSORGRIGHT
350
153C
  3
UCSORGTOP
350
1539
  3
UCSORTHOREF
350
1536
  3
UCSORTHOVIEW
350
1537
  3
VERSIONGUID
350
152A
  0
DICTIONARY
  5
10EF
102
{ACAD_REACTORS
330
1A
102
}
330
1A
100
AcDbDictionary
  3
DIMASSOC
350
10F0
  0
DICTIONARY
  5
AE7
102
{ACAD_REACTORS
330
1A
102
}
330
1A
100
AcDbDictionary
  0
XRECORD
  5
151C
102
{ACAD_REACTORS
330
1A
102
}
330
1A
100
AcDbXrecord
  1
DWGPROPS COOKIE
  2

  3

  4

  6

  7

  8

  9

300
=
301
=
302
=
303
=
304
=
305
=
306
=
307
=
308
=
309
=
 40
0.7055373842592593
 41
2451661.47795787
 42
2453426.635432581
  1

 90
        0
  0
DICTIONARY
  5
10F7
102
{ACAD_REACTORS
330
10F6
102
}
330
10F6
100
AcDbDictionary
280
     1
  3
IPM
360
10F8
  0
XRECORD
  5
153F
102
{ACAD_REACTORS
330
10E7
102
}
330
10E7
100
AcDbXrecord
340
2
  0
XRECORD
  5
1540
102
{ACAD_REACTORS
330
10E9
102
}
330
10E9
100
AcDbXrecord
340
7
  0
MLINESTYLE
  5
1D
102
{ACAD_REACTORS
330
19
102
}
330
19
100
AcDbMlineStyle
  2
STANDARD
 70
     0
  3

 62
   256
 51
90.0
 52
90.0
 71
     2
 49
0.5
 62
   256
  6
BYLAYER
 49
-0.5
 62
   256
  6
BYLAYER
  0
ACDBPLACEHOLDER
  5
10B0
102
{ACAD_REACTORS
330
10AF
102
}
330
10AF
100
AcDbPlaceHolder
280
     0
  0
XRECORD
  5
1528
102
{ACAD_REACTORS
330
151E
102
}
330
151E
100
AcDbXrecord
 90
        0
  0
XRECORD
  5
152C
102
{ACAD_REACTORS
330
151E
102
}
330
151E
100
AcDbXrecord
1000
DSTYLE
1002
{
1070
   277
 70
     6
1070
   289
 70
     0
1002
}
  0
XRECORD
  5
1529
102
{ACAD_REACTORS
330
151E
102
}
330
151E
100
AcDbXrecord
  1
{FF20F18E-4B4A-4997-A24E-25B854480012}
  0
XRECORD
  5
1521
102
{ACAD_REACTORS
330
151E
102
}
330
151E
100
AcDbXrecord
  1

  0
XRECORD
  5
1527
102
{ACAD_REACTORS
330
151E
102
}
330
151E
100
AcDbXrecord
 90
        0
  0
XRECORD
  5
1523
102
{ACAD_REACTORS
330
151E
102
}
330
151E
100
AcDbXrecord
340
10B1
  0
XRECORD
  5
1526
102
{ACAD_REACTORS
330
151E
102
}
330
151E
100
AcDbXrecord
 90
    14877
  0
XRECORD
  5
1524
102
{ACAD_REACTORS
330
151E
102
}
330
151E
100
AcDbXrecord
340
10B2
  0
XRECORD
  5
1525
102
{ACAD_REACTORS
330
151E
102
}
330
151E
100
AcDbXrecord
340
10AF
  0
XRECORD
  5
152B
102
{ACAD_REACTORS
330
151E
102
}
330
151E
100
AcDbXrecord
 40
0.0
  0
XRECORD
  5
152F
102
{ACAD_REACTORS
330
151E
102
}
330
151E
100
AcDbXrecord
340
0
  0
XRECORD
  5
1535
102
{ACAD_REACTORS
330
151E
102
}
330
151E
100
AcDbXrecord
 10
0.0
 20
0.0
 30
0.0
  0
XRECORD
  5
1531
102
{ACAD_REACTORS
330
151E
102
}
330
151E
100
AcDbXrecord
 10
0.0
 20
0.0
 30
0.0
  0
XRECORD
  5
1534
102
{ACAD_REACTORS
330
151E
102
}
330
151E
100
AcDbXrecord
 10
0.0
 20
0.0
 30
0.0
  0
XRECORD
  5
1532
102
{ACAD_REACTORS
330
151E
102
}
330
151E
100
AcDbXrecord
 10
0.0
 20
0.0
 30
0.0
  0
XRECORD
  5
1533
102
{ACAD_REACTORS
330
151E
102
}
330
151E
100
AcDbXrecord
 10
0.0
 20
0.0
 30
0.0
  0
XRECORD
  5
1530
102
{ACAD_REACTORS
330
151E
102
}
330
151E
100
AcDbXrecord
 10
0.0
 20
0.0
 30
0.0
  0
XRECORD
  5
152D
102
{ACAD_REACTORS
330
151E
102
}
330
151E
100
AcDbXrecord
340
0
  0
XRECORD
  5
152E
102
{ACAD_REACTORS
330
151E
102
}
330
151E
100
AcDbXrecord
 70
     0
  0
XRECORD
  5
1522
102
{ACAD_REACTORS
330
151E
102
}
330
151E
100
AcDbXrecord
  1

  0
XRECORD
  5
151F
102
{ACAD_REACTORS
330
151E
102
}
330
151E
100
AcDbXrecord
 90
        1
  0
XRECORD
  5
1520
102
{ACAD_REACTORS
330
151E
102
}
330
151E
100
AcDbXrecord
 90
       70
  0
XRECORD
  5
1538
102
{ACAD_REACTORS
330
151E
102
}
330
151E
100
AcDbXrecord
340
0
  0
XRECORD
  5
153E
102
{ACAD_REACTORS
330
151E
102
}
330
151E
100
AcDbXrecord
 10
0.0
 20
0.0
 30
0.0
  0
XRECORD
  5
153A
102
{ACAD_REACTORS
330
151E
102
}
330
151E
100
AcDbXrecord
 10
0.0
 20
0.0
 30
0.0
  0
XRECORD
  5
153D
102
{ACAD_REACTORS
330
151E
102
}
330
151E
100
AcDbXrecord
 10
0.0
 20
0.0
 30
0.0
  0
XRECORD
  5
153B
102
{ACAD_REACTORS
330
151E
102
}
330
151E
100
AcDbXrecord
 10
0.0
 20
0.0
 30
0.0
  0
XRECORD
  5
153C
102
{ACAD_REACTORS
330
151E
102
}
330
151E
100
AcDbXrecord
 10
0.0
 20
0.0
 30
0.0
  0
XRECORD
  5
1539
102
{ACAD_REACTORS
330
151E
102
}
330
151E
100
AcDbXrecord
 10
0.0
 20
0.0
 30
0.0
  0
XRECORD
  5
1536
102
{ACAD_REACTORS
330
151E
102
}
330
151E
100
AcDbXrecord
340
0
  0
XRECORD
  5
1537
102
{ACAD_REACTORS
330
151E
102
}
330
151E
100
AcDbXrecord
 70
     0
  0
XRECORD
  5
152A
102
{ACAD_REACTORS
330
151E
102
}
330
151E
100
AcDbXrecord
  1
{506C2317-0BCE-4B4C-AF2D-423BAB369CDA}
  0
DICTIONARYVAR
  5
10F0
102
{ACAD_REACTORS
330
10EF
102
}
330
10EF
100
DictionaryVariables
280
     0
  1
1
  0
XRECORD
  5
10F8
102
{ACAD_REACTORS
330
10F7
102
}
330
10F7
100
AcDbXrecord
  1
IPM
  1
IPM
  1
*
  1
*
 70
     0
  1
*
  1
*
  0
ENDSEC
  0
EOF
