  0
SECTION
  2
HEADER
  9
$ACADVER
  1
AC1009
  9
$INSBASE
 10
0.0
 20
0.0
 30
0.0
  9
$EXTMIN
 10
-310.43982
 20
-146.95241
 30
0.0
  9
$EXTMAX
 10
340.04645
 20
222.839831
 30
0.0
  9
$LIMMIN
 10
0.0
 20
0.0
  9
$LIMMAX
 10
12.0
 20
9.0
  9
$ORTHOMODE
 70
     0
  9
$REGENMODE
 70
     1
  9
$FILLMODE
 70
     1
  9
$QTEXTMODE
 70
     0
  9
$MIRRTEXT
 70
     1
  9
$DRAGMODE
 70
     2
  9
$LTSCALE
 40
1.0
  9
$OSMODE
 70
     0
  9
$ATTMODE
 70
     1
  9
$TEXTSIZE
 40
0.2
  9
$TRACEWID
 40
0.05
  9
$TEXTSTYLE
  7
STANDARD
  9
$CLAYER
  8
0
  9
$CELTYPE
  6
CONTINUOUS
  9
$CECOLOR
 62
   256
  9
$DIMSCALE
 40
1.0
  9
$DIMASZ
 40
0.18
  9
$DIMEXO
 40
0.0625
  9
$DIMDLI
 40
0.38
  9
$DIMRND
 40
0.0
  9
$DIMDLE
 40
0.0
  9
$DIMEXE
 40
0.18
  9
$DIMTP
 40
0.0
  9
$DIMTM
 40
0.0
  9
$DIMTXT
 40
0.18
  9
$DIMCEN
 40
0.09
  9
$DIMTSZ
 40
0.0
  9
$DIMTOL
 70
     0
  9
$DIMLIM
 70
     0
  9
$DIMTIH
 70
     1
  9
$DIMTOH
 70
     1
  9
$DIMSE1
 70
     0
  9
$DIMSE2
 70
     0
  9
$DIMTAD
 70
     0
  9
$DIMZIN
 70
     0
  9
$DIMBLK
  1

  9
$DIMASO
 70
     1
  9
$DIMSHO
 70
     1
  9
$DIMPOST
  1

  9
$DIMAPOST
  1

  9
$DIMALT
 70
     0
  9
$DIMALTD
 70
     2
  9
$DIMALTF
 40
25.4
  9
$DIMLFAC
 40
1.0
  9
$DIMTOFL
 70
     0
  9
$DIMTVP
 40
0.0
  9
$DIMTIX
 70
     0
  9
$DIMSOXD
 70
     0
  9
$DIMSAH
 70
     0
  9
$DIMBLK1
  1

  9
$DIMBLK2
  1

  9
$DIMSTYLE
  2
STANDARD
  9
$DIMCLRD
 70
     0
  9
$DIMCLRE
 70
     0
  9
$DIMCLRT
 70
     0
  9
$DIMTFAC
 40
1.0
  9
$DIMGAP
 40
0.09
  9
$LUNITS
 70
     2
  9
$LUPREC
 70
     4
  9
$SKETCHINC
 40
0.1
  9
$FILLETRAD
 40
0.0
  9
$AUNITS
 70
     0
  9
$AUPREC
 70
     0
  9
$MENU
  1
.
  9
$ELEVATION
 40
0.0
  9
$PELEVATION
 40
0.0
  9
$THICKNESS
 40
0.0
  9
$LIMCHECK
 70
     0
  9
$BLIPMODE
 70
     0
  9
$CHAMFERA
 40
0.0
  9
$CHAMFERB
 40
0.0
  9
$SKPOLY
 70
     0
  9
$TDCREATE
 40
0.0
  9
$TDUPDATE
 40
0.0
  9
$TDINDWG
 40
0.0
  9
$TDUSRTIMER
 40
0.0
  9
$USRTIMER
 70
     1
  9
$ANGBASE
 50
0.0
  9
$ANGDIR
 70
     0
  9
$PDMODE
 70
     0
  9
$PDSIZE
 40
0.0
  9
$PLINEWID
 40
0.0
  9
$COORDS
 70
     1
  9
$SPLFRAME
 70
     0
  9
$SPLINETYPE
 70
     6
  9
$SPLINESEGS
 70
     8
  9
$ATTDIA
 70
     0
  9
$ATTREQ
 70
     1
  9
$HANDLING
 70
     1
  9
$HANDSEED
  5
22F
  9
$SURFTAB1
 70
     6
  9
$SURFTAB2
 70
     6
  9
$SURFTYPE
 70
     6
  9
$SURFU
 70
     6
  9
$SURFV
 70
     6
  9
$UCSNAME
  2

  9
$UCSORG
 10
0.0
 20
0.0
 30
0.0
  9
$UCSXDIR
 10
1.0
 20
0.0
 30
0.0
  9
$UCSYDIR
 10
0.0
 20
1.0
 30
0.0
  9
$PUCSNAME
  2

  9
$PUCSORG
 10
0.0
 20
0.0
 30
0.0
  9
$PUCSXDIR
 10
1.0
 20
0.0
 30
0.0
  9
$PUCSYDIR
 10
0.0
 20
1.0
 30
0.0
  9
$USERI1
 70
     0
  9
$USERI2
 70
     0
  9
$USERI3
 70
     0
  9
$USERI4
 70
     0
  9
$USERI5
 70
     0
  9
$USERR1
 40
0.0
  9
$USERR2
 40
0.0
  9
$USERR3
 40
0.0
  9
$USERR4
 40
0.0
  9
$USERR5
 40
0.0
  9
$WORLDVIEW
 70
     1
  9
$SHADEDGE
 70
     3
  9
$SHADEDIF
 70
    70
  9
$TILEMODE
 70
     1
  9
$MAXACTVP
 70
    48
  9
$PLIMCHECK
 70
     0
  9
$PEXTMIN
 10
1.000000E+020
 20
1.000000E+020
 30
1.000000E+020
  9
$PEXTMAX
 10
-1.000000E+020
 20
-1.000000E+020
 30
-1.000000E+020
  9
$PLIMMIN
 10
0.0
 20
0.0
  9
$PLIMMAX
 10
12.0
 20
9.0
  9
$UNITMODE
 70
     0
  9
$VISRETAIN
 70
     1
  9
$PLINEGEN
 70
     0
  9
$PSLTSCALE
 70
     1
  0
ENDSEC
  0
SECTION
  2
TABLES
  0
TABLE
  2
VPORT
 70
     2
  0
VPORT
  2
*ACTIVE
 70
     0
 10
0.0
 20
0.0
 11
1.0
 21
1.0
 12
14.803315
 22
37.94371
 13
0.0
 23
0.0
 14
1.0
 24
1.0
 15
0.0
 25
0.0
 16
0.0
 26
0.0
 36
1.0
 17
0.0
 27
0.0
 37
0.0
 40
400.120346
 41
1.633784
 42
50.0
 43
0.0
 44
0.0
 50
0.0
 51
0.0
 71
     0
 72
   100
 73
     1
 74
     1
 75
     0
 76
     0
 77
     0
 78
     0
  0
ENDTAB
  0
TABLE
  2
LTYPE
 70
     5
  0
LTYPE
  2
CONTINUOUS
 70
     0
  3
Solid line
 72
    65
 73
     0
 40
0.0
  0
LTYPE
  2
DASHED
 70
     0
  3
__ __ __ __ __ __ __ __ __ __ __ __ __ __ __
 72
    65
 73
     2
 40
3.5
 49
2.0
 49
-1.5
  0
LTYPE
  2
CENTER
 70
     0
  3
____ _ ____ _ ____ _ ____ _ ____ _ ____ _ ____
 72
    65
 73
     4
 40
17.5
 49
13.0
 49
-1.5
 49
1.5
 49
-1.5
  0
LTYPE
  2
PHANTOM
 70
     0
  3
_____ _ _ _____ _ _ _____ _ _ _____ _ _ ____  
 72
    65
 73
     6
 40
15.5
 49
8.0
 49
-1.5
 49
1.5
 49
-1.5
 49
1.5
 49
-1.5
  0
LTYPE
  2
DOT
 70
     0
  3
. . . . . . . . . . . . . . . . . . . . . . . .
 72
    65
 73
     2
 40
0.25
 49
0.0
 49
-0.25
  0
ENDTAB
  0
TABLE
  2
LAYER
 70
     1
  0
LAYER
  2
0
 70
     0
 62
     7
  6
CONTINUOUS
  0
ENDTAB
  0
TABLE
  2
STYLE
 70
     1
  0
STYLE
  2
STANDARD
 70
     0
 40
0.0
 41
1.0
 50
0.0
 71
     0
 42
0.2
  3
txt
  4

  0
ENDTAB
  0
TABLE
  2
VIEW
 70
     0
  0
ENDTAB
  0
TABLE
  2
UCS
 70
     0
  0
ENDTAB
  0
TABLE
  2
APPID
 70
     1
  0
APPID
  2
ACAD
 70
     0
  0
ENDTAB
  0
TABLE
  2
DIMSTYLE
 70
     1
  0
DIMSTYLE
  2
STANDARD
 70
     0
  3

  4

  5

  6

  7

 40
1.0
 41
0.18
 42
0.0625
 43
0.38
 44
0.18
 45
0.0
 46
0.0
 47
0.0
 48
0.0
140
0.18
141
0.09
142
0.0
143
25.4
144
1.0
145
0.0
146
1.0
147
0.09
 71
     0
 72
     0
 73
     1
 74
     1
 75
     0
 76
     0
 77
     0
 78
     0
170
     0
171
     2
172
     0
173
     0
174
     0
175
     0
176
     0
177
     0
178
     0
  0
ENDTAB
  0
ENDSEC
  0
SECTION
  2
BLOCKS
  0
BLOCK
  8
0
  2
$MODEL_SPACE
 70
     0
 10
0.0
 20
0.0
 30
0.0
  3
$MODEL_SPACE
  1

  0
ENDBLK
  5
1A
  8
0
  0
BLOCK
 67
     1
  8
0
  2
$PAPER_SPACE
 70
     0
 10
0.0
 20
0.0
 30
0.0
  3
$PAPER_SPACE
  1

  0
ENDBLK
  5
17
 67
     1
  8
0
  0
ENDSEC
  0
SECTION
  2
ENTITIES
  0
POINT
  5
23
  8
0
  6
CONTINUOUS
 62
     3
 10
-72.720161
 20
14.347413
 30
0.0
  0
POINT
  5
24
  8
0
  6
CONTINUOUS
 62
     3
 10
-72.720161
 20
-35.863518
 30
0.0
  0
POINT
  5
25
  8
0
  6
CONTINUOUS
 62
     3
 10
-286.80737
 20
14.241949
 30
0.0
  0
POINT
  5
26
  8
0
  6
CONTINUOUS
 62
     3
 10
-286.80737
 20
14.241949
 30
0.0
  0
POINT
  5
27
  8
0
  6
CONTINUOUS
 62
     3
 10
-286.80737
 20
-35.758053
 30
0.0
  0
POINT
  5
28
  8
0
  6
CONTINUOUS
 62
     3
 10
-286.80737
 20
-35.758053
 30
0.0
  0
POINT
  5
29
  8
0
  6
CONTINUOUS
 62
     3
 10
-170.80739
 20
14.241949
 30
0.0
  0
POINT
  5
2A
  8
0
  6
CONTINUOUS
 62
     3
 10
-170.80739
 20
14.241949
 30
0.0
  0
POINT
  5
2B
  8
0
  6
CONTINUOUS
 62
     3
 10
-170.80739
 20
-35.758053
 30
0.0
  0
POINT
  5
2C
  8
0
  6
CONTINUOUS
 62
     3
 10
-170.80739
 20
-35.758053
 30
0.0
  0
POINT
  5
2D
  8
0
  6
CONTINUOUS
 62
     3
 10
-203.80739
 20
-68.758049
 30
0.0
  0
POINT
  5
2E
  8
0
  6
CONTINUOUS
 62
     3
 10
-203.80739
 20
-68.758049
 30
0.0
  0
POINT
  5
2F
  8
0
  6
CONTINUOUS
 62
     3
 10
-253.80739
 20
-68.758049
 30
0.0
  0
POINT
  5
30
  8
0
  6
CONTINUOUS
 62
     3
 10
-253.80739
 20
-68.758049
 30
0.0
  0
POINT
  5
31
  8
0
  6
CONTINUOUS
 62
     3
 10
-203.80739
 20
47.241947
 30
0.0
  0
POINT
  5
32
  8
0
  6
CONTINUOUS
 62
     3
 10
-203.80739
 20
47.241947
 30
0.0
  0
POINT
  5
33
  8
0
  6
CONTINUOUS
 62
     3
 10
-253.80739
 20
47.241947
 30
0.0
  0
POINT
  5
34
  8
0
  6
CONTINUOUS
 62
     3
 10
-253.80739
 20
47.241947
 30
0.0
  0
POINT
  5
35
  8
0
  6
CONTINUOUS
 62
     3
 10
-236.29338
 20
-77.138443
 30
0.0
  0
POINT
  5
36
  8
0
  6
CONTINUOUS
 62
     3
 10
-236.29338
 20
-77.138443
 30
0.0
  0
POINT
  5
37
  8
0
  6
CONTINUOUS
 62
     3
 10
-221.32092
 20
-77.138443
 30
0.0
  0
POINT
  5
38
  8
0
  6
CONTINUOUS
 62
     3
 10
-221.32092
 20
-77.138443
 30
0.0
  0
POINT
  5
39
  8
0
  6
CONTINUOUS
 62
     7
 10
-160.24625
 20
-10.758051
 30
0.0
  0
POINT
  5
3A
  8
0
  6
CONTINUOUS
 62
     7
 10
-216.42331
 20
-82.238434
 30
0.0
  0
POINT
  5
3B
  8
0
  6
CONTINUOUS
 62
     7
 10
-62.430538
 20
-105.19621
 30
0.0
  0
POINT
  5
3C
  8
0
  6
CONTINUOUS
 62
     7
 10
33.569462
 20
-72.758049
 30
0.0
  0
POINT
  5
3D
  8
0
  6
CONTINUOUS
 62
     7
 10
267.85669
 20
-86.758049
 30
0.0
  0
POINT
  5
3E
  8
0
  6
CONTINUOUS
 62
     7
 10
328.20929
 20
-10.758051
 30
0.0
  0
POINT
  5
3F
  8
0
  6
CONTINUOUS
 62
     7
 10
336.04645
 20
-10.758051
 30
0.0
  0
LINE
  5
40
  8
0
  6
CONTINUOUS
 62
     3
 10
-232.30739
 20
-88.010765
 30
0.0
 11
-236.07428
 21
-88.010765
 31
0.0
  0
LINE
  5
41
  8
0
  6
CONTINUOUS
 62
     3
 10
-225.30739
 20
-88.010765
 30
0.0
 11
-221.54048
 21
-88.010765
 31
0.0
  0
LINE
  5
42
  8
0
  6
CONTINUOUS
 62
     3
 10
-232.30739
 20
-90.258049
 30
0.0
 11
-234.30739
 21
-90.258049
 31
0.0
  0
LINE
  5
43
  8
0
  6
CONTINUOUS
 62
     3
 10
-225.30739
 20
-90.258049
 30
0.0
 11
-223.30739
 21
-90.258049
 31
0.0
  0
LINE
  5
44
  8
0
  6
CONTINUOUS
 62
     3
 10
-232.30739
 20
-91.801605
 30
0.0
 11
-232.30737
 21
-82.238434
 31
0.0
  0
LINE
  5
45
  8
0
  6
CONTINUOUS
 62
     3
 10
-225.30739
 20
-91.78595
 30
0.0
 11
-225.30737
 21
-82.238434
 31
0.0
  0
LINE
  5
46
  8
0
  6
CONTINUOUS
 62
     3
 10
258.35672
 20
-90.258049
 30
0.0
 11
263.85672
 21
-90.258049
 31
0.0
  0
LINE
  5
47
  8
0
  6
CONTINUOUS
 62
     3
 10
261.15671
 20
-90.258049
 30
0.0
 11
261.15671
 21
-92.448494
 31
0.0
  0
LINE
  5
48
  8
0
  6
CONTINUOUS
 62
     3
 10
266.85672
 20
-86.758049
 30
0.0
 11
266.85672
 21
-87.258049
 31
0.0
  0
LINE
  5
49
  8
0
  6
CONTINUOUS
 62
     3
 10
258.35672
 20
-90.258049
 30
0.0
 11
252.85672
 21
-90.258049
 31
0.0
  0
LINE
  5
4A
  8
0
  6
CONTINUOUS
 62
     3
 10
255.55672
 20
-90.258049
 30
0.0
 11
255.55672
 21
-92.448433
 31
0.0
  0
LINE
  5
4B
  8
0
  6
CONTINUOUS
 62
     3
 10
249.85672
 20
-86.758049
 30
0.0
 11
249.85672
 21
-87.258049
 31
0.0
  0
LINE
  5
4C
  8
0
  6
CONTINUOUS
 62
     3
 10
-220.30739
 20
-82.238434
 30
0.0
 11
-220.30739
 21
-87.258049
 31
0.0
  0
LINE
  5
4D
  8
0
  6
CONTINUOUS
 62
     3
 10
-224.80739
 20
-82.238434
 30
0.0
 11
-224.80739
 21
-88.010765
 31
0.0
  0
LINE
  5
4E
  8
0
  6
CONTINUOUS
 62
     3
 10
-232.80739
 20
-82.238434
 30
0.0
 11
-232.80739
 21
-88.010765
 31
0.0
  0
LINE
  5
4F
  8
0
  6
CONTINUOUS
 62
     3
 10
-237.30739
 20
-82.238434
 30
0.0
 11
-237.30739
 21
-87.258049
 31
0.0
  0
LINE
  5
50
  8
0
  6
CONTINUOUS
 62
     3
 10
-42.430538
 20
-90.758049
 30
0.0
 11
-36.930538
 21
-90.758049
 31
0.0
  0
LINE
  5
51
  8
0
  6
CONTINUOUS
 62
     3
 10
-42.430538
 20
-88.510765
 30
0.0
 11
-35.163643
 21
-88.510765
 31
0.0
  0
LINE
  5
52
  8
0
  6
CONTINUOUS
 62
     3
 10
-42.430538
 20
-90.758049
 30
0.0
 11
-47.930538
 21
-90.758049
 31
0.0
  0
LINE
  5
53
  8
0
  6
CONTINUOUS
 62
     3
 10
-42.430538
 20
-88.510765
 30
0.0
 11
-49.697433
 21
-88.510765
 31
0.0
  0
LINE
  5
54
  8
0
  6
CONTINUOUS
 62
     3
 10
-45.230537
 20
-90.758049
 30
0.0
 11
-45.230537
 21
-95.948494
 31
0.0
  0
LINE
  5
55
  8
0
  6
CONTINUOUS
 62
     3
 10
-39.630539
 20
-90.758049
 30
0.0
 11
-39.630539
 21
-95.948494
 31
0.0
  0
LINE
  5
56
  8
0
  6
CENTER
 62
     4
 10
-42.430538
 20
-96.489784
 30
0.0
 11
-42.430538
 21
-68.722252
 31
0.0
  0
LINE
  5
57
  8
0
  6
CONTINUOUS
 62
     3
 10
-33.930538
 20
-80.758049
 30
0.0
 11
-33.930538
 21
-87.758049
 31
0.0
  0
LINE
  5
58
  8
0
  6
CONTINUOUS
 62
     3
 10
-42.430538
 20
-80.758049
 30
0.0
 11
-33.930538
 21
-80.758049
 31
0.0
  0
LINE
  5
59
  8
0
  6
CONTINUOUS
 62
     3
 10
-38.430538
 20
-80.758049
 30
0.0
 11
-38.430538
 21
-88.510765
 31
0.0
  0
LINE
  5
5A
  8
0
  6
CONTINUOUS
 62
     3
 10
-36.180538
 20
-79.258049
 30
0.0
 11
-36.180538
 21
-80.758049
 31
0.0
  0
LINE
  5
5B
  8
0
  6
CONTINUOUS
 62
     3
 10
-35.180538
 20
-79.258049
 30
0.0
 11
-35.180538
 21
-80.758049
 31
0.0
  0
LINE
  5
5C
  8
0
  6
CONTINUOUS
 62
     3
 10
-42.430538
 20
-79.258049
 30
0.0
 11
-33.930538
 21
-79.258049
 31
0.0
  0
LINE
  5
5D
  8
0
  6
CONTINUOUS
 62
     3
 10
-38.430538
 20
-74.258049
 30
0.0
 11
-38.430538
 21
-79.258049
 31
0.0
  0
LINE
  5
5E
  8
0
  6
CONTINUOUS
 62
     3
 10
-33.930538
 20
-74.258049
 30
0.0
 11
-33.930538
 21
-79.258049
 31
0.0
  0
LINE
  5
5F
  8
0
  6
CONTINUOUS
 62
     3
 10
-34.180538
 20
-72.758049
 30
0.0
 11
-34.180538
 21
-74.258049
 31
0.0
  0
LINE
  5
60
  8
0
  6
CONTINUOUS
 62
     3
 10
-33.930538
 20
-74.258049
 30
0.0
 11
-42.430538
 21
-74.258049
 31
0.0
  0
LINE
  5
61
  8
0
  6
CONTINUOUS
 62
     3
 10
-42.430538
 20
-80.758049
 30
0.0
 11
-50.930538
 21
-80.758049
 31
0.0
  0
LINE
  5
62
  8
0
  6
CONTINUOUS
 62
     3
 10
-46.430538
 20
-80.758049
 30
0.0
 11
-46.430538
 21
-88.510765
 31
0.0
  0
LINE
  5
63
  8
0
  6
CONTINUOUS
 62
     3
 10
-50.930538
 20
-80.758049
 30
0.0
 11
-50.930538
 21
-87.758049
 31
0.0
  0
LINE
  5
64
  8
0
  6
CONTINUOUS
 62
     3
 10
-48.680538
 20
-79.258049
 30
0.0
 11
-48.680538
 21
-80.758049
 31
0.0
  0
LINE
  5
65
  8
0
  6
CONTINUOUS
 62
     3
 10
-49.680538
 20
-79.258049
 30
0.0
 11
-49.680538
 21
-80.758049
 31
0.0
  0
LINE
  5
66
  8
0
  6
CONTINUOUS
 62
     3
 10
-42.430538
 20
-79.258049
 30
0.0
 11
-50.930538
 21
-79.258049
 31
0.0
  0
LINE
  5
67
  8
0
  6
CONTINUOUS
 62
     3
 10
-46.430538
 20
-74.258049
 30
0.0
 11
-46.430538
 21
-79.258049
 31
0.0
  0
LINE
  5
68
  8
0
  6
CONTINUOUS
 62
     3
 10
-50.930538
 20
-74.258049
 30
0.0
 11
-50.930538
 21
-79.258049
 31
0.0
  0
LINE
  5
69
  8
0
  6
CONTINUOUS
 62
     3
 10
-50.680538
 20
-72.758049
 30
0.0
 11
-50.680538
 21
-74.258049
 31
0.0
  0
LINE
  5
6A
  8
0
  6
CONTINUOUS
 62
     3
 10
-50.930538
 20
-74.258049
 30
0.0
 11
-42.430538
 21
-74.258049
 31
0.0
  0
LINE
  5
6B
  8
0
  6
CONTINUOUS
 62
     3
 10
41.069462
 20
-20.758051
 30
0.0
 11
41.069462
 21
-0.758051
 31
0.0
  0
LINE
  5
6C
  8
0
  6
CONTINUOUS
 62
     3
 10
41.069462
 20
-20.258051
 30
0.0
 11
73.569466
 21
-20.258051
 31
0.0
  0
LINE
  5
6D
  8
0
  6
CONTINUOUS
 62
     3
 10
41.069462
 20
-1.258051
 30
0.0
 11
73.569466
 21
-1.258051
 31
0.0
  0
LINE
  5
6E
  8
0
  6
CONTINUOUS
 62
     3
 10
39.569462
 20
-20.758051
 30
0.0
 11
41.069462
 21
-20.758051
 31
0.0
  0
LINE
  5
6F
  8
0
  6
CONTINUOUS
 62
     3
 10
39.569462
 20
-0.758051
 30
0.0
 11
41.069462
 21
-0.758051
 31
0.0
  0
LINE
  5
70
  8
0
  6
CONTINUOUS
 62
     3
 10
-20.780539
 20
-87.258049
 30
0.0
 11
-20.780539
 21
-90.579346
 31
0.0
  0
LINE
  5
71
  8
0
  6
CONTINUOUS
 62
     3
 10
-23.080538
 20
-87.258049
 30
0.0
 11
-23.080538
 21
-90.579346
 31
0.0
  0
LINE
  5
72
  8
0
  6
CONTINUOUS
 62
     4
 10
-21.930538
 20
-72.068932
 30
0.0
 11
-21.930538
 21
-91.383553
 31
0.0
  0
LINE
  5
73
  8
0
  6
CONTINUOUS
 62
     3
 10
-26.380539
 20
-87.258049
 30
0.0
 11
-17.480537
 21
-87.258049
 31
0.0
  0
LINE
  5
74
  8
0
  6
CONTINUOUS
 62
     3
 10
-16.730537
 20
-72.758049
 30
0.0
 11
-16.730537
 21
-74.758049
 31
0.0
  0
LINE
  5
75
  8
0
  6
CONTINUOUS
 62
     3
 10
-17.230537
 20
-75.258049
 30
0.0
 11
-27.030539
 21
-75.258049
 31
0.0
  0
LINE
  5
76
  8
0
  6
CONTINUOUS
 62
     3
 10
-27.530539
 20
-72.758049
 30
0.0
 11
-27.530539
 21
-74.758049
 31
0.0
  0
LINE
  5
77
  8
0
  6
CONTINUOUS
 62
     3
 10
259.52188
 20
-126.97774
 30
0.0
 11
259.52188
 21
-122.10274
 31
0.0
  0
LINE
  5
78
  8
0
  6
CONTINUOUS
 62
     3
 10
260.19687
 20
-126.97774
 30
0.0
 11
260.19687
 21
-122.10274
 31
0.0
  0
LINE
  5
79
  8
0
  6
CONTINUOUS
 62
     3
 10
260.25916
 20
-126.97774
 30
0.0
 11
262.74689
 21
-126.97774
 31
0.0
  0
LINE
  5
7A
  8
0
  6
CONTINUOUS
 62
     3
 10
262.74689
 20
-126.97774
 30
0.0
 11
262.74689
 21
-122.10274
 31
0.0
  0
LINE
  5
7B
  8
0
  6
CONTINUOUS
 62
     3
 10
256.98288
 20
-126.97774
 30
0.0
 11
259.50916
 21
-126.97774
 31
0.0
  0
LINE
  5
7C
  8
0
  6
CONTINUOUS
 62
     3
 10
263.49689
 20
-122.10274
 30
0.0
 11
252.99689
 21
-122.10274
 31
0.0
  0
LINE
  5
7D
  8
0
  6
CONTINUOUS
 62
     3
 10
256.97189
 20
-126.97774
 30
0.0
 11
256.97189
 21
-122.10274
 31
0.0
  0
LINE
  5
7E
  8
0
  6
CONTINUOUS
 62
     3
 10
256.29688
 20
-126.97774
 30
0.0
 11
256.29688
 21
-122.10274
 31
0.0
  0
LINE
  5
7F
  8
0
  6
CONTINUOUS
 62
     3
 10
253.74689
 20
-126.97774
 30
0.0
 11
256.23288
 21
-126.97774
 31
0.0
  0
LINE
  5
80
  8
0
  6
CONTINUOUS
 62
     3
 10
253.74689
 20
-126.97774
 30
0.0
 11
253.74689
 21
-122.10274
 31
0.0
  0
LINE
  5
81
  8
0
  6
CONTINUOUS
 62
     3
 10
264.99689
 20
-117.15273
 30
0.0
 11
264.99689
 21
-113.83561
 31
0.0
  0
LINE
  5
82
  8
0
  6
CONTINUOUS
 62
     3
 10
264.77722
 20
-113.30528
 30
0.0
 11
262.59155
 21
-111.11962
 31
0.0
  0
LINE
  5
83
  8
0
  6
CONTINUOUS
 62
     3
 10
263.49689
 20
-122.10274
 30
0.0
 11
263.49689
 21
-117.22774
 31
0.0
  0
LINE
  5
84
  8
0
  6
CONTINUOUS
 62
     3
 10
251.57188
 20
-117.22774
 30
0.0
 11
264.92188
 21
-117.22774
 31
0.0
  0
LINE
  5
85
  8
0
  6
CONTINUOUS
 62
     3
 10
251.71655
 20
-113.30528
 30
0.0
 11
253.90221
 21
-111.11962
 31
0.0
  0
LINE
  5
86
  8
0
  6
CONTINUOUS
 62
     3
 10
251.49689
 20
-117.15273
 30
0.0
 11
251.49689
 21
-113.83561
 31
0.0
  0
LINE
  5
87
  8
0
  6
CONTINUOUS
 62
     3
 10
252.99689
 20
-122.10274
 30
0.0
 11
252.99689
 21
-117.22774
 31
0.0
  0
LINE
  5
88
  8
0
  6
CENTER
 62
     4
 10
258.35672
 20
-126.45537
 30
0.0
 11
258.35672
 21
59.542412
 31
0.0
  0
LINE
  5
89
  8
0
  6
CONTINUOUS
 62
     3
 10
262.37189
 20
-110.58929
 30
0.0
 11
262.37189
 21
-102.51713
 31
0.0
  0
LINE
  5
8A
  8
0
  6
CONTINUOUS
 62
     3
 10
261.62189
 20
-101.76713
 30
0.0
 11
254.87189
 21
-101.76713
 31
0.0
  0
LINE
  5
8B
  8
0
  6
CONTINUOUS
 62
     3
 10
254.12189
 20
-102.51713
 30
0.0
 11
254.12189
 21
-110.58929
 31
0.0
  0
LINE
  5
8C
  8
0
  6
CONTINUOUS
 62
     3
 10
261.85672
 20
-101.76713
 30
0.0
 11
261.85672
 21
-96.575294
 31
0.0
  0
LINE
  5
8D
  8
0
  6
CONTINUOUS
 62
     3
 10
254.85672
 20
-101.76713
 30
0.0
 11
254.85672
 21
-96.575294
 31
0.0
  0
LINE
  5
8E
  8
0
  6
CONTINUOUS
 62
     3
 10
259.55673
 20
-86.757355
 30
0.0
 11
259.55673
 21
-89.096832
 31
0.0
  0
LINE
  5
8F
  8
0
  6
CONTINUOUS
 62
     3
 10
265.35672
 20
-86.757355
 30
0.0
 11
265.35672
 21
-89.096832
 31
0.0
  0
LINE
  5
90
  8
0
  6
CONTINUOUS
 62
     3
 10
263.65671
 20
-86.757355
 30
0.0
 11
263.65671
 21
-89.096832
 31
0.0
  0
LINE
  5
91
  8
0
  6
CONTINUOUS
 62
     3
 10
261.25671
 20
-86.757355
 30
0.0
 11
261.25671
 21
-89.096832
 31
0.0
  0
LINE
  5
92
  8
0
  6
CONTINUOUS
 62
     3
 10
261.85672
 20
-90.258049
 30
0.0
 11
261.85672
 21
-94.398514
 31
0.0
  0
LINE
  5
93
  8
0
  6
CONTINUOUS
 62
     3
 10
270.85672
 20
-72.258049
 30
0.0
 11
270.85672
 21
-74.258049
 31
0.0
  0
LINE
  5
94
  8
0
  6
CONTINUOUS
 62
     3
 10
245.85672
 20
-72.258049
 30
0.0
 11
245.85672
 21
-74.258049
 31
0.0
  0
LINE
  5
95
  8
0
  6
CONTINUOUS
 62
     3
 10
270.35672
 20
-74.758049
 30
0.0
 11
246.35672
 21
-74.758049
 31
0.0
  0
LINE
  5
96
  8
0
  6
CONTINUOUS
 62
     3
 10
248.85672
 20
-86.758049
 30
0.0
 11
267.85672
 21
-86.758049
 31
0.0
  0
LINE
  5
97
  8
0
  6
CONTINUOUS
 62
     3
 10
253.05672
 20
-86.757355
 30
0.0
 11
253.05672
 21
-89.096832
 31
0.0
  0
LINE
  5
98
  8
0
  6
CONTINUOUS
 62
     3
 10
251.35672
 20
-86.757355
 30
0.0
 11
251.35672
 21
-89.096832
 31
0.0
  0
LINE
  5
99
  8
0
  6
CONTINUOUS
 62
     3
 10
255.45671
 20
-86.757355
 30
0.0
 11
255.45671
 21
-89.096832
 31
0.0
  0
LINE
  5
9A
  8
0
  6
CONTINUOUS
 62
     3
 10
257.15671
 20
-86.757355
 30
0.0
 11
257.15671
 21
-89.096832
 31
0.0
  0
LINE
  5
9B
  8
0
  6
CONTINUOUS
 62
     3
 10
254.85672
 20
-90.258049
 30
0.0
 11
254.85672
 21
-94.398514
 31
0.0
  0
LINE
  5
9C
  8
0
  6
CENTER
 62
     4
 10
-66.171509
 20
14.241949
 30
0.0
 11
-79.671715
 21
14.241949
 31
0.0
  0
LINE
  5
9D
  8
0
  6
CONTINUOUS
 62
     3
 10
-72.210571
 20
17.347412
 30
0.0
 11
-70.720161
 21
17.347412
 31
0.0
  0
LINE
  5
9E
  8
0
  6
CONTINUOUS
 62
     3
 10
-76.223007
 20
17.841949
 30
0.0
 11
-70.730537
 21
17.841949
 31
0.0
  0
LINE
  5
9F
  8
0
  6
CONTINUOUS
 62
     3
 10
-70.730537
 20
17.841949
 30
0.0
 11
-70.730537
 21
10.641949
 31
0.0
  0
LINE
  5
A0
  8
0
  6
CONTINUOUS
 62
     3
 10
-72.710571
 20
11.847412
 30
0.0
 11
-72.710571
 21
16.847412
 31
0.0
  0
LINE
  5
A1
  8
0
  6
CONTINUOUS
 62
     3
 10
-72.210571
 20
11.347412
 30
0.0
 11
-70.720161
 21
11.347412
 31
0.0
  0
LINE
  5
A2
  8
0
  6
CONTINUOUS
 62
     3
 10
-72.720161
 20
17.097412
 30
0.0
 11
-73.459282
 21
17.097412
 31
0.0
  0
LINE
  5
A3
  8
0
  6
CONTINUOUS
 62
     3
 10
-72.720161
 20
11.597412
 30
0.0
 11
-73.459282
 21
11.597412
 31
0.0
  0
LINE
  5
A4
  8
0
  6
CONTINUOUS
 62
     3
 10
-72.720161
 20
17.097412
 30
0.0
 11
-72.720161
 21
11.597412
 31
0.0
  0
LINE
  5
A5
  8
0
  6
CONTINUOUS
 62
     3
 10
-76.331963
 20
10.641949
 30
0.0
 11
-70.730537
 21
10.641949
 31
0.0
  0
LINE
  5
A6
  8
0
  6
CENTER
 62
     4
 10
-74.475174
 20
-35.758053
 30
0.0
 11
-68.038383
 21
-35.758053
 31
0.0
  0
LINE
  5
A7
  8
0
  6
CONTINUOUS
 62
     3
 10
-72.710571
 20
-33.363514
 30
0.0
 11
-72.710571
 21
-38.363514
 31
0.0
  0
LINE
  5
A8
  8
0
  6
CONTINUOUS
 62
     3
 10
-72.210571
 20
-32.863514
 30
0.0
 11
-70.720161
 21
-32.863514
 31
0.0
  0
LINE
  5
A9
  8
0
  6
CONTINUOUS
 62
     3
 10
-72.210571
 20
-38.863514
 30
0.0
 11
-70.720161
 21
-38.863514
 31
0.0
  0
LINE
  5
AA
  8
0
  6
CONTINUOUS
 62
     3
 10
-72.720161
 20
-38.613514
 30
0.0
 11
-73.459282
 21
-38.613514
 31
0.0
  0
LINE
  5
AB
  8
0
  6
CONTINUOUS
 62
     3
 10
-72.720161
 20
-33.113514
 30
0.0
 11
-73.459282
 21
-33.113514
 31
0.0
  0
LINE
  5
AC
  8
0
  6
CONTINUOUS
 62
     3
 10
-72.720161
 20
-38.613514
 30
0.0
 11
-72.720161
 21
-33.113514
 31
0.0
  0
LINE
  5
AD
  8
0
  6
CONTINUOUS
 62
     3
 10
-70.730537
 20
-39.358051
 30
0.0
 11
-70.730537
 21
-32.158051
 31
0.0
  0
LINE
  5
AE
  8
0
  6
CONTINUOUS
 62
     3
 10
-76.223007
 20
-39.358051
 30
0.0
 11
-70.730537
 21
-39.358051
 31
0.0
  0
LINE
  5
AF
  8
0
  6
CONTINUOUS
 62
     3
 10
-76.331963
 20
-32.158051
 30
0.0
 11
-70.730537
 21
-32.158051
 31
0.0
  0
LINE
  5
B0
  8
0
  6
CENTER
 62
     4
 10
-66.171509
 20
-35.758053
 30
0.0
 11
-80.66674
 21
-35.758053
 31
0.0
  0
LINE
  5
B1
  8
0
  6
CENTER
 62
     4
 10
-292.30737
 20
14.241949
 30
0.0
 11
-281.30737
 21
14.241949
 31
0.0
  0
LINE
  5
B2
  8
0
  6
CENTER
 62
     4
 10
-292.30737
 20
14.241949
 30
0.0
 11
-281.30737
 21
14.241949
 31
0.0
  0
LINE
  5
B3
  8
0
  6
CENTER
 62
     4
 10
-292.30737
 20
14.241949
 30
0.0
 11
-281.30737
 21
14.241949
 31
0.0
  0
LINE
  5
B4
  8
0
  6
CENTER
 62
     4
 10
-292.30737
 20
14.241949
 30
0.0
 11
-281.30737
 21
14.241949
 31
0.0
  0
LINE
  5
B5
  8
0
  6
CONTINUOUS
 62
     2
 10
-288.04483
 20
15.479383
 30
0.0
 11
-285.56995
 21
13.004515
 31
0.0
  0
LINE
  5
B6
  8
0
  6
CONTINUOUS
 62
     2
 10
-288.04483
 20
13.00451
 30
0.0
 11
-285.56995
 21
15.479388
 31
0.0
  0
LINE
  5
B7
  8
0
  6
CONTINUOUS
 62
     3
 10
-286.80737
 20
10.641949
 30
0.0
 11
-288.89023
 21
10.641949
 31
0.0
  0
LINE
  5
B8
  8
0
  6
CONTINUOUS
 62
     3
 10
-286.80737
 20
17.841949
 30
0.0
 11
-288.42868
 21
17.841949
 31
0.0
  0
LINE
  5
B9
  8
0
  6
CENTER
 62
     4
 10
-286.80737
 20
19.741949
 30
0.0
 11
-286.80737
 21
8.741949
 31
0.0
  0
LINE
  5
BA
  8
0
  6
CENTER
 62
     4
 10
-292.30737
 20
-35.758053
 30
0.0
 11
-281.30737
 21
-35.758053
 31
0.0
  0
LINE
  5
BB
  8
0
  6
CENTER
 62
     4
 10
-292.30737
 20
-35.758053
 30
0.0
 11
-281.30737
 21
-35.758053
 31
0.0
  0
LINE
  5
BC
  8
0
  6
CENTER
 62
     4
 10
-292.30737
 20
-35.758053
 30
0.0
 11
-281.30737
 21
-35.758053
 31
0.0
  0
LINE
  5
BD
  8
0
  6
CENTER
 62
     4
 10
-292.30737
 20
-35.758053
 30
0.0
 11
-281.30737
 21
-35.758053
 31
0.0
  0
LINE
  5
BE
  8
0
  6
CONTINUOUS
 62
     2
 10
-288.04483
 20
-36.995483
 30
0.0
 11
-285.56995
 21
-34.520618
 31
0.0
  0
LINE
  5
BF
  8
0
  6
CONTINUOUS
 62
     2
 10
-288.04483
 20
-34.520611
 30
0.0
 11
-285.56995
 21
-36.995491
 31
0.0
  0
LINE
  5
C0
  8
0
  6
CONTINUOUS
 62
     3
 10
-286.80737
 20
-32.158051
 30
0.0
 11
-288.89023
 21
-32.158051
 31
0.0
  0
LINE
  5
C1
  8
0
  6
CONTINUOUS
 62
     3
 10
-286.80737
 20
-39.358051
 30
0.0
 11
-288.42868
 21
-39.358051
 31
0.0
  0
LINE
  5
C2
  8
0
  6
CENTER
 62
     4
 10
-286.80737
 20
-41.258053
 30
0.0
 11
-286.80737
 21
-30.258051
 31
0.0
  0
LINE
  5
C3
  8
0
  6
CENTER
 62
     4
 10
-170.80739
 20
-41.258053
 30
0.0
 11
-170.80739
 21
-30.258051
 31
0.0
  0
LINE
  5
C4
  8
0
  6
CENTER
 62
     4
 10
-170.80739
 20
19.741949
 30
0.0
 11
-170.80739
 21
8.741949
 31
0.0
  0
LINE
  5
C5
  8
0
  6
CENTER
 62
     4
 10
-165.30739
 20
14.241949
 30
0.0
 11
-176.30739
 21
14.241949
 31
0.0
  0
LINE
  5
C6
  8
0
  6
CENTER
 62
     4
 10
-165.30739
 20
14.241949
 30
0.0
 11
-176.30739
 21
14.241949
 31
0.0
  0
LINE
  5
C7
  8
0
  6
CENTER
 62
     4
 10
-165.30739
 20
14.241949
 30
0.0
 11
-176.30739
 21
14.241949
 31
0.0
  0
LINE
  5
C8
  8
0
  6
CENTER
 62
     4
 10
-165.30739
 20
14.241949
 30
0.0
 11
-176.30739
 21
14.241949
 31
0.0
  0
LINE
  5
C9
  8
0
  6
CONTINUOUS
 62
     2
 10
-169.56995
 20
15.479383
 30
0.0
 11
-172.04483
 21
13.004515
 31
0.0
  0
LINE
  5
CA
  8
0
  6
CONTINUOUS
 62
     2
 10
-169.56995
 20
13.00451
 30
0.0
 11
-172.04482
 21
15.479388
 31
0.0
  0
LINE
  5
CB
  8
0
  6
CONTINUOUS
 62
     3
 10
-170.80739
 20
10.641949
 30
0.0
 11
-168.72455
 21
10.641949
 31
0.0
  0
LINE
  5
CC
  8
0
  6
CONTINUOUS
 62
     3
 10
-170.80739
 20
17.841949
 30
0.0
 11
-169.18607
 21
17.841949
 31
0.0
  0
LINE
  5
CD
  8
0
  6
CONTINUOUS
 62
     2
 10
-169.56995
 20
-36.995483
 30
0.0
 11
-172.04483
 21
-34.520618
 31
0.0
  0
LINE
  5
CE
  8
0
  6
CONTINUOUS
 62
     2
 10
-169.56995
 20
-34.520611
 30
0.0
 11
-172.04482
 21
-36.995491
 31
0.0
  0
LINE
  5
CF
  8
0
  6
CENTER
 62
     4
 10
-165.30739
 20
-35.758053
 30
0.0
 11
-176.30739
 21
-35.758053
 31
0.0
  0
LINE
  5
D0
  8
0
  6
CENTER
 62
     4
 10
-165.30739
 20
-35.758053
 30
0.0
 11
-176.30739
 21
-35.758053
 31
0.0
  0
LINE
  5
D1
  8
0
  6
CONTINUOUS
 62
     3
 10
-170.80739
 20
-32.158051
 30
0.0
 11
-168.72455
 21
-32.158051
 31
0.0
  0
LINE
  5
D2
  8
0
  6
CONTINUOUS
 62
     3
 10
-170.80739
 20
-39.358051
 30
0.0
 11
-169.18607
 21
-39.358051
 31
0.0
  0
LINE
  5
D3
  8
0
  6
CONTINUOUS
 62
     2
 10
-205.04482
 20
-69.995491
 30
0.0
 11
-202.56995
 21
-67.520615
 31
0.0
  0
LINE
  5
D4
  8
0
  6
CONTINUOUS
 62
     2
 10
-202.56995
 20
-69.995483
 30
0.0
 11
-205.04483
 21
-67.520615
 31
0.0
  0
LINE
  5
D5
  8
0
  6
CENTER
 62
     4
 10
-203.80739
 20
-74.258049
 30
0.0
 11
-203.80739
 21
-63.258053
 31
0.0
  0
LINE
  5
D6
  8
0
  6
CENTER
 62
     4
 10
-198.30739
 20
-68.758049
 30
0.0
 11
-209.30739
 21
-68.758049
 31
0.0
  0
LINE
  5
D7
  8
0
  6
CONTINUOUS
 62
     3
 10
-200.20738
 20
-68.758049
 30
0.0
 11
-200.20738
 21
-71.258049
 31
0.0
  0
LINE
  5
D8
  8
0
  6
CONTINUOUS
 62
     3
 10
-207.40738
 20
-68.758049
 30
0.0
 11
-207.40738
 21
-71.258049
 31
0.0
  0
LINE
  5
D9
  8
0
  6
CONTINUOUS
 62
     2
 10
-255.04482
 20
-69.995491
 30
0.0
 11
-252.56995
 21
-67.520615
 31
0.0
  0
LINE
  5
DA
  8
0
  6
CONTINUOUS
 62
     2
 10
-252.56995
 20
-69.995483
 30
0.0
 11
-255.04483
 21
-67.520615
 31
0.0
  0
LINE
  5
DB
  8
0
  6
CENTER
 62
     4
 10
-253.80739
 20
-74.258049
 30
0.0
 11
-253.80739
 21
-63.258053
 31
0.0
  0
LINE
  5
DC
  8
0
  6
CENTER
 62
     4
 10
-248.30739
 20
-68.758049
 30
0.0
 11
-259.30737
 21
-68.758049
 31
0.0
  0
LINE
  5
DD
  8
0
  6
CONTINUOUS
 62
     3
 10
-250.20738
 20
-68.758049
 30
0.0
 11
-250.20738
 21
-71.258049
 31
0.0
  0
LINE
  5
DE
  8
0
  6
CONTINUOUS
 62
     3
 10
-257.40738
 20
-68.758049
 30
0.0
 11
-257.40738
 21
-71.258049
 31
0.0
  0
LINE
  5
DF
  8
0
  6
CONTINUOUS
 62
     3
 10
-250.20738
 20
47.241947
 30
0.0
 11
-250.20738
 21
49.741947
 31
0.0
  0
LINE
  5
E0
  8
0
  6
CONTINUOUS
 62
     3
 10
-257.40738
 20
47.241947
 30
0.0
 11
-257.40738
 21
49.741947
 31
0.0
  0
LINE
  5
E1
  8
0
  6
CONTINUOUS
 62
     3
 10
-28.430538
 20
-72.758049
 30
0.0
 11
-28.430538
 21
51.241947
 31
0.0
  0
LINE
  5
E2
  8
0
  6
CENTER
 62
     4
 10
-80.80127
 20
-10.758051
 30
0.0
 11
76.932495
 21
-10.758051
 31
0.0
  0
LINE
  5
E3
  8
0
  6
CENTER
 62
     4
 10
-62.430538
 20
-89.184967
 30
0.0
 11
-62.430538
 21
-80.527168
 31
0.0
  0
LINE
  5
E4
  8
0
  6
CONTINUOUS
 62
     3
 10
-65.930534
 20
-82.558052
 30
0.0
 11
-65.930534
 21
-88.01342
 31
0.0
  0
LINE
  5
E5
  8
0
  6
CONTINUOUS
 62
     3
 10
-58.930538
 20
-82.558044
 30
0.0
 11
-58.930538
 21
-88.01342
 31
0.0
  0
LINE
  5
E6
  8
0
  6
CONTINUOUS
 62
     3
 10
-65.930534
 20
-95.967117
 30
0.0
 11
-65.930534
 21
-90.511742
 31
0.0
  0
LINE
  5
E7
  8
0
  6
CONTINUOUS
 62
     3
 10
-58.930538
 20
-96.167137
 30
0.0
 11
-58.930534
 21
-90.511742
 31
0.0
  0
LINE
  5
E8
  8
0
  6
CENTER
 62
     4
 10
-62.430538
 20
-105.1962
 30
0.0
 11
-62.430538
 21
-89.184967
 31
0.0
  0
LINE
  5
E9
  8
0
  6
CONTINUOUS
 62
     3
 10
-55.680538
 20
-96.067123
 30
0.0
 11
-69.180534
 21
-96.067123
 31
0.0
  0
LINE
  5
EA
  8
0
  6
CONTINUOUS
 62
     3
 10
-55.680538
 20
-111.52773
 30
0.0
 11
-55.680538
 21
-96.067123
 31
0.0
  0
LINE
  5
EB
  8
0
  6
CONTINUOUS
 62
     3
 10
-69.180534
 20
-111.52773
 30
0.0
 11
-69.180534
 21
-96.067123
 31
0.0
  0
LINE
  5
EC
  8
0
  6
CONTINUOUS
 62
     3
 10
-59.055538
 20
-96.067123
 30
0.0
 11
-65.805534
 21
-96.067123
 31
0.0
  0
LINE
  5
ED
  8
0
  6
CONTINUOUS
 62
     3
 10
-62.430538
 20
-82.558052
 30
0.0
 11
-62.430538
 21
7.641949
 31
0.0
  0
LINE
  5
EE
  8
0
  6
CONTINUOUS
 62
     3
 10
-62.430538
 20
-72.758049
 30
0.0
 11
-62.430538
 21
51.241947
 31
0.0
  0
LINE
  5
EF
  8
0
  6
CONTINUOUS
 62
     3
 10
-56.430538
 20
-81.558052
 30
0.0
 11
-56.430538
 21
-73.758049
 31
0.0
  0
LINE
  5
F0
  8
0
  6
CONTINUOUS
 62
     3
 10
-75.549019
 20
51.241947
 30
0.0
 11
33.569462
 21
51.241947
 31
0.0
  0
LINE
  5
F1
  8
0
  6
CONTINUOUS
 62
     3
 10
-75.242935
 20
-82.558052
 30
0.0
 11
-57.430538
 21
-82.558052
 31
0.0
  0
LINE
  5
F2
  8
0
  6
CONTINUOUS
 62
     3
 10
-76.520302
 20
-72.758049
 30
0.0
 11
33.569462
 21
-72.758049
 31
0.0
  0
LINE
  5
F3
  8
0
  6
CONTINUOUS
 62
     3
 10
-77.002876
 20
-53.258053
 30
0.0
 11
23.569462
 21
-53.258053
 31
0.0
  0
LINE
  5
F4
  8
0
  6
CONTINUOUS
 62
     3
 10
-77.002876
 20
31.741949
 30
0.0
 11
23.569462
 21
31.741949
 31
0.0
  0
LINE
  5
F5
  8
0
  6
CONTINUOUS
 62
     3
 10
-200.20738
 20
47.241947
 30
0.0
 11
-200.20738
 21
49.741947
 31
0.0
  0
LINE
  5
F6
  8
0
  6
CONTINUOUS
 62
     3
 10
-207.40738
 20
47.241947
 30
0.0
 11
-207.40738
 21
49.741947
 31
0.0
  0
LINE
  5
F7
  8
0
  6
CONTINUOUS
 62
     2
 10
-205.04482
 20
48.479389
 30
0.0
 11
-202.56995
 21
46.004509
 31
0.0
  0
LINE
  5
F8
  8
0
  6
CONTINUOUS
 62
     2
 10
-202.56995
 20
48.479385
 30
0.0
 11
-205.04483
 21
46.004513
 31
0.0
  0
LINE
  5
F9
  8
0
  6
CONTINUOUS
 62
     2
 10
-255.04482
 20
48.479389
 30
0.0
 11
-252.56995
 21
46.004509
 31
0.0
  0
LINE
  5
FA
  8
0
  6
CONTINUOUS
 62
     2
 10
-252.56995
 20
48.479385
 30
0.0
 11
-255.04483
 21
46.004513
 31
0.0
  0
LINE
  5
FB
  8
0
  6
CENTER
 62
     4
 10
-226.27094
 20
-77.138443
 30
0.0
 11
-216.37093
 21
-77.138443
 31
0.0
  0
LINE
  5
FC
  8
0
  6
CONTINUOUS
 62
     3
 10
-242.23863
 20
-81.212074
 30
0.0
 11
-242.18645
 21
-81.232742
 31
0.0
  0
LINE
  5
FD
  8
0
  6
CENTER
 62
     4
 10
-236.29338
 20
-82.107056
 30
0.0
 11
-236.29338
 21
-72.940079
 31
0.0
  0
LINE
  5
FE
  8
0
  6
CONTINUOUS
 62
     3
 10
-241.21857
 20
-82.238434
 30
0.0
 11
-216.42331
 21
-82.238434
 31
0.0
  0
LINE
  5
FF
  8
0
  6
CENTER
 62
     4
 10
-228.80739
 20
-123.02723
 30
0.0
 11
-228.80739
 21
58.891392
 31
0.0
  0
LINE
  5
100
  8
0
  6
CONTINUOUS
 62
     3
 10
-243.33218
 20
-74.733345
 30
0.0
 11
-243.3838
 21
-74.717491
 31
0.0
  0
LINE
  5
101
  8
0
  6
CONTINUOUS
 62
     2
 10
-237.53082
 20
-75.901009
 30
0.0
 11
-235.05595
 21
-78.375885
 31
0.0
  0
LINE
  5
102
  8
0
  6
CONTINUOUS
 62
     2
 10
-235.05594
 20
-75.901009
 30
0.0
 11
-237.53082
 21
-78.375877
 31
0.0
  0
LINE
  5
103
  8
0
  6
CONTINUOUS
 62
     3
 10
-243.3838
 20
-74.717491
 30
0.0
 11
-242.20337
 21
-81.412079
 31
0.0
  0
LINE
  5
104
  8
0
  6
CENTER
 62
     4
 10
-228.80739
 20
-116.67104
 30
0.0
 11
-228.80739
 21
-95.590019
 31
0.0
  0
LINE
  5
105
  8
0
  6
CENTER
 62
     4
 10
-228.80739
 20
-103.71831
 30
0.0
 11
-228.80739
 21
-87.881325
 31
0.0
  0
LINE
  5
106
  8
0
  6
CONTINUOUS
 62
     3
 10
-214.26151
 20
-74.737099
 30
0.0
 11
-215.43851
 21
-81.412086
 31
0.0
  0
LINE
  5
107
  8
0
  6
CONTINUOUS
 62
     2
 10
-222.55836
 20
-75.901009
 30
0.0
 11
-220.0835
 21
-78.375885
 31
0.0
  0
LINE
  5
108
  8
0
  6
CONTINUOUS
 62
     2
 10
-220.08348
 20
-75.901009
 30
0.0
 11
-222.55836
 21
-78.375877
 31
0.0
  0
LINE
  5
109
  8
0
  6
CENTER
 62
     4
 10
-228.80739
 20
-85.50309
 30
0.0
 11
-228.80739
 21
-92.574989
 31
0.0
  0
LINE
  5
10A
  8
0
  6
CENTER
 62
     4
 10
-221.32092
 20
-82.088448
 30
0.0
 11
-221.32092
 21
-72.188438
 31
0.0
  0
LINE
  5
10B
  8
0
  6
CONTINUOUS
 62
     3
 10
-234.05739
 20
-116.00274
 30
0.0
 11
-234.05739
 21
-111.12774
 31
0.0
  0
LINE
  5
10C
  8
0
  6
CONTINUOUS
 62
     3
 10
-223.55739
 20
-116.00274
 30
0.0
 11
-223.55739
 21
-111.12774
 31
0.0
  0
LINE
  5
10D
  8
0
  6
CONTINUOUS
 62
     3
 10
-226.7951
 20
-120.87774
 30
0.0
 11
-224.30739
 21
-120.87774
 31
0.0
  0
LINE
  5
10E
  8
0
  6
CONTINUOUS
 62
     3
 10
-230.0714
 20
-120.87774
 30
0.0
 11
-227.5451
 21
-120.87774
 31
0.0
  0
LINE
  5
10F
  8
0
  6
CONTINUOUS
 62
     3
 10
-230.08238
 20
-120.87774
 30
0.0
 11
-230.08238
 21
-116.00274
 31
0.0
  0
LINE
  5
110
  8
0
  6
CONTINUOUS
 62
     3
 10
-230.75739
 20
-120.87774
 30
0.0
 11
-230.75739
 21
-116.00274
 31
0.0
  0
LINE
  5
111
  8
0
  6
CONTINUOUS
 62
     3
 10
-226.85739
 20
-120.87774
 30
0.0
 11
-226.85739
 21
-116.00274
 31
0.0
  0
LINE
  5
112
  8
0
  6
CONTINUOUS
 62
     3
 10
-224.30739
 20
-120.87774
 30
0.0
 11
-224.30739
 21
-116.00274
 31
0.0
  0
LINE
  5
113
  8
0
  6
CONTINUOUS
 62
     3
 10
-233.30739
 20
-120.87774
 30
0.0
 11
-233.30739
 21
-116.00274
 31
0.0
  0
LINE
  5
114
  8
0
  6
CONTINUOUS
 62
     3
 10
-233.30739
 20
-120.87774
 30
0.0
 11
-230.8214
 21
-120.87774
 31
0.0
  0
LINE
  5
115
  8
0
  6
CONTINUOUS
 62
     3
 10
-223.55739
 20
-116.00274
 30
0.0
 11
-234.05739
 21
-116.00274
 31
0.0
  0
LINE
  5
116
  8
0
  6
CONTINUOUS
 62
     3
 10
-235.48239
 20
-111.12774
 30
0.0
 11
-222.13239
 21
-111.12774
 31
0.0
  0
LINE
  5
117
  8
0
  6
CONTINUOUS
 62
     3
 10
-235.33771
 20
-107.20528
 30
0.0
 11
-233.15205
 21
-105.01962
 31
0.0
  0
LINE
  5
118
  8
0
  6
CONTINUOUS
 62
     3
 10
-222.27705
 20
-107.20528
 30
0.0
 11
-224.46271
 21
-105.01962
 31
0.0
  0
LINE
  5
119
  8
0
  6
CONTINUOUS
 62
     3
 10
-224.68239
 20
-104.4893
 30
0.0
 11
-224.68239
 21
-96.41713
 31
0.0
  0
LINE
  5
11A
  8
0
  6
CONTINUOUS
 62
     3
 10
-232.93239
 20
-96.41713
 30
0.0
 11
-232.93239
 21
-104.4893
 31
0.0
  0
LINE
  5
11B
  8
0
  6
CONTINUOUS
 62
     3
 10
-222.05739
 20
-111.05273
 30
0.0
 11
-222.05739
 21
-107.73562
 31
0.0
  0
LINE
  5
11C
  8
0
  6
CONTINUOUS
 62
     3
 10
-235.55739
 20
-111.05273
 30
0.0
 11
-235.55739
 21
-107.73562
 31
0.0
  0
LINE
  5
11D
  8
0
  6
CONTINUOUS
 62
     3
 10
-225.43239
 20
-95.66713
 30
0.0
 11
-232.18239
 21
-95.66713
 31
0.0
  0
LINE
  5
11E
  8
0
  6
CENTER
 62
     4
 10
-241.27094
 20
-77.138443
 30
0.0
 11
-231.37091
 21
-77.138443
 31
0.0
  0
LINE
  5
11F
  8
0
  6
CONTINUOUS
 62
     3
 10
-232.30739
 20
-95.567116
 30
0.0
 11
-232.30739
 21
-94.11174
 31
0.0
  0
LINE
  5
120
  8
0
  6
CONTINUOUS
 62
     3
 10
-225.30739
 20
-95.767136
 30
0.0
 11
-225.30739
 21
-94.11174
 31
0.0
  0
LINE
  5
121
  8
0
  6
CONTINUOUS
 62
     3
 10
-227.5451
 20
-120.87774
 30
0.0
 11
-227.5451
 21
-116.00274
 31
0.0
  0
LINE
  5
122
  8
0
  6
CENTER
 62
     4
 10
-165.30739
 20
-35.758053
 30
0.0
 11
-176.30739
 21
-35.758053
 31
0.0
  0
LINE
  5
123
  8
0
  6
CENTER
 62
     4
 10
-165.30739
 20
-35.758053
 30
0.0
 11
-176.30739
 21
-35.758053
 31
0.0
  0
LINE
  5
124
  8
0
  6
CENTER
 62
     4
 10
-248.30739
 20
47.241947
 30
0.0
 11
-259.30737
 21
47.241947
 31
0.0
  0
LINE
  5
125
  8
0
  6
CENTER
 62
     4
 10
-253.80739
 20
52.741947
 30
0.0
 11
-253.80739
 21
41.741947
 31
0.0
  0
LINE
  5
126
  8
0
  6
CENTER
 62
     4
 10
-198.30739
 20
47.241947
 30
0.0
 11
-209.30739
 21
47.241947
 31
0.0
  0
LINE
  5
127
  8
0
  6
CENTER
 62
     4
 10
-203.80739
 20
52.741947
 30
0.0
 11
-203.80739
 21
41.741947
 31
0.0
  0
LINE
  5
128
  8
0
  6
CONTINUOUS
 62
     3
 10
-271.30737
 20
-69.258049
 30
0.0
 11
-271.30737
 21
-65.258049
 31
0.0
  0
LINE
  5
129
  8
0
  6
CONTINUOUS
 62
     3
 10
-285.73523
 20
31.741949
 30
0.0
 11
-283.30737
 21
31.741949
 31
0.0
  0
LINE
  5
12A
  8
0
  6
CONTINUOUS
 62
     3
 10
-285.73523
 20
-53.258053
 30
0.0
 11
-283.30737
 21
-53.258053
 31
0.0
  0
LINE
  5
12B
  8
0
  6
CONTINUOUS
 62
     3
 10
-271.30737
 20
43.741947
 30
0.0
 11
-271.30737
 21
47.741947
 31
0.0
  0
LINE
  5
12C
  8
0
  6
CENTER
 62
     4
 10
-182.90825
 20
35.141087
 30
0.0
 11
-172.5916
 21
45.457726
 31
0.0
  0
LINE
  5
12D
  8
0
  6
CENTER
 62
     4
 10
-182.77138
 20
-56.794052
 30
0.0
 11
-172.18849
 21
-67.376938
 31
0.0
  0
LINE
  5
12E
  8
0
  6
CENTER
 62
     4
 10
-285.36301
 20
-67.31369
 30
0.0
 11
-274.82986
 21
-56.780544
 31
0.0
  0
LINE
  5
12F
  8
0
  6
CENTER
 62
     4
 10
-285.61545
 20
46.050011
 30
0.0
 11
-273.90271
 21
34.33728
 31
0.0
  0
LINE
  5
130
  8
0
  6
CONTINUOUS
 62
     3
 10
-283.79828
 20
50.741947
 30
0.0
 11
-173.81648
 21
50.741947
 31
0.0
  0
LINE
  5
131
  8
0
  6
CONTINUOUS
 62
     3
 10
-290.30737
 20
-65.748962
 30
0.0
 11
-290.30737
 21
44.232857
 31
0.0
  0
LINE
  5
132
  8
0
  6
CONTINUOUS
 62
     3
 10
-167.30739
 20
-65.748962
 30
0.0
 11
-167.30739
 21
44.232857
 31
0.0
  0
LINE
  5
133
  8
0
  6
CONTINUOUS
 62
     3
 10
-283.79828
 20
-72.258049
 30
0.0
 11
-173.81648
 21
-72.258049
 31
0.0
  0
LINE
  5
134
  8
0
  6
CONTINUOUS
 62
     3
 10
-186.30739
 20
-69.258049
 30
0.0
 11
-186.30739
 21
-65.258049
 31
0.0
  0
LINE
  5
135
  8
0
  6
CONTINUOUS
 62
     3
 10
-186.30739
 20
43.741947
 30
0.0
 11
-186.30739
 21
47.741947
 31
0.0
  0
LINE
  5
136
  8
0
  6
CONTINUOUS
 62
     3
 10
-171.87953
 20
31.741949
 30
0.0
 11
-174.30739
 21
31.741949
 31
0.0
  0
LINE
  5
137
  8
0
  6
CONTINUOUS
 62
     3
 10
-171.87953
 20
-53.258053
 30
0.0
 11
-174.30739
 21
-53.258053
 31
0.0
  0
LINE
  5
138
  8
0
  6
CENTER
 62
     4
 10
180.63011
 20
-10.758051
 30
0.0
 11
328.20929
 21
-10.758051
 31
0.0
  0
LINE
  5
139
  8
0
  6
CENTER
 62
     4
 10
316.95673
 20
24.841949
 30
0.0
 11
306.95673
 21
24.841949
 31
0.0
  0
LINE
  5
13A
  8
0
  6
CENTER
 62
     4
 10
311.95673
 20
29.841949
 30
0.0
 11
311.95673
 21
19.841949
 31
0.0
  0
LINE
  5
13B
  8
0
  6
CENTER
 62
     4
 10
298.95673
 20
-64.358047
 30
0.0
 11
288.95673
 21
-64.358047
 31
0.0
  0
LINE
  5
13C
  8
0
  6
CENTER
 62
     4
 10
293.95673
 20
-59.358051
 30
0.0
 11
293.95673
 21
-69.358047
 31
0.0
  0
LINE
  5
13D
  8
0
  6
CENTER
 62
     4
 10
209.75671
 20
-46.358051
 30
0.0
 11
199.75671
 21
-46.358051
 31
0.0
  0
LINE
  5
13E
  8
0
  6
CENTER
 62
     4
 10
204.75671
 20
-41.358051
 30
0.0
 11
204.75671
 21
-51.358051
 31
0.0
  0
LINE
  5
13F
  8
0
  6
CENTER
 62
     4
 10
227.75671
 20
42.841949
 30
0.0
 11
217.75671
 21
42.841949
 31
0.0
  0
LINE
  5
140
  8
0
  6
CENTER
 62
     4
 10
222.75671
 20
47.841949
 30
0.0
 11
222.75671
 21
37.841949
 31
0.0
  0
LINE
  5
141
  8
0
  6
CENTER
 62
     4
 10
-299.78262
 20
-10.758051
 30
0.0
 11
-160.24626
 21
-10.758051
 31
0.0
  0
LINE
  5
142
  8
0
  6
CENTER
 62
     4
 10
304.25586
 20
35.141087
 30
0.0
 11
314.57248
 21
45.457726
 31
0.0
  0
LINE
  5
143
  8
0
  6
CENTER
 62
     4
 10
304.39273
 20
-56.794052
 30
0.0
 11
314.97559
 21
-67.376938
 31
0.0
  0
LINE
  5
144
  8
0
  6
CENTER
 62
     4
 10
201.80109
 20
-67.31369
 30
0.0
 11
212.33423
 21
-56.780544
 31
0.0
  0
LINE
  5
145
  8
0
  6
CENTER
 62
     4
 10
201.54866
 20
46.050011
 30
0.0
 11
213.26138
 21
34.33728
 31
0.0
  0
LINE
  5
146
  8
0
  6
CONTINUOUS
 62
     3
 10
203.36581
 20
50.741947
 30
0.0
 11
313.34763
 21
50.741947
 31
0.0
  0
LINE
  5
147
  8
0
  6
CONTINUOUS
 62
     3
 10
196.85672
 20
-65.748962
 30
0.0
 11
196.85672
 21
44.232857
 31
0.0
  0
LINE
  5
148
  8
0
  6
CONTINUOUS
 62
     3
 10
319.85672
 20
-65.748962
 30
0.0
 11
319.85672
 21
44.232857
 31
0.0
  0
LINE
  5
149
  8
0
  6
CONTINUOUS
 62
     3
 10
203.36581
 20
-72.258049
 30
0.0
 11
313.34763
 21
-72.258049
 31
0.0
  0
LINE
  5
14A
  8
0
  6
CENTER
 62
     4
 10
258.35672
 20
-126.45537
 30
0.0
 11
258.35672
 21
59.542412
 31
0.0
  0
LINE
  5
14B
  8
0
  6
CONTINUOUS
 62
     3
 10
-57.180538
 20
-116.40273
 30
0.0
 11
-67.680534
 21
-116.40273
 31
0.0
  0
LINE
  5
14C
  8
0
  6
CONTINUOUS
 62
     3
 10
-66.930534
 20
-121.27773
 30
0.0
 11
-66.930534
 21
-116.40273
 31
0.0
  0
LINE
  5
14D
  8
0
  6
CONTINUOUS
 62
     3
 10
-63.694553
 20
-121.27773
 30
0.0
 11
-61.168251
 21
-121.27773
 31
0.0
  0
LINE
  5
14E
  8
0
  6
CONTINUOUS
 62
     3
 10
-66.930534
 20
-121.27773
 30
0.0
 11
-64.444557
 21
-121.27773
 31
0.0
  0
LINE
  5
14F
  8
0
  6
CONTINUOUS
 62
     3
 10
-64.380539
 20
-121.27773
 30
0.0
 11
-64.380539
 21
-116.40273
 31
0.0
  0
LINE
  5
150
  8
0
  6
CONTINUOUS
 62
     3
 10
-63.70554
 20
-121.27773
 30
0.0
 11
-63.70554
 21
-116.40273
 31
0.0
  0
LINE
  5
151
  8
0
  6
CONTINUOUS
 62
     3
 10
-61.155537
 20
-121.27773
 30
0.0
 11
-61.155537
 21
-116.40273
 31
0.0
  0
LINE
  5
152
  8
0
  6
CONTINUOUS
 62
     3
 10
-60.480537
 20
-121.27773
 30
0.0
 11
-60.480537
 21
-116.40273
 31
0.0
  0
LINE
  5
153
  8
0
  6
CONTINUOUS
 62
     3
 10
-58.103039
 20
-121.27773
 30
0.0
 11
-58.103039
 21
-116.40273
 31
0.0
  0
LINE
  5
154
  8
0
  6
CONTINUOUS
 62
     3
 10
-60.418251
 20
-121.27773
 30
0.0
 11
-57.930538
 21
-121.27773
 31
0.0
  0
LINE
  5
155
  8
0
  6
CONTINUOUS
 62
     3
 10
-57.180538
 20
-116.40273
 30
0.0
 11
-57.180538
 21
-111.52773
 31
0.0
  0
LINE
  5
156
  8
0
  6
CONTINUOUS
 62
     3
 10
-67.680534
 20
-116.40273
 30
0.0
 11
-67.680534
 21
-111.52773
 31
0.0
  0
LINE
  5
157
  8
0
  6
CONTINUOUS
 62
     3
 10
-55.680538
 20
-111.52773
 30
0.0
 11
-69.180534
 21
-111.52773
 31
0.0
  0
LINE
  5
158
  8
0
  6
CONTINUOUS
 62
     3
 10
-55.680538
 20
-107.89626
 30
0.0
 11
-69.180534
 21
-107.89626
 31
0.0
  0
LINE
  5
159
  8
0
  6
CONTINUOUS
 62
     3
 10
-55.680538
 20
-105.1962
 30
0.0
 11
-69.180534
 21
-105.1962
 31
0.0
  0
LINE
  5
15A
  8
0
  6
CONTINUOUS
 62
     3
 10
73.569466
 20
-20.258051
 30
0.0
 11
73.569466
 21
-1.258051
 31
0.0
  0
LINE
  5
15B
  8
0
  6
CONTINUOUS
 62
     3
 10
23.569462
 20
-72.758049
 30
0.0
 11
23.569462
 21
51.241947
 31
0.0
  0
LINE
  5
15C
  8
0
  6
CONTINUOUS
 62
     3
 10
37.069462
 20
-50.758053
 30
0.0
 11
39.569462
 21
-50.758053
 31
0.0
  0
LINE
  5
15D
  8
0
  6
CONTINUOUS
 62
     3
 10
37.069462
 20
29.241949
 30
0.0
 11
39.569462
 21
29.241949
 31
0.0
  0
LINE
  5
15E
  8
0
  6
CONTINUOUS
 62
     3
 10
33.569462
 20
-65.758049
 30
0.0
 11
37.069462
 21
-65.758049
 31
0.0
  0
LINE
  5
15F
  8
0
  6
CONTINUOUS
 62
     3
 10
33.569462
 20
44.241947
 30
0.0
 11
37.069462
 21
44.241947
 31
0.0
  0
LINE
  5
160
  8
0
  6
CONTINUOUS
 62
     3
 10
39.569462
 20
-50.758053
 30
0.0
 11
39.569462
 21
29.241949
 31
0.0
  0
LINE
  5
161
  8
0
  6
CONTINUOUS
 62
     3
 10
37.069462
 20
-65.758049
 30
0.0
 11
37.069462
 21
44.241947
 31
0.0
  0
LINE
  5
162
  8
0
  6
CONTINUOUS
 62
     3
 10
33.569462
 20
-72.758049
 30
0.0
 11
33.569462
 21
51.241947
 31
0.0
  0
LINE
  5
163
  8
0
  6
CONTINUOUS
 62
     3
 10
-26.280539
 20
-86.258049
 30
0.0
 11
-17.580538
 21
-86.258049
 31
0.0
  0
LINE
  5
164
  8
0
  6
CONTINUOUS
 62
     3
 10
-18.030539
 20
-75.258049
 30
0.0
 11
-18.030539
 21
-76.658051
 31
0.0
  0
LINE
  5
165
  8
0
  6
CONTINUOUS
 62
     3
 10
-16.980537
 20
-76.658051
 30
0.0
 11
-16.980537
 21
-86.758049
 31
0.0
  0
LINE
  5
166
  8
0
  6
CONTINUOUS
 62
     3
 10
-16.980537
 20
-76.658051
 30
0.0
 11
-26.880539
 21
-76.658051
 31
0.0
  0
LINE
  5
167
  8
0
  6
CONTINUOUS
 62
     3
 10
-25.830538
 20
-75.258049
 30
0.0
 11
-25.830538
 21
-76.658051
 31
0.0
  0
LINE
  5
168
  8
0
  6
CONTINUOUS
 62
     3
 10
-26.880539
 20
-76.658051
 30
0.0
 11
-26.880539
 21
-86.758049
 31
0.0
  0
LINE
  5
169
  8
0
  6
CONTINUOUS
 62
     3
 10
267.35672
 20
-76.158051
 30
0.0
 11
268.35672
 21
-76.158051
 31
0.0
  0
LINE
  5
16A
  8
0
  6
CONTINUOUS
 62
     3
 10
267.35672
 20
-74.758049
 30
0.0
 11
267.35672
 21
-76.158051
 31
0.0
  0
LINE
  5
16B
  8
0
  6
CONTINUOUS
 62
     3
 10
268.35672
 20
-76.158051
 30
0.0
 11
268.35672
 21
-86.258049
 31
0.0
  0
LINE
  5
16C
  8
0
  6
CONTINUOUS
 62
     3
 10
248.35672
 20
-76.158051
 30
0.0
 11
267.35672
 21
-76.158051
 31
0.0
  0
LINE
  5
16D
  8
0
  6
CONTINUOUS
 62
     3
 10
249.35672
 20
-74.758049
 30
0.0
 11
249.35672
 21
-76.158051
 31
0.0
  0
LINE
  5
16E
  8
0
  6
CONTINUOUS
 62
     3
 10
248.35672
 20
-76.158051
 30
0.0
 11
248.35672
 21
-86.258049
 31
0.0
  0
LINE
  5
16F
  8
0
  6
CONTINUOUS
 62
     3
 10
267.85672
 20
-85.758049
 30
0.0
 11
248.85672
 21
-85.758049
 31
0.0
  0
LINE
  5
170
  8
0
  6
CONTINUOUS
 62
     4
 10
-158.24625
 20
-10.758051
 30
0.0
 11
-146.70218
 21
-10.758051
 31
0.0
  0
LINE
  5
171
  8
0
  6
CONTINUOUS
 62
     4
 10
-62.430538
 20
-107.19621
 30
0.0
 11
-62.430538
 21
-146.95241
 31
0.0
  0
LINE
  5
172
  8
0
  6
CONTINUOUS
 62
     4
 10
330.20929
 20
-10.758051
 30
0.0
 11
340.04645
 21
-10.758051
 31
0.0
  0
ARC
  5
173
  8
0
  6
CONTINUOUS
 62
     4
 10
256.96753
 20
-90.029831
 30
0.0
 40
2.8
 50
239.99998
 51
299.99998
  0
ARC
  5
174
  8
0
  6
CONTINUOUS
 62
     4
 10
259.76752
 20
-90.029831
 30
0.0
 40
2.8
 50
239.99998
 51
299.99998
  0
ARC
  5
175
  8
0
  6
CONTINUOUS
 62
     4
 10
259.76752
 20
-94.879578
 30
0.0
 40
2.8
 50
59.999988
 51
119.99999
  0
ARC
  5
176
  8
0
  6
CONTINUOUS
 62
     3
 10
263.85672
 20
-87.258049
 30
0.0
 40
3.0
 50
270.0
 51
0.0
  0
ARC
  5
177
  8
0
  6
CONTINUOUS
 62
     3
 10
252.85672
 20
-87.258049
 30
0.0
 40
3.0
 50
180.00001
 51
270.0
  0
ARC
  5
178
  8
0
  6
CONTINUOUS
 62
     3
 10
-223.30739
 20
-87.258049
 30
0.0
 40
3.0
 50
270.0
 51
0.0
  0
ARC
  5
179
  8
0
  6
CONTINUOUS
 62
     3
 10
-234.30739
 20
-87.258049
 30
0.0
 40
3.0
 50
180.00001
 51
270.0
  0
ARC
  5
17A
  8
0
  6
CONTINUOUS
 62
     4
 10
-43.819733
 20
-93.529831
 30
0.0
 40
2.8
 50
239.99998
 51
299.99998
  0
ARC
  5
17B
  8
0
  6
CONTINUOUS
 62
     4
 10
-41.01973
 20
-93.529831
 30
0.0
 40
2.8
 50
239.99998
 51
299.99998
  0
ARC
  5
17C
  8
0
  6
CONTINUOUS
 62
     4
 10
-41.019733
 20
-98.379578
 30
0.0
 40
2.8
 50
59.999988
 51
119.99999
  0
ARC
  5
17D
  8
0
  6
CONTINUOUS
 62
     3
 10
-36.930538
 20
-87.758049
 30
0.0
 40
3.0
 50
270.0
 51
0.0
  0
ARC
  5
17E
  8
0
  6
CONTINUOUS
 62
     3
 10
-47.930538
 20
-87.758049
 30
0.0
 40
3.0
 50
180.00001
 51
270.0
  0
CIRCLE
  5
17F
  8
0
  6
CONTINUOUS
 62
     3
 10
258.35672
 20
-10.758051
 30
0.0
 40
17.5
  0
CIRCLE
  5
180
  8
0
  6
CONTINUOUS
 62
     3
 10
258.35672
 20
-10.758051
 30
0.0
 40
10.0
  0
CIRCLE
  5
181
  8
0
  6
CONTINUOUS
 62
     3
 10
258.35672
 20
-10.758051
 30
0.0
 40
9.5
  0
ARC
  5
182
  8
0
  6
CONTINUOUS
 62
     4
 10
-21.355537
 20
-91.575272
 30
0.0
 40
1.15
 50
60.000002
 51
120.0
  0
ARC
  5
183
  8
0
  6
CONTINUOUS
 62
     4
 10
-21.355537
 20
-89.583412
 30
0.0
 40
1.15
 50
240.0
 51
300.0
  0
ARC
  5
184
  8
0
  6
CONTINUOUS
 62
     4
 10
-22.505539
 20
-89.583412
 30
0.0
 40
1.15
 50
240.0
 51
300.0
  0
ARC
  5
185
  8
0
  6
CONTINUOUS
 62
     3
 10
-17.480537
 20
-86.758049
 30
0.0
 40
0.5
 50
270.0
 51
0.0
  0
ARC
  5
186
  8
0
  6
CONTINUOUS
 62
     3
 10
-26.380539
 20
-86.758049
 30
0.0
 40
0.5
 50
180.00001
 51
270.0
  0
ARC
  5
187
  8
0
  6
CONTINUOUS
 62
     3
 10
-17.230537
 20
-74.758049
 30
0.0
 40
0.5
 50
270.0
 51
0.0
  0
ARC
  5
188
  8
0
  6
CONTINUOUS
 62
     3
 10
-27.030539
 20
-74.758049
 30
0.0
 40
0.5
 50
180.00001
 51
270.0
  0
ARC
  5
189
  8
0
  6
CONTINUOUS
 62
     3
 10
263.12189
 20
-110.58929
 30
0.0
 40
0.75
 50
180.00001
 51
225.0
  0
ARC
  5
18A
  8
0
  6
CONTINUOUS
 62
     3
 10
264.24689
 20
-113.83561
 30
0.0
 40
0.75
 50
0.0
 51
45.000001
  0
ARC
  5
18B
  8
0
  6
CONTINUOUS
 62
     3
 10
264.92188
 20
-117.15273
 30
0.0
 40
0.075
 50
270.0
 51
0.0
  0
ARC
  5
18C
  8
0
  6
CONTINUOUS
 62
     3
 10
252.24689
 20
-113.83561
 30
0.0
 40
0.75
 50
135.0
 51
180.00001
  0
ARC
  5
18D
  8
0
  6
CONTINUOUS
 62
     3
 10
253.37189
 20
-110.58929
 30
0.0
 40
0.75
 50
315.0
 51
0.0
  0
ARC
  5
18E
  8
0
  6
CONTINUOUS
 62
     3
 10
253.74689
 20
-110.74462
 30
0.0
 40
0.375
 50
315.0
 51
0.0
  0
ARC
  5
18F
  8
0
  6
CONTINUOUS
 62
     3
 10
251.57188
 20
-117.15273
 30
0.0
 40
0.075
 50
180.00001
 51
270.0
  0
ARC
  5
190
  8
0
  6
CONTINUOUS
 62
     3
 10
254.87189
 20
-102.51713
 30
0.0
 40
0.75
 50
90.000003
 51
180.00001
  0
ARC
  5
191
  8
0
  6
CONTINUOUS
 62
     3
 10
261.62189
 20
-102.51713
 30
0.0
 40
0.75
 50
0.0
 51
90.000003
  0
ARC
  5
192
  8
0
  6
CONTINUOUS
 62
     4
 10
260.10672
 20
-91.367424
 30
0.0
 40
3.5
 50
239.99998
 51
299.99998
  0
ARC
  5
193
  8
0
  6
CONTINUOUS
 62
     4
 10
260.10672
 20
-99.606384
 30
0.0
 40
3.5
 50
59.999988
 51
119.99999
  0
ARC
  5
194
  8
0
  6
CONTINUOUS
 62
     4
 10
260.10672
 20
-93.544205
 30
0.0
 40
3.5
 50
239.99998
 51
299.99998
  0
ARC
  5
195
  8
0
  6
CONTINUOUS
 62
     4
 10
256.60672
 20
-99.606384
 30
0.0
 40
3.5
 50
59.999988
 51
119.99999
  0
ARC
  5
196
  8
0
  6
CONTINUOUS
 62
     4
 10
256.60672
 20
-91.367424
 30
0.0
 40
3.5
 50
239.99998
 51
299.99998
  0
ARC
  5
197
  8
0
  6
CONTINUOUS
 62
     4
 10
256.60672
 20
-97.429604
 30
0.0
 40
3.5
 50
59.999988
 51
119.99999
  0
ARC
  5
198
  8
0
  6
CONTINUOUS
 62
     4
 10
259.98172
 20
-88.344215
 30
0.0
 40
0.85
 50
240.0
 51
300.0
  0
ARC
  5
199
  8
0
  6
CONTINUOUS
 62
     4
 10
259.98172
 20
-89.81646
 30
0.0
 40
0.85
 50
60.000002
 51
120.0
  0
ARC
  5
19A
  8
0
  6
CONTINUOUS
 62
     3
 10
267.85672
 20
-86.258049
 30
0.0
 40
0.5
 50
270.0
 51
0.0
  0
ARC
  5
19B
  8
0
  6
CONTINUOUS
 62
     3
 10
267.85672
 20
-85.258049
 30
0.0
 40
0.5
 50
270.0
 51
0.0
  0
ARC
  5
19C
  8
0
  6
CONTINUOUS
 62
     4
 10
264.93173
 20
-88.355782
 30
0.0
 40
0.85
 50
240.0
 51
300.0
  0
ARC
  5
19D
  8
0
  6
CONTINUOUS
 62
     4
 10
264.08173
 20
-88.355782
 30
0.0
 40
0.85
 50
240.0
 51
300.0
  0
ARC
  5
19E
  8
0
  6
CONTINUOUS
 62
     4
 10
264.08173
 20
-89.828026
 30
0.0
 40
0.85
 50
60.000002
 51
120.0
  0
ARC
  5
19F
  8
0
  6
CONTINUOUS
 62
     4
 10
260.83173
 20
-88.344215
 30
0.0
 40
0.85
 50
240.0
 51
300.0
  0
ARC
  5
1A0
  8
0
  6
CONTINUOUS
 62
     3
 10
270.35672
 20
-74.258049
 30
0.0
 40
0.5
 50
270.0
 51
0.0
  0
ARC
  5
1A1
  8
0
  6
CONTINUOUS
 62
     3
 10
246.35672
 20
-74.258049
 30
0.0
 40
0.5
 50
180.00001
 51
270.0
  0
ARC
  5
1A2
  8
0
  6
CONTINUOUS
 62
     3
 10
248.85672
 20
-86.258049
 30
0.0
 40
0.5
 50
180.00001
 51
270.0
  0
ARC
  5
1A3
  8
0
  6
CONTINUOUS
 62
     3
 10
248.85672
 20
-85.258049
 30
0.0
 40
0.5
 50
180.00001
 51
270.0
  0
ARC
  5
1A4
  8
0
  6
CONTINUOUS
 62
     4
 10
251.78172
 20
-88.355782
 30
0.0
 40
0.85
 50
240.0
 51
300.0
  0
ARC
  5
1A5
  8
0
  6
CONTINUOUS
 62
     4
 10
252.63171
 20
-89.828026
 30
0.0
 40
0.85
 50
60.000002
 51
120.0
  0
ARC
  5
1A6
  8
0
  6
CONTINUOUS
 62
     4
 10
252.63171
 20
-88.355782
 30
0.0
 40
0.85
 50
240.0
 51
300.0
  0
ARC
  5
1A7
  8
0
  6
CONTINUOUS
 62
     4
 10
256.73172
 20
-89.81646
 30
0.0
 40
0.85
 50
60.000002
 51
120.0
  0
ARC
  5
1A8
  8
0
  6
CONTINUOUS
 62
     4
 10
256.73172
 20
-88.344215
 30
0.0
 40
0.85
 50
240.0
 51
300.0
  0
ARC
  5
1A9
  8
0
  6
CONTINUOUS
 62
     4
 10
255.88171
 20
-88.344215
 30
0.0
 40
0.85
 50
240.0
 51
300.0
  0
ARC
  5
1AA
  8
0
  6
CONTINUOUS
 62
     3
 10
-76.223007
 20
18.841949
 30
0.0
 40
1.0
 50
179.19658
 51
270.0
  0
ARC
  5
1AB
  8
0
  6
CONTINUOUS
 62
     3
 10
-72.210571
 20
16.847412
 30
0.0
 40
0.5
 50
90.000003
 51
180.00001
  0
ARC
  5
1AC
  8
0
  6
CONTINUOUS
 62
     3
 10
-76.331963
 20
9.641949
 30
0.0
 40
1.0
 50
90.000003
 51
179.44631
  0
ARC
  5
1AD
  8
0
  6
CONTINUOUS
 62
     3
 10
-72.210571
 20
11.847412
 30
0.0
 40
0.5
 50
180.00001
 51
270.0
  0
ARC
  5
1AE
  8
0
  6
CONTINUOUS
 62
     3
 10
-73.459282
 20
16.097412
 30
0.0
 40
1.0
 50
90.000003
 51
163.04226
  0
ARC
  5
1AF
  8
0
  6
CONTINUOUS
 62
     3
 10
-73.459282
 20
12.597412
 30
0.0
 40
1.0
 50
196.95781
 51
270.0
  0
ARC
  5
1B0
  8
0
  6
CONTINUOUS
 62
     3
 10
-67.720161
 20
14.347413
 30
0.0
 40
7.0
 50
163.04226
 51
196.95775
  0
ARC
  5
1B1
  8
0
  6
CONTINUOUS
 62
     3
 10
-72.210571
 20
-33.363514
 30
0.0
 40
0.5
 50
90.000003
 51
180.00001
  0
ARC
  5
1B2
  8
0
  6
CONTINUOUS
 62
     3
 10
-72.210571
 20
-38.363514
 30
0.0
 40
0.5
 50
180.00001
 51
270.0
  0
ARC
  5
1B3
  8
0
  6
CONTINUOUS
 62
     3
 10
-73.459282
 20
-37.613514
 30
0.0
 40
1.0
 50
196.95774
 51
270.0
  0
ARC
  5
1B4
  8
0
  6
CONTINUOUS
 62
     3
 10
-73.459282
 20
-34.113514
 30
0.0
 40
1.0
 50
90.000003
 51
163.04219
  0
ARC
  5
1B5
  8
0
  6
CONTINUOUS
 62
     3
 10
-67.720161
 20
-35.863518
 30
0.0
 40
7.0
 50
163.04224
 51
196.95774
  0
ARC
  5
1B6
  8
0
  6
CONTINUOUS
 62
     3
 10
-76.223007
 20
-40.358051
 30
0.0
 40
1.0
 50
90.000003
 51
180.80341
  0
ARC
  5
1B7
  8
0
  6
CONTINUOUS
 62
     3
 10
-76.331963
 20
-31.158051
 30
0.0
 40
1.0
 50
180.55369
 51
270.0
  0
ARC
  5
1B8
  8
0
  6
CONTINUOUS
 62
     3
 10
-241.21857
 20
-81.238434
 30
0.0
 40
1.0
 50
189.99991
 51
270.0
  0
ARC
  5
1B9
  8
0
  6
CONTINUOUS
 62
     3
 10
-216.42331
 20
-81.238434
 30
0.0
 40
1.0
 50
270.0
 51
349.99987
  0
ARC
  5
1BA
  8
0
  6
CONTINUOUS
 62
     3
 10
-211.30708
 20
-75.258049
 30
0.0
 40
3.0
 50
90.000003
 51
169.99987
  0
ARC
  5
1BB
  8
0
  6
CONTINUOUS
 62
     3
 10
-286.80737
 20
14.241949
 30
0.0
 40
3.6
 50
270.0
 51
90.000003
  0
CIRCLE
  5
1BC
  8
0
  6
CONTINUOUS
 62
     3
 10
-286.80737
 20
14.241949
 30
0.0
 40
2.749999
  0
ARC
  5
1BD
  8
0
  6
CONTINUOUS
 62
     3
 10
-288.89023
 20
9.641949
 30
0.0
 40
1.0
 50
90.000003
 51
177.65699
  0
ARC
  5
1BE
  8
0
  6
CONTINUOUS
 62
     3
 10
-288.42868
 20
18.841949
 30
0.0
 40
1.0
 50
176.59929
 51
270.0
  0
ARC
  5
1BF
  8
0
  6
CONTINUOUS
 62
     3
 10
-288.42868
 20
-40.358051
 30
0.0
 40
1.0
 50
90.000003
 51
183.4007
  0
ARC
  5
1C0
  8
0
  6
CONTINUOUS
 62
     3
 10
-288.89023
 20
-31.158051
 30
0.0
 40
1.0
 50
182.34301
 51
270.0
  0
ARC
  5
1C1
  8
0
  6
CONTINUOUS
 62
     3
 10
-286.80737
 20
-35.758053
 30
0.0
 40
3.6
 50
270.0
 51
90.000003
  0
CIRCLE
  5
1C2
  8
0
  6
CONTINUOUS
 62
     3
 10
-286.80737
 20
-35.758053
 30
0.0
 40
2.749999
  0
ARC
  5
1C3
  8
0
  6
CONTINUOUS
 62
     3
 10
-170.80739
 20
14.241949
 30
0.0
 40
3.6
 50
90.000003
 51
270.0
  0
CIRCLE
  5
1C4
  8
0
  6
CONTINUOUS
 62
     3
 10
-170.80739
 20
14.241949
 30
0.0
 40
2.749999
  0
ARC
  5
1C5
  8
0
  6
CONTINUOUS
 62
     3
 10
-168.72455
 20
9.641949
 30
0.0
 40
1.0
 50
2.343005
 51
90.000003
  0
ARC
  5
1C6
  8
0
  6
CONTINUOUS
 62
     3
 10
-169.18607
 20
18.841949
 30
0.0
 40
1.0
 50
270.0
 51
3.400704
  0
ARC
  5
1C7
  8
0
  6
CONTINUOUS
 62
     3
 10
-169.18607
 20
-40.358051
 30
0.0
 40
1.0
 50
356.5993
 51
90.000003
  0
ARC
  5
1C8
  8
0
  6
CONTINUOUS
 62
     3
 10
-168.72455
 20
-31.158051
 30
0.0
 40
1.0
 50
270.0
 51
357.65699
  0
CIRCLE
  5
1C9
  8
0
  6
CONTINUOUS
 62
     3
 10
-170.80739
 20
-35.758053
 30
0.0
 40
2.749999
  0
ARC
  5
1CA
  8
0
  6
CONTINUOUS
 62
     3
 10
-170.80739
 20
-35.758053
 30
0.0
 40
3.6
 50
90.000003
 51
270.0
  0
CIRCLE
  5
1CB
  8
0
  6
CONTINUOUS
 62
     3
 10
-203.80739
 20
-68.758049
 30
0.0
 40
2.749999
  0
ARC
  5
1CC
  8
0
  6
CONTINUOUS
 62
     3
 10
-199.20738
 20
-71.258049
 30
0.0
 40
1.0
 50
180.00001
 51
270.0
  0
ARC
  5
1CD
  8
0
  6
CONTINUOUS
 62
     3
 10
-208.40738
 20
-71.258049
 30
0.0
 40
1.0
 50
270.0
 51
0.0
  0
ARC
  5
1CE
  8
0
  6
CONTINUOUS
 62
     3
 10
-203.80739
 20
-68.758049
 30
0.0
 40
3.6
 50
0.0
 51
180.00001
  0
CIRCLE
  5
1CF
  8
0
  6
CONTINUOUS
 62
     3
 10
-253.80739
 20
-68.758049
 30
0.0
 40
2.749999
  0
ARC
  5
1D0
  8
0
  6
CONTINUOUS
 62
     3
 10
-253.80739
 20
-68.758049
 30
0.0
 40
3.6
 50
0.0
 51
180.00001
  0
ARC
  5
1D1
  8
0
  6
CONTINUOUS
 62
     3
 10
-249.20738
 20
-71.258049
 30
0.0
 40
1.0
 50
180.00001
 51
270.0
  0
ARC
  5
1D2
  8
0
  6
CONTINUOUS
 62
     3
 10
-258.40738
 20
-71.258049
 30
0.0
 40
1.0
 50
270.0
 51
0.0
  0
ARC
  5
1D3
  8
0
  6
CONTINUOUS
 62
     3
 10
-249.20738
 20
49.741947
 30
0.0
 40
1.0
 50
90.000003
 51
180.00001
  0
ARC
  5
1D4
  8
0
  6
CONTINUOUS
 62
     3
 10
-258.40738
 20
49.741947
 30
0.0
 40
1.0
 50
0.0
 51
90.000003
  0
ARC
  5
1D5
  8
0
  6
CONTINUOUS
 62
     3
 10
-253.80739
 20
47.241947
 30
0.0
 40
3.6
 50
180.00001
 51
0.00001
  0
ARC
  5
1D6
  8
0
  6
CONTINUOUS
 62
     3
 10
-203.80739
 20
47.241947
 30
0.0
 40
3.6
 50
180.00001
 51
0.00001
  0
ARC
  5
1D7
  8
0
  6
CONTINUOUS
 62
     4
 10
-64.180542
 20
-91.04451
 30
0.0
 40
3.5
 50
59.999988
 51
119.99999
  0
ARC
  5
1D8
  8
0
  6
CONTINUOUS
 62
     4
 10
-64.180534
 20
-84.98233
 30
0.0
 40
3.5
 50
239.99998
 51
299.99998
  0
ARC
  5
1D9
  8
0
  6
CONTINUOUS
 62
     4
 10
-60.680538
 20
-84.98233
 30
0.0
 40
3.5
 50
239.99998
 51
299.99998
  0
ARC
  5
1DA
  8
0
  6
CONTINUOUS
 62
     4
 10
-64.180534
 20
-93.542831
 30
0.0
 40
3.5
 50
59.999988
 51
119.99999
  0
ARC
  5
1DB
  8
0
  6
CONTINUOUS
 62
     4
 10
-60.680534
 20
-87.480652
 30
0.0
 40
3.5
 50
239.99998
 51
299.99998
  0
ARC
  5
1DC
  8
0
  6
CONTINUOUS
 62
     4
 10
-60.680538
 20
-93.542831
 30
0.0
 40
3.5
 50
59.999988
 51
119.99999
  0
ARC
  5
1DD
  8
0
  6
CONTINUOUS
 62
     3
 10
-57.430538
 20
-81.558052
 30
0.0
 40
1.0
 50
270.0
 51
0.0
  0
ARC
  5
1DE
  8
0
  6
CONTINUOUS
 62
     3
 10
-55.430538
 20
-73.758049
 30
0.0
 40
1.0
 50
90.000003
 51
180.00001
  0
ARC
  5
1DF
  8
0
  6
CONTINUOUS
 62
     3
 10
-75.549019
 20
50.241947
 30
0.0
 40
1.0
 50
90.000003
 51
178.34413
  0
ARC
  5
1E0
  8
0
  6
CONTINUOUS
 62
     3
 10
-75.242935
 20
-81.558052
 30
0.0
 40
1.0
 50
181.92198
 51
270.0
  0
ARC
  5
1E1
  8
0
  6
CONTINUOUS
 62
     3
 10
2034.5695
 20
-10.758051
 30
0.0
 40
2112.0
 50
178.34413
 51
181.92198
  0
ARC
  5
1E2
  8
0
  6
CONTINUOUS
 62
     3
 10
-268.30737
 20
-69.258049
 30
0.0
 40
3.0
 50
180.00001
 51
270.0
  0
ARC
  5
1E3
  8
0
  6
CONTINUOUS
 62
     3
 10
-208.40738
 20
49.741947
 30
0.0
 40
1.0
 50
0.0
 51
90.000003
  0
ARC
  5
1E4
  8
0
  6
CONTINUOUS
 62
     3
 10
-199.20738
 20
49.741947
 30
0.0
 40
1.0
 50
90.000003
 51
180.00001
  0
CIRCLE
  5
1E5
  8
0
  6
CONTINUOUS
 62
     3
 10
-203.80739
 20
47.241947
 30
0.0
 40
2.749999
  0
CIRCLE
  5
1E6
  8
0
  6
CONTINUOUS
 62
     3
 10
-253.80739
 20
47.241947
 30
0.0
 40
2.749999
  0
CIRCLE
  5
1E7
  8
0
  6
CONTINUOUS
 62
     3
 10
-236.29338
 20
-77.138443
 30
0.0
 40
3.5
  0
CIRCLE
  5
1E8
  8
0
  6
CONTINUOUS
 62
     3
 10
-221.32092
 20
-77.138443
 30
0.0
 40
3.5
  0
ARC
  5
1E9
  8
0
  6
CONTINUOUS
 62
     3
 10
-246.33823
 20
-75.238426
 30
0.0
 40
3.0
 50
9.99969
 51
90.000003
  0
CIRCLE
  5
1EA
  8
0
  6
CONTINUOUS
 62
     3
 10
-236.29338
 20
-77.138443
 30
0.0
 40
2.749999
  0
ARC
  5
1EB
  8
0
  6
CONTINUOUS
 62
     4
 10
-227.07094
 20
-88.762733
 30
0.0
 40
3.5
 50
239.99998
 51
299.99998
  0
CIRCLE
  5
1EC
  8
0
  6
CONTINUOUS
 62
     3
 10
-221.32092
 20
-77.138443
 30
0.0
 40
2.749999
  0
ARC
  5
1ED
  8
0
  6
CONTINUOUS
 62
     4
 10
-230.57094
 20
-94.824905
 30
0.0
 40
3.5
 50
59.999988
 51
119.99999
  0
ARC
  5
1EE
  8
0
  6
CONTINUOUS
 62
     4
 10
-230.57094
 20
-88.762726
 30
0.0
 40
3.5
 50
239.99998
 51
299.99998
  0
ARC
  5
1EF
  8
0
  6
CONTINUOUS
 62
     3
 10
-222.13239
 20
-111.05273
 30
0.0
 40
0.075
 50
270.0
 51
0.0
  0
ARC
  5
1F0
  8
0
  6
CONTINUOUS
 62
     3
 10
-232.18239
 20
-96.41713
 30
0.0
 40
0.75
 50
90.000003
 51
180.00001
  0
ARC
  5
1F1
  8
0
  6
CONTINUOUS
 62
     3
 10
-233.68239
 20
-104.4893
 30
0.0
 40
0.75
 50
315.0
 51
0.0
  0
ARC
  5
1F2
  8
0
  6
CONTINUOUS
 62
     3
 10
-234.80739
 20
-107.73562
 30
0.0
 40
0.75
 50
135.0
 51
180.00001
  0
ARC
  5
1F3
  8
0
  6
CONTINUOUS
 62
     3
 10
-222.80739
 20
-107.73562
 30
0.0
 40
0.75
 50
0.0
 51
45.000001
  0
ARC
  5
1F4
  8
0
  6
CONTINUOUS
 62
     3
 10
-223.93239
 20
-104.4893
 30
0.0
 40
0.75
 50
180.00001
 51
225.0
  0
ARC
  5
1F5
  8
0
  6
CONTINUOUS
 62
     3
 10
-225.43239
 20
-96.41713
 30
0.0
 40
0.75
 50
0.0
 51
90.000003
  0
ARC
  5
1F6
  8
0
  6
CONTINUOUS
 62
     3
 10
-233.30739
 20
-104.64462
 30
0.0
 40
0.375
 50
315.0
 51
0.0
  0
ARC
  5
1F7
  8
0
  6
CONTINUOUS
 62
     4
 10
-230.55739
 20
-97.14283
 30
0.0
 40
3.5
 50
59.999988
 51
119.99999
  0
ARC
  5
1F8
  8
0
  6
CONTINUOUS
 62
     4
 10
-227.05739
 20
-91.080658
 30
0.0
 40
3.5
 50
239.99998
 51
299.99998
  0
ARC
  5
1F9
  8
0
  6
CONTINUOUS
 62
     4
 10
-227.05739
 20
-97.14283
 30
0.0
 40
3.5
 50
59.999988
 51
119.99999
  0
ARC
  5
1FA
  8
0
  6
CONTINUOUS
 62
     3
 10
-228.80739
 20
-10.758051
 30
0.0
 40
82.5
 50
131.80185
 51
138.19815
  0
ARC
  5
1FB
  8
0
  6
CONTINUOUS
 62
     3
 10
-228.80739
 20
-10.758051
 30
0.0
 40
82.5
 50
221.80185
 51
228.19815
  0
ARC
  5
1FC
  8
0
  6
CONTINUOUS
 62
     3
 10
-228.80739
 20
-10.758051
 30
0.0
 40
82.5
 50
311.80184
 51
318.19816
  0
ARC
  5
1FD
  8
0
  6
CONTINUOUS
 62
     3
 10
-228.80739
 20
-10.758051
 30
0.0
 40
82.5
 50
41.801844
 51
48.198155
  0
ARC
  5
1FE
  8
0
  6
CONTINUOUS
 62
     3
 10
-174.30739
 20
43.741947
 30
0.0
 40
12.0
 50
180.00001
 51
225.0
  0
ARC
  5
1FF
  8
0
  6
CONTINUOUS
 62
     3
 10
-174.30739
 20
-65.258049
 30
0.0
 40
12.0
 50
90.000003
 51
180.00001
  0
ARC
  5
200
  8
0
  6
CONTINUOUS
 62
     3
 10
-283.30737
 20
-65.258049
 30
0.0
 40
12.0
 50
0.0
 51
90.000003
  0
ARC
  5
201
  8
0
  6
CONTINUOUS
 62
     3
 10
-283.30737
 20
43.741947
 30
0.0
 40
12.0
 50
270.0
 51
0.0
  0
ARC
  5
202
  8
0
  6
CENTER
 62
     4
 10
-228.80739
 20
-10.758051
 30
0.0
 40
72.5
 50
39.661638
 51
50.009607
  0
CIRCLE
  5
203
  8
0
  6
CONTINUOUS
 62
     3
 10
-177.54214
 20
40.507191
 30
0.0
 40
4.5
  0
CIRCLE
  5
204
  8
0
  6
CONTINUOUS
 62
     3
 10
-280.07263
 20
40.507191
 30
0.0
 40
4.5
  0
CIRCLE
  5
205
  8
0
  6
CONTINUOUS
 62
     3
 10
-280.07263
 20
-62.023293
 30
0.0
 40
4.5
  0
CIRCLE
  5
206
  8
0
  6
CONTINUOUS
 62
     3
 10
-177.54214
 20
-62.023293
 30
0.0
 40
4.5
  0
ARC
  5
207
  8
0
  6
CENTER
 62
     4
 10
-228.80739
 20
-10.758051
 30
0.0
 40
72.5
 50
308.34353
 51
321.41591
  0
ARC
  5
208
  8
0
  6
CENTER
 62
     4
 10
-228.80739
 20
-10.758051
 30
0.0
 40
72.5
 50
219.39084
 51
230.9321
  0
ARC
  5
209
  8
0
  6
CENTER
 62
     4
 10
-228.80739
 20
-10.758051
 30
0.0
 40
72.5
 50
128.48684
 51
141.80807
  0
ARC
  5
20A
  8
0
  6
CONTINUOUS
 62
     3
 10
-268.30737
 20
47.741947
 30
0.0
 40
3.0
 50
90.000003
 51
180.00001
  0
ARC
  5
20B
  8
0
  6
CONTINUOUS
 62
     3
 10
209.69261
 20
-10.758051
 30
0.0
 40
500.0
 50
175.44151
 51
184.5585
  0
ARC
  5
20C
  8
0
  6
CONTINUOUS
 62
     3
 10
-285.73523
 20
28.741949
 30
0.0
 40
3.0
 50
90.000003
 51
175.44151
  0
ARC
  5
20D
  8
0
  6
CONTINUOUS
 62
     3
 10
-285.73523
 20
-50.258053
 30
0.0
 40
3.0
 50
184.55849
 51
270.0
  0
ARC
  5
20E
  8
0
  6
CONTINUOUS
 62
     3
 10
-189.30739
 20
47.741947
 30
0.0
 40
3.0
 50
0.0
 51
90.000003
  0
ARC
  5
20F
  8
0
  6
CONTINUOUS
 62
     3
 10
-171.87953
 20
28.741949
 30
0.0
 40
3.0
 50
4.558496
 51
90.000003
  0
ARC
  5
210
  8
0
  6
CONTINUOUS
 62
     3
 10
-667.30737
 20
-10.758051
 30
0.0
 40
500.0
 50
355.4415
 51
4.558496
  0
ARC
  5
211
  8
0
  6
CONTINUOUS
 62
     3
 10
-171.87953
 20
-50.258053
 30
0.0
 40
3.0
 50
270.0
 51
355.4415
  0
ARC
  5
212
  8
0
  6
CONTINUOUS
 62
     3
 10
-174.30739
 20
43.741947
 30
0.0
 40
12.0
 50
180.00001
 51
270.0
  0
ARC
  5
213
  8
0
  6
CONTINUOUS
 62
     3
 10
-189.30739
 20
-69.258049
 30
0.0
 40
3.0
 50
270.0
 51
0.0
  0
CIRCLE
  5
214
  8
0
  6
CONTINUOUS
 62
     3
 10
258.35672
 20
-10.758051
 30
0.0
 40
55.0
  0
CIRCLE
  5
215
  8
0
  6
CONTINUOUS
 62
     3
 10
258.35672
 20
-10.758051
 30
0.0
 40
40.0
  0
CIRCLE
  5
216
  8
0
  6
CONTINUOUS
 62
     4
 10
293.95673
 20
-64.358047
 30
0.0
 40
3.0
  0
CIRCLE
  5
217
  8
0
  6
CONTINUOUS
 62
     3
 10
293.95673
 20
-64.358047
 30
0.0
 40
2.5
  0
CIRCLE
  5
218
  8
0
  6
CONTINUOUS
 62
     4
 10
311.95673
 20
24.841949
 30
0.0
 40
3.0
  0
CIRCLE
  5
219
  8
0
  6
CONTINUOUS
 62
     3
 10
311.95673
 20
24.841949
 30
0.0
 40
2.5
  0
CIRCLE
  5
21A
  8
0
  6
CONTINUOUS
 62
     4
 10
222.75671
 20
42.841949
 30
0.0
 40
3.0
  0
CIRCLE
  5
21B
  8
0
  6
CONTINUOUS
 62
     3
 10
222.75671
 20
42.841949
 30
0.0
 40
2.5
  0
CIRCLE
  5
21C
  8
0
  6
CONTINUOUS
 62
     3
 10
204.75671
 20
-46.358051
 30
0.0
 40
2.5
  0
CIRCLE
  5
21D
  8
0
  6
CONTINUOUS
 62
     4
 10
204.75671
 20
-46.358051
 30
0.0
 40
3.0
  0
ARC
  5
21E
  8
0
  6
CONTINUOUS
 62
     3
 10
258.35672
 20
-10.758051
 30
0.0
 40
82.5
 50
131.80185
 51
138.19815
  0
ARC
  5
21F
  8
0
  6
CONTINUOUS
 62
     3
 10
258.35672
 20
-10.758051
 30
0.0
 40
82.5
 50
221.80185
 51
228.19815
  0
ARC
  5
220
  8
0
  6
CONTINUOUS
 62
     3
 10
258.35672
 20
-10.758051
 30
0.0
 40
82.5
 50
311.80184
 51
318.19816
  0
ARC
  5
221
  8
0
  6
CONTINUOUS
 62
     3
 10
258.35672
 20
-10.758051
 30
0.0
 40
82.5
 50
41.801844
 51
48.198155
  0
ARC
  5
222
  8
0
  6
CENTER
 62
     4
 10
258.35672
 20
-10.758051
 30
0.0
 40
72.5
 50
39.661638
 51
50.009607
  0
CIRCLE
  5
223
  8
0
  6
CONTINUOUS
 62
     3
 10
309.62195
 20
40.507191
 30
0.0
 40
4.5
  0
CIRCLE
  5
224
  8
0
  6
CONTINUOUS
 62
     3
 10
207.09148
 20
40.507191
 30
0.0
 40
4.5
  0
CIRCLE
  5
225
  8
0
  6
CONTINUOUS
 62
     3
 10
207.09148
 20
-62.023293
 30
0.0
 40
4.5
  0
CIRCLE
  5
226
  8
0
  6
CONTINUOUS
 62
     3
 10
309.62195
 20
-62.023293
 30
0.0
 40
4.5
  0
ARC
  5
227
  8
0
  6
CENTER
 62
     4
 10
258.35672
 20
-10.758051
 30
0.0
 40
72.5
 50
308.34353
 51
321.41591
  0
ARC
  5
228
  8
0
  6
CENTER
 62
     4
 10
258.35672
 20
-10.758051
 30
0.0
 40
72.5
 50
219.39084
 51
230.9321
  0
ARC
  5
229
  8
0
  6
CENTER
 62
     4
 10
258.35672
 20
-10.758051
 30
0.0
 40
72.5
 50
128.48684
 51
141.80807
  0
ARC
  5
22A
  8
0
  6
CONTINUOUS
 62
     3
 10
-17.580538
 20
-85.658051
 30
0.0
 40
0.6
 50
270.0
 51
0.0
  0
ARC
  5
22B
  8
0
  6
CONTINUOUS
 62
     3
 10
-26.280539
 20
-85.658051
 30
0.0
 40
0.6
 50
180.00001
 51
270.0
  0
TEXT
  5
22C
  8
0
  6
CONTINUOUS
 62
     7
 10
-310.43982
 20
205.90627
 30
0.0
 40
8.466667
  1
HC-UF73B
 41
1.0
  0
ENDSEC
  0
EOF
