  0
SECTION
  2
HEADER
  9
$ACADVER
  1
AC1009
  9
$INSBASE
 10
0.0
 20
0.0
 30
0.0
  9
$EXTMIN
 10
59.299622628953777
 20
89.789749941543846
 30
-0.0015258207003583
  9
$EXTMAX
 10
360.70037932682362
 20
207.21025144147009
 30
0.0000000349246037
  9
$LIMMIN
 10
0.0
 20
0.0
  9
$LIMMAX
 10
420.0
 20
297.0
  9
$ORTHOMODE
 70
     0
  9
$REGENMODE
 70
     1
  9
$FILLMODE
 70
     1
  9
$QTEXTMODE
 70
     0
  9
$MIRRTEXT
 70
     1
  9
$DRAGMODE
 70
     2
  9
$LTSCALE
 40
1.0
  9
$OSMODE
 70
    37
  9
$ATTMODE
 70
     1
  9
$TEXTSIZE
 40
0.2
  9
$TRACEWID
 40
0.05
  9
$TEXTSTYLE
  7
STANDARD
  9
$CLAYER
  8
0
  9
$CELTYPE
  6
CONTINUOUS
  9
$CECOLOR
 62
   256
  9
$DIMSCALE
 40
1.0
  9
$DIMASZ
 40
0.18
  9
$DIMEXO
 40
0.0625
  9
$DIMDLI
 40
0.38
  9
$DIMRND
 40
0.0
  9
$DIMDLE
 40
0.0
  9
$DIMEXE
 40
0.18
  9
$DIMTP
 40
0.0
  9
$DIMTM
 40
0.0
  9
$DIMTXT
 40
0.18
  9
$DIMCEN
 40
0.09
  9
$DIMTSZ
 40
0.0
  9
$DIMTOL
 70
     0
  9
$DIMLIM
 70
     0
  9
$DIMTIH
 70
     1
  9
$DIMTOH
 70
     1
  9
$DIMSE1
 70
     0
  9
$DIMSE2
 70
     0
  9
$DIMTAD
 70
     0
  9
$DIMZIN
 70
     0
  9
$DIMBLK
  1

  9
$DIMASO
 70
     1
  9
$DIMSHO
 70
     1
  9
$DIMPOST
  1

  9
$DIMAPOST
  1

  9
$DIMALT
 70
     0
  9
$DIMALTD
 70
     2
  9
$DIMALTF
 40
25.399999999999999
  9
$DIMLFAC
 40
1.0
  9
$DIMTOFL
 70
     0
  9
$DIMTVP
 40
0.0
  9
$DIMTIX
 70
     0
  9
$DIMSOXD
 70
     0
  9
$DIMSAH
 70
     0
  9
$DIMBLK1
  1

  9
$DIMBLK2
  1

  9
$DIMSTYLE
  2
STANDARD
  9
$DIMCLRD
 70
     0
  9
$DIMCLRE
 70
     0
  9
$DIMCLRT
 70
     0
  9
$DIMTFAC
 40
1.0
  9
$DIMGAP
 40
0.09
  9
$LUNITS
 70
     2
  9
$LUPREC
 70
     4
  9
$SKETCHINC
 40
0.1
  9
$FILLETRAD
 40
0.0
  9
$AUNITS
 70
     0
  9
$AUPREC
 70
     0
  9
$MENU
  1
.
  9
$ELEVATION
 40
0.0
  9
$PELEVATION
 40
0.0
  9
$THICKNESS
 40
0.0
  9
$LIMCHECK
 70
     0
  9
$BLIPMODE
 70
     0
  9
$CHAMFERA
 40
0.0
  9
$CHAMFERB
 40
0.0
  9
$SKPOLY
 70
     0
  9
$TDCREATE
 40
2452949.881685127
  9
$TDUPDATE
 40
2453362.5604017712
  9
$TDINDWG
 40
0.0124454282
  9
$TDUSRTIMER
 40
0.0124454282
  9
$USRTIMER
 70
     1
  9
$ANGBASE
 50
0.0
  9
$ANGDIR
 70
     0
  9
$PDMODE
 70
     0
  9
$PDSIZE
 40
0.0
  9
$PLINEWID
 40
0.0
  9
$COORDS
 70
     1
  9
$SPLFRAME
 70
     0
  9
$SPLINETYPE
 70
     6
  9
$SPLINESEGS
 70
     8
  9
$ATTDIA
 70
     0
  9
$ATTREQ
 70
     1
  9
$HANDLING
 70
 22529
  9
$HANDSEED
  5
A1A
  9
$SURFTAB1
 70
     6
  9
$SURFTAB2
 70
     6
  9
$SURFTYPE
 70
     6
  9
$SURFU
 70
     6
  9
$SURFV
 70
     6
  9
$UCSNAME
  2

  9
$UCSORG
 10
0.0
 20
0.0
 30
0.0
  9
$UCSXDIR
 10
1.0
 20
0.0
 30
0.0
  9
$UCSYDIR
 10
0.0
 20
1.0
 30
0.0
  9
$PUCSNAME
  2

  9
$PUCSORG
 10
0.0
 20
0.0
 30
0.0
  9
$PUCSXDIR
 10
1.0
 20
0.0
 30
0.0
  9
$PUCSYDIR
 10
0.0
 20
1.0
 30
0.0
  9
$USERI1
 70
     0
  9
$USERI2
 70
     0
  9
$USERI3
 70
     0
  9
$USERI4
 70
     0
  9
$USERI5
 70
     0
  9
$USERR1
 40
0.0
  9
$USERR2
 40
0.0
  9
$USERR3
 40
0.0
  9
$USERR4
 40
0.0
  9
$USERR5
 40
0.0
  9
$WORLDVIEW
 70
     1
  9
$SHADEDGE
 70
     3
  9
$SHADEDIF
 70
    70
  9
$TILEMODE
 70
     1
  9
$MAXACTVP
 70
    48
  9
$PLIMCHECK
 70
     0
  9
$PEXTMIN
 10
1.0000000000000000E+020
 20
1.0000000000000000E+020
 30
1.0000000000000000E+020
  9
$PEXTMAX
 10
-1.0000000000000000E+020
 20
-1.0000000000000000E+020
 30
-1.0000000000000000E+020
  9
$PLIMMIN
 10
0.0
 20
0.0
  9
$PLIMMAX
 10
12.0
 20
9.0
  9
$UNITMODE
 70
     0
  9
$VISRETAIN
 70
     1
  9
$PLINEGEN
 70
     0
  9
$PSLTSCALE
 70
     1
  0
ENDSEC
  0
SECTION
  2
TABLES
  0
TABLE
  2
VPORT
 70
     2
  0
VPORT
  2
*ACTIVE
 70
     0
 10
0.0
 20
0.0
 11
1.0
 21
1.0
 12
210.0000009778887
 22
148.50000069150701
 13
0.0
 23
0.0
 14
1.0
 24
1.0
 15
0.0
 25
0.0
 16
0.0
 26
0.0
 36
1.0
 17
0.0
 27
0.0
 37
0.0
 40
195.6314486187936
 41
1.548223350253807
 42
50.0
 43
0.0
 44
0.0
 50
0.0
 51
0.0
 71
     0
 72
   100
 73
     1
 74
     1
 75
     0
 76
     0
 77
     0
 78
     0
  0
ENDTAB
  0
TABLE
  2
LTYPE
 70
     3
  0
LTYPE
  2
CONTINUOUS
 70
     0
  3
ЋАђь
 72
    65
 73
     0
 40
0.0
  0
LTYPE
  2
DASHED3
 70
     0
  3
------  ------  ------  ------  
 72
    65
 73
     2
 40
5.0
 49
3.75
 49
-1.25
  0
LTYPE
  2
CENTER2
 70
     0
  3
----------  --  ----------  --  
 72
    65
 73
     4
 40
20.0
 49
12.5
 49
-2.5
 49
2.5
 49
-2.5
  0
ENDTAB
  0
TABLE
  2
LAYER
 70
     4
  0
LAYER
  2
0
 70
     0
 62
     7
  6
CONTINUOUS
  0
LAYER
  2
_0-0_0
 70
     0
 62
     7
  6
CONTINUOUS
  0
LAYER
  2
_0-1_HIDDEN
 70
     0
 62
     7
  6
CONTINUOUS
  0
LAYER
  2
_0-2_CENTER
 70
     0
 62
     7
  6
CONTINUOUS
  0
ENDTAB
  0
TABLE
  2
STYLE
 70
     1
  0
STYLE
  2
STANDARD
 70
     0
 40
0.0
 41
1.0
 50
0.0
 71
     0
 42
0.2
  3
txt
  4
bigfont.shx
  0
ENDTAB
  0
TABLE
  2
VIEW
 70
     0
  0
ENDTAB
  0
TABLE
  2
UCS
 70
     0
  0
ENDTAB
  0
TABLE
  2
APPID
 70
     1
  0
APPID
  2
ACAD
 70
     0
  0
ENDTAB
  0
TABLE
  2
DIMSTYLE
 70
     1
  0
DIMSTYLE
  2
STANDARD
 70
     0
  3

  4

  5

  6

  7

 40
1.0
 41
0.18
 42
0.0625
 43
0.38
 44
0.18
 45
0.0
 46
0.0
 47
0.0
 48
0.0
140
0.18
141
0.09
142
0.0
143
25.399999999999999
144
1.0
145
0.0
146
1.0
147
0.09
 71
     0
 72
     0
 73
     1
 74
     1
 75
     0
 76
     0
 77
     0
 78
     0
170
     0
171
     2
172
     0
173
     0
174
     0
175
     0
176
     0
177
     0
178
     0
  0
ENDTAB
  0
ENDSEC
  0
SECTION
  2
BLOCKS
  0
BLOCK
  8
0
  2
$MODEL_SPACE
 70
     0
 10
0.0
 20
0.0
 30
0.0
  3
$MODEL_SPACE
  1

  0
ENDBLK
  5
A00
  8
0
  0
BLOCK
 67
     1
  8
0
  2
$PAPER_SPACE
 70
     0
 10
0.0
 20
0.0
 30
0.0
  3
$PAPER_SPACE
  1

  0
ENDBLK
  5
9FE
 67
     1
  8
0
  0
ENDSEC
  0
SECTION
  2
ENTITIES
  0
TEXT
  5
1BF
  8
_0-0_0
 62
     7
 10
67.948013000000003
 20
198.74073000000001
 30
0.0
 40
8.4666671999999998
  1
HF-MP13B
 41
1.0454546
  0
LINE
  5
1C0
  8
_0-0_0
  6
CONTINUOUS
 62
     5
 10
249.71450999999999
 20
113.18805
 30
0.0
 11
205.56451000000001
 21
113.08693
 31
0.0
  0
LINE
  5
1C1
  8
_0-0_0
  6
CONTINUOUS
 62
     5
 10
249.71450999999999
 20
145.673
 30
0.0
 11
205.5345599999998
 21
145.79674
 31
0.0
  0
LINE
  5
1C2
  8
_0-0_0
  6
CONTINUOUS
 62
     5
 10
249.71450999999999
 20
153.18804999999981
 30
0.0
 11
205.5145099999998
 21
153.48804999999979
 31
0.0
  0
LINE
  5
1C3
  8
_0-0_0
  6
CONTINUOUS
 62
     5
 10
249.71450999999999
 20
150.8396799999999
 30
0.0
 11
247.7145099999999
 21
150.85837000000001
 31
0.0
  0
LINE
  5
1C4
  8
_0-2_CENTER
  6
CENTER2
 62
     1
 10
128.2145099999999
 20
133.18805
 30
0.0
 11
282.01875000000001
 21
133.18805
 31
0.0
  0
ARC
  5
1C5
  8
_0-0_0
  6
CONTINUOUS
 62
     5
 10
84.342446999999979
 20
133.18805
 30
0.0
 40
20.5
 50
351.99004999999983
 51
8.0099427999999993
  0
LINE
  5
1C6
  8
_0-2_CENTER
  6
CENTER2
 62
     1
 10
84.342446999999979
 20
158.21601000000001
 30
0.0
 11
84.342446999999979
 21
90.995174000000006
 31
0.0
  0
ARC
  5
1C7
  8
_0-0_0
  6
CONTINUOUS
 62
     5
 10
84.342446999999979
 20
133.18805
 30
0.0
 40
20.5
 50
171.99005
 51
188.0099399999998
  0
LINE
  5
1C8
  8
_0-1_HIDDEN
  6
DASHED3
 62
     6
 10
91.641658999999962
 20
110.18805
 30
0.0
 11
84.458534
 21
110.18805
 31
0.0
  0
LINE
  5
1C9
  8
_0-0_0
  6
CONTINUOUS
 62
     5
 10
76.086334999999977
 20
108.98805
 30
0.0
 11
84.975530000000006
 21
108.98805
 31
0.0
  0
LINE
  5
1CA
  8
_0-0_0
  6
CONTINUOUS
 62
     5
 10
88.858918000000017
 20
105.68805
 30
0.0
 11
70.025976
 21
105.68805
 31
0.0
  0
LINE
  5
1CB
  8
_0-0_0
  6
CONTINUOUS
 62
     5
 10
83.438939000000005
 20
104.38804999999979
 30
0.0
 11
98.100747000000013
 21
104.38804999999979
 31
0.0
  0
LINE
  5
1CC
  8
_0-0_0
  6
CONTINUOUS
 62
     5
 10
67.243234999999999
 20
110.18805
 30
0.0
 11
91.641658999999962
 21
110.18805
 31
0.0
  0
LINE
  5
1CD
  8
_0-0_0
  6
CONTINUOUS
 62
     5
 10
92.942447000000001
 20
111.18805
 30
0.0
 11
65.942447000000001
 21
111.18805
 31
0.0
  0
LINE
  5
1CE
  8
_0-2_CENTER
  6
CENTER2
 62
     1
 10
59.311211
 20
133.18805
 30
0.0
 11
108.7073699999999
 21
133.18805
 31
0.0
  0
LINE
  5
1CF
  8
_0-2_CENTER
  6
CENTER2
 62
     1
 10
78.542446999999981
 20
113.6880899999999
 30
0.0
 11
78.542446999999981
 21
91.371437000000014
 31
0.0
  0
LINE
  5
1D0
  8
_0-2_CENTER
  6
CENTER2
 62
     1
 10
79.442447000000001
 20
113.6880899999999
 30
0.0
 11
79.442447000000001
 21
91.371437000000014
 31
0.0
  0
LINE
  5
1D1
  8
_0-0_0
  6
CONTINUOUS
 62
     5
 10
65.742446999999999
 20
111.38805000000001
 30
0.0
 11
65.742446999999999
 21
113.18805
 31
0.0
  0
LINE
  5
1D2
  8
_0-1_HIDDEN
  6
DASHED3
 62
     6
 10
67.243234999999999
 20
110.18805
 30
0.0
 11
78.170111000000006
 21
110.18805
 31
0.0
  0
ARC
  5
1D3
  8
_0-1_HIDDEN
  6
DASHED3
 62
     6
 10
68.752611999999999
 20
105.68805
 30
0.0
 40
1.5
 50
180.0
 51
270.0
  0
ARC
  5
1D4
  8
_0-1_HIDDEN
  6
DASHED3
 62
     6
 10
68.272490000000005
 20
104.1880499999999
 30
0.0
 40
0.5
 50
180.0
 51
269.99954999999989
  0
LINE
  5
1D5
  8
_0-0_0
  6
CONTINUOUS
 62
     5
 10
69.277056999999999
 20
109.48805
 30
0.0
 11
67.972493
 21
109.48805
 31
0.0
  0
LINE
  5
1D6
  8
_0-0_0
  6
CONTINUOUS
 62
     5
 10
69.712423999999999
 20
106.18805
 30
0.0
 11
67.773268999999999
 21
106.18805
 31
0.0
  0
LINE
  5
1D7
  8
_0-1_HIDDEN
  6
DASHED3
 62
     6
 10
67.252611999999999
 20
105.68805
 30
0.0
 11
67.252611999999999
 21
110.18805
 31
0.0
  0
LINE
  5
1D8
  8
_0-0_0
  6
CONTINUOUS
 62
     5
 10
67.772490000000005
 20
106.18805
 30
0.0
 11
67.772490000000005
 21
109.18805
 31
0.0
  0
LINE
  5
1D9
  8
_0-1_HIDDEN
  6
DASHED3
 62
     6
 10
67.772490000000005
 20
104.5554099999999
 30
0.0
 11
67.772490000000005
 21
104.1880499999999
 31
0.0
  0
LINE
  5
1DA
  8
_0-0_0
  6
CONTINUOUS
 62
     5
 10
67.243230000000011
 20
110.18805
 30
0.0
 11
67.155742000000004
 21
111.18805
 31
0.0
  0
LINE
  5
1DB
  8
_0-0_0
  6
CONTINUOUS
 62
     5
 10
67.772490000000005
 20
109.68805
 30
0.0
 11
67.772490000000005
 21
110.18805
 31
0.0
  0
LINE
  5
1DC
  8
_0-0_0
  6
CONTINUOUS
 62
     5
 10
68.072490000000002
 20
109.48805
 30
0.0
 11
67.772490000000005
 21
109.18805
 31
0.0
  0
ARC
  5
1DD
  8
_0-0_0
  6
CONTINUOUS
 62
     5
 10
67.972489999999993
 20
109.68805
 30
0.0
 40
0.2
 50
180.0
 51
270.0
  0
LINE
  5
1DE
  8
_0-0_0
  6
CONTINUOUS
 62
     5
 10
67.243230000000011
 20
110.18805
 30
0.0
 11
67.155742000000004
 21
111.18805
 31
0.0
  0
ARC
  5
1DF
  8
_0-0_0
  6
CONTINUOUS
 62
     5
 10
65.942447000000001
 20
111.38805000000001
 30
0.0
 40
0.2
 50
180.0
 51
270.0
  0
LINE
  5
1E0
  8
_0-1_HIDDEN
  6
DASHED3
 62
     6
 10
71.569670000000002
 20
103.68805
 30
0.0
 11
71.569670000000002
 21
98.388050000000007
 31
0.0
  0
LINE
  5
1E1
  8
_0-0_0
  6
CONTINUOUS
 62
     5
 10
82.839403000000004
 20
100.9880499999999
 30
0.0
 11
82.650839000000005
 21
100.68805
 31
0.0
  0
LINE
  5
1E2
  8
_0-0_0
  6
CONTINUOUS
 62
     5
 10
83.118673999999999
 20
100.68805
 30
0.0
 11
83.438939000000005
 21
100.9880499999999
 31
0.0
  0
LINE
  5
1E3
  8
_0-0_0
  6
CONTINUOUS
 62
     5
 10
74.434055000000001
 20
100.68805
 30
0.0
 11
74.245491000000001
 21
100.9880499999999
 31
0.0
  0
LINE
  5
1E4
  8
_0-0_0
  6
CONTINUOUS
 62
     5
 10
73.966219999999979
 20
100.68805
 30
0.0
 11
73.645955000000001
 21
100.9880499999999
 31
0.0
  0
LINE
  5
1E5
  8
_0-1_HIDDEN
  6
DASHED3
 62
     6
 10
76.271381000000005
 20
94.388050000000007
 30
0.0
 11
81.825792000000007
 21
94.388050000000007
 31
0.0
  0
LINE
  5
1E6
  8
_0-1_HIDDEN
  6
DASHED3
 62
     6
 10
80.615705000000005
 20
97.188050000000004
 30
0.0
 11
75.906886999999998
 21
97.188052000000013
 31
0.0
  0
LINE
  5
1E7
  8
_0-0_0
  6
CONTINUOUS
 62
     5
 10
83.118673999999999
 20
100.68805
 30
0.0
 11
73.966219999999979
 21
100.68805
 31
0.0
  0
LINE
  5
1E8
  8
_0-1_HIDDEN
  6
DASHED3
 62
     6
 10
72.445601999999994
 20
99.553210000000007
 30
0.0
 11
72.445572999999982
 21
99.553268000000017
 31
0.0
  0
LINE
  5
1E9
  8
_0-1_HIDDEN
  6
DASHED3
 62
     6
 10
74.393131000000025
 20
97.421217000000013
 30
0.0
 11
74.393031999999977
 21
97.421248000000006
 31
0.0
  0
LINE
  5
1EA
  8
_0-1_HIDDEN
  6
DASHED3
 62
     6
 10
74.192160000000001
 20
97.540386999999996
 30
0.0
 11
74.193421999999984
 21
97.539192
 31
0.0
  0
LINE
  5
1EB
  8
_0-1_HIDDEN
  6
DASHED3
 62
     6
 10
84.49176199999998
 20
97.421217000000013
 30
0.0
 11
84.491861999999969
 21
97.421248000000006
 31
0.0
  0
LINE
  5
1EC
  8
_0-1_HIDDEN
  6
DASHED3
 62
     6
 10
83.677538999999982
 20
97.188050000000004
 30
0.0
 11
80.928573999999969
 21
97.188050000000004
 31
0.0
  0
LINE
  5
1ED
  8
_0-1_HIDDEN
  6
DASHED3
 62
     6
 10
83.84654399999998
 20
97.195469000000003
 30
0.0
 11
83.825906000000003
 21
97.185442000000023
 31
0.0
  0
LINE
  5
1EE
  8
_0-0_0
  6
CONTINUOUS
 62
     5
 10
83.438939000000005
 20
100.9880499999999
 30
0.0
 11
73.645955000000001
 21
100.9880499999999
 31
0.0
  0
LINE
  5
1EF
  8
_0-0_0
  6
CONTINUOUS
 62
     5
 10
76.069946000000002
 20
105.98786
 30
0.0
 11
76.086334999999977
 21
108.98805
 31
0.0
  0
LINE
  5
1F0
  8
_0-0_0
  6
CONTINUOUS
 62
     5
 10
69.252611999999999
 20
110.18805
 30
0.0
 11
69.388802999999996
 21
106.2880499999999
 31
0.0
  0
LINE
  5
1F1
  8
_0-0_0
  6
CONTINUOUS
 62
     5
 10
70.678868999999963
 20
106.2880499999999
 30
0.0
 11
74.985129000000001
 21
106.2880499999999
 31
0.0
  0
LINE
  5
1F2
  8
_0-1_HIDDEN
  6
DASHED3
 62
     6
 10
71.972641000000024
 20
104.1880499999999
 30
0.0
 11
71.972641000000024
 21
101.57642
 31
0.0
  0
LINE
  5
1F3
  8
_0-1_HIDDEN
  6
DASHED3
 62
     6
 10
72.001161999999994
 20
101.14628999999989
 30
0.0
 11
72.001168999999976
 21
101.14619999999979
 31
0.0
  0
LINE
  5
1F4
  8
_0-1_HIDDEN
  6
DASHED3
 62
     6
 10
71.97977400000002
 20
101.40039
 30
0.0
 11
71.979770000000002
 21
101.40044
 31
0.0
  0
LINE
  5
1F5
  8
_0-1_HIDDEN
  6
DASHED3
 62
     6
 10
68.272486000000001
 20
103.68805
 30
0.0
 11
71.569670000000002
 21
103.68805
 31
0.0
  0
LINE
  5
1F6
  8
_0-1_HIDDEN
  6
DASHED3
 62
     6
 10
68.752573999999996
 20
104.1880499999999
 30
0.0
 11
71.972641000000024
 21
104.1880499999999
 31
0.0
  0
LINE
  5
1F7
  8
_0-0_0
  6
CONTINUOUS
 62
     5
 10
69.719329000000002
 20
105.98786
 30
0.0
 11
70.689222000000001
 21
105.98786
 31
0.0
  0
LINE
  5
1F8
  8
_0-0_0
  6
CONTINUOUS
 62
     5
 10
69.708974999999995
 20
106.2880499999999
 30
0.0
 11
69.719329000000002
 21
105.98786
 31
0.0
  0
LINE
  5
1F9
  8
_0-0_0
  6
CONTINUOUS
 62
     5
 10
70.025976
 20
105.68805
 30
0.0
 11
69.719329000000002
 21
105.98786
 31
0.0
  0
LINE
  5
1FA
  8
_0-0_0
  6
CONTINUOUS
 62
     5
 10
69.708974999999995
 20
106.2880499999999
 30
0.0
 11
69.388816000000006
 21
106.2880499999999
 31
0.0
  0
LINE
  5
1FB
  8
_0-0_0
  6
CONTINUOUS
 62
     5
 10
70.689222000000001
 20
105.98786
 30
0.0
 11
70.678868999999963
 21
106.2880499999999
 31
0.0
  0
LINE
  5
1FC
  8
_0-0_0
  6
CONTINUOUS
 62
     5
 10
70.995869999999996
 20
105.68805
 30
0.0
 11
70.689222000000001
 21
105.98786
 31
0.0
  0
LINE
  5
1FD
  8
_0-0_0
  6
CONTINUOUS
 62
     5
 10
76.069946000000002
 20
105.98786
 30
0.0
 11
76.021377999999999
 21
105.68805
 31
0.0
  0
LINE
  5
1FE
  8
_0-0_0
  6
CONTINUOUS
 62
     5
 10
74.985129000000001
 20
106.2880499999999
 30
0.0
 11
74.983489000000006
 21
105.98786
 31
0.0
  0
LINE
  5
1FF
  8
_0-0_0
  6
CONTINUOUS
 62
     5
 10
74.934919999999977
 20
105.68805
 30
0.0
 11
74.983489000000006
 21
105.98786
 31
0.0
  0
LINE
  5
200
  8
_0-0_0
  6
CONTINUOUS
 62
     5
 10
74.983489000000006
 20
105.98786
 30
0.0
 11
76.069946000000002
 21
105.98786
 31
0.0
  0
LINE
  5
201
  8
_0-0_0
  6
CONTINUOUS
 62
     5
 10
73.645955000000001
 20
100.9880499999999
 30
0.0
 11
73.645955000000001
 21
105.68805
 31
0.0
  0
LINE
  5
202
  8
_0-0_0
  6
CONTINUOUS
 62
     5
 10
74.245491000000001
 20
105.68805
 30
0.0
 11
74.245491000000001
 21
100.9880499999999
 31
0.0
  0
LINE
  5
203
  8
_0-0_0
  6
CONTINUOUS
 62
     5
 10
84.054929000000001
 20
105.68805
 30
0.0
 11
84.071852000000007
 21
104.38804999999979
 31
0.0
  0
LINE
  5
204
  8
_0-0_0
  6
CONTINUOUS
 62
     5
 10
82.839403000000004
 20
105.68805
 30
0.0
 11
82.839403000000004
 21
100.9880499999999
 31
0.0
  0
LINE
  5
205
  8
_0-0_0
  6
CONTINUOUS
 62
     5
 10
83.438939000000005
 20
105.68805
 30
0.0
 11
83.438939000000005
 21
100.9880499999999
 31
0.0
  0
ARC
  5
206
  8
_0-2_CENTER
  6
CENTER2
 62
     1
 10
84.342446999999979
 20
133.18805
 30
0.0
 40
23.0
 50
213.22094999999999
 51
235.84662999999989
  0
LINE
  5
207
  8
_0-2_CENTER
  6
CENTER2
 62
     1
 10
70.696671999999964
 20
119.5422699999999
 30
0.0
 11
64.531749000000005
 21
113.37734999999979
 31
0.0
  0
LINE
  5
208
  8
_0-0_0
  6
CONTINUOUS
 62
     5
 10
67.876223999999993
 20
121.91891
 30
0.0
 11
68.238434999999996
 21
122.12803
 31
0.0
  0
LINE
  5
209
  8
_0-0_0
  6
CONTINUOUS
 62
     5
 10
68.236590000000007
 20
121.98802999999999
 30
0.0
 11
67.964305999999993
 21
121.83083000000001
 31
0.0
  0
LINE
  5
20A
  8
_0-0_0
  6
CONTINUOUS
 62
     5
 10
68.238434999999996
 20
122.40803
 30
0.0
 11
67.876223999999993
 21
122.61716
 31
0.0
  0
LINE
  5
20B
  8
_0-0_0
  6
CONTINUOUS
 62
     5
 10
67.964305999999993
 20
122.7052399999999
 30
0.0
 11
68.236590000000007
 21
122.54803
 31
0.0
  0
ARC
  5
20C
  8
_0-0_0
  6
CONTINUOUS
 62
     5
 10
67.634446999999994
 20
122.38805000000001
 30
0.0
 40
3.1000000000000001
 50
0.0
 51
90.0
  0
ARC
  5
20D
  8
_0-0_0
  6
CONTINUOUS
 62
     5
 10
68.272490000000005
 20
113.4880499999999
 30
0.0
 40
0.5
 50
90.0
 51
156.41054
  0
ARC
  5
20E
  8
_0-0_0
  6
CONTINUOUS
 62
     5
 10
68.078991000000002
 20
116.9245899999999
 30
0.0
 40
2.25
 50
113.45889
 51
358.60611999999992
  0
LINE
  5
20F
  8
_0-0_0
  6
CONTINUOUS
 62
     5
 10
66.242446999999999
 20
113.6880499999999
 30
0.0
 11
68.734447000000003
 21
113.6880499999999
 31
0.0
  0
CIRCLE
  5
210
  8
_0-0_0
  6
CONTINUOUS
 62
     5
 10
67.527101999999999
 20
122.26803
 30
0.0
 40
2.25
  0
CIRCLE
  5
211
  8
_0-0_0
  6
CONTINUOUS
 62
     5
 10
67.527101999999999
 20
122.26803
 30
0.0
 40
3.0
  0
LINE
  5
212
  8
_0-0_0
  6
CONTINUOUS
 62
     5
 10
66.759768999999991
 20
122.40803
 30
0.0
 11
68.294434999999993
 21
122.12803
 31
0.0
  0
LINE
  5
213
  8
_0-0_0
  6
CONTINUOUS
 62
     5
 10
66.815768999999989
 20
122.40803
 30
0.0
 11
68.238434999999996
 21
122.12803
 31
0.0
  0
LINE
  5
214
  8
_0-0_0
  6
CONTINUOUS
 62
     5
 10
65.042446999999996
 20
118.98805
 30
0.0
 11
68.391866000000007
 21
118.98805
 31
0.0
  0
LINE
  5
215
  8
_0-0_0
  6
CONTINUOUS
 62
     5
 10
68.388311000000002
 20
118.99005
 30
0.0
 11
65.042446999999996
 21
118.99005
 31
0.0
  0
LINE
  5
216
  8
_0-0_0
  6
CONTINUOUS
 62
     5
 10
66.815768999999989
 20
122.12803
 30
0.0
 11
68.238434999999996
 21
122.40803
 31
0.0
  0
LINE
  5
217
  8
_0-0_0
  6
CONTINUOUS
 62
     5
 10
66.759768999999991
 20
122.12803
 30
0.0
 11
68.294434999999993
 21
122.40803
 31
0.0
  0
LINE
  5
218
  8
_0-0_0
  6
CONTINUOUS
 62
     5
 10
64.042446999999996
 20
119.99005
 30
0.0
 11
64.042446999999996
 21
130.33147
 31
0.0
  0
LINE
  5
219
  8
_0-0_0
  6
CONTINUOUS
 62
     5
 10
64.342446999999993
 20
115.6880499999999
 30
0.0
 11
64.342446999999993
 21
119.27436999999991
 31
0.0
  0
ARC
  5
21A
  8
_0-0_0
  6
CONTINUOUS
 62
     5
 10
66.842446999999993
 20
115.6880499999999
 30
0.0
 40
2.5
 50
180.0
 51
245.30615999999981
  0
ARC
  5
21B
  8
_0-0_0
  6
CONTINUOUS
 62
     5
 10
66.242446999999999
 20
113.18805
 30
0.0
 40
0.5
 50
90.0
 51
180.0
  0
ARC
  5
21C
  8
_0-0_0
  6
CONTINUOUS
 62
     5
 10
65.042446999999996
 20
119.99005
 30
0.0
 40
1.0
 50
180.0
 51
270.0
  0
LINE
  5
21D
  8
_0-0_0
  6
CONTINUOUS
 62
     5
 10
67.807102
 20
123.53752
 30
0.0
 11
67.667102
 21
123.0353699999999
 31
0.0
  0
LINE
  5
21E
  8
_0-0_0
  6
CONTINUOUS
 62
     5
 10
67.667102
 20
122.9793699999998
 30
0.0
 11
67.667102
 21
123.0353699999999
 31
0.0
  0
LINE
  5
21F
  8
_0-0_0
  6
CONTINUOUS
 62
     5
 10
67.807102
 20
123.53752
 30
0.0
 11
67.807102
 21
122.9775199999999
 31
0.0
  0
LINE
  5
220
  8
_0-0_0
  6
CONTINUOUS
 62
     5
 10
67.807102
 20
122.9775199999999
 30
0.0
 11
67.667102
 21
122.9793699999998
 31
0.0
  0
LINE
  5
221
  8
_0-0_0
  6
CONTINUOUS
 62
     5
 10
67.667102
 20
121.55670000000001
 30
0.0
 11
67.876223999999993
 21
121.91891
 31
0.0
  0
LINE
  5
222
  8
_0-0_0
  6
CONTINUOUS
 62
     5
 10
67.964305999999993
 20
121.83083000000001
 30
0.0
 11
67.807102
 21
121.5585499999999
 31
0.0
  0
LINE
  5
223
  8
_0-0_0
  6
CONTINUOUS
 62
     5
 10
67.667102
 20
121.5006999999999
 30
0.0
 11
67.667102
 21
121.55670000000001
 31
0.0
  0
LINE
  5
224
  8
_0-0_0
  6
CONTINUOUS
 62
     5
 10
67.807102
 20
121.5585499999999
 30
0.0
 11
67.807102
 21
120.9985499999999
 31
0.0
  0
LINE
  5
225
  8
_0-0_0
  6
CONTINUOUS
 62
     5
 10
67.807102
 20
120.9985499999999
 30
0.0
 11
67.667102
 21
121.5006999999999
 31
0.0
  0
LINE
  5
226
  8
_0-0_0
  6
CONTINUOUS
 62
     5
 10
67.807102
 20
121.5585499999999
 30
0.0
 11
67.667102
 21
121.55670000000001
 31
0.0
  0
LINE
  5
227
  8
_0-0_0
  6
CONTINUOUS
 62
     5
 10
67.876223999999993
 20
122.61716
 30
0.0
 11
67.667102
 21
122.9793699999998
 31
0.0
  0
LINE
  5
228
  8
_0-0_0
  6
CONTINUOUS
 62
     5
 10
67.807102
 20
122.9775199999999
 30
0.0
 11
67.964305999999993
 21
122.7052399999999
 31
0.0
  0
LINE
  5
229
  8
_0-0_0
  6
CONTINUOUS
 62
     5
 10
67.247101999999998
 20
122.9775199999999
 30
0.0
 11
67.247101999999998
 21
123.53752
 31
0.0
  0
LINE
  5
22A
  8
_0-0_0
  6
CONTINUOUS
 62
     5
 10
67.387101999999985
 20
123.0353699999999
 30
0.0
 11
67.387101999999985
 21
122.9793699999998
 31
0.0
  0
LINE
  5
22B
  8
_0-0_0
  6
CONTINUOUS
 62
     5
 10
67.247101999999998
 20
123.53752
 30
0.0
 11
67.387101999999985
 21
123.0353699999999
 31
0.0
  0
LINE
  5
22C
  8
_0-0_0
  6
CONTINUOUS
 62
     5
 10
67.247101999999998
 20
122.9775199999999
 30
0.0
 11
67.387101999999985
 21
122.9793699999998
 31
0.0
  0
LINE
  5
22D
  8
_0-0_0
  6
CONTINUOUS
 62
     5
 10
67.247101999999998
 20
120.9985499999999
 30
0.0
 11
67.387101999999985
 21
121.5006999999999
 31
0.0
  0
LINE
  5
22E
  8
_0-0_0
  6
CONTINUOUS
 62
     5
 10
67.247101999999998
 20
120.9985499999999
 30
0.0
 11
67.247101999999998
 21
121.5585499999999
 31
0.0
  0
LINE
  5
22F
  8
_0-0_0
  6
CONTINUOUS
 62
     5
 10
67.387101999999985
 20
121.55670000000001
 30
0.0
 11
67.387101999999985
 21
121.5006999999999
 31
0.0
  0
LINE
  5
230
  8
_0-0_0
  6
CONTINUOUS
 62
     5
 10
67.247101999999998
 20
121.5585499999999
 30
0.0
 11
67.089898000000005
 21
121.83083000000001
 31
0.0
  0
LINE
  5
231
  8
_0-0_0
  6
CONTINUOUS
 62
     5
 10
67.177980000000005
 20
121.91891
 30
0.0
 11
67.387101999999985
 21
121.55670000000001
 31
0.0
  0
LINE
  5
232
  8
_0-0_0
  6
CONTINUOUS
 62
     5
 10
67.247101999999998
 20
121.5585499999999
 30
0.0
 11
67.387101999999985
 21
121.55670000000001
 31
0.0
  0
LINE
  5
233
  8
_0-0_0
  6
CONTINUOUS
 62
     5
 10
64.044030000000006
 20
119.93236999999991
 30
0.0
 11
64.048738999999998
 21
119.87651
 31
0.0
  0
LINE
  5
234
  8
_0-0_0
  6
CONTINUOUS
 62
     5
 10
64.042446999999996
 20
119.98857
 30
0.0
 11
64.044030000000006
 21
119.93236999999991
 31
0.0
  0
LINE
  5
235
  8
_0-0_0
  6
CONTINUOUS
 62
     5
 10
66.817614000000006
 20
121.98802999999999
 30
0.0
 11
66.815768999999989
 21
122.12803
 31
0.0
  0
LINE
  5
236
  8
_0-0_0
  6
CONTINUOUS
 62
     5
 10
66.817614000000006
 20
122.54803
 30
0.0
 11
66.815768999999989
 21
122.40803
 31
0.0
  0
LINE
  5
237
  8
_0-0_0
  6
CONTINUOUS
 62
     5
 10
64.048738999999998
 20
119.87651
 30
0.0
 11
64.056588000000005
 21
119.82093
 31
0.0
  0
LINE
  5
238
  8
_0-0_0
  6
CONTINUOUS
 62
     5
 10
64.067533999999995
 20
119.76586999999979
 30
0.0
 11
64.081556000000006
 21
119.7115099999999
 31
0.0
  0
LINE
  5
239
  8
_0-0_0
  6
CONTINUOUS
 62
     5
 10
64.056588000000005
 20
119.82093
 30
0.0
 11
64.067533999999995
 21
119.76586999999979
 31
0.0
  0
LINE
  5
23A
  8
_0-0_0
  6
CONTINUOUS
 62
     5
 10
64.098596000000001
 20
119.65803
 30
0.0
 11
64.118611999999999
 21
119.60558999999991
 31
0.0
  0
LINE
  5
23B
  8
_0-0_0
  6
CONTINUOUS
 62
     5
 10
64.081556000000006
 20
119.7115099999999
 30
0.0
 11
64.098596000000001
 21
119.65803
 31
0.0
  0
LINE
  5
23C
  8
_0-0_0
  6
CONTINUOUS
 62
     5
 10
64.141530000000003
 20
119.55435
 30
0.0
 11
64.167290000000008
 21
119.50448999999981
 31
0.0
  0
LINE
  5
23D
  8
_0-0_0
  6
CONTINUOUS
 62
     5
 10
64.118611999999999
 20
119.60558999999991
 30
0.0
 11
64.141530000000003
 21
119.55435
 31
0.0
  0
LINE
  5
23E
  8
_0-0_0
  6
CONTINUOUS
 62
     5
 10
64.195797999999996
 20
119.45613999999991
 30
0.0
 11
64.226973999999998
 21
119.40948
 31
0.0
  0
LINE
  5
23F
  8
_0-0_0
  6
CONTINUOUS
 62
     5
 10
64.167290000000008
 20
119.50448999999981
 30
0.0
 11
64.195797999999996
 21
119.45613999999991
 31
0.0
  0
LINE
  5
240
  8
_0-0_0
  6
CONTINUOUS
 62
     5
 10
64.260710000000003
 20
119.3646399999998
 30
0.0
 11
64.296910999999994
 21
119.32176
 31
0.0
  0
LINE
  5
241
  8
_0-0_0
  6
CONTINUOUS
 62
     5
 10
64.226973999999998
 20
119.40948
 30
0.0
 11
64.260710000000003
 21
119.3646399999998
 31
0.0
  0
LINE
  5
242
  8
_0-0_0
  6
CONTINUOUS
 62
     5
 10
64.335452000000004
 20
119.28098
 30
0.0
 11
64.376219999999989
 21
119.2424399999999
 31
0.0
  0
LINE
  5
243
  8
_0-0_0
  6
CONTINUOUS
 62
     5
 10
64.296910999999994
 20
119.32176
 30
0.0
 11
64.335452000000004
 21
119.28098
 31
0.0
  0
LINE
  5
244
  8
_0-0_0
  6
CONTINUOUS
 62
     5
 10
64.376219999999989
 20
119.2424399999999
 30
0.0
 11
64.419077999999999
 21
119.20623000000001
 31
0.0
  0
LINE
  5
245
  8
_0-0_0
  6
CONTINUOUS
 62
     5
 10
64.463899999999995
 20
119.1724999999999
 30
0.0
 11
64.510536000000002
 21
119.14133
 31
0.0
  0
LINE
  5
246
  8
_0-0_0
  6
CONTINUOUS
 62
     5
 10
64.419077999999999
 20
119.20623000000001
 30
0.0
 11
64.463899999999995
 21
119.1724999999999
 31
0.0
  0
LINE
  5
247
  8
_0-0_0
  6
CONTINUOUS
 62
     5
 10
64.558848999999995
 20
119.11283
 30
0.0
 11
64.608677
 21
119.08707
 31
0.0
  0
LINE
  5
248
  8
_0-0_0
  6
CONTINUOUS
 62
     5
 10
64.510536000000002
 20
119.14133
 30
0.0
 11
64.558848999999995
 21
119.11283
 31
0.0
  0
LINE
  5
249
  8
_0-0_0
  6
CONTINUOUS
 62
     5
 10
64.608677
 20
119.08707
 30
0.0
 11
64.659869999999998
 21
119.06417
 31
0.0
  0
LINE
  5
24A
  8
_0-0_0
  6
CONTINUOUS
 62
     5
 10
66.257614000000004
 20
122.54803
 30
0.0
 11
66.759768999999991
 21
122.40803
 31
0.0
  0
LINE
  5
24B
  8
_0-0_0
  6
CONTINUOUS
 62
     5
 10
66.817614000000006
 20
121.98802999999999
 30
0.0
 11
66.257614000000004
 21
121.98802999999999
 31
0.0
  0
LINE
  5
24C
  8
_0-0_0
  6
CONTINUOUS
 62
     5
 10
66.759768999999991
 20
122.12803
 30
0.0
 11
66.815768999999989
 21
122.12803
 31
0.0
  0
LINE
  5
24D
  8
_0-0_0
  6
CONTINUOUS
 62
     5
 10
66.815768999999989
 20
122.40803
 30
0.0
 11
66.759768999999991
 21
122.40803
 31
0.0
  0
LINE
  5
24E
  8
_0-0_0
  6
CONTINUOUS
 62
     5
 10
66.257614000000004
 20
122.54803
 30
0.0
 11
66.817614000000006
 21
122.54803
 31
0.0
  0
LINE
  5
24F
  8
_0-0_0
  6
CONTINUOUS
 62
     5
 10
66.257614000000004
 20
121.98802999999999
 30
0.0
 11
66.759768999999991
 21
122.12803
 31
0.0
  0
ARC
  5
250
  8
_0-0_0
  6
CONTINUOUS
 62
     5
 10
67.527101999999999
 20
122.26803
 30
0.0
 40
0.7800000000000003
 50
169.6601
 51
190.33989
  0
ARC
  5
251
  8
_0-0_0
  6
CONTINUOUS
 62
     5
 10
67.527101999999999
 20
122.26803
 30
0.0
 40
1.3
 50
167.56190000000001
 51
192.4380899999999
  0
LINE
  5
252
  8
_0-0_0
  6
CONTINUOUS
 62
     5
 10
64.712260999999984
 20
119.04415999999991
 30
0.0
 11
64.765692999999999
 21
119.02713
 31
0.0
  0
LINE
  5
253
  8
_0-0_0
  6
CONTINUOUS
 62
     5
 10
64.765692999999999
 20
119.02713
 30
0.0
 11
64.819991999999999
 21
119.0131199999999
 31
0.0
  0
LINE
  5
254
  8
_0-0_0
  6
CONTINUOUS
 62
     5
 10
64.874992000000006
 20
119.00218
 30
0.0
 11
64.930517000000009
 21
118.99433000000001
 31
0.0
  0
LINE
  5
255
  8
_0-0_0
  6
CONTINUOUS
 62
     5
 10
64.819991999999999
 20
119.0131199999999
 30
0.0
 11
64.874992000000006
 21
119.00218
 31
0.0
  0
LINE
  5
256
  8
_0-0_0
  6
CONTINUOUS
 62
     5
 10
64.986306999999996
 20
118.98963000000001
 30
0.0
 11
65.042446999999996
 21
118.98805
 31
0.0
  0
LINE
  5
257
  8
_0-0_0
  6
CONTINUOUS
 62
     5
 10
64.930517000000009
 20
118.99433000000001
 30
0.0
 11
64.986306999999996
 21
118.98963000000001
 31
0.0
  0
LINE
  5
258
  8
_0-0_0
  6
CONTINUOUS
 62
     5
 10
64.659869999999998
 20
119.06417
 30
0.0
 11
64.712260999999984
 21
119.04415999999991
 31
0.0
  0
LINE
  5
259
  8
_0-0_0
  6
CONTINUOUS
 62
     5
 10
66.817614000000006
 20
122.54803
 30
0.0
 11
67.089898000000005
 21
122.7052399999999
 31
0.0
  0
LINE
  5
25A
  8
_0-0_0
  6
CONTINUOUS
 62
     5
 10
67.177980000000005
 20
122.61716
 30
0.0
 11
66.815768999999989
 21
122.40803
 31
0.0
  0
LINE
  5
25B
  8
_0-0_0
  6
CONTINUOUS
 62
     5
 10
67.089898000000005
 20
121.83083000000001
 30
0.0
 11
66.817614000000006
 21
121.98802999999999
 31
0.0
  0
LINE
  5
25C
  8
_0-0_0
  6
CONTINUOUS
 62
     5
 10
66.815768999999989
 20
122.12803
 30
0.0
 11
67.177980000000005
 21
121.91891
 31
0.0
  0
LINE
  5
25D
  8
_0-0_0
  6
CONTINUOUS
 62
     5
 10
67.089898000000005
 20
122.7052399999999
 30
0.0
 11
67.247101999999998
 21
122.9775199999999
 31
0.0
  0
LINE
  5
25E
  8
_0-0_0
  6
CONTINUOUS
 62
     5
 10
67.387101999999985
 20
122.9793699999998
 30
0.0
 11
67.177980000000005
 21
122.61716
 31
0.0
  0
LINE
  5
25F
  8
_0-0_0
  6
CONTINUOUS
 62
     5
 10
67.387101999999985
 20
121.5006999999999
 30
0.0
 11
67.667102
 21
123.0353699999999
 31
0.0
  0
LINE
  5
260
  8
_0-0_0
  6
CONTINUOUS
 62
     5
 10
67.387101999999985
 20
121.55670000000001
 30
0.0
 11
67.667102
 21
122.9793699999998
 31
0.0
  0
LINE
  5
261
  8
_0-0_0
  6
CONTINUOUS
 62
     5
 10
67.667102
 20
121.55670000000001
 30
0.0
 11
67.387101999999985
 21
122.9793699999998
 31
0.0
  0
LINE
  5
262
  8
_0-0_0
  6
CONTINUOUS
 62
     5
 10
67.667102
 20
121.5006999999999
 30
0.0
 11
67.387101999999985
 21
123.0353699999999
 31
0.0
  0
LINE
  5
263
  8
_0-0_0
  6
CONTINUOUS
 62
     5
 10
67.089898000000005
 20
121.83083000000001
 30
0.0
 11
67.964305999999993
 21
122.7052399999999
 31
0.0
  0
LINE
  5
264
  8
_0-0_0
  6
CONTINUOUS
 62
     5
 10
67.964305999999993
 20
121.83083000000001
 30
0.0
 11
67.089898000000005
 21
122.7052399999999
 31
0.0
  0
ARC
  5
265
  8
_0-0_0
  6
CONTINUOUS
 62
     5
 10
67.527101999999999
 20
122.26803
 30
0.0
 40
0.7800000000000003
 50
259.6601
 51
280.33988999999991
  0
ARC
  5
266
  8
_0-0_0
  6
CONTINUOUS
 62
     5
 10
67.527101999999999
 20
122.26803
 30
0.0
 40
1.3
 50
257.56189999999992
 51
282.43808999999999
  0
ARC
  5
267
  8
_0-0_0
  6
CONTINUOUS
 62
     5
 10
67.527101999999999
 20
122.26803
 30
0.0
 40
0.7800000000000003
 50
79.660108999999963
 51
100.33989
  0
ARC
  5
268
  8
_0-0_0
  6
CONTINUOUS
 62
     5
 10
67.527101999999999
 20
122.26803
 30
0.0
 40
1.3
 50
77.56189999999998
 51
102.43809
  0
ARC
  5
269
  8
_0-0_0
  6
CONTINUOUS
 62
     5
 10
65.042446999999996
 20
126.48805
 30
0.0
 40
1.0
 50
180.0
 51
270.0
  0
LINE
  5
26A
  8
_0-0_0
  6
CONTINUOUS
 62
     5
 10
67.634446999999994
 20
125.48805
 30
0.0
 11
65.042446999999996
 21
125.48805
 31
0.0
  0
LINE
  5
26B
  8
_0-0_0
  6
CONTINUOUS
 62
     5
 10
64.042446999999996
 20
130.33147
 30
0.0
 11
64.047278000000006
 21
130.33180999999999
 31
0.0
  0
LINE
  5
26C
  8
_0-0_0
  6
CONTINUOUS
 62
     5
 10
70.734447000000003
 20
115.6880499999999
 30
0.0
 11
70.734447000000003
 21
122.38805000000001
 31
0.0
  0
ARC
  5
26D
  8
_0-0_0
  6
CONTINUOUS
 62
     5
 10
66.134446999999994
 20
114.98005000000001
 30
0.0
 40
4.5999999999999979
 50
5.3250054000000002
 51
60.661370000000012
  0
ARC
  5
26E
  8
_0-0_0
  6
CONTINUOUS
 62
     5
 10
68.734447000000003
 20
115.6880499999999
 30
0.0
 40
2.0
 50
270.0
 51
0.0
  0
LINE
  5
26F
  8
_0-0_0
  6
CONTINUOUS
 62
     5
 10
68.272492
 20
113.98805
 30
0.0
 11
69.787490000000005
 21
113.98805
 31
0.0
  0
LINE
  5
270
  8
_0-0_0
  6
CONTINUOUS
 62
     5
 10
68.236590000000007
 20
122.54803
 30
0.0
 11
68.238434999999996
 21
122.40803
 31
0.0
  0
LINE
  5
271
  8
_0-0_0
  6
CONTINUOUS
 62
     5
 10
68.236590000000007
 20
121.98802999999999
 30
0.0
 11
68.238434999999996
 21
122.12803
 31
0.0
  0
LINE
  5
272
  8
_0-0_0
  6
CONTINUOUS
 62
     5
 10
68.796590000000009
 20
121.98802999999999
 30
0.0
 11
68.294434999999993
 21
122.12803
 31
0.0
  0
LINE
  5
273
  8
_0-0_0
  6
CONTINUOUS
 62
     5
 10
68.796590000000009
 20
121.98802999999999
 30
0.0
 11
68.236590000000007
 21
121.98802999999999
 31
0.0
  0
LINE
  5
274
  8
_0-0_0
  6
CONTINUOUS
 62
     5
 10
68.238434999999996
 20
122.12803
 30
0.0
 11
68.294434999999993
 21
122.12803
 31
0.0
  0
LINE
  5
275
  8
_0-0_0
  6
CONTINUOUS
 62
     5
 10
68.294434999999993
 20
122.40803
 30
0.0
 11
68.238434999999996
 21
122.40803
 31
0.0
  0
LINE
  5
276
  8
_0-0_0
  6
CONTINUOUS
 62
     5
 10
68.236590000000007
 20
122.54803
 30
0.0
 11
68.796590000000009
 21
122.54803
 31
0.0
  0
LINE
  5
277
  8
_0-0_0
  6
CONTINUOUS
 62
     5
 10
68.796590000000009
 20
122.54803
 30
0.0
 11
68.294434999999993
 21
122.40803
 31
0.0
  0
ARC
  5
278
  8
_0-0_0
  6
CONTINUOUS
 62
     5
 10
67.527101999999999
 20
122.26803
 30
0.0
 40
0.7800000000000003
 50
349.6601
 51
10.339889999999979
  0
ARC
  5
279
  8
_0-0_0
  6
CONTINUOUS
 62
     5
 10
67.527101999999999
 20
122.26803
 30
0.0
 40
1.3
 50
347.56189999999998
 51
12.438091999999999
  0
ARC
  5
27A
  8
_0-0_0
  6
CONTINUOUS
 62
     5
 10
102.14243999999989
 20
114.6880499999999
 30
0.0
 40
2.5
 50
270.0
 51
0.0
  0
LINE
  5
27B
  8
_0-0_0
  6
CONTINUOUS
 62
     5
 10
104.63656
 20
112.88805000000001
 30
0.0
 11
104.63656
 21
110.2880499999999
 31
0.0
  0
ARC
  5
27C
  8
_0-0_0
  6
CONTINUOUS
 62
     5
 10
96.342447000000007
 20
113.18805
 30
0.0
 40
1.0
 50
270.0
 51
0.0
  0
LINE
  5
27D
  8
_0-2_CENTER
  6
CENTER2
 62
     1
 10
90.742446999999984
 20
113.6880899999999
 30
0.0
 11
90.742446999999984
 21
93.228431999999984
 31
0.0
  0
ARC
  5
27E
  8
_0-1_HIDDEN
  6
DASHED3
 62
     6
 10
96.192447000000016
 20
100.08805
 30
0.0
 40
4.0
 50
270.0
 51
0.0
  0
LINE
  5
27F
  8
_0-1_HIDDEN
  6
DASHED3
 62
     6
 10
102.4924399999999
 20
107.2880499999999
 30
0.0
 11
100.19244
 21
107.2880499999999
 31
0.0
  0
LINE
  5
280
  8
_0-0_0
  6
CONTINUOUS
 62
     5
 10
104.13656
 20
109.78805
 30
0.0
 11
89.618313999999984
 21
109.78805
 31
0.0
  0
LINE
  5
281
  8
_0-0_0
  6
CONTINUOUS
 62
     5
 10
93.642447000000004
 20
112.18805
 30
0.0
 11
102.14243999999989
 21
112.18805
 31
0.0
  0
LINE
  5
282
  8
_0-1_HIDDEN
  6
DASHED3
 62
     6
 10
100.19244
 20
100.08805
 30
0.0
 11
100.19244
 21
107.2880499999999
 31
0.0
  0
LINE
  5
283
  8
_0-1_HIDDEN
  6
DASHED3
 62
     6
 10
84.908906999999985
 20
96.088049999999996
 30
0.0
 11
96.192447000000016
 21
96.088049999999996
 31
0.0
  0
LINE
  5
284
  8
_0-1_HIDDEN
  6
DASHED3
 62
     6
 10
85.292446999999967
 20
97.534672999999998
 30
0.0
 11
85.292446999999967
 21
97.987584999999996
 31
0.0
  0
LINE
  5
285
  8
_0-1_HIDDEN
  6
DASHED3
 62
     6
 10
84.692583999999997
 20
97.540244999999985
 30
0.0
 11
84.691470999999979
 21
97.539192
 31
0.0
  0
LINE
  5
286
  8
_0-1_HIDDEN
  6
DASHED3
 62
     6
 10
86.43929199999998
 20
99.553210000000007
 30
0.0
 11
86.439320999999964
 21
99.553268000000017
 31
0.0
  0
LINE
  5
287
  8
_0-0_0
  6
CONTINUOUS
 62
     5
 10
94.242446999999999
 20
109.81108
 30
0.0
 11
89.619118000000014
 21
109.81108
 31
0.0
  0
LINE
  5
288
  8
_0-0_0
  6
CONTINUOUS
 62
     5
 10
94.242446999999999
 20
110.0880499999999
 30
0.0
 11
89.628789999999995
 21
110.0880499999999
 31
0.0
  0
LINE
  5
289
  8
_0-1_HIDDEN
  6
DASHED3
 62
     6
 10
91.632281999999975
 20
105.68805
 30
0.0
 11
91.632281999999975
 21
110.18805
 31
0.0
  0
LINE
  5
28A
  8
_0-0_0
  6
CONTINUOUS
 62
     5
 10
89.632282000000004
 20
110.18805
 30
0.0
 11
89.496091000000007
 21
106.2880499999999
 31
0.0
  0
LINE
  5
28B
  8
_0-0_0
  6
CONTINUOUS
 62
     5
 10
84.606643000000005
 20
105.68805
 30
0.0
 11
84.606643000000005
 21
108.98805
 31
0.0
  0
LINE
  5
28C
  8
_0-0_0
  6
CONTINUOUS
 62
     5
 10
84.975530000000006
 20
108.98805
 30
0.0
 11
84.959141000000002
 21
105.98786
 31
0.0
  0
LINE
  5
28D
  8
_0-1_HIDDEN
  6
DASHED3
 62
     6
 10
86.912253000000007
 20
104.1880499999999
 30
0.0
 11
90.132320000000007
 21
104.1880499999999
 31
0.0
  0
LINE
  5
28E
  8
_0-0_0
  6
CONTINUOUS
 62
     5
 10
86.047237999999979
 20
106.2880499999999
 30
0.0
 11
89.496077999999983
 21
106.2880499999999
 31
0.0
  0
LINE
  5
28F
  8
_0-1_HIDDEN
  6
DASHED3
 62
     6
 10
86.905118999999999
 20
101.40039
 30
0.0
 11
86.905124000000015
 21
101.40044
 31
0.0
  0
LINE
  5
290
  8
_0-1_HIDDEN
  6
DASHED3
 62
     6
 10
86.883731999999995
 20
101.14628999999989
 30
0.0
 11
86.883724000000001
 21
101.14619999999979
 31
0.0
  0
LINE
  5
291
  8
_0-1_HIDDEN
  6
DASHED3
 62
     6
 10
86.912253000000007
 20
104.1880499999999
 30
0.0
 11
86.912253000000007
 21
101.57642
 31
0.0
  0
LINE
  5
292
  8
_0-0_0
  6
CONTINUOUS
 62
     5
 10
86.045597999999998
 20
105.98786
 30
0.0
 11
86.047237999999979
 21
106.2880499999999
 31
0.0
  0
LINE
  5
293
  8
_0-0_0
  6
CONTINUOUS
 62
     5
 10
84.910572999999985
 20
105.68805
 30
0.0
 11
84.959141000000002
 21
105.98786
 31
0.0
  0
LINE
  5
294
  8
_0-0_0
  6
CONTINUOUS
 62
     5
 10
85.997030000000024
 20
105.68805
 30
0.0
 11
86.045597999999998
 21
105.98786
 31
0.0
  0
LINE
  5
295
  8
_0-0_0
  6
CONTINUOUS
 62
     5
 10
84.959141000000002
 20
105.98786
 30
0.0
 11
86.045597999999998
 21
105.98786
 31
0.0
  0
ARC
  5
296
  8
_0-1_HIDDEN
  6
DASHED3
 62
     6
 10
90.132281999999961
 20
105.68805
 30
0.0
 40
1.5
 50
270.0
 51
0.0
  0
LINE
  5
297
  8
_0-1_HIDDEN
  6
DASHED3
 62
     6
 10
89.469390000000004
 20
104.18214999999979
 30
0.0
 11
89.472459000000001
 21
104.1880899999999
 31
0.0
  0
LINE
  5
298
  8
_0-0_0
  6
CONTINUOUS
 62
     5
 10
89.175918999999965
 20
106.2880499999999
 30
0.0
 11
89.165565000000001
 21
105.98786
 31
0.0
  0
LINE
  5
299
  8
_0-0_0
  6
CONTINUOUS
 62
     5
 10
88.858918000000017
 20
105.68805
 30
0.0
 11
89.165565000000001
 21
105.98786
 31
0.0
  0
LINE
  5
29A
  8
_0-1_HIDDEN
  6
DASHED3
 62
     6
 10
91.641662999999994
 20
110.18805
 30
0.0
 11
91.729152000000013
 21
111.18805
 31
0.0
  0
LINE
  5
29B
  8
_0-0_0
  6
CONTINUOUS
 62
     5
 10
91.641662999999994
 20
110.18805
 30
0.0
 11
91.729152000000013
 21
111.18805
 31
0.0
  0
LINE
  5
29C
  8
_0-0_0
  6
CONTINUOUS
 62
     5
 10
97.413042000000004
 20
104.38804999999979
 30
0.0
 11
97.483335000000011
 21
109.78805
 31
0.0
  0
LINE
  5
29D
  8
_0-0_0
  6
CONTINUOUS
 62
     5
 10
98.270449000000013
 20
109.78805
 30
0.0
 11
98.100747000000013
 21
104.38804999999979
 31
0.0
  0
LINE
  5
29E
  8
_0-0_0
  6
CONTINUOUS
 62
     5
 10
93.142447000000004
 20
111.68805
 30
0.0
 11
93.142447000000004
 21
111.38805000000001
 31
0.0
  0
ARC
  5
29F
  8
_0-0_0
  6
CONTINUOUS
 62
     5
 10
93.642447000000004
 20
111.68805
 30
0.0
 40
0.5
 50
90.0
 51
180.0
  0
LINE
  5
2A0
  8
_0-0_0
  6
CONTINUOUS
 62
     5
 10
94.242446999999999
 20
109.81108
 30
0.0
 11
94.242446999999999
 21
110.0880499999999
 31
0.0
  0
ARC
  5
2A1
  8
_0-0_0
  6
CONTINUOUS
 62
     5
 10
92.942447000000001
 20
111.38805000000001
 30
0.0
 40
0.2
 50
270.0
 51
0.0
  0
LINE
  5
2A2
  8
_0-1_HIDDEN
  6
DASHED3
 62
     6
 10
102.99244
 20
109.78805
 30
0.0
 11
102.99244
 21
107.78805
 31
0.0
  0
ARC
  5
2A3
  8
_0-1_HIDDEN
  6
DASHED3
 62
     6
 10
102.4924399999999
 20
107.78805
 30
0.0
 40
0.5
 50
269.99998999999991
 51
0.0
  0
LINE
  5
2A4
  8
_0-0_0
  6
CONTINUOUS
 62
     5
 10
104.6139399999999
 20
110.13936
 30
0.0
 11
104.62195
 21
110.1680299999999
 31
0.0
  0
LINE
  5
2A5
  8
_0-0_0
  6
CONTINUOUS
 62
     5
 10
104.60433
 20
110.11142
 30
0.0
 11
104.6139399999999
 21
110.13936
 31
0.0
  0
LINE
  5
2A6
  8
_0-0_0
  6
CONTINUOUS
 62
     5
 10
104.59286999999991
 20
110.08363
 30
0.0
 11
104.60433
 21
110.11142
 31
0.0
  0
LINE
  5
2A7
  8
_0-0_0
  6
CONTINUOUS
 62
     5
 10
104.5796399999999
 20
110.05634999999999
 30
0.0
 11
104.59286999999991
 21
110.08363
 31
0.0
  0
LINE
  5
2A8
  8
_0-0_0
  6
CONTINUOUS
 62
     5
 10
104.56448
 20
110.02943
 30
0.0
 11
104.5796399999999
 21
110.05634999999999
 31
0.0
  0
LINE
  5
2A9
  8
_0-0_0
  6
CONTINUOUS
 62
     5
 10
104.54792999999999
 20
110.00382999999999
 30
0.0
 11
104.56448
 21
110.02943
 31
0.0
  0
LINE
  5
2AA
  8
_0-0_0
  6
CONTINUOUS
 62
     5
 10
104.53082000000001
 20
109.98053999999991
 30
0.0
 11
104.54792999999999
 21
110.00382999999999
 31
0.0
  0
LINE
  5
2AB
  8
_0-0_0
  6
CONTINUOUS
 62
     5
 10
104.51273999999989
 20
109.95865999999999
 30
0.0
 11
104.53082000000001
 21
109.98053999999991
 31
0.0
  0
LINE
  5
2AC
  8
_0-0_0
  6
CONTINUOUS
 62
     5
 10
104.4934599999999
 20
109.93786
 30
0.0
 11
104.51273999999989
 21
109.95865999999999
 31
0.0
  0
LINE
  5
2AD
  8
_0-0_0
  6
CONTINUOUS
 62
     5
 10
104.47265
 20
109.91785
 30
0.0
 11
104.4934599999999
 21
109.93786
 31
0.0
  0
LINE
  5
2AE
  8
_0-0_0
  6
CONTINUOUS
 62
     5
 10
104.4493099999999
 20
109.89793
 30
0.0
 11
104.47265
 21
109.91785
 31
0.0
  0
LINE
  5
2AF
  8
_0-0_0
  6
CONTINUOUS
 62
     5
 10
104.63583
 20
110.26091
 30
0.0
 11
104.63656
 21
110.2880499999999
 31
0.0
  0
LINE
  5
2B0
  8
_0-0_0
  6
CONTINUOUS
 62
     5
 10
104.63308000000001
 20
110.2291
 30
0.0
 11
104.63583
 21
110.26091
 31
0.0
  0
LINE
  5
2B1
  8
_0-0_0
  6
CONTINUOUS
 62
     5
 10
104.6283999999999
 20
110.1980799999999
 30
0.0
 11
104.63308000000001
 21
110.2291
 31
0.0
  0
LINE
  5
2B2
  8
_0-0_0
  6
CONTINUOUS
 62
     5
 10
104.62195
 20
110.1680299999999
 30
0.0
 11
104.6283999999999
 21
110.1980799999999
 31
0.0
  0
LINE
  5
2B3
  8
_0-0_0
  6
CONTINUOUS
 62
     5
 10
104.42487
 20
109.87953999999991
 30
0.0
 11
104.4493099999999
 21
109.89793
 31
0.0
  0
LINE
  5
2B4
  8
_0-0_0
  6
CONTINUOUS
 62
     5
 10
104.40115
 20
109.8637899999999
 30
0.0
 11
104.42487
 21
109.87953999999991
 31
0.0
  0
LINE
  5
2B5
  8
_0-0_0
  6
CONTINUOUS
 62
     5
 10
104.37649999999999
 20
109.84938
 30
0.0
 11
104.40115
 21
109.8637899999999
 31
0.0
  0
LINE
  5
2B6
  8
_0-0_0
  6
CONTINUOUS
 62
     5
 10
104.34916
 20
109.83548999999979
 30
0.0
 11
104.37649999999999
 21
109.84938
 31
0.0
  0
LINE
  5
2B7
  8
_0-0_0
  6
CONTINUOUS
 62
     5
 10
104.3206499999999
 20
109.82316999999991
 30
0.0
 11
104.34916
 21
109.83548999999979
 31
0.0
  0
LINE
  5
2B8
  8
_0-0_0
  6
CONTINUOUS
 62
     5
 10
104.29222
 20
109.81289
 30
0.0
 11
104.3206499999999
 21
109.82316999999991
 31
0.0
  0
LINE
  5
2B9
  8
_0-0_0
  6
CONTINUOUS
 62
     5
 10
104.26303
 20
109.80431
 30
0.0
 11
104.29222
 21
109.81289
 31
0.0
  0
LINE
  5
2BA
  8
_0-0_0
  6
CONTINUOUS
 62
     5
 10
104.13656
 20
109.78805
 30
0.0
 11
104.16906999999991
 21
109.7891
 31
0.0
  0
LINE
  5
2BB
  8
_0-0_0
  6
CONTINUOUS
 62
     5
 10
104.23239
 20
109.79731
 30
0.0
 11
104.26303
 21
109.80431
 31
0.0
  0
LINE
  5
2BC
  8
_0-0_0
  6
CONTINUOUS
 62
     5
 10
104.20092
 20
109.79219999999999
 30
0.0
 11
104.23239
 21
109.79731
 31
0.0
  0
LINE
  5
2BD
  8
_0-0_0
  6
CONTINUOUS
 62
     5
 10
104.16906999999991
 20
109.7891
 30
0.0
 11
104.20092
 21
109.79219999999999
 31
0.0
  0
LINE
  5
2BE
  8
_0-0_0
  6
CONTINUOUS
 62
     5
 10
100.60908000000001
 20
123.74760999999999
 30
0.0
 11
101.11123000000001
 21
123.60760999999999
 31
0.0
  0
LINE
  5
2BF
  8
_0-0_0
  6
CONTINUOUS
 62
     5
 10
101.16907999999999
 20
123.18761000000001
 30
0.0
 11
100.60908000000001
 21
123.18761000000001
 31
0.0
  0
LINE
  5
2C0
  8
_0-0_0
  6
CONTINUOUS
 62
     5
 10
100.60908000000001
 20
123.74760999999999
 30
0.0
 11
101.16907999999999
 21
123.74760999999999
 31
0.0
  0
LINE
  5
2C1
  8
_0-0_0
  6
CONTINUOUS
 62
     5
 10
100.60908000000001
 20
123.18761000000001
 30
0.0
 11
101.11123000000001
 21
123.32761000000001
 31
0.0
  0
LINE
  5
2C2
  8
_0-0_0
  6
CONTINUOUS
 62
     5
 10
103.64243999999999
 20
120.18805
 30
0.0
 11
100.3287599999999
 21
120.18805
 31
0.0
  0
CIRCLE
  5
2C3
  8
_0-0_0
  6
CONTINUOUS
 62
     5
 10
101.87857
 20
123.46760999999989
 30
0.0
 40
2.25
  0
CIRCLE
  5
2C4
  8
_0-0_0
  6
CONTINUOUS
 62
     5
 10
101.87857
 20
123.46760999999989
 30
0.0
 40
3.0
  0
ARC
  5
2C5
  8
_0-0_0
  6
CONTINUOUS
 62
     5
 10
101.87857
 20
123.46760999999989
 30
0.0
 40
3.1000000000000001
 50
90.0
 51
217.87996000000001
  0
ARC
  5
2C6
  8
_0-0_0
  6
CONTINUOUS
 62
     5
 10
84.342446999999979
 20
133.18805
 30
0.0
 40
20.249999999999989
 50
311.21021000000002
 51
318.78978000000001
  0
ARC
  5
2C7
  8
_0-0_0
  6
CONTINUOUS
 62
     5
 10
98.342447000000007
 20
117.2017199999999
 30
0.0
 40
1.0
 50
131.2102099999999
 51
180.0
  0
LINE
  5
2C8
  8
_0-0_0
  6
CONTINUOUS
 62
     5
 10
97.342447000000007
 20
117.2017199999999
 30
0.0
 11
97.342447000000007
 21
113.18805
 31
0.0
  0
ARC
  5
2C9
  8
_0-0_0
  6
CONTINUOUS
 62
     5
 10
101.87857
 20
123.46760999999989
 30
0.0
 40
1.3
 50
167.56190000000001
 51
192.4380899999999
  0
LINE
  5
2CA
  8
_0-0_0
  6
CONTINUOUS
 62
     5
 10
99.385304000000005
 20
119.6316799999999
 30
0.0
 11
99.576471999999995
 21
119.84687
 31
0.0
  0
LINE
  5
2CB
  8
_0-0_0
  6
CONTINUOUS
 62
     5
 10
99.642447000000004
 20
120.95017
 30
0.0
 11
99.642447000000004
 21
120.30113
 31
0.0
  0
ARC
  5
2CC
  8
_0-0_0
  6
CONTINUOUS
 62
     5
 10
98.642447000000004
 20
120.30113
 30
0.0
 40
1.0
 50
317.97537
 51
0.0
  0
ARC
  5
2CD
  8
_0-0_0
  6
CONTINUOUS
 62
     5
 10
98.642447000000004
 20
120.95017
 30
0.0
 40
1.0
 50
0.0
 51
37.879967000000001
  0
ARC
  5
2CE
  8
_0-0_0
  6
CONTINUOUS
 62
     5
 10
100.3287599999999
 20
119.18805
 30
0.0
 40
1.0
 50
90.0
 51
138.78978000000001
  0
LINE
  5
2CF
  8
_0-0_0
  6
CONTINUOUS
 62
     5
 10
101.44136
 20
123.90482
 30
0.0
 11
101.5985699999999
 21
124.1770999999999
 31
0.0
  0
LINE
  5
2D0
  8
_0-0_0
  6
CONTINUOUS
 62
     5
 10
101.7385699999999
 20
124.17895
 30
0.0
 11
101.5294499999999
 21
123.81674
 31
0.0
  0
LINE
  5
2D1
  8
_0-0_0
  6
CONTINUOUS
 62
     5
 10
102.22769
 20
123.81674
 30
0.0
 11
102.01857
 21
124.17895
 31
0.0
  0
LINE
  5
2D2
  8
_0-0_0
  6
CONTINUOUS
 62
     5
 10
102.1585699999999
 20
124.1770999999999
 30
0.0
 11
102.31577
 21
123.90482
 31
0.0
  0
LINE
  5
2D3
  8
_0-0_0
  6
CONTINUOUS
 62
     5
 10
101.7385699999999
 20
122.70028000000001
 30
0.0
 11
102.01857
 21
124.2349499999999
 31
0.0
  0
LINE
  5
2D4
  8
_0-0_0
  6
CONTINUOUS
 62
     5
 10
101.7385699999999
 20
122.75628
 30
0.0
 11
102.01857
 21
124.17895
 31
0.0
  0
LINE
  5
2D5
  8
_0-0_0
  6
CONTINUOUS
 62
     5
 10
102.01857
 20
122.75628
 30
0.0
 11
101.7385699999999
 21
124.17895
 31
0.0
  0
LINE
  5
2D6
  8
_0-0_0
  6
CONTINUOUS
 62
     5
 10
102.01857
 20
122.70028000000001
 30
0.0
 11
101.7385699999999
 21
124.2349499999999
 31
0.0
  0
ARC
  5
2D7
  8
_0-0_0
  6
CONTINUOUS
 62
     5
 10
101.87857
 20
123.46760999999989
 30
0.0
 40
3.1000000000000001
 50
333.07152000000002
 51
26.928477999999998
  0
LINE
  5
2D8
  8
_0-0_0
  6
CONTINUOUS
 62
     5
 10
104.64243999999999
 20
112.88805000000001
 30
0.0
 11
104.64243999999999
 21
122.0636899999998
 31
0.0
  0
LINE
  5
2D9
  8
_0-0_0
  6
CONTINUOUS
 62
     5
 10
103.87645000000001
 20
112.88805000000001
 30
0.0
 11
104.64243999999999
 21
112.88805000000001
 31
0.0
  0
LINE
  5
2DA
  8
_0-0_0
  6
CONTINUOUS
 62
     5
 10
101.44136
 20
123.03041
 30
0.0
 11
102.31577
 21
123.90482
 31
0.0
  0
LINE
  5
2DB
  8
_0-0_0
  6
CONTINUOUS
 62
     5
 10
101.16907999999999
 20
123.74760999999999
 30
0.0
 11
101.44136
 21
123.90482
 31
0.0
  0
LINE
  5
2DC
  8
_0-0_0
  6
CONTINUOUS
 62
     5
 10
101.5294499999999
 20
123.81674
 30
0.0
 11
101.16723
 21
123.60760999999999
 31
0.0
  0
LINE
  5
2DD
  8
_0-0_0
  6
CONTINUOUS
 62
     5
 10
102.22769
 20
123.1184899999998
 30
0.0
 11
102.5899
 21
123.32761000000001
 31
0.0
  0
LINE
  5
2DE
  8
_0-0_0
  6
CONTINUOUS
 62
     5
 10
102.58806
 20
123.18761000000001
 30
0.0
 11
102.31577
 21
123.03041
 31
0.0
  0
LINE
  5
2DF
  8
_0-0_0
  6
CONTINUOUS
 62
     5
 10
101.16907999999999
 20
123.18761000000001
 30
0.0
 11
101.16723
 21
123.32761000000001
 31
0.0
  0
LINE
  5
2E0
  8
_0-0_0
  6
CONTINUOUS
 62
     5
 10
102.58806
 20
123.74760999999999
 30
0.0
 11
102.5899
 21
123.60760999999999
 31
0.0
  0
LINE
  5
2E1
  8
_0-0_0
  6
CONTINUOUS
 62
     5
 10
101.16907999999999
 20
123.74760999999999
 30
0.0
 11
101.16723
 21
123.60760999999999
 31
0.0
  0
LINE
  5
2E2
  8
_0-0_0
  6
CONTINUOUS
 62
     5
 10
102.58806
 20
123.18761000000001
 30
0.0
 11
102.5899
 21
123.32761000000001
 31
0.0
  0
LINE
  5
2E3
  8
_0-0_0
  6
CONTINUOUS
 62
     5
 10
102.31577
 20
123.03041
 30
0.0
 11
101.44136
 21
123.90482
 31
0.0
  0
LINE
  5
2E4
  8
_0-0_0
  6
CONTINUOUS
 62
     5
 10
101.44136
 20
123.03041
 30
0.0
 11
101.16907999999999
 21
123.18761000000001
 31
0.0
  0
LINE
  5
2E5
  8
_0-0_0
  6
CONTINUOUS
 62
     5
 10
101.16723
 20
123.32761000000001
 30
0.0
 11
101.5294499999999
 21
123.1184899999998
 31
0.0
  0
LINE
  5
2E6
  8
_0-0_0
  6
CONTINUOUS
 62
     5
 10
102.5899
 20
123.60760999999999
 30
0.0
 11
102.22769
 21
123.81674
 31
0.0
  0
LINE
  5
2E7
  8
_0-0_0
  6
CONTINUOUS
 62
     5
 10
102.31577
 20
123.90482
 30
0.0
 11
102.58806
 21
123.74760999999999
 31
0.0
  0
LINE
  5
2E8
  8
_0-0_0
  6
CONTINUOUS
 62
     5
 10
101.11123000000001
 20
123.60760999999999
 30
0.0
 11
102.6459
 21
123.32761000000001
 31
0.0
  0
LINE
  5
2E9
  8
_0-0_0
  6
CONTINUOUS
 62
     5
 10
101.16723
 20
123.60760999999999
 30
0.0
 11
102.5899
 21
123.32761000000001
 31
0.0
  0
LINE
  5
2EA
  8
_0-0_0
  6
CONTINUOUS
 62
     5
 10
103.14806
 20
123.18761000000001
 30
0.0
 11
102.6459
 21
123.32761000000001
 31
0.0
  0
LINE
  5
2EB
  8
_0-0_0
  6
CONTINUOUS
 62
     5
 10
103.14806
 20
123.18761000000001
 30
0.0
 11
102.58806
 21
123.18761000000001
 31
0.0
  0
LINE
  5
2EC
  8
_0-0_0
  6
CONTINUOUS
 62
     5
 10
101.11123000000001
 20
123.32761000000001
 30
0.0
 11
101.16723
 21
123.32761000000001
 31
0.0
  0
LINE
  5
2ED
  8
_0-0_0
  6
CONTINUOUS
 62
     5
 10
102.5899
 20
123.32761000000001
 30
0.0
 11
102.6459
 21
123.32761000000001
 31
0.0
  0
LINE
  5
2EE
  8
_0-0_0
  6
CONTINUOUS
 62
     5
 10
102.6459
 20
123.60760999999999
 30
0.0
 11
102.5899
 21
123.60760999999999
 31
0.0
  0
LINE
  5
2EF
  8
_0-0_0
  6
CONTINUOUS
 62
     5
 10
101.16723
 20
123.60760999999999
 30
0.0
 11
101.11123000000001
 21
123.60760999999999
 31
0.0
  0
LINE
  5
2F0
  8
_0-0_0
  6
CONTINUOUS
 62
     5
 10
102.58806
 20
123.74760999999999
 30
0.0
 11
103.14806
 21
123.74760999999999
 31
0.0
  0
LINE
  5
2F1
  8
_0-0_0
  6
CONTINUOUS
 62
     5
 10
101.16723
 20
123.32761000000001
 30
0.0
 11
102.5899
 21
123.60760999999999
 31
0.0
  0
LINE
  5
2F2
  8
_0-0_0
  6
CONTINUOUS
 62
     5
 10
101.11123000000001
 20
123.32761000000001
 30
0.0
 11
102.6459
 21
123.60760999999999
 31
0.0
  0
LINE
  5
2F3
  8
_0-0_0
  6
CONTINUOUS
 62
     5
 10
103.14806
 20
123.74760999999999
 30
0.0
 11
102.6459
 21
123.60760999999999
 31
0.0
  0
ARC
  5
2F4
  8
_0-0_0
  6
CONTINUOUS
 62
     5
 10
101.87857
 20
123.46760999999989
 30
0.0
 40
0.7800000000000003
 50
169.6601
 51
190.33989
  0
ARC
  5
2F5
  8
_0-0_0
  6
CONTINUOUS
 62
     5
 10
101.87857
 20
123.46760999999989
 30
0.0
 40
0.7800000000000003
 50
349.6601
 51
10.339889999999979
  0
ARC
  5
2F6
  8
_0-0_0
  6
CONTINUOUS
 62
     5
 10
101.87857
 20
123.46760999999989
 30
0.0
 40
1.3
 50
347.56189999999998
 51
12.438091999999999
  0
LINE
  5
2F7
  8
_0-0_0
  6
CONTINUOUS
 62
     5
 10
104.64243999999999
 20
122.0636899999998
 30
0.0
 11
104.5610099999999
 21
122.08333
 31
0.0
  0
LINE
  5
2F8
  8
_0-0_0
  6
CONTINUOUS
 62
     5
 10
104.5610099999999
 20
122.08333
 30
0.0
 11
104.54082
 21
122.0882399999998
 31
0.0
  0
LINE
  5
2F9
  8
_0-0_0
  6
CONTINUOUS
 62
     5
 10
101.5985699999999
 20
122.1981199999998
 30
0.0
 11
101.7385699999999
 21
122.70028000000001
 31
0.0
  0
LINE
  5
2FA
  8
_0-0_0
  6
CONTINUOUS
 62
     5
 10
101.5985699999999
 20
122.1981199999998
 30
0.0
 11
101.5985699999999
 21
122.75811999999991
 31
0.0
  0
LINE
  5
2FB
  8
_0-0_0
  6
CONTINUOUS
 62
     5
 10
101.7385699999999
 20
122.75628
 30
0.0
 11
101.7385699999999
 21
122.70028000000001
 31
0.0
  0
LINE
  5
2FC
  8
_0-0_0
  6
CONTINUOUS
 62
     5
 10
102.01857
 20
122.70028000000001
 30
0.0
 11
102.01857
 21
122.75628
 31
0.0
  0
LINE
  5
2FD
  8
_0-0_0
  6
CONTINUOUS
 62
     5
 10
102.1585699999999
 20
122.75811999999991
 30
0.0
 11
102.1585699999999
 21
122.1981199999998
 31
0.0
  0
LINE
  5
2FE
  8
_0-0_0
  6
CONTINUOUS
 62
     5
 10
102.1585699999999
 20
122.1981199999998
 30
0.0
 11
102.01857
 21
122.70028000000001
 31
0.0
  0
LINE
  5
2FF
  8
_0-0_0
  6
CONTINUOUS
 62
     5
 10
102.1585699999999
 20
122.75811999999991
 30
0.0
 11
102.01857
 21
122.75628
 31
0.0
  0
LINE
  5
300
  8
_0-0_0
  6
CONTINUOUS
 62
     5
 10
101.5985699999999
 20
122.75811999999991
 30
0.0
 11
101.7385699999999
 21
122.75628
 31
0.0
  0
ARC
  5
301
  8
_0-0_0
  6
CONTINUOUS
 62
     5
 10
101.87857
 20
123.46760999999989
 30
0.0
 40
0.7800000000000003
 50
259.6601
 51
280.33988999999991
  0
ARC
  5
302
  8
_0-0_0
  6
CONTINUOUS
 62
     5
 10
101.87857
 20
123.46760999999989
 30
0.0
 40
1.3
 50
257.56189999999992
 51
282.43808999999999
  0
ARC
  5
303
  8
_0-0_0
  6
CONTINUOUS
 62
     5
 10
103.64243999999999
 20
121.18805
 30
0.0
 40
1.0
 50
270.0
 51
0.0
  0
LINE
  5
304
  8
_0-0_0
  6
CONTINUOUS
 62
     5
 10
102.01857
 20
122.75628
 30
0.0
 11
102.22769
 21
123.1184899999998
 31
0.0
  0
LINE
  5
305
  8
_0-0_0
  6
CONTINUOUS
 62
     5
 10
102.31577
 20
123.03041
 30
0.0
 11
102.1585699999999
 21
122.75811999999991
 31
0.0
  0
LINE
  5
306
  8
_0-0_0
  6
CONTINUOUS
 62
     5
 10
101.5985699999999
 20
122.75811999999991
 30
0.0
 11
101.44136
 21
123.03041
 31
0.0
  0
LINE
  5
307
  8
_0-0_0
  6
CONTINUOUS
 62
     5
 10
101.5294499999999
 20
123.1184899999998
 30
0.0
 11
101.7385699999999
 21
122.75628
 31
0.0
  0
LINE
  5
308
  8
_0-0_0
  6
CONTINUOUS
 62
     5
 10
104.64243999999999
 20
124.87153000000001
 30
0.0
 11
104.64243999999999
 21
130.33147
 31
0.0
  0
LINE
  5
309
  8
_0-0_0
  6
CONTINUOUS
 62
     5
 10
104.54082
 20
124.84698999999991
 30
0.0
 11
104.64243999999999
 21
124.87153000000001
 31
0.0
  0
LINE
  5
30A
  8
_0-0_0
  6
CONTINUOUS
 62
     5
 10
103.64243999999999
 20
126.56761
 30
0.0
 11
101.87857
 21
126.56761
 31
0.0
  0
LINE
  5
30B
  8
_0-0_0
  6
CONTINUOUS
 62
     5
 10
102.1585699999999
 20
124.7371
 30
0.0
 11
102.01857
 21
124.2349499999999
 31
0.0
  0
LINE
  5
30C
  8
_0-0_0
  6
CONTINUOUS
 62
     5
 10
101.5985699999999
 20
124.1770999999999
 30
0.0
 11
101.5985699999999
 21
124.7371
 31
0.0
  0
LINE
  5
30D
  8
_0-0_0
  6
CONTINUOUS
 62
     5
 10
101.7385699999999
 20
124.2349499999999
 30
0.0
 11
101.7385699999999
 21
124.17895
 31
0.0
  0
LINE
  5
30E
  8
_0-0_0
  6
CONTINUOUS
 62
     5
 10
102.01857
 20
124.17895
 30
0.0
 11
102.01857
 21
124.2349499999999
 31
0.0
  0
LINE
  5
30F
  8
_0-0_0
  6
CONTINUOUS
 62
     5
 10
102.1585699999999
 20
124.7371
 30
0.0
 11
102.1585699999999
 21
124.1770999999999
 31
0.0
  0
LINE
  5
310
  8
_0-0_0
  6
CONTINUOUS
 62
     5
 10
101.5985699999999
 20
124.7371
 30
0.0
 11
101.7385699999999
 21
124.2349499999999
 31
0.0
  0
LINE
  5
311
  8
_0-0_0
  6
CONTINUOUS
 62
     5
 10
101.5985699999999
 20
124.1770999999999
 30
0.0
 11
101.7385699999999
 21
124.17895
 31
0.0
  0
LINE
  5
312
  8
_0-0_0
  6
CONTINUOUS
 62
     5
 10
102.1585699999999
 20
124.1770999999999
 30
0.0
 11
102.01857
 21
124.17895
 31
0.0
  0
ARC
  5
313
  8
_0-0_0
  6
CONTINUOUS
 62
     5
 10
101.87857
 20
123.46760999999989
 30
0.0
 40
0.7800000000000003
 50
79.660108999999963
 51
100.33989
  0
ARC
  5
314
  8
_0-0_0
  6
CONTINUOUS
 62
     5
 10
101.87857
 20
123.46760999999989
 30
0.0
 40
1.3
 50
77.56189999999998
 51
102.43809
  0
ARC
  5
315
  8
_0-0_0
  6
CONTINUOUS
 62
     5
 10
103.64243999999999
 20
127.56761
 30
0.0
 40
1.0
 50
270.0
 51
0.0
  0
LINE
  5
316
  8
_0-0_0
  6
CONTINUOUS
 62
     5
 10
104.64243999999999
 20
130.33147
 30
0.0
 11
104.6315799999999
 21
130.33223000000001
 31
0.0
  0
ARC
  5
317
  8
_0-0_0
  6
CONTINUOUS
 62
     5
 10
84.342446999999979
 20
133.18805
 30
0.0
 40
20.5
 50
81.990056999999979
 51
98.009942000000009
  0
LINE
  5
318
  8
_0-0_0
  6
CONTINUOUS
 62
     5
 10
68.356125000000006
 20
146.18805
 30
0.0
 11
65.042446999999996
 21
146.18805
 31
0.0
  0
LINE
  5
319
  8
_0-0_0
  6
CONTINUOUS
 62
     5
 10
66.542446999999996
 20
153.48804999999979
 30
0.0
 11
73.218093000000025
 21
153.48804999999979
 31
0.0
  0
LINE
  5
31A
  8
_0-0_0
  6
CONTINUOUS
 62
     5
 10
64.042446999999996
 20
150.9880499999999
 30
0.0
 11
64.042446999999996
 21
136.04462000000001
 31
0.0
  0
ARC
  5
31B
  8
_0-0_0
  6
CONTINUOUS
 62
     5
 10
65.042446999999996
 20
145.18805
 30
0.0
 40
1.0
 50
90.0
 51
180.0
  0
ARC
  5
31C
  8
_0-0_0
  6
CONTINUOUS
 62
     5
 10
66.542446999999996
 20
150.9880499999999
 30
0.0
 40
2.5
 50
90.0
 51
180.0
  0
ARC
  5
31D
  8
_0-0_0
  6
CONTINUOUS
 62
     5
 10
84.342446999999979
 20
133.18805
 30
0.0
 40
20.249999999999989
 50
131.2102099999999
 51
138.78978000000001
  0
ARC
  5
31E
  8
_0-0_0
  6
CONTINUOUS
 62
     5
 10
74.622013999999993
 20
150.7241699999999
 30
0.0
 40
3.1000000000000001
 50
232.12003000000001
 51
0.0
  0
ARC
  5
31F
  8
_0-0_0
  6
CONTINUOUS
 62
     5
 10
68.356125000000006
 20
147.18805
 30
0.0
 40
1.0
 50
270.0
 51
318.78978000000001
  0
LINE
  5
320
  8
_0-0_0
  6
CONTINUOUS
 62
     5
 10
81.485876000000005
 20
153.48804999999979
 30
0.0
 11
76.025936000000002
 21
153.48804999999979
 31
0.0
  0
CIRCLE
  5
321
  8
_0-0_0
  6
CONTINUOUS
 62
     5
 10
74.622013999999993
 20
150.7241699999999
 30
0.0
 40
3.0
  0
CIRCLE
  5
322
  8
_0-0_0
  6
CONTINUOUS
 62
     5
 10
74.622013999999993
 20
150.7241699999999
 30
0.0
 40
2.25
  0
ARC
  5
323
  8
_0-0_0
  6
CONTINUOUS
 62
     5
 10
72.342446999999964
 20
152.4880499999999
 30
0.0
 40
1.0
 50
90.0
 51
180.0
  0
ARC
  5
324
  8
_0-0_0
  6
CONTINUOUS
 62
     5
 10
72.10457599999998
 20
147.4880499999999
 30
0.0
 40
1.0
 50
52.120032000000002
 51
90.0
  0
LINE
  5
325
  8
_0-0_0
  6
CONTINUOUS
 62
     5
 10
72.10457599999998
 20
148.48804999999979
 30
0.0
 11
71.455534999999998
 21
148.48804999999979
 31
0.0
  0
LINE
  5
326
  8
_0-0_0
  6
CONTINUOUS
 62
     5
 10
71.001269999999977
 20
148.42206999999991
 30
0.0
 11
70.786085
 21
148.23089999999979
 31
0.0
  0
ARC
  5
327
  8
_0-0_0
  6
CONTINUOUS
 62
     5
 10
70.342446999999993
 20
149.17436999999981
 30
0.0
 40
1.0
 50
311.21021000000002
 51
0.0
  0
ARC
  5
328
  8
_0-0_0
  6
CONTINUOUS
 62
     5
 10
71.455534999999998
 20
147.4880499999999
 30
0.0
 40
1.0
 50
90.0
 51
132.02461999999991
  0
LINE
  5
329
  8
_0-0_0
  6
CONTINUOUS
 62
     5
 10
71.342446999999979
 20
149.17436999999981
 30
0.0
 11
71.342446999999979
 21
152.4880499999999
 31
0.0
  0
LINE
  5
32A
  8
_0-0_0
  6
CONTINUOUS
 62
     5
 10
75.331502
 20
150.4441699999999
 30
0.0
 11
75.333347000000003
 21
150.5841699999998
 31
0.0
  0
LINE
  5
32B
  8
_0-0_0
  6
CONTINUOUS
 62
     5
 10
75.331502
 20
151.0041699999999
 30
0.0
 11
75.333347000000003
 21
150.86417
 31
0.0
  0
LINE
  5
32C
  8
_0-0_0
  6
CONTINUOUS
 62
     5
 10
75.891502000000003
 20
150.4441699999999
 30
0.0
 11
75.389347000000001
 21
150.5841699999998
 31
0.0
  0
LINE
  5
32D
  8
_0-0_0
  6
CONTINUOUS
 62
     5
 10
75.891502000000003
 20
150.4441699999999
 30
0.0
 11
75.331502
 21
150.4441699999999
 31
0.0
  0
LINE
  5
32E
  8
_0-0_0
  6
CONTINUOUS
 62
     5
 10
75.333347000000003
 20
150.5841699999998
 30
0.0
 11
75.389347000000001
 21
150.5841699999998
 31
0.0
  0
LINE
  5
32F
  8
_0-0_0
  6
CONTINUOUS
 62
     5
 10
75.389347000000001
 20
150.86417
 30
0.0
 11
75.333347000000003
 21
150.86417
 31
0.0
  0
LINE
  5
330
  8
_0-0_0
  6
CONTINUOUS
 62
     5
 10
75.331502
 20
151.0041699999999
 30
0.0
 11
75.891502000000003
 21
151.0041699999999
 31
0.0
  0
LINE
  5
331
  8
_0-0_0
  6
CONTINUOUS
 62
     5
 10
75.891502000000003
 20
151.0041699999999
 30
0.0
 11
75.389347000000001
 21
150.86417
 31
0.0
  0
ARC
  5
332
  8
_0-0_0
  6
CONTINUOUS
 62
     5
 10
74.622013999999993
 20
150.7241699999999
 30
0.0
 40
0.7800000000000003
 50
349.6601
 51
10.339889999999979
  0
ARC
  5
333
  8
_0-0_0
  6
CONTINUOUS
 62
     5
 10
74.622013999999993
 20
150.7241699999999
 30
0.0
 40
1.3
 50
347.56189999999998
 51
12.438091999999999
  0
LINE
  5
334
  8
_0-0_0
  6
CONTINUOUS
 62
     5
 10
75.059218000000001
 20
150.28696999999991
 30
0.0
 11
74.902013999999994
 21
150.01468
 31
0.0
  0
LINE
  5
335
  8
_0-0_0
  6
CONTINUOUS
 62
     5
 10
74.902013999999994
 20
151.99366000000001
 30
0.0
 11
74.902013999999994
 21
151.43366
 31
0.0
  0
LINE
  5
336
  8
_0-0_0
  6
CONTINUOUS
 62
     5
 10
74.902013999999994
 20
150.01468
 30
0.0
 11
74.902013999999994
 21
149.45467999999991
 31
0.0
  0
LINE
  5
337
  8
_0-0_0
  6
CONTINUOUS
 62
     5
 10
74.902013999999994
 20
151.43366
 30
0.0
 11
75.059218000000001
 21
151.16137000000001
 31
0.0
  0
LINE
  5
338
  8
_0-0_0
  6
CONTINUOUS
 62
     5
 10
74.971136000000001
 20
150.3750499999999
 30
0.0
 11
75.333347000000003
 21
150.5841699999998
 31
0.0
  0
LINE
  5
339
  8
_0-0_0
  6
CONTINUOUS
 62
     5
 10
75.331502
 20
150.4441699999999
 30
0.0
 11
75.059218000000001
 21
150.28696999999991
 31
0.0
  0
LINE
  5
33A
  8
_0-0_0
  6
CONTINUOUS
 62
     5
 10
75.333347000000003
 20
150.86417
 30
0.0
 11
74.971136000000001
 21
151.07328999999979
 31
0.0
  0
LINE
  5
33B
  8
_0-0_0
  6
CONTINUOUS
 62
     5
 10
75.059218000000001
 20
151.16137000000001
 30
0.0
 11
75.331502
 21
151.0041699999999
 31
0.0
  0
LINE
  5
33C
  8
_0-0_0
  6
CONTINUOUS
 62
     5
 10
74.184809999999985
 20
151.16137000000001
 30
0.0
 11
74.342014000000006
 21
151.43366
 31
0.0
  0
LINE
  5
33D
  8
_0-0_0
  6
CONTINUOUS
 62
     5
 10
74.482014000000007
 20
151.43549999999991
 30
0.0
 11
74.272891999999999
 21
151.07328999999979
 31
0.0
  0
LINE
  5
33E
  8
_0-0_0
  6
CONTINUOUS
 62
     5
 10
74.482014000000007
 20
149.95684
 30
0.0
 11
74.762013999999979
 21
151.4915
 31
0.0
  0
LINE
  5
33F
  8
_0-0_0
  6
CONTINUOUS
 62
     5
 10
74.482014000000007
 20
150.0128399999999
 30
0.0
 11
74.762013999999979
 21
151.43549999999991
 31
0.0
  0
LINE
  5
340
  8
_0-0_0
  6
CONTINUOUS
 62
     5
 10
74.342014000000006
 20
149.45467999999991
 30
0.0
 11
74.482014000000007
 21
149.95684
 31
0.0
  0
LINE
  5
341
  8
_0-0_0
  6
CONTINUOUS
 62
     5
 10
73.912526
 20
151.0041699999999
 30
0.0
 11
74.184809999999985
 21
151.16137000000001
 31
0.0
  0
LINE
  5
342
  8
_0-0_0
  6
CONTINUOUS
 62
     5
 10
74.272891999999999
 20
151.07328999999979
 30
0.0
 11
73.910681000000025
 21
150.86417
 31
0.0
  0
LINE
  5
343
  8
_0-0_0
  6
CONTINUOUS
 62
     5
 10
73.912526
 20
150.4441699999999
 30
0.0
 11
73.910681000000025
 21
150.5841699999998
 31
0.0
  0
LINE
  5
344
  8
_0-0_0
  6
CONTINUOUS
 62
     5
 10
74.342014000000006
 20
149.45467999999991
 30
0.0
 11
74.342014000000006
 21
150.01468
 31
0.0
  0
LINE
  5
345
  8
_0-0_0
  6
CONTINUOUS
 62
     5
 10
74.342014000000006
 20
151.43366
 30
0.0
 11
74.342014000000006
 21
151.99366000000001
 31
0.0
  0
LINE
  5
346
  8
_0-0_0
  6
CONTINUOUS
 62
     5
 10
74.482014000000007
 20
151.4915
 30
0.0
 11
74.482014000000007
 21
151.43549999999991
 31
0.0
  0
LINE
  5
347
  8
_0-0_0
  6
CONTINUOUS
 62
     5
 10
74.482014000000007
 20
150.0128399999999
 30
0.0
 11
74.482014000000007
 21
149.95684
 31
0.0
  0
LINE
  5
348
  8
_0-0_0
  6
CONTINUOUS
 62
     5
 10
74.762013999999979
 20
149.95684
 30
0.0
 11
74.762013999999979
 21
150.0128399999999
 31
0.0
  0
LINE
  5
349
  8
_0-0_0
  6
CONTINUOUS
 62
     5
 10
74.762013999999979
 20
151.43549999999991
 30
0.0
 11
74.762013999999979
 21
151.4915
 31
0.0
  0
LINE
  5
34A
  8
_0-0_0
  6
CONTINUOUS
 62
     5
 10
73.912526
 20
151.0041699999999
 30
0.0
 11
73.910681000000025
 21
150.86417
 31
0.0
  0
LINE
  5
34B
  8
_0-0_0
  6
CONTINUOUS
 62
     5
 10
74.762013999999979
 20
150.0128399999999
 30
0.0
 11
74.482014000000007
 21
151.43549999999991
 31
0.0
  0
LINE
  5
34C
  8
_0-0_0
  6
CONTINUOUS
 62
     5
 10
74.762013999999979
 20
149.95684
 30
0.0
 11
74.482014000000007
 21
151.4915
 31
0.0
  0
LINE
  5
34D
  8
_0-0_0
  6
CONTINUOUS
 62
     5
 10
74.342014000000006
 20
151.99366000000001
 30
0.0
 11
74.482014000000007
 21
151.4915
 31
0.0
  0
LINE
  5
34E
  8
_0-0_0
  6
CONTINUOUS
 62
     5
 10
74.342014000000006
 20
150.01468
 30
0.0
 11
74.184809999999985
 21
150.28696999999991
 31
0.0
  0
LINE
  5
34F
  8
_0-0_0
  6
CONTINUOUS
 62
     5
 10
74.272891999999999
 20
150.3750499999999
 30
0.0
 11
74.482014000000007
 21
150.0128399999999
 31
0.0
  0
LINE
  5
350
  8
_0-0_0
  6
CONTINUOUS
 62
     5
 10
74.184809999999985
 20
150.28696999999991
 30
0.0
 11
73.912526
 21
150.4441699999999
 31
0.0
  0
LINE
  5
351
  8
_0-0_0
  6
CONTINUOUS
 62
     5
 10
73.910681000000025
 20
150.5841699999998
 30
0.0
 11
74.272891999999999
 21
150.3750499999999
 31
0.0
  0
LINE
  5
352
  8
_0-0_0
  6
CONTINUOUS
 62
     5
 10
73.352525999999983
 20
151.0041699999999
 30
0.0
 11
73.854680999999999
 21
150.86417
 31
0.0
  0
LINE
  5
353
  8
_0-0_0
  6
CONTINUOUS
 62
     5
 10
74.342014000000006
 20
151.43366
 30
0.0
 11
74.482014000000007
 21
151.43549999999991
 31
0.0
  0
LINE
  5
354
  8
_0-0_0
  6
CONTINUOUS
 62
     5
 10
73.912526
 20
150.4441699999999
 30
0.0
 11
73.352525999999983
 21
150.4441699999999
 31
0.0
  0
LINE
  5
355
  8
_0-0_0
  6
CONTINUOUS
 62
     5
 10
73.854680999999999
 20
150.5841699999998
 30
0.0
 11
73.910681000000025
 21
150.5841699999998
 31
0.0
  0
LINE
  5
356
  8
_0-0_0
  6
CONTINUOUS
 62
     5
 10
73.910681000000025
 20
150.86417
 30
0.0
 11
73.854680999999999
 21
150.86417
 31
0.0
  0
LINE
  5
357
  8
_0-0_0
  6
CONTINUOUS
 62
     5
 10
73.352525999999983
 20
151.0041699999999
 30
0.0
 11
73.912526
 21
151.0041699999999
 31
0.0
  0
LINE
  5
358
  8
_0-0_0
  6
CONTINUOUS
 62
     5
 10
74.342014000000006
 20
150.01468
 30
0.0
 11
74.482014000000007
 21
150.0128399999999
 31
0.0
  0
LINE
  5
359
  8
_0-0_0
  6
CONTINUOUS
 62
     5
 10
73.352525999999983
 20
150.4441699999999
 30
0.0
 11
73.854680999999999
 21
150.5841699999998
 31
0.0
  0
ARC
  5
35A
  8
_0-0_0
  6
CONTINUOUS
 62
     5
 10
74.622013999999993
 20
150.7241699999999
 30
0.0
 40
0.7800000000000003
 50
169.6601
 51
190.33989
  0
ARC
  5
35B
  8
_0-0_0
  6
CONTINUOUS
 62
     5
 10
74.622013999999993
 20
150.7241699999999
 30
0.0
 40
0.7800000000000003
 50
259.6601
 51
280.33988999999991
  0
ARC
  5
35C
  8
_0-0_0
  6
CONTINUOUS
 62
     5
 10
74.622013999999993
 20
150.7241699999999
 30
0.0
 40
0.7800000000000003
 50
79.660108999999963
 51
100.33989
  0
ARC
  5
35D
  8
_0-0_0
  6
CONTINUOUS
 62
     5
 10
74.622013999999993
 20
150.7241699999999
 30
0.0
 40
1.3
 50
167.56190000000001
 51
192.4380899999999
  0
LINE
  5
35E
  8
_0-0_0
  6
CONTINUOUS
 62
     5
 10
74.762013999999979
 20
150.0128399999999
 30
0.0
 11
74.971136000000001
 21
150.3750499999999
 31
0.0
  0
LINE
  5
35F
  8
_0-0_0
  6
CONTINUOUS
 62
     5
 10
74.184809999999985
 20
150.28696999999991
 30
0.0
 11
75.059218000000001
 21
151.16137000000001
 31
0.0
  0
LINE
  5
360
  8
_0-0_0
  6
CONTINUOUS
 62
     5
 10
74.902013999999994
 20
151.99366000000001
 30
0.0
 11
74.762013999999979
 21
151.4915
 31
0.0
  0
LINE
  5
361
  8
_0-0_0
  6
CONTINUOUS
 62
     5
 10
74.902013999999994
 20
149.45467999999991
 30
0.0
 11
74.762013999999979
 21
149.95684
 31
0.0
  0
LINE
  5
362
  8
_0-0_0
  6
CONTINUOUS
 62
     5
 10
74.971136000000001
 20
151.07328999999979
 30
0.0
 11
74.762013999999979
 21
151.43549999999991
 31
0.0
  0
LINE
  5
363
  8
_0-0_0
  6
CONTINUOUS
 62
     5
 10
75.059218000000001
 20
150.28696999999991
 30
0.0
 11
74.184809999999985
 21
151.16137000000001
 31
0.0
  0
LINE
  5
364
  8
_0-0_0
  6
CONTINUOUS
 62
     5
 10
74.902013999999994
 20
150.01468
 30
0.0
 11
74.762013999999979
 21
150.0128399999999
 31
0.0
  0
LINE
  5
365
  8
_0-0_0
  6
CONTINUOUS
 62
     5
 10
74.902013999999994
 20
151.43366
 30
0.0
 11
74.762013999999979
 21
151.43549999999991
 31
0.0
  0
ARC
  5
366
  8
_0-0_0
  6
CONTINUOUS
 62
     5
 10
74.622013999999993
 20
150.7241699999999
 30
0.0
 40
1.3
 50
77.56189999999998
 51
102.43809
  0
ARC
  5
367
  8
_0-0_0
  6
CONTINUOUS
 62
     5
 10
74.622013999999993
 20
150.7241699999999
 30
0.0
 40
1.3
 50
257.56189999999992
 51
282.43808999999999
  0
LINE
  5
368
  8
_0-0_0
  6
CONTINUOUS
 62
     5
 10
73.854680999999999
 20
150.86417
 30
0.0
 11
75.389347000000001
 21
150.5841699999998
 31
0.0
  0
LINE
  5
369
  8
_0-0_0
  6
CONTINUOUS
 62
     5
 10
73.910681000000025
 20
150.86417
 30
0.0
 11
75.333347000000003
 21
150.5841699999998
 31
0.0
  0
LINE
  5
36A
  8
_0-0_0
  6
CONTINUOUS
 62
     5
 10
73.910681000000025
 20
150.5841699999998
 30
0.0
 11
75.333347000000003
 21
150.86417
 31
0.0
  0
LINE
  5
36B
  8
_0-0_0
  6
CONTINUOUS
 62
     5
 10
73.854680999999999
 20
150.5841699999998
 30
0.0
 11
75.389347000000001
 21
150.86417
 31
0.0
  0
LINE
  5
36C
  8
_0-0_0
  6
CONTINUOUS
 62
     5
 10
76.00900799999998
 20
153.41776999999979
 30
0.0
 11
76.025936000000002
 21
153.48804999999979
 31
0.0
  0
LINE
  5
36D
  8
_0-0_0
  6
CONTINUOUS
 62
     5
 10
76.001390999999984
 20
153.3864299999999
 30
0.0
 11
76.00900799999998
 21
153.41776999999979
 31
0.0
  0
LINE
  5
36E
  8
_0-0_0
  6
CONTINUOUS
 62
     5
 10
73.242637999999999
 20
153.3864299999999
 30
0.0
 11
73.218093000000025
 21
153.48804999999979
 31
0.0
  0
ARC
  5
36F
  8
_0-0_0
  6
CONTINUOUS
 62
     5
 10
74.622013999999993
 20
150.7241699999999
 30
0.0
 40
3.1000000000000001
 50
63.071520999999997
 51
116.9284699999999
  0
ARC
  5
370
  8
_0-0_0
  6
CONTINUOUS
 62
     5
 10
78.722014000000001
 20
152.4880499999999
 30
0.0
 40
1.0
 50
90.0
 51
180.0
  0
LINE
  5
371
  8
_0-0_0
  6
CONTINUOUS
 62
     5
 10
77.722014000000001
 20
152.4880499999999
 30
0.0
 11
77.722014000000001
 21
150.7241699999999
 31
0.0
  0
LINE
  5
372
  8
_0-0_0
  6
CONTINUOUS
 62
     5
 10
81.486214000000004
 20
153.48321000000001
 30
0.0
 11
81.485876000000005
 21
153.48804999999979
 31
0.0
  0
LINE
  5
373
  8
_0-2_CENTER
  6
CENTER2
 62
     1
 10
97.988220999999996
 20
146.8338199999998
 30
0.0
 11
104.15313999999979
 21
152.99873999999991
 31
0.0
  0
ARC
  5
374
  8
_0-2_CENTER
  6
CENTER2
 62
     1
 10
84.342446999999979
 20
133.18805
 30
0.0
 40
23.0
 50
34.153368
 51
56.779046000000008
  0
LINE
  5
375
  8
_0-0_0
  6
CONTINUOUS
 62
     5
 10
97.664243000000013
 20
153.18804999999981
 30
0.0
 11
101.84244
 21
153.18804999999981
 31
0.0
  0
ARC
  5
376
  8
_0-0_0
  6
CONTINUOUS
 62
     5
 10
100.60590000000001
 20
149.45149999999981
 30
0.0
 40
2.25
 50
293.45888999999983
 51
178.62528999999989
  0
LINE
  5
377
  8
_0-0_0
  6
CONTINUOUS
 62
     5
 10
100.29658000000001
 20
147.38605000000001
 30
0.0
 11
103.64243999999999
 21
147.38605000000001
 31
0.0
  0
LINE
  5
378
  8
_0-0_0
  6
CONTINUOUS
 62
     5
 10
103.64243999999999
 20
147.38804999999991
 30
0.0
 11
100.2930199999999
 21
147.38804999999991
 31
0.0
  0
LINE
  5
379
  8
_0-0_0
  6
CONTINUOUS
 62
     5
 10
100.7205799999999
 20
143.6708499999998
 30
0.0
 11
101.59499
 21
144.54526000000001
 31
0.0
  0
LINE
  5
37A
  8
_0-0_0
  6
CONTINUOUS
 62
     5
 10
101.01778999999991
 20
144.81938999999991
 30
0.0
 11
100.8086599999999
 21
144.45717999999999
 31
0.0
  0
LINE
  5
37B
  8
_0-0_0
  6
CONTINUOUS
 62
     5
 10
100.87779
 20
142.83856999999981
 30
0.0
 11
101.01778999999991
 21
143.34073000000001
 31
0.0
  0
LINE
  5
37C
  8
_0-0_0
  6
CONTINUOUS
 62
     5
 10
100.87779
 20
145.37755000000001
 30
0.0
 11
101.01778999999991
 21
144.87538999999981
 31
0.0
  0
LINE
  5
37D
  8
_0-0_0
  6
CONTINUOUS
 62
     5
 10
100.8086599999999
 20
143.75894
 30
0.0
 11
101.01778999999991
 21
143.39672999999991
 31
0.0
  0
LINE
  5
37E
  8
_0-0_0
  6
CONTINUOUS
 62
     5
 10
101.59499
 20
143.6708499999998
 30
0.0
 11
100.7205799999999
 21
144.54526000000001
 31
0.0
  0
LINE
  5
37F
  8
_0-0_0
  6
CONTINUOUS
 62
     5
 10
100.3904499999999
 20
144.24806000000001
 30
0.0
 11
101.92512000000001
 21
143.96806000000001
 31
0.0
  0
LINE
  5
380
  8
_0-0_0
  6
CONTINUOUS
 62
     5
 10
100.44645
 20
144.24806000000001
 30
0.0
 11
101.8691199999999
 21
143.96806000000001
 31
0.0
  0
LINE
  5
381
  8
_0-0_0
  6
CONTINUOUS
 62
     5
 10
100.87779
 20
144.81755000000001
 30
0.0
 11
101.01778999999991
 21
144.81938999999991
 31
0.0
  0
LINE
  5
382
  8
_0-0_0
  6
CONTINUOUS
 62
     5
 10
100.87779
 20
143.39857000000001
 30
0.0
 11
101.01778999999991
 21
143.39672999999991
 31
0.0
  0
LINE
  5
383
  8
_0-0_0
  6
CONTINUOUS
 62
     5
 10
100.44645
 20
143.96806000000001
 30
0.0
 11
101.8691199999999
 21
144.24806000000001
 31
0.0
  0
LINE
  5
384
  8
_0-0_0
  6
CONTINUOUS
 62
     5
 10
100.3904499999999
 20
143.96806000000001
 30
0.0
 11
101.92512000000001
 21
144.24806000000001
 31
0.0
  0
ARC
  5
385
  8
_0-0_0
  6
CONTINUOUS
 62
     5
 10
101.15779000000001
 20
144.10805999999999
 30
0.0
 40
1.3
 50
77.56189999999998
 51
102.43809
  0
ARC
  5
386
  8
_0-0_0
  6
CONTINUOUS
 62
     5
 10
101.15779000000001
 20
144.10805999999999
 30
0.0
 40
1.3
 50
257.56189999999992
 51
282.43808999999999
  0
CIRCLE
  5
387
  8
_0-0_0
  6
CONTINUOUS
 62
     5
 10
101.15779000000001
 20
144.10805999999999
 30
0.0
 40
2.25
  0
CIRCLE
  5
388
  8
_0-0_0
  6
CONTINUOUS
 62
     5
 10
101.15779000000001
 20
144.10805999999999
 30
0.0
 40
3.0
  0
ARC
  5
389
  8
_0-0_0
  6
CONTINUOUS
 62
     5
 10
101.0504399999999
 20
143.9880499999999
 30
0.0
 40
3.1000000000000001
 50
180.0
 51
270.0
  0
ARC
  5
38A
  8
_0-0_0
  6
CONTINUOUS
 62
     5
 10
102.5504399999999
 20
151.39605
 30
0.0
 40
4.5999999999999979
 50
180.0
 51
240.66137000000001
  0
LINE
  5
38B
  8
_0-0_0
  6
CONTINUOUS
 62
     5
 10
97.950446999999997
 20
143.9880499999999
 30
0.0
 11
97.950446999999997
 21
152.4880499999999
 31
0.0
  0
LINE
  5
38C
  8
_0-0_0
  6
CONTINUOUS
 62
     5
 10
100.2858899999999
 20
147.34513000000001
 30
0.0
 11
100.2448199999999
 21
147.18604999999999
 31
0.0
  0
LINE
  5
38D
  8
_0-0_0
  6
CONTINUOUS
 62
     5
 10
100.29658000000001
 20
147.38605000000001
 30
0.0
 11
100.2858899999999
 21
147.34513000000001
 31
0.0
  0
LINE
  5
38E
  8
_0-0_0
  6
CONTINUOUS
 62
     5
 10
100.7205799999999
 20
144.54526000000001
 30
0.0
 11
100.87779
 21
144.81755000000001
 31
0.0
  0
LINE
  5
38F
  8
_0-0_0
  6
CONTINUOUS
 62
     5
 10
100.4483
 20
144.38805999999991
 30
0.0
 11
100.7205799999999
 21
144.54526000000001
 31
0.0
  0
LINE
  5
390
  8
_0-0_0
  6
CONTINUOUS
 62
     5
 10
100.8086599999999
 20
144.45717999999999
 30
0.0
 11
100.44645
 21
144.24806000000001
 31
0.0
  0
LINE
  5
391
  8
_0-0_0
  6
CONTINUOUS
 62
     5
 10
100.4483
 20
143.82805999999991
 30
0.0
 11
100.44645
 21
143.96806000000001
 31
0.0
  0
LINE
  5
392
  8
_0-0_0
  6
CONTINUOUS
 62
     5
 10
100.87779
 20
142.83856999999981
 30
0.0
 11
100.87779
 21
143.39857000000001
 31
0.0
  0
LINE
  5
393
  8
_0-0_0
  6
CONTINUOUS
 62
     5
 10
100.87779
 20
144.81755000000001
 30
0.0
 11
100.87779
 21
145.37755000000001
 31
0.0
  0
LINE
  5
394
  8
_0-0_0
  6
CONTINUOUS
 62
     5
 10
100.4483
 20
144.38805999999991
 30
0.0
 11
100.44645
 21
144.24806000000001
 31
0.0
  0
LINE
  5
395
  8
_0-0_0
  6
CONTINUOUS
 62
     5
 10
100.87779
 20
143.39857000000001
 30
0.0
 11
100.7205799999999
 21
143.6708499999998
 31
0.0
  0
LINE
  5
396
  8
_0-0_0
  6
CONTINUOUS
 62
     5
 10
100.7205799999999
 20
143.6708499999998
 30
0.0
 11
100.4483
 21
143.82805999999991
 31
0.0
  0
LINE
  5
397
  8
_0-0_0
  6
CONTINUOUS
 62
     5
 10
100.44645
 20
143.96806000000001
 30
0.0
 11
100.8086599999999
 21
143.75894
 31
0.0
  0
LINE
  5
398
  8
_0-0_0
  6
CONTINUOUS
 62
     5
 10
99.888304000000005
 20
144.38805999999991
 30
0.0
 11
100.3904499999999
 21
144.24806000000001
 31
0.0
  0
LINE
  5
399
  8
_0-0_0
  6
CONTINUOUS
 62
     5
 10
100.4483
 20
143.82805999999991
 30
0.0
 11
99.888304000000005
 21
143.82805999999991
 31
0.0
  0
LINE
  5
39A
  8
_0-0_0
  6
CONTINUOUS
 62
     5
 10
100.3904499999999
 20
143.96806000000001
 30
0.0
 11
100.44645
 21
143.96806000000001
 31
0.0
  0
LINE
  5
39B
  8
_0-0_0
  6
CONTINUOUS
 62
     5
 10
100.44645
 20
144.24806000000001
 30
0.0
 11
100.3904499999999
 21
144.24806000000001
 31
0.0
  0
LINE
  5
39C
  8
_0-0_0
  6
CONTINUOUS
 62
     5
 10
99.888304000000005
 20
144.38805999999991
 30
0.0
 11
100.4483
 21
144.38805999999991
 31
0.0
  0
LINE
  5
39D
  8
_0-0_0
  6
CONTINUOUS
 62
     5
 10
99.888304000000005
 20
143.82805999999991
 30
0.0
 11
100.3904499999999
 21
143.96806000000001
 31
0.0
  0
ARC
  5
39E
  8
_0-0_0
  6
CONTINUOUS
 62
     5
 10
101.15779000000001
 20
144.10805999999999
 30
0.0
 40
0.7800000000000003
 50
169.6601
 51
190.33989
  0
ARC
  5
39F
  8
_0-0_0
  6
CONTINUOUS
 62
     5
 10
101.15779000000001
 20
144.10805999999999
 30
0.0
 40
1.3
 50
167.56190000000001
 51
192.4380899999999
  0
LINE
  5
3A0
  8
_0-0_0
  6
CONTINUOUS
 62
     5
 10
96.950446999999997
 20
153.48804999999979
 30
0.0
 11
87.199017999999981
 21
153.48804999999979
 31
0.0
  0
ARC
  5
3A1
  8
_0-0_0
  6
CONTINUOUS
 62
     5
 10
96.950446999999997
 20
152.4880499999999
 30
0.0
 40
1.0
 50
0.0
 51
90.0
  0
LINE
  5
3A2
  8
_0-0_0
  6
CONTINUOUS
 62
     5
 10
104.3424399999999
 20
150.68805
 30
0.0
 11
104.3424399999999
 21
147.10172
 31
0.0
  0
ARC
  5
3A3
  8
_0-0_0
  6
CONTINUOUS
 62
     5
 10
103.64243999999999
 20
146.38605000000001
 30
0.0
 40
1.0
 50
0.0
 51
90.0
  0
LINE
  5
3A4
  8
_0-0_0
  6
CONTINUOUS
 62
     5
 10
104.64243999999999
 20
136.04462000000001
 30
0.0
 11
104.64243999999999
 21
146.38605000000001
 31
0.0
  0
LINE
  5
3A5
  8
_0-0_0
  6
CONTINUOUS
 62
     5
 10
103.64243999999999
 20
140.88804999999991
 30
0.0
 11
101.0504399999999
 21
140.88804999999991
 31
0.0
  0
LINE
  5
3A6
  8
_0-0_0
  6
CONTINUOUS
 62
     5
 10
104.64243999999999
 20
136.04462000000001
 30
0.0
 11
104.63761
 21
136.0442799999999
 31
0.0
  0
ARC
  5
3A7
  8
_0-0_0
  6
CONTINUOUS
 62
     5
 10
103.64243999999999
 20
139.88804999999991
 30
0.0
 40
1.0
 50
0.0
 51
90.0
  0
LINE
  5
3A8
  8
_0-0_0
  6
CONTINUOUS
 62
     5
 10
104.64086
 20
146.4437299999999
 30
0.0
 11
104.6361499999999
 21
146.49958000000001
 31
0.0
  0
LINE
  5
3A9
  8
_0-0_0
  6
CONTINUOUS
 62
     5
 10
104.64243999999999
 20
146.38751999999991
 30
0.0
 11
104.64086
 21
146.4437299999999
 31
0.0
  0
LINE
  5
3AA
  8
_0-0_0
  6
CONTINUOUS
 62
     5
 10
104.6361499999999
 20
146.49958000000001
 30
0.0
 11
104.6283
 21
146.5551699999998
 31
0.0
  0
LINE
  5
3AB
  8
_0-0_0
  6
CONTINUOUS
 62
     5
 10
104.61735999999991
 20
146.61021999999991
 30
0.0
 11
104.6033299999999
 21
146.66458
 31
0.0
  0
LINE
  5
3AC
  8
_0-0_0
  6
CONTINUOUS
 62
     5
 10
104.6283
 20
146.5551699999998
 30
0.0
 11
104.61735999999991
 21
146.61021999999991
 31
0.0
  0
LINE
  5
3AD
  8
_0-0_0
  6
CONTINUOUS
 62
     5
 10
104.58629000000001
 20
146.7180699999999
 30
0.0
 11
104.56628000000001
 21
146.7705
 31
0.0
  0
LINE
  5
3AE
  8
_0-0_0
  6
CONTINUOUS
 62
     5
 10
104.6033299999999
 20
146.66458
 30
0.0
 11
104.58629000000001
 21
146.7180699999999
 31
0.0
  0
LINE
  5
3AF
  8
_0-0_0
  6
CONTINUOUS
 62
     5
 10
104.54335999999979
 20
146.82173999999981
 30
0.0
 11
104.5176
 21
146.87160999999981
 31
0.0
  0
LINE
  5
3B0
  8
_0-0_0
  6
CONTINUOUS
 62
     5
 10
104.56628000000001
 20
146.7705
 30
0.0
 11
104.54335999999979
 21
146.82173999999981
 31
0.0
  0
LINE
  5
3B1
  8
_0-0_0
  6
CONTINUOUS
 62
     5
 10
104.5176
 20
146.87160999999981
 30
0.0
 11
104.4890899999999
 21
146.91995
 31
0.0
  0
LINE
  5
3B2
  8
_0-0_0
  6
CONTINUOUS
 62
     5
 10
104.45792
 20
146.9666099999998
 30
0.0
 11
104.42417999999979
 21
147.01146
 31
0.0
  0
LINE
  5
3B3
  8
_0-0_0
  6
CONTINUOUS
 62
     5
 10
104.4890899999999
 20
146.91995
 30
0.0
 11
104.45792
 21
146.9666099999998
 31
0.0
  0
LINE
  5
3B4
  8
_0-0_0
  6
CONTINUOUS
 62
     5
 10
104.38798
 20
147.05432999999991
 30
0.0
 11
104.3494399999999
 21
147.09511000000001
 31
0.0
  0
LINE
  5
3B5
  8
_0-0_0
  6
CONTINUOUS
 62
     5
 10
104.42417999999979
 20
147.01146
 30
0.0
 11
104.38798
 21
147.05432999999991
 31
0.0
  0
LINE
  5
3B6
  8
_0-0_0
  6
CONTINUOUS
 62
     5
 10
104.30866999999991
 20
147.13365999999991
 30
0.0
 11
104.26581
 21
147.16986
 31
0.0
  0
LINE
  5
3B7
  8
_0-0_0
  6
CONTINUOUS
 62
     5
 10
104.3494399999999
 20
147.09511000000001
 30
0.0
 11
104.30866999999991
 21
147.13365999999991
 31
0.0
  0
LINE
  5
3B8
  8
_0-0_0
  6
CONTINUOUS
 62
     5
 10
104.22099
 20
147.20358999999991
 30
0.0
 11
104.17435
 21
147.23477
 31
0.0
  0
LINE
  5
3B9
  8
_0-0_0
  6
CONTINUOUS
 62
     5
 10
104.26581
 20
147.16986
 30
0.0
 11
104.22099
 21
147.20358999999991
 31
0.0
  0
LINE
  5
3BA
  8
_0-0_0
  6
CONTINUOUS
 62
     5
 10
104.12604
 20
147.26327000000001
 30
0.0
 11
104.07621
 21
147.28901999999991
 31
0.0
  0
LINE
  5
3BB
  8
_0-0_0
  6
CONTINUOUS
 62
     5
 10
104.17435
 20
147.23477
 30
0.0
 11
104.12604
 21
147.26327000000001
 31
0.0
  0
LINE
  5
3BC
  8
_0-0_0
  6
CONTINUOUS
 62
     5
 10
104.07621
 20
147.28901999999991
 30
0.0
 11
104.02502
 21
147.31192999999999
 31
0.0
  0
LINE
  5
3BD
  8
_0-0_0
  6
CONTINUOUS
 62
     5
 10
103.9192
 20
147.34896000000001
 30
0.0
 11
103.86490000000001
 21
147.36297999999991
 31
0.0
  0
LINE
  5
3BE
  8
_0-0_0
  6
CONTINUOUS
 62
     5
 10
103.97263
 20
147.3319299999998
 30
0.0
 11
103.9192
 21
147.34896000000001
 31
0.0
  0
LINE
  5
3BF
  8
_0-0_0
  6
CONTINUOUS
 62
     5
 10
103.8099
 20
147.37391
 30
0.0
 11
103.75436999999999
 21
147.38176000000001
 31
0.0
  0
LINE
  5
3C0
  8
_0-0_0
  6
CONTINUOUS
 62
     5
 10
103.69858000000001
 20
147.3864599999998
 30
0.0
 11
103.64243999999999
 21
147.38804999999991
 31
0.0
  0
LINE
  5
3C1
  8
_0-0_0
  6
CONTINUOUS
 62
     5
 10
103.75436999999999
 20
147.38176000000001
 30
0.0
 11
103.69858000000001
 21
147.3864599999998
 31
0.0
  0
LINE
  5
3C2
  8
_0-0_0
  6
CONTINUOUS
 62
     5
 10
103.86490000000001
 20
147.36297999999991
 30
0.0
 11
103.8099
 21
147.37391
 31
0.0
  0
LINE
  5
3C3
  8
_0-0_0
  6
CONTINUOUS
 62
     5
 10
104.02502
 20
147.31192999999999
 30
0.0
 11
103.97263
 21
147.3319299999998
 31
0.0
  0
LINE
  5
3C4
  8
_0-0_0
  6
CONTINUOUS
 62
     5
 10
101.29779000000001
 20
143.39672999999991
 30
0.0
 11
101.50690999999991
 21
143.75894
 31
0.0
  0
LINE
  5
3C5
  8
_0-0_0
  6
CONTINUOUS
 62
     5
 10
101.59499
 20
143.6708499999998
 30
0.0
 11
101.43779000000001
 21
143.39857000000001
 31
0.0
  0
LINE
  5
3C6
  8
_0-0_0
  6
CONTINUOUS
 62
     5
 10
101.50690999999991
 20
143.75894
 30
0.0
 11
101.8691199999999
 21
143.96806000000001
 31
0.0
  0
LINE
  5
3C7
  8
_0-0_0
  6
CONTINUOUS
 62
     5
 10
101.86727999999999
 20
143.82805999999991
 30
0.0
 11
101.59499
 21
143.6708499999998
 31
0.0
  0
LINE
  5
3C8
  8
_0-0_0
  6
CONTINUOUS
 62
     5
 10
101.01778999999991
 20
143.34073000000001
 30
0.0
 11
101.29779000000001
 21
144.87538999999981
 31
0.0
  0
LINE
  5
3C9
  8
_0-0_0
  6
CONTINUOUS
 62
     5
 10
101.01778999999991
 20
143.39672999999991
 30
0.0
 11
101.29779000000001
 21
144.81938999999991
 31
0.0
  0
LINE
  5
3CA
  8
_0-0_0
  6
CONTINUOUS
 62
     5
 10
101.43779000000001
 20
145.37755000000001
 30
0.0
 11
101.29779000000001
 21
144.87538999999981
 31
0.0
  0
LINE
  5
3CB
  8
_0-0_0
  6
CONTINUOUS
 62
     5
 10
101.86727999999999
 20
144.38805999999991
 30
0.0
 11
101.8691199999999
 21
144.24806000000001
 31
0.0
  0
LINE
  5
3CC
  8
_0-0_0
  6
CONTINUOUS
 62
     5
 10
101.01778999999991
 20
144.87538999999981
 30
0.0
 11
101.01778999999991
 21
144.81938999999991
 31
0.0
  0
LINE
  5
3CD
  8
_0-0_0
  6
CONTINUOUS
 62
     5
 10
101.01778999999991
 20
143.39672999999991
 30
0.0
 11
101.01778999999991
 21
143.34073000000001
 31
0.0
  0
LINE
  5
3CE
  8
_0-0_0
  6
CONTINUOUS
 62
     5
 10
101.29779000000001
 20
143.34073000000001
 30
0.0
 11
101.29779000000001
 21
143.39672999999991
 31
0.0
  0
LINE
  5
3CF
  8
_0-0_0
  6
CONTINUOUS
 62
     5
 10
101.29779000000001
 20
144.81938999999991
 30
0.0
 11
101.29779000000001
 21
144.87538999999981
 31
0.0
  0
LINE
  5
3D0
  8
_0-0_0
  6
CONTINUOUS
 62
     5
 10
101.43779000000001
 20
145.37755000000001
 30
0.0
 11
101.43779000000001
 21
144.81755000000001
 31
0.0
  0
LINE
  5
3D1
  8
_0-0_0
  6
CONTINUOUS
 62
     5
 10
101.43779000000001
 20
143.39857000000001
 30
0.0
 11
101.43779000000001
 21
142.83856999999981
 31
0.0
  0
LINE
  5
3D2
  8
_0-0_0
  6
CONTINUOUS
 62
     5
 10
101.86727999999999
 20
143.82805999999991
 30
0.0
 11
101.8691199999999
 21
143.96806000000001
 31
0.0
  0
LINE
  5
3D3
  8
_0-0_0
  6
CONTINUOUS
 62
     5
 10
101.43779000000001
 20
142.83856999999981
 30
0.0
 11
101.29779000000001
 21
143.34073000000001
 31
0.0
  0
LINE
  5
3D4
  8
_0-0_0
  6
CONTINUOUS
 62
     5
 10
101.29779000000001
 20
143.39672999999991
 30
0.0
 11
101.01778999999991
 21
144.81938999999991
 31
0.0
  0
LINE
  5
3D5
  8
_0-0_0
  6
CONTINUOUS
 62
     5
 10
101.29779000000001
 20
143.34073000000001
 30
0.0
 11
101.01778999999991
 21
144.87538999999981
 31
0.0
  0
LINE
  5
3D6
  8
_0-0_0
  6
CONTINUOUS
 62
     5
 10
101.50690999999991
 20
144.45717999999999
 30
0.0
 11
101.29779000000001
 21
144.81938999999991
 31
0.0
  0
LINE
  5
3D7
  8
_0-0_0
  6
CONTINUOUS
 62
     5
 10
101.43779000000001
 20
144.81755000000001
 30
0.0
 11
101.59499
 21
144.54526000000001
 31
0.0
  0
LINE
  5
3D8
  8
_0-0_0
  6
CONTINUOUS
 62
     5
 10
101.8691199999999
 20
144.24806000000001
 30
0.0
 11
101.50690999999991
 21
144.45717999999999
 31
0.0
  0
LINE
  5
3D9
  8
_0-0_0
  6
CONTINUOUS
 62
     5
 10
101.59499
 20
144.54526000000001
 30
0.0
 11
101.86727999999999
 21
144.38805999999991
 31
0.0
  0
LINE
  5
3DA
  8
_0-0_0
  6
CONTINUOUS
 62
     5
 10
102.42728
 20
143.82805999999991
 30
0.0
 11
101.92512000000001
 21
143.96806000000001
 31
0.0
  0
LINE
  5
3DB
  8
_0-0_0
  6
CONTINUOUS
 62
     5
 10
101.43779000000001
 20
143.39857000000001
 30
0.0
 11
101.29779000000001
 21
143.39672999999991
 31
0.0
  0
LINE
  5
3DC
  8
_0-0_0
  6
CONTINUOUS
 62
     5
 10
102.42728
 20
143.82805999999991
 30
0.0
 11
101.86727999999999
 21
143.82805999999991
 31
0.0
  0
LINE
  5
3DD
  8
_0-0_0
  6
CONTINUOUS
 62
     5
 10
101.8691199999999
 20
143.96806000000001
 30
0.0
 11
101.92512000000001
 21
143.96806000000001
 31
0.0
  0
LINE
  5
3DE
  8
_0-0_0
  6
CONTINUOUS
 62
     5
 10
101.92512000000001
 20
144.24806000000001
 30
0.0
 11
101.8691199999999
 21
144.24806000000001
 31
0.0
  0
LINE
  5
3DF
  8
_0-0_0
  6
CONTINUOUS
 62
     5
 10
101.86727999999999
 20
144.38805999999991
 30
0.0
 11
102.42728
 21
144.38805999999991
 31
0.0
  0
LINE
  5
3E0
  8
_0-0_0
  6
CONTINUOUS
 62
     5
 10
101.43779000000001
 20
144.81755000000001
 30
0.0
 11
101.29779000000001
 21
144.81938999999991
 31
0.0
  0
LINE
  5
3E1
  8
_0-0_0
  6
CONTINUOUS
 62
     5
 10
102.42728
 20
144.38805999999991
 30
0.0
 11
101.92512000000001
 21
144.24806000000001
 31
0.0
  0
ARC
  5
3E2
  8
_0-0_0
  6
CONTINUOUS
 62
     5
 10
101.15779000000001
 20
144.10805999999999
 30
0.0
 40
0.7800000000000003
 50
259.6601
 51
280.33988999999991
  0
ARC
  5
3E3
  8
_0-0_0
  6
CONTINUOUS
 62
     5
 10
101.15779000000001
 20
144.10805999999999
 30
0.0
 40
0.7800000000000003
 50
349.6601
 51
10.339889999999979
  0
ARC
  5
3E4
  8
_0-0_0
  6
CONTINUOUS
 62
     5
 10
101.15779000000001
 20
144.10805999999999
 30
0.0
 40
0.7800000000000003
 50
79.660108999999963
 51
100.33989
  0
ARC
  5
3E5
  8
_0-0_0
  6
CONTINUOUS
 62
     5
 10
101.15779000000001
 20
144.10805999999999
 30
0.0
 40
1.3
 50
347.56189999999998
 51
12.438091999999999
  0
ARC
  5
3E6
  8
_0-0_0
  6
CONTINUOUS
 62
     5
 10
101.84244
 20
150.68805
 30
0.0
 40
2.5
 50
0.0
 51
90.0
  0
LINE
  5
3E7
  8
_0-1_HIDDEN
  6
DASHED3
 62
     6
 10
229.2877499999999
 20
96.140655000000024
 30
0.0
 11
213.86451
 21
96.088049999999996
 31
0.0
  0
LINE
  5
3E8
  8
_0-0_0
  6
CONTINUOUS
 62
     5
 10
157.41451000000001
 20
112.18805
 30
0.0
 11
205.56451000000001
 21
112.8745
 31
0.0
  0
LINE
  5
3E9
  8
_0-0_0
  6
CONTINUOUS
 62
     5
 10
157.41451000000001
 20
147.38804999999991
 30
0.0
 11
205.5145099999998
 21
145.79047
 31
0.0
  0
LINE
  5
3EA
  8
_0-0_0
  6
CONTINUOUS
 62
     5
 10
157.41451000000001
 20
153.48804999999979
 30
0.0
 11
205.5145099999998
 21
153.48804999999979
 31
0.0
  0
LINE
  5
3EB
  8
_0-0_0
  6
CONTINUOUS
 62
     5
 10
205.5145099999998
 20
153.82417000000001
 30
0.0
 11
157.41451000000001
 21
153.82417000000001
 31
0.0
  0
LINE
  5
3EC
  8
_0-0_0
  6
CONTINUOUS
 62
     5
 10
205.5145099999998
 20
153.68805
 30
0.0
 11
157.41451000000001
 21
153.68805
 31
0.0
  0
LINE
  5
3ED
  8
_0-0_0
  6
CONTINUOUS
 62
     5
 10
199.33505
 20
109.48805
 30
0.0
 11
179.69398000000001
 21
109.48805
 31
0.0
  0
LINE
  5
3EE
  8
_0-0_0
  6
CONTINUOUS
 62
     5
 10
198.8989199999998
 20
106.18805
 30
0.0
 11
180.13011
 21
106.18805
 31
0.0
  0
LINE
  5
3EF
  8
_0-0_0
  6
CONTINUOUS
 62
     5
 10
156.91451000000001
 20
119.2381899999999
 30
0.0
 11
156.91451000000001
 21
153.82417000000001
 31
0.0
  0
LINE
  5
3F0
  8
_0-0_0
  6
CONTINUOUS
 62
     5
 10
157.41451000000001
 20
112.18805
 30
0.0
 11
157.41451000000001
 21
153.82417000000001
 31
0.0
  0
LINE
  5
3F1
  8
_0-0_0
  6
CONTINUOUS
 62
     5
 10
131.2145099999999
 20
111.38805000000001
 30
0.0
 11
131.2145099999999
 21
152.68805
 31
0.0
  0
LINE
  5
3F2
  8
_0-1_HIDDEN
  6
DASHED3
 62
     6
 10
159.13622000000001
 20
97.188050000000004
 30
0.0
 11
139.46084999999991
 21
97.188052999999996
 31
0.0
  0
LINE
  5
3F3
  8
_0-0_0
  6
CONTINUOUS
 62
     5
 10
133.9674999999998
 20
110.18805
 30
0.0
 11
153.0355899999999
 21
110.18805
 31
0.0
  0
ARC
  5
3F4
  8
_0-0_0
  6
CONTINUOUS
 62
     5
 10
150.41451000000001
 20
112.68805
 30
0.0
 40
0.5
 50
180.0
 51
270.0
  0
LINE
  5
3F5
  8
_0-0_0
  6
CONTINUOUS
 62
     5
 10
150.25284999999991
 20
105.68805
 30
0.0
 11
135.57617999999999
 21
105.68805
 31
0.0
  0
LINE
  5
3F6
  8
_0-0_0
  6
CONTINUOUS
 62
     5
 10
150.8900099999999
 20
106.2880499999999
 30
0.0
 11
147.44117
 21
106.2880499999999
 31
0.0
  0
LINE
  5
3F7
  8
_0-0_0
  6
CONTINUOUS
 62
     5
 10
132.2145099999999
 20
112.18805
 30
0.0
 11
156.91451000000001
 21
112.18805
 31
0.0
  0
LINE
  5
3F8
  8
_0-0_0
  6
CONTINUOUS
 62
     5
 10
154.41451000000001
 20
111.18805
 30
0.0
 11
131.41451000000001
 21
111.18805
 31
0.0
  0
LINE
  5
3F9
  8
_0-0_0
  6
CONTINUOUS
 62
     5
 10
132.79343
 20
110.18805
 30
0.0
 11
153.0355899999999
 21
110.18805
 31
0.0
  0
LINE
  5
3FA
  8
_0-2_CENTER
  6
CENTER2
 62
     1
 10
142.91451000000001
 20
114.18805
 30
0.0
 11
142.91451000000001
 21
94.533080999999996
 31
0.0
  0
ARC
  5
3FB
  8
_0-0_0
  6
CONTINUOUS
 62
     5
 10
132.2145099999999
 20
113.18805
 30
0.0
 40
1.0
 50
180.0
 51
270.0
  0
ARC
  5
3FC
  8
_0-1_HIDDEN
  6
DASHED3
 62
     6
 10
139.44066000000001
 20
103.42758000000001
 30
0.0
 40
6.2395614000000004
 50
177.79991999999999
 51
270.16525999999999
  0
LINE
  5
3FD
  8
_0-1_HIDDEN
  6
DASHED3
 62
     6
 10
132.80280999999999
 20
110.18805
 30
0.0
 11
132.80280999999999
 21
105.68805
 31
0.0
  0
ARC
  5
3FE
  8
_0-1_HIDDEN
  6
DASHED3
 62
     6
 10
134.30280999999991
 20
105.68805
 30
0.0
 40
1.5
 50
180.0
 51
222.99554999999989
  0
LINE
  5
3FF
  8
_0-1_HIDDEN
  6
DASHED3
 62
     6
 10
133.20570000000001
 20
103.1880499999999
 30
0.0
 11
133.20570000000001
 21
104.6681699999999
 31
0.0
  0
LINE
  5
400
  8
_0-1_HIDDEN
  6
DASHED3
 62
     6
 10
132.79343
 20
110.18805
 30
0.0
 11
132.70594
 21
111.18805
 31
0.0
  0
LINE
  5
401
  8
_0-0_0
  6
CONTINUOUS
 62
     5
 10
132.79343
 20
110.18805
 30
0.0
 11
132.70594
 21
111.18805
 31
0.0
  0
ARC
  5
402
  8
_0-0_0
  6
CONTINUOUS
 62
     5
 10
131.41451000000001
 20
111.38805000000001
 30
0.0
 40
0.2
 50
180.0
 51
270.0
  0
LINE
  5
403
  8
_0-0_0
  6
CONTINUOUS
 62
     5
 10
141.3158599999999
 20
105.98786
 30
0.0
 11
147.43952999999991
 21
105.98786
 31
0.0
  0
LINE
  5
404
  8
_0-0_0
  6
CONTINUOUS
 62
     5
 10
136.74603999999991
 20
108.98805
 30
0.0
 11
136.8495199999999
 21
105.98786
 31
0.0
  0
LINE
  5
405
  8
_0-0_0
  6
CONTINUOUS
 62
     5
 10
135.44160999999991
 20
105.98786
 30
0.0
 11
135.33813000000001
 21
108.98805
 31
0.0
  0
LINE
  5
406
  8
_0-0_0
  6
CONTINUOUS
 62
     5
 10
134.80280999999999
 20
110.18805
 30
0.0
 11
134.93899999999991
 21
106.2880499999999
 31
0.0
  0
LINE
  5
407
  8
_0-0_0
  6
CONTINUOUS
 62
     5
 10
137.0112399999999
 20
106.2880499999999
 30
0.0
 11
141.3175
 21
106.2880499999999
 31
0.0
  0
LINE
  5
408
  8
_0-0_0
  6
CONTINUOUS
 62
     5
 10
134.93901999999991
 20
106.2880499999999
 30
0.0
 11
135.25916999999981
 21
106.2880499999999
 31
0.0
  0
LINE
  5
409
  8
_0-0_0
  6
CONTINUOUS
 62
     5
 10
136.8495199999999
 20
105.98786
 30
0.0
 11
137.02159
 21
105.98786
 31
0.0
  0
LINE
  5
40A
  8
_0-0_0
  6
CONTINUOUS
 62
     5
 10
135.26953
 20
105.98786
 30
0.0
 11
135.44160999999991
 21
105.98786
 31
0.0
  0
LINE
  5
40B
  8
_0-0_0
  6
CONTINUOUS
 62
     5
 10
137.32823999999991
 20
105.68805
 30
0.0
 11
137.02159
 21
105.98786
 31
0.0
  0
LINE
  5
40C
  8
_0-0_0
  6
CONTINUOUS
 62
     5
 10
137.1561599999998
 20
105.68805
 30
0.0
 11
136.8495199999999
 21
105.98786
 31
0.0
  0
LINE
  5
40D
  8
_0-0_0
  6
CONTINUOUS
 62
     5
 10
135.44160999999991
 20
105.98786
 30
0.0
 11
135.74825000000001
 21
105.68805
 31
0.0
  0
LINE
  5
40E
  8
_0-0_0
  6
CONTINUOUS
 62
     5
 10
135.57617999999999
 20
105.68805
 30
0.0
 11
135.26953
 21
105.98786
 31
0.0
  0
LINE
  5
40F
  8
_0-0_0
  6
CONTINUOUS
 62
     5
 10
137.02159
 20
105.98786
 30
0.0
 11
137.0112399999999
 21
106.2880499999999
 31
0.0
  0
LINE
  5
410
  8
_0-0_0
  6
CONTINUOUS
 62
     5
 10
135.25916999999981
 20
106.2880499999999
 30
0.0
 11
135.26953
 21
105.98786
 31
0.0
  0
LINE
  5
411
  8
_0-0_0
  6
CONTINUOUS
 62
     5
 10
141.3175
 20
106.2880499999999
 30
0.0
 11
141.3158599999999
 21
105.98786
 31
0.0
  0
LINE
  5
412
  8
_0-0_0
  6
CONTINUOUS
 62
     5
 10
141.26729
 20
105.68805
 30
0.0
 11
141.3158599999999
 21
105.98786
 31
0.0
  0
LINE
  5
413
  8
_0-0_0
  6
CONTINUOUS
 62
     5
 10
135.33813000000001
 20
108.98805
 30
0.0
 11
136.74603999999991
 21
108.98805
 31
0.0
  0
LINE
  5
414
  8
_0-0_0
  6
CONTINUOUS
 62
     5
 10
147.43952999999991
 20
105.98786
 30
0.0
 11
147.44117
 21
106.2880499999999
 31
0.0
  0
LINE
  5
415
  8
_0-0_0
  6
CONTINUOUS
 62
     5
 10
147.39095999999981
 20
105.68805
 30
0.0
 11
147.43952999999991
 21
105.98786
 31
0.0
  0
ARC
  5
416
  8
_0-0_0
  6
CONTINUOUS
 62
     5
 10
134.11451
 20
121.46760999999989
 30
0.0
 40
1.0
 50
180.0
 51
270.0
  0
ARC
  5
417
  8
_0-0_0
  6
CONTINUOUS
 62
     5
 10
134.11451
 20
125.46760999999989
 30
0.0
 40
1.0
 50
90.0
 51
180.0
  0
LINE
  5
418
  8
_0-0_0
  6
CONTINUOUS
 62
     5
 10
132.2145099999999
 20
126.56761
 30
0.0
 11
134.91451000000001
 21
126.56761
 31
0.0
  0
LINE
  5
419
  8
_0-0_0
  6
CONTINUOUS
 62
     5
 10
133.11451
 20
121.21771
 30
0.0
 11
133.11451
 21
125.7175099999999
 31
0.0
  0
LINE
  5
41A
  8
_0-0_0
  6
CONTINUOUS
 62
     5
 10
131.46318999999991
 20
123.74760999999999
 30
0.0
 11
131.55704
 21
123.74760999999999
 31
0.0
  0
LINE
  5
41B
  8
_0-0_0
  6
CONTINUOUS
 62
     5
 10
131.55704
 20
123.18761000000001
 30
0.0
 11
131.46318999999991
 21
123.18761000000001
 31
0.0
  0
LINE
  5
41C
  8
_0-0_0
  6
CONTINUOUS
 62
     5
 10
131.55704
 20
123.74760999999999
 30
0.0
 11
131.55704
 21
123.18761000000001
 31
0.0
  0
ARC
  5
41D
  8
_0-0_0
  6
CONTINUOUS
 62
     5
 10
132.42077
 20
122.01760999999991
 30
0.0
 40
0.8
 50
196.19132999999991
 51
269.99998999999991
  0
ARC
  5
41E
  8
_0-0_0
  6
CONTINUOUS
 62
     5
 10
137.41451000000001
 20
123.46760999999989
 30
0.0
 40
6.0
 50
192.51331999999999
 51
196.19134
  0
LINE
  5
41F
  8
_0-0_0
  6
CONTINUOUS
 62
     5
 10
132.42077
 20
121.21760999999989
 30
0.0
 11
133.11451
 21
121.21760999999989
 31
0.0
  0
LINE
  5
420
  8
_0-0_0
  6
CONTINUOUS
 62
     5
 10
131.55704
 20
122.1981199999998
 30
0.0
 11
131.55704
 21
122.16761
 31
0.0
  0
ARC
  5
421
  8
_0-0_0
  6
CONTINUOUS
 62
     5
 10
137.41451000000001
 20
123.46760999999989
 30
0.0
 40
6.0
 50
163.80865
 51
167.48667
  0
LINE
  5
422
  8
_0-0_0
  6
CONTINUOUS
 62
     5
 10
131.55704
 20
124.76761
 30
0.0
 11
131.55704
 21
124.7371
 31
0.0
  0
ARC
  5
423
  8
_0-0_0
  6
CONTINUOUS
 62
     5
 10
132.2145099999999
 20
127.56761
 30
0.0
 40
1.0
 50
180.0
 51
270.0
  0
ARC
  5
424
  8
_0-0_0
  6
CONTINUOUS
 62
     5
 10
132.42077
 20
124.91761
 30
0.0
 40
0.8
 50
90.000003000000007
 51
163.80866
  0
LINE
  5
425
  8
_0-0_0
  6
CONTINUOUS
 62
     5
 10
132.42077
 20
125.71760999999989
 30
0.0
 11
133.11451
 21
125.71760999999989
 31
0.0
  0
LINE
  5
426
  8
_0-0_0
  6
CONTINUOUS
 62
     5
 10
134.91451000000001
 20
120.38805000000001
 30
0.0
 11
134.91451000000001
 21
126.56761
 31
0.0
  0
LINE
  5
427
  8
_0-0_0
  6
CONTINUOUS
 62
     5
 10
135.11450999999991
 20
120.18805
 30
0.0
 11
149.41451000000001
 21
120.18805
 31
0.0
  0
ARC
  5
428
  8
_0-0_0
  6
CONTINUOUS
 62
     5
 10
135.11450999999991
 20
120.38805000000001
 30
0.0
 40
0.2
 50
180.0
 51
270.0
  0
LINE
  5
429
  8
_0-0_0
  6
CONTINUOUS
 62
     5
 10
134.11451
 20
120.46760999999989
 30
0.0
 11
134.91451000000001
 21
120.46760999999989
 31
0.0
  0
LINE
  5
42A
  8
_0-0_0
  6
CONTINUOUS
 62
     5
 10
149.91450999999981
 20
112.68805
 30
0.0
 11
149.91450999999981
 21
119.77383
 31
0.0
  0
ARC
  5
42B
  8
_0-0_0
  6
CONTINUOUS
 62
     5
 10
149.41451000000001
 20
119.68805
 30
0.0
 40
0.5
 50
0.0
 51
90.0
  0
LINE
  5
42C
  8
_0-0_0
  6
CONTINUOUS
 62
     5
 10
134.11451
 20
126.46760999999989
 30
0.0
 11
134.91451000000001
 21
126.46760999999989
 31
0.0
  0
LINE
  5
42D
  8
_0-0_0
  6
CONTINUOUS
 62
     5
 10
179.30405999999991
 20
112.4021399999999
 30
0.0
 11
179.32779999999991
 21
112.38213999999979
 31
0.0
  0
LINE
  5
42E
  8
_0-0_0
  6
CONTINUOUS
 62
     5
 10
156.91451000000001
 20
113.35903
 30
0.0
 11
156.91451000000001
 21
112.18805
 31
0.0
  0
ARC
  5
42F
  8
_0-0_0
  6
CONTINUOUS
 62
     5
 10
152.41451000000001
 20
112.68805
 30
0.0
 40
0.5
 50
270.0
 51
0.0
  0
LINE
  5
430
  8
_0-1_HIDDEN
  6
DASHED3
 62
     6
 10
164.12434999999991
 20
107.63805000000001
 30
0.0
 11
178.4712899999999
 21
107.63805000000001
 31
0.0
  0
LINE
  5
431
  8
_0-1_HIDDEN
  6
DASHED3
 62
     6
 10
164.12436999999991
 20
100.33805
 30
0.0
 11
178.4712899999999
 21
100.33805
 31
0.0
  0
LINE
  5
432
  8
_0-1_HIDDEN
  6
DASHED3
 62
     6
 10
162.66828000000001
 20
98.388050000000007
 30
0.0
 11
161.2855099999999
 21
98.388050000000007
 31
0.0
  0
LINE
  5
433
  8
_0-1_HIDDEN
  6
DASHED3
 62
     6
 10
161.33463999999981
 20
98.388050000000007
 30
0.0
 11
160.1047299999999
 21
97.503508999999994
 31
0.0
  0
LINE
  5
434
  8
_0-1_HIDDEN
  6
DASHED3
 62
     6
 10
159.13622000000001
 20
110.78805
 30
0.0
 11
153.08808999999991
 21
110.78805
 31
0.0
  0
LINE
  5
435
  8
_0-0_0
  6
CONTINUOUS
 62
     5
 10
151.02620999999999
 20
110.18805
 30
0.0
 11
150.89001999999999
 21
106.2880499999999
 31
0.0
  0
LINE
  5
436
  8
_0-0_0
  6
CONTINUOUS
 62
     5
 10
150.25284999999991
 20
105.68805
 30
0.0
 11
150.55950000000001
 21
105.98786
 31
0.0
  0
LINE
  5
437
  8
_0-0_0
  6
CONTINUOUS
 62
     5
 10
150.56985
 20
106.2880499999999
 30
0.0
 11
150.55950000000001
 21
105.98786
 31
0.0
  0
LINE
  5
438
  8
_0-1_HIDDEN
  6
DASHED3
 62
     6
 10
153.08808999999991
 20
110.78805
 30
0.0
 11
153.1230799999999
 21
111.18805
 31
0.0
  0
LINE
  5
439
  8
_0-0_0
  6
CONTINUOUS
 62
     5
 10
153.0355899999999
 20
110.18805
 30
0.0
 11
153.1230799999999
 21
111.18805
 31
0.0
  0
LINE
  5
43A
  8
_0-0_0
  6
CONTINUOUS
 62
     5
 10
154.61450999999991
 20
111.68805
 30
0.0
 11
154.61450999999991
 21
111.38805000000001
 31
0.0
  0
ARC
  5
43B
  8
_0-0_0
  6
CONTINUOUS
 62
     5
 10
155.11451
 20
111.68805
 30
0.0
 40
0.5
 50
90.0
 51
180.0
  0
ARC
  5
43C
  8
_0-0_0
  6
CONTINUOUS
 62
     5
 10
154.41451000000001
 20
111.38805000000001
 30
0.0
 40
0.2
 50
270.0
 51
0.0
  0
LINE
  5
43D
  8
_0-1_HIDDEN
  6
DASHED3
 62
     6
 10
162.66828000000001
 20
109.58805
 30
0.0
 11
161.2855099999999
 21
109.58805
 31
0.0
  0
LINE
  5
43E
  8
_0-1_HIDDEN
  6
DASHED3
 62
     6
 10
161.33463999999981
 20
109.58805
 30
0.0
 11
160.1047299999999
 21
110.47259
 31
0.0
  0
LINE
  5
43F
  8
_0-1_HIDDEN
  6
DASHED3
 62
     6
 10
182.25686999999991
 20
100.38805000000001
 30
0.0
 11
182.25686999999991
 21
103.68805
 31
0.0
  0
LINE
  5
440
  8
_0-0_0
  6
CONTINUOUS
 62
     5
 10
180.13011
 20
106.18805
 30
0.0
 11
180.13011
 21
108.38805000000001
 31
0.0
  0
LINE
  5
441
  8
_0-1_HIDDEN
  6
DASHED3
 62
     6
 10
180.22977
 20
106.18805
 30
0.0
 11
180.22977
 21
104.1880499999999
 31
0.0
  0
LINE
  5
442
  8
_0-1_HIDDEN
  6
DASHED3
 62
     6
 10
180.72977
 20
103.68805
 30
0.0
 11
182.25686999999991
 21
103.68805
 31
0.0
  0
LINE
  5
443
  8
_0-0_0
  6
CONTINUOUS
 62
     5
 10
179.32779999999991
 20
112.38213999999979
 30
0.0
 11
179.3502499999999
 21
112.36071
 31
0.0
  0
LINE
  5
444
  8
_0-0_0
  6
CONTINUOUS
 62
     5
 10
179.40906000000001
 20
112.28865
 30
0.0
 11
179.4255599999999
 21
112.26236
 31
0.0
  0
LINE
  5
445
  8
_0-0_0
  6
CONTINUOUS
 62
     5
 10
179.39096000000001
 20
112.3138699999998
 30
0.0
 11
179.40906000000001
 21
112.28865
 31
0.0
  0
LINE
  5
446
  8
_0-0_0
  6
CONTINUOUS
 62
     5
 10
179.37134
 20
112.33792
 30
0.0
 11
179.39096000000001
 21
112.3138699999998
 31
0.0
  0
LINE
  5
447
  8
_0-0_0
  6
CONTINUOUS
 62
     5
 10
179.3502499999999
 20
112.36071
 30
0.0
 11
179.37134
 21
112.33792
 31
0.0
  0
LINE
  5
448
  8
_0-0_0
  6
CONTINUOUS
 62
     5
 10
179.45350999999999
 20
112.20695000000001
 30
0.0
 11
179.46485000000001
 21
112.17806
 31
0.0
  0
LINE
  5
449
  8
_0-0_0
  6
CONTINUOUS
 62
     5
 10
179.44038999999981
 20
112.2350899999998
 30
0.0
 11
179.45350999999999
 21
112.20695000000001
 31
0.0
  0
LINE
  5
44A
  8
_0-0_0
  6
CONTINUOUS
 62
     5
 10
179.4255599999999
 20
112.26236
 30
0.0
 11
179.44038999999981
 21
112.2350899999998
 31
0.0
  0
LINE
  5
44B
  8
_0-0_0
  6
CONTINUOUS
 62
     5
 10
179.4820499999999
 20
112.11843
 30
0.0
 11
179.48785000000001
 21
112.0879399999999
 31
0.0
  0
LINE
  5
44C
  8
_0-0_0
  6
CONTINUOUS
 62
     5
 10
179.47438
 20
112.14851
 30
0.0
 11
179.4820499999999
 21
112.11843
 31
0.0
  0
LINE
  5
44D
  8
_0-0_0
  6
CONTINUOUS
 62
     5
 10
179.46485000000001
 20
112.17806
 30
0.0
 11
179.47438
 21
112.14851
 31
0.0
  0
LINE
  5
44E
  8
_0-0_0
  6
CONTINUOUS
 62
     5
 10
179.48785000000001
 20
112.0879399999999
 30
0.0
 11
179.49173999999991
 21
112.0571399999999
 31
0.0
  0
LINE
  5
44F
  8
_0-0_0
  6
CONTINUOUS
 62
     5
 10
179.49370999999999
 20
112.02616
 30
0.0
 11
179.49396999999999
 21
112.0098999999999
 31
0.0
  0
LINE
  5
450
  8
_0-0_0
  6
CONTINUOUS
 62
     5
 10
179.49173999999991
 20
112.0571399999999
 30
0.0
 11
179.49370999999999
 21
112.02616
 31
0.0
  0
ARC
  5
451
  8
_0-0_0
  6
CONTINUOUS
 62
     5
 10
179.69397000000001
 20
109.68805
 30
0.0
 40
0.2
 50
180.0
 51
270.0
  0
LINE
  5
452
  8
_0-0_0
  6
CONTINUOUS
 62
     5
 10
179.7137399999998
 20
107.58805
 30
0.0
 11
179.7137399999998
 21
108.38805000000001
 31
0.0
  0
LINE
  5
453
  8
_0-0_0
  6
CONTINUOUS
 62
     5
 10
179.49396999999999
 20
109.18805
 30
0.0
 11
179.49396999999999
 21
108.38805000000001
 31
0.0
  0
LINE
  5
454
  8
_0-0_0
  6
CONTINUOUS
 62
     5
 10
179.79397
 20
109.48805
 30
0.0
 11
179.49396999999999
 21
109.18805
 31
0.0
  0
LINE
  5
455
  8
_0-0_0
  6
CONTINUOUS
 62
     5
 10
179.49495999999991
 20
108.38805000000001
 30
0.0
 11
180.13011
 21
108.38805000000001
 31
0.0
  0
LINE
  5
456
  8
_0-0_0
  6
CONTINUOUS
 62
     5
 10
179.71482
 20
107.58805
 30
0.0
 11
180.13011
 21
107.58805
 31
0.0
  0
LINE
  5
457
  8
_0-0_0
  6
CONTINUOUS
 62
     5
 10
179.49396999999999
 20
109.68805
 30
0.0
 11
179.49396999999999
 21
112.00991999999999
 31
0.0
  0
LINE
  5
458
  8
_0-0_0
  6
CONTINUOUS
 62
     5
 10
154.96340000000001
 20
118.1381899999999
 30
0.0
 11
155.01886999999991
 21
118.32986
 31
0.0
  0
LINE
  5
459
  8
_0-0_0
  6
CONTINUOUS
 62
     5
 10
152.91451000000001
 20
119.77383
 30
0.0
 11
152.91451000000001
 21
112.68805
 31
0.0
  0
LINE
  5
45A
  8
_0-0_0
  6
CONTINUOUS
 62
     5
 10
156.7145099999999
 20
113.35903
 30
0.0
 11
156.7145099999999
 21
119.2363899999999
 31
0.0
  0
LINE
  5
45B
  8
_0-0_0
  6
CONTINUOUS
 62
     5
 10
154.96340000000001
 20
118.1381899999999
 30
0.0
 11
154.96340000000001
 21
118.11687999999999
 31
0.0
  0
LINE
  5
45C
  8
_0-0_0
  6
CONTINUOUS
 62
     5
 10
156.91451000000001
 20
112.43805
 30
0.0
 11
157.41451000000001
 21
112.43805
 31
0.0
  0
LINE
  5
45D
  8
_0-0_0
  6
CONTINUOUS
 62
     5
 10
155.97539
 20
113.5381899999998
 30
0.0
 11
156.7145099999999
 21
113.5381899999998
 31
0.0
  0
LINE
  5
45E
  8
_0-0_0
  6
CONTINUOUS
 62
     5
 10
157.41451000000001
 20
113.35903
 30
0.0
 11
156.7145099999999
 21
113.35903
 31
0.0
  0
LINE
  5
45F
  8
_0-0_0
  6
CONTINUOUS
 62
     5
 10
154.83614
 20
116.5681899999998
 30
0.0
 11
154.96340000000001
 21
116.5681899999998
 31
0.0
  0
LINE
  5
460
  8
_0-0_0
  6
CONTINUOUS
 62
     5
 10
154.96340000000001
 20
116.0081899999999
 30
0.0
 11
154.83614
 21
116.0081899999999
 31
0.0
  0
LINE
  5
461
  8
_0-0_0
  6
CONTINUOUS
 62
     5
 10
154.96340000000001
 20
114.43818999999991
 30
0.0
 11
155.01886999999991
 21
114.24653000000001
 31
0.0
  0
LINE
  5
462
  8
_0-0_0
  6
CONTINUOUS
 62
     5
 10
154.96340000000001
 20
114.4595099999999
 30
0.0
 11
154.96340000000001
 21
114.43818999999991
 31
0.0
  0
LINE
  5
463
  8
_0-0_0
  6
CONTINUOUS
 62
     5
 10
154.96340000000001
 20
116.5681899999998
 30
0.0
 11
154.96340000000001
 21
116.0081899999999
 31
0.0
  0
ARC
  5
464
  8
_0-0_0
  6
CONTINUOUS
 62
     5
 10
155.97539
 20
114.5381899999998
 30
0.0
 40
1.0
 50
196.95774999999981
 51
269.99998999999991
  0
LINE
  5
465
  8
_0-0_0
  6
CONTINUOUS
 62
     5
 10
153.41451000000001
 20
120.18805
 30
0.0
 11
156.91451000000001
 21
120.18805
 31
0.0
  0
ARC
  5
466
  8
_0-0_0
  6
CONTINUOUS
 62
     5
 10
153.41451000000001
 20
119.68805
 30
0.0
 40
0.5
 50
90.0
 51
180.0
  0
LINE
  5
467
  8
_0-0_0
  6
CONTINUOUS
 62
     5
 10
155.97539
 20
119.03819
 30
0.0
 11
156.7145099999999
 21
119.03819
 31
0.0
  0
LINE
  5
468
  8
_0-0_0
  6
CONTINUOUS
 62
     5
 10
156.91451000000001
 20
120.43805
 30
0.0
 11
157.41451000000001
 21
120.43805
 31
0.0
  0
LINE
  5
469
  8
_0-0_0
  6
CONTINUOUS
 62
     5
 10
157.41451000000001
 20
119.2381899999999
 30
0.0
 11
156.7145099999999
 21
119.2381899999999
 31
0.0
  0
ARC
  5
46A
  8
_0-0_0
  6
CONTINUOUS
 62
     5
 10
155.97539
 20
118.0381899999999
 30
0.0
 40
1.0
 50
90.000001999999981
 51
163.04223999999999
  0
LINE
  5
46B
  8
_0-0_0
  6
CONTINUOUS
 62
     5
 10
179.0796499999999
 20
112.50251
 30
0.0
 11
179.1100499999998
 21
112.4962399999999
 31
0.0
  0
LINE
  5
46C
  8
_0-0_0
  6
CONTINUOUS
 62
     5
 10
179.2260499999999
 20
112.45278
 30
0.0
 11
179.25308000000001
 21
112.43753
 31
0.0
  0
LINE
  5
46D
  8
_0-0_0
  6
CONTINUOUS
 62
     5
 10
179.1981199999999
 20
112.4663299999999
 30
0.0
 11
179.2260499999999
 21
112.45278
 31
0.0
  0
LINE
  5
46E
  8
_0-0_0
  6
CONTINUOUS
 62
     5
 10
179.16939999999991
 20
112.4781199999999
 30
0.0
 11
179.1981199999999
 21
112.4663299999999
 31
0.0
  0
LINE
  5
46F
  8
_0-0_0
  6
CONTINUOUS
 62
     5
 10
179.1400099999999
 20
112.4881
 30
0.0
 11
179.16939999999991
 21
112.4781199999999
 31
0.0
  0
LINE
  5
470
  8
_0-0_0
  6
CONTINUOUS
 62
     5
 10
179.1100499999998
 20
112.4962399999999
 30
0.0
 11
179.1400099999999
 21
112.4881
 31
0.0
  0
LINE
  5
471
  8
_0-0_0
  6
CONTINUOUS
 62
     5
 10
179.27912000000001
 20
112.4206199999999
 30
0.0
 11
179.30405999999991
 21
112.4021399999999
 31
0.0
  0
LINE
  5
472
  8
_0-0_0
  6
CONTINUOUS
 62
     5
 10
179.25308000000001
 20
112.43753
 30
0.0
 11
179.27912000000001
 21
112.4206199999999
 31
0.0
  0
LINE
  5
473
  8
_0-0_0
  6
CONTINUOUS
 62
     5
 10
156.91451000000001
 20
153.82417000000001
 30
0.0
 11
135.11450999999991
 21
153.82417000000001
 31
0.0
  0
LINE
  5
474
  8
_0-0_0
  6
CONTINUOUS
 62
     5
 10
135.11450999999991
 20
147.38605000000001
 30
0.0
 11
156.91451000000001
 21
147.38605000000001
 31
0.0
  0
LINE
  5
475
  8
_0-0_0
  6
CONTINUOUS
 62
     5
 10
156.91451000000001
 20
153.68805
 30
0.0
 11
132.2145099999999
 21
153.68805
 31
0.0
  0
LINE
  5
476
  8
_0-0_0
  6
CONTINUOUS
 62
     5
 10
132.2145099999999
 20
153.48804999999979
 30
0.0
 11
156.91451000000001
 21
153.48804999999979
 31
0.0
  0
ARC
  5
477
  8
_0-0_0
  6
CONTINUOUS
 62
     5
 10
134.11451
 20
142.10805999999991
 30
0.0
 40
1.0
 50
180.0
 51
270.0
  0
LINE
  5
478
  8
_0-0_0
  6
CONTINUOUS
 62
     5
 10
134.91451000000001
 20
140.88804999999991
 30
0.0
 11
132.2145099999999
 21
140.88804999999991
 31
0.0
  0
ARC
  5
479
  8
_0-0_0
  6
CONTINUOUS
 62
     5
 10
134.11451
 20
146.10805999999999
 30
0.0
 40
1.0
 50
90.0
 51
180.0
  0
ARC
  5
47A
  8
_0-0_0
  6
CONTINUOUS
 62
     5
 10
132.2145099999999
 20
139.88804999999991
 30
0.0
 40
1.0
 50
90.0
 51
180.0
  0
LINE
  5
47B
  8
_0-0_0
  6
CONTINUOUS
 62
     5
 10
132.42077
 20
146.35805999999999
 30
0.0
 11
133.11451
 21
146.35805999999999
 31
0.0
  0
ARC
  5
47C
  8
_0-0_0
  6
CONTINUOUS
 62
     5
 10
132.42077
 20
142.65806000000001
 30
0.0
 40
0.8
 50
196.19132999999991
 51
269.99998999999991
  0
LINE
  5
47D
  8
_0-0_0
  6
CONTINUOUS
 62
     5
 10
132.42077
 20
141.85805999999999
 30
0.0
 11
133.11451
 21
141.85805999999999
 31
0.0
  0
ARC
  5
47E
  8
_0-0_0
  6
CONTINUOUS
 62
     5
 10
137.41451000000001
 20
144.10805999999999
 30
0.0
 40
6.0
 50
163.80865
 51
167.48667
  0
ARC
  5
47F
  8
_0-0_0
  6
CONTINUOUS
 62
     5
 10
137.41451000000001
 20
144.10805999999999
 30
0.0
 40
6.0
 50
192.51331999999999
 51
196.19134
  0
LINE
  5
480
  8
_0-0_0
  6
CONTINUOUS
 62
     5
 10
131.46318999999991
 20
144.38805999999991
 30
0.0
 11
131.55704
 21
144.38805999999991
 31
0.0
  0
LINE
  5
481
  8
_0-0_0
  6
CONTINUOUS
 62
     5
 10
131.55704
 20
143.82805999999991
 30
0.0
 11
131.46318999999991
 21
143.82805999999991
 31
0.0
  0
LINE
  5
482
  8
_0-0_0
  6
CONTINUOUS
 62
     5
 10
131.46318999999991
 20
143.39857000000001
 30
0.0
 11
131.47394
 21
143.31298000000001
 31
0.0
  0
LINE
  5
483
  8
_0-0_0
  6
CONTINUOUS
 62
     5
 10
131.45248000000001
 20
143.5390399999998
 30
0.0
 11
131.4572499999999
 21
143.46988999999979
 31
0.0
  0
LINE
  5
484
  8
_0-0_0
  6
CONTINUOUS
 62
     5
 10
131.4572499999999
 20
143.46988999999979
 30
0.0
 11
131.46318999999991
 21
143.39857000000001
 31
0.0
  0
LINE
  5
485
  8
_0-0_0
  6
CONTINUOUS
 62
     5
 10
131.55704
 20
142.83856999999981
 30
0.0
 11
131.55704
 21
142.80806000000001
 31
0.0
  0
LINE
  5
486
  8
_0-0_0
  6
CONTINUOUS
 62
     5
 10
131.55704
 20
144.38805999999991
 30
0.0
 11
131.55704
 21
143.82805999999991
 31
0.0
  0
LINE
  5
487
  8
_0-0_0
  6
CONTINUOUS
 62
     5
 10
131.55704
 20
145.40806000000001
 30
0.0
 11
131.55704
 21
145.37755000000001
 31
0.0
  0
LINE
  5
488
  8
_0-0_0
  6
CONTINUOUS
 62
     5
 10
133.11451
 20
141.85815999999991
 30
0.0
 11
133.11451
 21
146.35795999999991
 31
0.0
  0
ARC
  5
489
  8
_0-0_0
  6
CONTINUOUS
 62
     5
 10
132.42077
 20
145.55806000000001
 30
0.0
 40
0.8
 50
90.000003000000007
 51
163.80866
  0
ARC
  5
48A
  8
_0-0_0
  6
CONTINUOUS
 62
     5
 10
132.2145099999999
 20
152.68805
 30
0.0
 40
1.0
 50
90.0
 51
180.0
  0
ARC
  5
48B
  8
_0-0_0
  6
CONTINUOUS
 62
     5
 10
132.2145099999999
 20
152.4880499999999
 30
0.0
 40
1.0
 50
90.0
 51
180.0
  0
LINE
  5
48C
  8
_0-0_0
  6
CONTINUOUS
 62
     5
 10
134.91451000000001
 20
140.88804999999991
 30
0.0
 11
134.91451000000001
 21
153.48804999999979
 31
0.0
  0
LINE
  5
48D
  8
_0-0_0
  6
CONTINUOUS
 62
     5
 10
134.11451
 20
141.10805999999999
 30
0.0
 11
134.91451000000001
 21
141.10805999999999
 31
0.0
  0
ARC
  5
48E
  8
_0-0_0
  6
CONTINUOUS
 62
     5
 10
135.11450999999991
 20
147.18604999999999
 30
0.0
 40
0.2
 50
90.0
 51
180.0
  0
LINE
  5
48F
  8
_0-0_0
  6
CONTINUOUS
 62
     5
 10
134.11451
 20
147.10805999999999
 30
0.0
 11
134.91451000000001
 21
147.10805999999999
 31
0.0
  0
LINE
  5
490
  8
_0-0_0
  6
CONTINUOUS
 62
     5
 10
134.91451000000001
 20
150.02491000000001
 30
0.0
 11
134.91883000000001
 21
150.16521
 31
0.0
  0
ARC
  5
491
  8
_0-0_0
  6
CONTINUOUS
 62
     5
 10
134.11451
 20
152.7241699999999
 30
0.0
 40
1.0
 50
90.0
 51
105.3908999999999
  0
ARC
  5
492
  8
_0-0_0
  6
CONTINUOUS
 62
     5
 10
135.11450999999991
 20
153.62416999999979
 30
0.0
 40
0.2
 50
90.0
 51
161.36089999999979
  0
LINE
  5
493
  8
_0-0_0
  6
CONTINUOUS
 62
     5
 10
134.11451
 20
153.7241699999999
 30
0.0
 11
134.91451000000001
 21
153.7241699999999
 31
0.0
  0
LINE
  5
494
  8
_0-0_0
  6
CONTINUOUS
 62
     5
 10
134.91451000000001
 20
153.68805
 30
0.0
 11
134.91451000000001
 21
153.7241699999999
 31
0.0
  0
LINE
  5
495
  8
_0-0_0
  6
CONTINUOUS
 62
     5
 10
156.91451000000001
 20
147.13605000000001
 30
0.0
 11
157.41451000000001
 21
147.13605000000001
 31
0.0
  0
LINE
  5
496
  8
_0-0_0
  6
CONTINUOUS
 62
     5
 10
156.91451000000001
 20
153.2380499999999
 30
0.0
 11
157.41451000000001
 21
153.2380499999999
 31
0.0
  0
LINE
  5
497
  8
_0-0_0
  6
CONTINUOUS
 62
     5
 10
156.91451000000001
 20
153.57417000000001
 30
0.0
 11
157.41451000000001
 21
153.57417000000001
 31
0.0
  0
LINE
  5
498
  8
_0-0_0
  6
CONTINUOUS
 62
     5
 10
156.91451000000001
 20
153.43805
 30
0.0
 11
157.41451000000001
 21
153.43805
 31
0.0
  0
LINE
  5
499
  8
_0-0_0
  6
CONTINUOUS
 62
     5
 10
205.5145099999998
 20
112.8737899999999
 30
0.0
 11
205.5145099999998
 21
153.82417000000001
 31
0.0
  0
LINE
  5
49A
  8
_0-0_0
  6
CONTINUOUS
 62
     5
 10
210.68120999999991
 20
104.38804999999979
 30
0.0
 11
217.74780999999999
 21
104.38804999999979
 31
0.0
  0
LINE
  5
49B
  8
_0-0_0
  6
CONTINUOUS
 62
     5
 10
223.2145099999999
 20
109.78805
 30
0.0
 11
206.06451000000001
 21
109.78805
 31
0.0
  0
LINE
  5
49C
  8
_0-0_0
  6
CONTINUOUS
 62
     5
 10
205.56451000000001
 20
112.88858
 30
0.0
 11
205.56451000000001
 21
110.2880499999999
 31
0.0
  0
LINE
  5
49D
  8
_0-0_0
  6
CONTINUOUS
 62
     5
 10
199.54214999999991
 20
112.3938499999999
 30
0.0
 11
199.54876999999991
 21
112.4262199999999
 31
0.0
  0
LINE
  5
49E
  8
_0-2_CENTER
  6
CENTER2
 62
     1
 10
214.21450999999999
 20
113.22683000000001
 30
0.0
 11
214.21450999999999
 21
92.085665000000006
 31
0.0
  0
LINE
  5
49F
  8
_0-2_CENTER
  6
CENTER2
 62
     1
 10
189.51451
 20
115.3253599999999
 30
0.0
 11
189.51451
 21
91.652764000000005
 31
0.0
  0
LINE
  5
4A0
  8
_0-1_HIDDEN
  6
DASHED3
 62
     6
 10
203.17999
 20
105.7970999999999
 30
0.0
 11
198.79926
 21
105.7970999999999
 31
0.0
  0
LINE
  5
4A1
  8
_0-1_HIDDEN
  6
DASHED3
 62
     6
 10
197.89001999999991
 20
94.579001000000005
 30
0.0
 11
203.15796999999989
 21
94.579001000000005
 31
0.0
  0
ARC
  5
4A2
  8
_0-0_0
  6
CONTINUOUS
 62
     5
 10
199.33505
 20
109.68805
 30
0.0
 40
0.2
 50
270.0
 51
0.0
  0
LINE
  5
4A3
  8
_0-0_0
  6
CONTINUOUS
 62
     5
 10
199.23505
 20
109.48805
 30
0.0
 11
199.53505000000001
 21
109.18805
 31
0.0
  0
LINE
  5
4A4
  8
_0-0_0
  6
CONTINUOUS
 62
     5
 10
194.85641000000001
 20
108.38805000000001
 30
0.0
 11
199.53406000000001
 21
108.38805000000001
 31
0.0
  0
LINE
  5
4A5
  8
_0-0_0
  6
CONTINUOUS
 62
     5
 10
193.34307999999999
 20
100.9880499999999
 30
0.0
 11
193.15451999999999
 21
100.68805
 31
0.0
  0
LINE
  5
4A6
  8
_0-0_0
  6
CONTINUOUS
 62
     5
 10
193.62235000000001
 20
100.68805
 30
0.0
 11
193.94261999999981
 21
100.9880499999999
 31
0.0
  0
LINE
  5
4A7
  8
_0-0_0
  6
CONTINUOUS
 62
     5
 10
185.08641
 20
100.9880499999999
 30
0.0
 11
185.40666999999991
 21
100.68805
 31
0.0
  0
LINE
  5
4A8
  8
_0-0_0
  6
CONTINUOUS
 62
     5
 10
185.6859399999999
 20
100.9880499999999
 30
0.0
 11
185.8745099999999
 21
100.68805
 31
0.0
  0
LINE
  5
4A9
  8
_0-1_HIDDEN
  6
DASHED3
 62
     6
 10
197.4781899999999
 20
94.388050000000007
 30
0.0
 11
188.66734
 21
94.388050000000007
 31
0.0
  0
LINE
  5
4AA
  8
_0-0_0
  6
CONTINUOUS
 62
     5
 10
193.62235000000001
 20
100.68805
 30
0.0
 11
185.40666999999991
 21
100.68805
 31
0.0
  0
LINE
  5
4AB
  8
_0-1_HIDDEN
  6
DASHED3
 62
     6
 10
197.87213
 20
94.593928000000005
 30
0.0
 11
197.82259999999999
 21
94.534576999999985
 31
0.0
  0
LINE
  5
4AC
  8
_0-1_HIDDEN
  6
DASHED3
 62
     6
 10
197.82259999999999
 20
94.534576999999985
 30
0.0
 11
197.76453000000001
 21
94.483532999999994
 31
0.0
  0
LINE
  5
4AD
  8
_0-1_HIDDEN
  6
DASHED3
 62
     6
 10
197.76453000000001
 20
94.483532999999994
 30
0.0
 11
197.69928999999991
 21
94.442639000000014
 31
0.0
  0
LINE
  5
4AE
  8
_0-1_HIDDEN
  6
DASHED3
 62
     6
 10
197.69928999999991
 20
94.442639000000014
 30
0.0
 11
197.62871000000001
 21
94.412515999999997
 31
0.0
  0
LINE
  5
4AF
  8
_0-1_HIDDEN
  6
DASHED3
 62
     6
 10
197.62871000000001
 20
94.412515999999997
 30
0.0
 11
197.5552899999999
 21
94.394463999999985
 31
0.0
  0
LINE
  5
4B0
  8
_0-1_HIDDEN
  6
DASHED3
 62
     6
 10
197.5552899999999
 20
94.394463999999985
 30
0.0
 11
197.4781899999999
 21
94.388050000000007
 31
0.0
  0
LINE
  5
4B1
  8
_0-0_0
  6
CONTINUOUS
 62
     5
 10
185.08641
 20
100.9880499999999
 30
0.0
 11
193.94261999999981
 21
100.9880499999999
 31
0.0
  0
LINE
  5
4B2
  8
_0-0_0
  6
CONTINUOUS
 62
     5
 10
185.6859399999999
 20
106.18805
 30
0.0
 11
185.6859399999999
 21
100.9880499999999
 31
0.0
  0
LINE
  5
4B3
  8
_0-0_0
  6
CONTINUOUS
 62
     5
 10
185.08641
 20
100.9880499999999
 30
0.0
 11
185.08641
 21
106.18805
 31
0.0
  0
LINE
  5
4B4
  8
_0-0_0
  6
CONTINUOUS
 62
     5
 10
198.8989199999998
 20
106.18805
 30
0.0
 11
198.8989199999998
 21
107.58805
 31
0.0
  0
ARC
  5
4B5
  8
_0-0_0
  6
CONTINUOUS
 62
     5
 10
198.10267999999999
 20
106.90295
 30
0.0
 40
0.7
 50
285.5004399999998
 51
355.0
  0
LINE
  5
4B6
  8
_0-0_0
  6
CONTINUOUS
 62
     5
 10
194.85532000000001
 20
108.38805000000001
 30
0.0
 11
194.85532000000001
 21
106.18805
 31
0.0
  0
ARC
  5
4B7
  8
_0-0_0
  6
CONTINUOUS
 62
     5
 10
196.12790000000001
 20
106.90295
 30
0.0
 40
0.7
 50
185.0
 51
254.49955
  0
LINE
  5
4B8
  8
_0-0_0
  6
CONTINUOUS
 62
     5
 10
193.94261999999981
 20
100.9880499999999
 30
0.0
 11
193.94261999999981
 21
106.18805
 31
0.0
  0
LINE
  5
4B9
  8
_0-0_0
  6
CONTINUOUS
 62
     5
 10
193.34307999999999
 20
100.9880499999999
 30
0.0
 11
193.34307999999999
 21
106.18805
 31
0.0
  0
LINE
  5
4BA
  8
_0-1_HIDDEN
  6
DASHED3
 62
     6
 10
198.79926
 20
106.18805
 30
0.0
 11
198.79926
 21
105.7970999999999
 31
0.0
  0
LINE
  5
4BB
  8
_0-0_0
  6
CONTINUOUS
 62
     5
 10
198.28912
 20
106.22823
 30
0.0
 11
198.28451000000001
 21
106.22703
 31
0.0
  0
LINE
  5
4BC
  8
_0-0_0
  6
CONTINUOUS
 62
     5
 10
198.2860499999999
 20
106.22745999999989
 30
0.0
 11
198.28986999999981
 21
106.2284999999999
 31
0.0
  0
LINE
  5
4BD
  8
_0-0_0
  6
CONTINUOUS
 62
     5
 10
198.28986999999981
 20
106.2284999999999
 30
0.0
 11
198.29367999999999
 21
106.22956000000001
 31
0.0
  0
LINE
  5
4BE
  8
_0-0_0
  6
CONTINUOUS
 62
     5
 10
198.28603000000001
 20
106.22740999999991
 30
0.0
 11
198.28986999999981
 21
106.2284999999999
 31
0.0
  0
LINE
  5
4BF
  8
_0-0_0
  6
CONTINUOUS
 62
     5
 10
198.29367999999999
 20
106.22956000000001
 30
0.0
 11
198.28912
 21
106.22823
 31
0.0
  0
LINE
  5
4C0
  8
_0-0_0
  6
CONTINUOUS
 62
     5
 10
195.96753000000001
 20
106.2216499999999
 30
0.0
 11
197.0860899999999
 21
106.2216499999999
 31
0.0
  0
LINE
  5
4C1
  8
_0-0_0
  6
CONTINUOUS
 62
     5
 10
195.96368000000001
 20
106.22256
 30
0.0
 11
195.9598399999999
 21
106.2235
 31
0.0
  0
LINE
  5
4C2
  8
_0-0_0
  6
CONTINUOUS
 62
     5
 10
195.96753000000001
 20
106.2216499999999
 30
0.0
 11
195.96368000000001
 21
106.22256
 31
0.0
  0
LINE
  5
4C3
  8
_0-0_0
  6
CONTINUOUS
 62
     5
 10
197.14448999999999
 20
106.2216499999999
 30
0.0
 11
198.2630399999999
 21
106.2216499999999
 31
0.0
  0
LINE
  5
4C4
  8
_0-0_0
  6
CONTINUOUS
 62
     5
 10
194.9163699999998
 20
107.58805
 30
0.0
 11
199.3144299999999
 21
107.58805
 31
0.0
  0
LINE
  5
4C5
  8
_0-0_0
  6
CONTINUOUS
 62
     5
 10
194.91528999999991
 20
107.58805
 30
0.0
 11
194.91528999999991
 21
108.38805000000001
 31
0.0
  0
LINE
  5
4C6
  8
_0-0_0
  6
CONTINUOUS
 62
     5
 10
198.8000099999999
 20
106.84193999999999
 30
0.0
 11
198.8652899999999
 21
107.58805
 31
0.0
  0
LINE
  5
4C7
  8
_0-0_0
  6
CONTINUOUS
 62
     5
 10
199.31529
 20
107.58805
 30
0.0
 11
199.31529
 21
108.38805000000001
 31
0.0
  0
LINE
  5
4C8
  8
_0-0_0
  6
CONTINUOUS
 62
     5
 10
195.4305599999999
 20
106.84193999999999
 30
0.0
 11
195.3652899999999
 21
107.58805
 31
0.0
  0
LINE
  5
4C9
  8
_0-1_HIDDEN
  6
DASHED3
 62
     6
 10
207.19445999999999
 20
96.92895
 30
0.0
 11
207.2114599999999
 21
96.931050000000013
 31
0.0
  0
LINE
  5
4CA
  8
_0-1_HIDDEN
  6
DASHED3
 62
     6
 10
207.2114599999999
 20
96.931050000000013
 30
0.0
 11
207.22846000000001
 21
96.935149999999993
 31
0.0
  0
LINE
  5
4CB
  8
_0-1_HIDDEN
  6
DASHED3
 62
     6
 10
207.22846000000001
 20
96.935149999999993
 30
0.0
 11
207.24545999999989
 21
96.941249999999997
 31
0.0
  0
LINE
  5
4CC
  8
_0-1_HIDDEN
  6
DASHED3
 62
     6
 10
207.24545999999989
 20
96.941249999999997
 30
0.0
 11
207.26246
 21
96.949150000000003
 31
0.0
  0
LINE
  5
4CD
  8
_0-1_HIDDEN
  6
DASHED3
 62
     6
 10
207.26246
 20
96.949150000000003
 30
0.0
 11
207.27945999999989
 21
96.959050000000005
 31
0.0
  0
LINE
  5
4CE
  8
_0-1_HIDDEN
  6
DASHED3
 62
     6
 10
207.27945999999989
 20
96.959050000000005
 30
0.0
 11
207.29545999999999
 21
96.970850000000013
 31
0.0
  0
LINE
  5
4CF
  8
_0-1_HIDDEN
  6
DASHED3
 62
     6
 10
207.29545999999999
 20
96.970850000000013
 30
0.0
 11
207.3124599999999
 21
96.984650000000002
 31
0.0
  0
LINE
  5
4D0
  8
_0-1_HIDDEN
  6
DASHED3
 62
     6
 10
207.3124599999999
 20
96.984650000000002
 30
0.0
 11
207.32946000000001
 21
97.000349999999983
 31
0.0
  0
LINE
  5
4D1
  8
_0-1_HIDDEN
  6
DASHED3
 62
     6
 10
207.32946000000001
 20
97.000349999999983
 30
0.0
 11
207.34646000000001
 21
97.017849999999996
 31
0.0
  0
LINE
  5
4D2
  8
_0-1_HIDDEN
  6
DASHED3
 62
     6
 10
207.34646000000001
 20
97.017849999999996
 30
0.0
 11
207.36246
 21
97.037350000000004
 31
0.0
  0
LINE
  5
4D3
  8
_0-1_HIDDEN
  6
DASHED3
 62
     6
 10
207.36246
 20
97.037350000000004
 30
0.0
 11
207.3784599999999
 21
97.058650000000014
 31
0.0
  0
LINE
  5
4D4
  8
_0-1_HIDDEN
  6
DASHED3
 62
     6
 10
207.3784599999999
 20
97.058650000000014
 30
0.0
 11
207.3954599999999
 21
97.081850000000003
 31
0.0
  0
LINE
  5
4D5
  8
_0-1_HIDDEN
  6
DASHED3
 62
     6
 10
207.3954599999999
 20
97.081850000000003
 30
0.0
 11
207.41146000000001
 21
97.106950000000012
 31
0.0
  0
LINE
  5
4D6
  8
_0-1_HIDDEN
  6
DASHED3
 62
     6
 10
207.41146000000001
 20
97.106950000000012
 30
0.0
 11
207.4274599999998
 21
97.133750000000006
 31
0.0
  0
LINE
  5
4D7
  8
_0-1_HIDDEN
  6
DASHED3
 62
     6
 10
207.4274599999998
 20
97.133750000000006
 30
0.0
 11
207.44345999999999
 21
97.162549999999996
 31
0.0
  0
LINE
  5
4D8
  8
_0-1_HIDDEN
  6
DASHED3
 62
     6
 10
207.44345999999999
 20
97.162549999999996
 30
0.0
 11
207.45946000000001
 21
97.193050000000014
 31
0.0
  0
LINE
  5
4D9
  8
_0-1_HIDDEN
  6
DASHED3
 62
     6
 10
207.45946000000001
 20
97.193050000000014
 30
0.0
 11
207.47445999999991
 21
97.225350000000006
 31
0.0
  0
LINE
  5
4DA
  8
_0-1_HIDDEN
  6
DASHED3
 62
     6
 10
207.47445999999991
 20
97.225350000000006
 30
0.0
 11
207.4904599999999
 21
97.259450000000015
 31
0.0
  0
LINE
  5
4DB
  8
_0-1_HIDDEN
  6
DASHED3
 62
     6
 10
207.4904599999999
 20
97.259450000000015
 30
0.0
 11
207.50546
 21
97.295249999999996
 31
0.0
  0
LINE
  5
4DC
  8
_0-1_HIDDEN
  6
DASHED3
 62
     6
 10
207.50546
 20
97.295249999999996
 30
0.0
 11
207.52046000000001
 21
97.332750000000004
 31
0.0
  0
LINE
  5
4DD
  8
_0-1_HIDDEN
  6
DASHED3
 62
     6
 10
207.52046000000001
 20
97.332750000000004
 30
0.0
 11
207.5354599999998
 21
97.372050000000016
 31
0.0
  0
LINE
  5
4DE
  8
_0-1_HIDDEN
  6
DASHED3
 62
     6
 10
207.5354599999998
 20
97.372050000000016
 30
0.0
 11
207.54946000000001
 21
97.412949999999995
 31
0.0
  0
LINE
  5
4DF
  8
_0-1_HIDDEN
  6
DASHED3
 62
     6
 10
207.54946000000001
 20
97.412949999999995
 30
0.0
 11
207.56445999999991
 21
97.455550000000017
 31
0.0
  0
LINE
  5
4E0
  8
_0-1_HIDDEN
  6
DASHED3
 62
     6
 10
207.56445999999991
 20
97.455550000000017
 30
0.0
 11
207.57845999999989
 21
97.499750000000006
 31
0.0
  0
LINE
  5
4E1
  8
_0-1_HIDDEN
  6
DASHED3
 62
     6
 10
207.57845999999989
 20
97.499750000000006
 30
0.0
 11
207.59245999999999
 21
97.545649999999995
 31
0.0
  0
LINE
  5
4E2
  8
_0-1_HIDDEN
  6
DASHED3
 62
     6
 10
207.59245999999999
 20
97.545649999999995
 30
0.0
 11
207.60646
 21
97.593050000000005
 31
0.0
  0
LINE
  5
4E3
  8
_0-1_HIDDEN
  6
DASHED3
 62
     6
 10
207.60646
 20
97.593050000000005
 30
0.0
 11
207.61946
 21
97.641949999999994
 31
0.0
  0
LINE
  5
4E4
  8
_0-1_HIDDEN
  6
DASHED3
 62
     6
 10
207.61946
 20
97.641949999999994
 30
0.0
 11
207.6324599999999
 21
97.692449999999994
 31
0.0
  0
LINE
  5
4E5
  8
_0-1_HIDDEN
  6
DASHED3
 62
     6
 10
207.6324599999999
 20
97.692449999999994
 30
0.0
 11
207.64546000000001
 21
97.744349999999997
 31
0.0
  0
LINE
  5
4E6
  8
_0-1_HIDDEN
  6
DASHED3
 62
     6
 10
207.64546000000001
 20
97.744349999999997
 30
0.0
 11
207.65845999999991
 21
97.797749999999994
 31
0.0
  0
LINE
  5
4E7
  8
_0-1_HIDDEN
  6
DASHED3
 62
     6
 10
207.65845999999991
 20
97.797749999999994
 30
0.0
 11
207.67045999999991
 21
97.852649999999997
 31
0.0
  0
LINE
  5
4E8
  8
_0-1_HIDDEN
  6
DASHED3
 62
     6
 10
207.67045999999991
 20
97.852649999999997
 30
0.0
 11
207.68245999999999
 21
97.908850000000015
 31
0.0
  0
LINE
  5
4E9
  8
_0-1_HIDDEN
  6
DASHED3
 62
     6
 10
207.68245999999999
 20
97.908850000000015
 30
0.0
 11
207.69445999999999
 21
97.966449999999995
 31
0.0
  0
LINE
  5
4EA
  8
_0-1_HIDDEN
  6
DASHED3
 62
     6
 10
207.69445999999999
 20
97.966449999999995
 30
0.0
 11
207.7054599999999
 21
98.025350000000003
 31
0.0
  0
LINE
  5
4EB
  8
_0-1_HIDDEN
  6
DASHED3
 62
     6
 10
207.7054599999999
 20
98.025350000000003
 30
0.0
 11
207.7174599999999
 21
98.085650000000015
 31
0.0
  0
LINE
  5
4EC
  8
_0-1_HIDDEN
  6
DASHED3
 62
     6
 10
207.7174599999999
 20
98.085650000000015
 30
0.0
 11
207.72745999999989
 21
98.147049999999993
 31
0.0
  0
LINE
  5
4ED
  8
_0-1_HIDDEN
  6
DASHED3
 62
     6
 10
207.72745999999989
 20
98.147049999999993
 30
0.0
 11
207.73846
 21
98.20975
 31
0.0
  0
LINE
  5
4EE
  8
_0-1_HIDDEN
  6
DASHED3
 62
     6
 10
207.73846
 20
98.20975
 30
0.0
 11
207.74845999999999
 21
98.273650000000004
 31
0.0
  0
LINE
  5
4EF
  8
_0-1_HIDDEN
  6
DASHED3
 62
     6
 10
207.74845999999999
 20
98.273650000000004
 30
0.0
 11
207.75846000000001
 21
98.338650000000015
 31
0.0
  0
LINE
  5
4F0
  8
_0-1_HIDDEN
  6
DASHED3
 62
     6
 10
207.75846000000001
 20
98.338650000000015
 30
0.0
 11
207.76845999999989
 21
98.404750000000007
 31
0.0
  0
LINE
  5
4F1
  8
_0-1_HIDDEN
  6
DASHED3
 62
     6
 10
207.76845999999989
 20
98.404750000000007
 30
0.0
 11
207.77745999999999
 21
98.471950000000007
 31
0.0
  0
LINE
  5
4F2
  8
_0-1_HIDDEN
  6
DASHED3
 62
     6
 10
207.77745999999999
 20
98.471950000000007
 30
0.0
 11
207.78546
 21
98.540149999999997
 31
0.0
  0
LINE
  5
4F3
  8
_0-1_HIDDEN
  6
DASHED3
 62
     6
 10
207.78546
 20
98.540149999999997
 30
0.0
 11
207.7944599999999
 21
98.609250000000003
 31
0.0
  0
LINE
  5
4F4
  8
_0-1_HIDDEN
  6
DASHED3
 62
     6
 10
207.7944599999999
 20
98.609250000000003
 30
0.0
 11
207.80245999999991
 21
98.679450000000003
 31
0.0
  0
LINE
  5
4F5
  8
_0-1_HIDDEN
  6
DASHED3
 62
     6
 10
207.80245999999991
 20
98.679450000000003
 30
0.0
 11
207.81046000000001
 21
98.750450000000001
 31
0.0
  0
LINE
  5
4F6
  8
_0-1_HIDDEN
  6
DASHED3
 62
     6
 10
207.81046000000001
 20
98.750450000000001
 30
0.0
 11
207.81746000000001
 21
98.822350000000014
 31
0.0
  0
LINE
  5
4F7
  8
_0-1_HIDDEN
  6
DASHED3
 62
     6
 10
207.81746000000001
 20
98.822350000000014
 30
0.0
 11
207.82445999999999
 21
98.895049999999983
 31
0.0
  0
LINE
  5
4F8
  8
_0-1_HIDDEN
  6
DASHED3
 62
     6
 10
207.82445999999999
 20
98.895049999999983
 30
0.0
 11
207.83145999999999
 21
98.968450000000004
 31
0.0
  0
LINE
  5
4F9
  8
_0-1_HIDDEN
  6
DASHED3
 62
     6
 10
207.83145999999999
 20
98.968450000000004
 30
0.0
 11
207.83745999999999
 21
99.042649999999995
 31
0.0
  0
LINE
  5
4FA
  8
_0-1_HIDDEN
  6
DASHED3
 62
     6
 10
207.83745999999999
 20
99.042649999999995
 30
0.0
 11
207.84345999999999
 21
99.117549999999994
 31
0.0
  0
LINE
  5
4FB
  8
_0-1_HIDDEN
  6
DASHED3
 62
     6
 10
207.84345999999999
 20
99.117549999999994
 30
0.0
 11
207.8484599999999
 21
99.193050000000014
 31
0.0
  0
LINE
  5
4FC
  8
_0-1_HIDDEN
  6
DASHED3
 62
     6
 10
207.8484599999999
 20
99.193050000000014
 30
0.0
 11
207.85346000000001
 21
99.26925
 31
0.0
  0
LINE
  5
4FD
  8
_0-1_HIDDEN
  6
DASHED3
 62
     6
 10
207.85346000000001
 20
99.26925
 30
0.0
 11
207.85846000000001
 21
99.345850000000013
 31
0.0
  0
LINE
  5
4FE
  8
_0-1_HIDDEN
  6
DASHED3
 62
     6
 10
207.85846000000001
 20
99.345850000000013
 30
0.0
 11
207.86245999999991
 21
99.423050000000003
 31
0.0
  0
LINE
  5
4FF
  8
_0-1_HIDDEN
  6
DASHED3
 62
     6
 10
207.86245999999991
 20
99.423050000000003
 30
0.0
 11
207.8664599999999
 21
99.500649999999993
 31
0.0
  0
LINE
  5
500
  8
_0-1_HIDDEN
  6
DASHED3
 62
     6
 10
207.8664599999999
 20
99.500649999999993
 30
0.0
 11
207.86945999999989
 21
99.578649999999996
 31
0.0
  0
LINE
  5
501
  8
_0-1_HIDDEN
  6
DASHED3
 62
     6
 10
207.86945999999989
 20
99.578649999999996
 30
0.0
 11
207.87245999999999
 21
99.657049999999984
 31
0.0
  0
LINE
  5
502
  8
_0-1_HIDDEN
  6
DASHED3
 62
     6
 10
207.87245999999999
 20
99.657049999999984
 30
0.0
 11
207.87445999999991
 21
99.735749999999996
 31
0.0
  0
LINE
  5
503
  8
_0-1_HIDDEN
  6
DASHED3
 62
     6
 10
207.87445999999991
 20
99.735749999999996
 30
0.0
 11
207.87746000000001
 21
99.814750000000004
 31
0.0
  0
LINE
  5
504
  8
_0-1_HIDDEN
  6
DASHED3
 62
     6
 10
207.87746000000001
 20
99.814750000000004
 30
0.0
 11
207.87845999999999
 21
99.893950000000004
 31
0.0
  0
LINE
  5
505
  8
_0-1_HIDDEN
  6
DASHED3
 62
     6
 10
207.87845999999999
 20
99.893950000000004
 30
0.0
 11
207.88046
 21
99.973349999999996
 31
0.0
  0
LINE
  5
506
  8
_0-1_HIDDEN
  6
DASHED3
 62
     6
 10
207.88046
 20
99.973349999999996
 30
0.0
 11
207.88146
 21
100.05285000000001
 31
0.0
  0
LINE
  5
507
  8
_0-1_HIDDEN
  6
DASHED3
 62
     6
 10
207.88146
 20
100.05285000000001
 30
0.0
 11
207.88146
 21
100.13245000000001
 31
0.0
  0
LINE
  5
508
  8
_0-1_HIDDEN
  6
DASHED3
 62
     6
 10
207.88146
 20
100.13245000000001
 30
0.0
 11
207.88146
 21
100.21204999999991
 31
0.0
  0
LINE
  5
509
  8
_0-1_HIDDEN
  6
DASHED3
 62
     6
 10
207.88146
 20
100.21204999999991
 30
0.0
 11
207.88146
 21
100.2916499999999
 31
0.0
  0
LINE
  5
50A
  8
_0-1_HIDDEN
  6
DASHED3
 62
     6
 10
207.88146
 20
100.2916499999999
 30
0.0
 11
207.88046
 21
100.37125
 31
0.0
  0
LINE
  5
50B
  8
_0-1_HIDDEN
  6
DASHED3
 62
     6
 10
207.88046
 20
100.37125
 30
0.0
 11
207.87945999999999
 21
100.4506499999999
 31
0.0
  0
LINE
  5
50C
  8
_0-1_HIDDEN
  6
DASHED3
 62
     6
 10
207.87945999999999
 20
100.4506499999999
 30
0.0
 11
207.87746000000001
 21
100.52995
 31
0.0
  0
LINE
  5
50D
  8
_0-1_HIDDEN
  6
DASHED3
 62
     6
 10
207.87746000000001
 20
100.52995
 30
0.0
 11
207.87545999999989
 21
100.6090499999999
 31
0.0
  0
LINE
  5
50E
  8
_0-1_HIDDEN
  6
DASHED3
 62
     6
 10
207.87545999999989
 20
100.6090499999999
 30
0.0
 11
207.87345999999991
 21
100.68785
 31
0.0
  0
LINE
  5
50F
  8
_0-1_HIDDEN
  6
DASHED3
 62
     6
 10
207.87345999999991
 20
100.68785
 30
0.0
 11
207.87046000000001
 21
100.76635
 31
0.0
  0
LINE
  5
510
  8
_0-1_HIDDEN
  6
DASHED3
 62
     6
 10
207.87046000000001
 20
100.76635
 30
0.0
 11
207.86745999999991
 21
100.84455
 31
0.0
  0
LINE
  5
511
  8
_0-1_HIDDEN
  6
DASHED3
 62
     6
 10
207.86745999999991
 20
100.84455
 30
0.0
 11
207.86345999999989
 21
100.92234999999999
 31
0.0
  0
LINE
  5
512
  8
_0-1_HIDDEN
  6
DASHED3
 62
     6
 10
207.86345999999989
 20
100.92234999999999
 30
0.0
 11
207.85946000000001
 21
100.9996499999999
 31
0.0
  0
LINE
  5
513
  8
_0-1_HIDDEN
  6
DASHED3
 62
     6
 10
207.85946000000001
 20
100.9996499999999
 30
0.0
 11
207.85545999999991
 21
101.0765499999999
 31
0.0
  0
LINE
  5
514
  8
_0-1_HIDDEN
  6
DASHED3
 62
     6
 10
207.85545999999991
 20
101.0765499999999
 30
0.0
 11
207.85046
 21
101.15285
 31
0.0
  0
LINE
  5
515
  8
_0-1_HIDDEN
  6
DASHED3
 62
     6
 10
207.85046
 20
101.15285
 30
0.0
 11
207.84546
 21
101.22865
 31
0.0
  0
LINE
  5
516
  8
_0-1_HIDDEN
  6
DASHED3
 62
     6
 10
207.84546
 20
101.22865
 30
0.0
 11
207.83946
 21
101.30374999999999
 31
0.0
  0
LINE
  5
517
  8
_0-1_HIDDEN
  6
DASHED3
 62
     6
 10
207.83946
 20
101.30374999999999
 30
0.0
 11
207.83346
 21
101.37824999999999
 31
0.0
  0
LINE
  5
518
  8
_0-1_HIDDEN
  6
DASHED3
 62
     6
 10
207.83346
 20
101.37824999999999
 30
0.0
 11
207.8274599999998
 21
101.4520499999999
 31
0.0
  0
LINE
  5
519
  8
_0-1_HIDDEN
  6
DASHED3
 62
     6
 10
207.8274599999998
 20
101.4520499999999
 30
0.0
 11
207.8204599999998
 21
101.52504999999999
 31
0.0
  0
LINE
  5
51A
  8
_0-1_HIDDEN
  6
DASHED3
 62
     6
 10
207.8204599999998
 20
101.52504999999999
 30
0.0
 11
207.81345999999991
 21
101.5972499999999
 31
0.0
  0
LINE
  5
51B
  8
_0-1_HIDDEN
  6
DASHED3
 62
     6
 10
207.81345999999991
 20
101.5972499999999
 30
0.0
 11
207.80546000000001
 21
101.66865
 31
0.0
  0
LINE
  5
51C
  8
_0-1_HIDDEN
  6
DASHED3
 62
     6
 10
207.80546000000001
 20
101.66865
 30
0.0
 11
207.79746
 21
101.73905000000001
 31
0.0
  0
LINE
  5
51D
  8
_0-1_HIDDEN
  6
DASHED3
 62
     6
 10
207.79746
 20
101.73905000000001
 30
0.0
 11
207.78945999999999
 21
101.80865
 31
0.0
  0
LINE
  5
51E
  8
_0-1_HIDDEN
  6
DASHED3
 62
     6
 10
207.78945999999999
 20
101.80865
 30
0.0
 11
207.78045999999989
 21
101.87725
 31
0.0
  0
LINE
  5
51F
  8
_0-1_HIDDEN
  6
DASHED3
 62
     6
 10
207.78045999999989
 20
101.87725
 30
0.0
 11
207.77145999999991
 21
101.9448499999999
 31
0.0
  0
LINE
  5
520
  8
_0-1_HIDDEN
  6
DASHED3
 62
     6
 10
207.77145999999991
 20
101.9448499999999
 30
0.0
 11
207.76246
 21
102.01134999999979
 31
0.0
  0
LINE
  5
521
  8
_0-1_HIDDEN
  6
DASHED3
 62
     6
 10
207.76246
 20
102.01134999999979
 30
0.0
 11
207.75246000000001
 21
102.07684999999979
 31
0.0
  0
LINE
  5
522
  8
_0-1_HIDDEN
  6
DASHED3
 62
     6
 10
207.75246000000001
 20
102.07684999999979
 30
0.0
 11
207.74245999999999
 21
102.1411499999999
 31
0.0
  0
LINE
  5
523
  8
_0-1_HIDDEN
  6
DASHED3
 62
     6
 10
207.74245999999999
 20
102.1411499999999
 30
0.0
 11
207.7324599999998
 21
102.20435000000001
 31
0.0
  0
LINE
  5
524
  8
_0-1_HIDDEN
  6
DASHED3
 62
     6
 10
207.7324599999998
 20
102.20435000000001
 30
0.0
 11
207.72146000000001
 21
102.26625
 31
0.0
  0
LINE
  5
525
  8
_0-1_HIDDEN
  6
DASHED3
 62
     6
 10
207.72146000000001
 20
102.26625
 30
0.0
 11
207.71046000000001
 21
102.32695
 31
0.0
  0
LINE
  5
526
  8
_0-1_HIDDEN
  6
DASHED3
 62
     6
 10
207.71046000000001
 20
102.32695
 30
0.0
 11
207.6994599999999
 21
102.3864499999999
 31
0.0
  0
LINE
  5
527
  8
_0-1_HIDDEN
  6
DASHED3
 62
     6
 10
207.6994599999999
 20
102.3864499999999
 30
0.0
 11
207.68745999999999
 21
102.44455000000001
 31
0.0
  0
LINE
  5
528
  8
_0-1_HIDDEN
  6
DASHED3
 62
     6
 10
207.68745999999999
 20
102.44455000000001
 30
0.0
 11
207.67545999999999
 21
102.50135
 31
0.0
  0
LINE
  5
529
  8
_0-1_HIDDEN
  6
DASHED3
 62
     6
 10
207.67545999999999
 20
102.50135
 30
0.0
 11
207.6634599999999
 21
102.55674999999979
 31
0.0
  0
LINE
  5
52A
  8
_0-1_HIDDEN
  6
DASHED3
 62
     6
 10
207.6634599999999
 20
102.55674999999979
 30
0.0
 11
207.65046000000001
 21
102.6107499999999
 31
0.0
  0
LINE
  5
52B
  8
_0-1_HIDDEN
  6
DASHED3
 62
     6
 10
207.65046000000001
 20
102.6107499999999
 30
0.0
 11
207.63746
 21
102.66325000000001
 31
0.0
  0
LINE
  5
52C
  8
_0-1_HIDDEN
  6
DASHED3
 62
     6
 10
207.63746
 20
102.66325000000001
 30
0.0
 11
207.6244599999998
 21
102.7143499999999
 31
0.0
  0
LINE
  5
52D
  8
_0-1_HIDDEN
  6
DASHED3
 62
     6
 10
207.6244599999998
 20
102.7143499999999
 30
0.0
 11
207.61145999999991
 21
102.76385000000001
 31
0.0
  0
LINE
  5
52E
  8
_0-1_HIDDEN
  6
DASHED3
 62
     6
 10
207.61145999999991
 20
102.76385000000001
 30
0.0
 11
207.59746000000001
 21
102.81185000000001
 31
0.0
  0
LINE
  5
52F
  8
_0-1_HIDDEN
  6
DASHED3
 62
     6
 10
207.59746000000001
 20
102.81185000000001
 30
0.0
 11
207.58445999999989
 21
102.85835
 31
0.0
  0
LINE
  5
530
  8
_0-1_HIDDEN
  6
DASHED3
 62
     6
 10
207.58445999999989
 20
102.85835
 30
0.0
 11
207.56945999999991
 21
102.9031499999999
 31
0.0
  0
LINE
  5
531
  8
_0-1_HIDDEN
  6
DASHED3
 62
     6
 10
207.56945999999991
 20
102.9031499999999
 30
0.0
 11
207.55546000000001
 21
102.94645
 31
0.0
  0
LINE
  5
532
  8
_0-1_HIDDEN
  6
DASHED3
 62
     6
 10
207.55546000000001
 20
102.94645
 30
0.0
 11
207.54146
 21
102.9880499999999
 31
0.0
  0
LINE
  5
533
  8
_0-1_HIDDEN
  6
DASHED3
 62
     6
 10
207.54146
 20
102.9880499999999
 30
0.0
 11
207.5264599999999
 21
103.02795
 31
0.0
  0
LINE
  5
534
  8
_0-1_HIDDEN
  6
DASHED3
 62
     6
 10
207.5264599999999
 20
103.02795
 30
0.0
 11
207.51146
 21
103.06614999999979
 31
0.0
  0
LINE
  5
535
  8
_0-1_HIDDEN
  6
DASHED3
 62
     6
 10
207.51146
 20
103.06614999999979
 30
0.0
 11
207.49646000000001
 21
103.10265
 31
0.0
  0
LINE
  5
536
  8
_0-1_HIDDEN
  6
DASHED3
 62
     6
 10
207.49646000000001
 20
103.10265
 30
0.0
 11
207.48045999999991
 21
103.13745
 31
0.0
  0
LINE
  5
537
  8
_0-1_HIDDEN
  6
DASHED3
 62
     6
 10
207.48045999999991
 20
103.13745
 30
0.0
 11
207.46546000000001
 21
103.17045
 31
0.0
  0
LINE
  5
538
  8
_0-1_HIDDEN
  6
DASHED3
 62
     6
 10
207.46546000000001
 20
103.17045
 30
0.0
 11
207.4494599999999
 21
103.20165
 31
0.0
  0
LINE
  5
539
  8
_0-1_HIDDEN
  6
DASHED3
 62
     6
 10
207.4494599999999
 20
103.20165
 30
0.0
 11
207.43345999999991
 21
103.23115
 31
0.0
  0
LINE
  5
53A
  8
_0-1_HIDDEN
  6
DASHED3
 62
     6
 10
207.43345999999991
 20
103.23115
 30
0.0
 11
207.41746000000001
 21
103.25874999999991
 31
0.0
  0
LINE
  5
53B
  8
_0-1_HIDDEN
  6
DASHED3
 62
     6
 10
207.41746000000001
 20
103.25874999999991
 30
0.0
 11
207.4014599999999
 21
103.28455
 31
0.0
  0
LINE
  5
53C
  8
_0-1_HIDDEN
  6
DASHED3
 62
     6
 10
207.4014599999999
 20
103.28455
 30
0.0
 11
207.38545999999991
 21
103.30844999999979
 31
0.0
  0
LINE
  5
53D
  8
_0-1_HIDDEN
  6
DASHED3
 62
     6
 10
207.38545999999991
 20
103.30844999999979
 30
0.0
 11
207.36946
 21
103.3305499999999
 31
0.0
  0
LINE
  5
53E
  8
_0-1_HIDDEN
  6
DASHED3
 62
     6
 10
207.36946
 20
103.3305499999999
 30
0.0
 11
207.35246000000001
 21
103.35075000000001
 31
0.0
  0
LINE
  5
53F
  8
_0-1_HIDDEN
  6
DASHED3
 62
     6
 10
207.35246000000001
 20
103.35075000000001
 30
0.0
 11
207.33546000000001
 21
103.36905
 31
0.0
  0
LINE
  5
540
  8
_0-1_HIDDEN
  6
DASHED3
 62
     6
 10
207.33546000000001
 20
103.36905
 30
0.0
 11
207.31945999999991
 21
103.38545000000001
 31
0.0
  0
LINE
  5
541
  8
_0-1_HIDDEN
  6
DASHED3
 62
     6
 10
207.31945999999991
 20
103.38545000000001
 30
0.0
 11
207.30246
 21
103.3999499999999
 31
0.0
  0
LINE
  5
542
  8
_0-1_HIDDEN
  6
DASHED3
 62
     6
 10
207.30246
 20
103.3999499999999
 30
0.0
 11
207.2854599999998
 21
103.41255
 31
0.0
  0
LINE
  5
543
  8
_0-1_HIDDEN
  6
DASHED3
 62
     6
 10
207.2854599999998
 20
103.41255
 30
0.0
 11
207.26846
 21
103.4232499999999
 31
0.0
  0
LINE
  5
544
  8
_0-1_HIDDEN
  6
DASHED3
 62
     6
 10
207.26846
 20
103.4232499999999
 30
0.0
 11
207.25146000000001
 21
103.43195
 31
0.0
  0
LINE
  5
545
  8
_0-1_HIDDEN
  6
DASHED3
 62
     6
 10
207.25146000000001
 20
103.43195
 30
0.0
 11
207.23446000000001
 21
103.43875
 31
0.0
  0
LINE
  5
546
  8
_0-1_HIDDEN
  6
DASHED3
 62
     6
 10
207.23446000000001
 20
103.43875
 30
0.0
 11
207.2174599999999
 21
103.44364999999991
 31
0.0
  0
LINE
  5
547
  8
_0-1_HIDDEN
  6
DASHED3
 62
     6
 10
207.2174599999999
 20
103.44364999999991
 30
0.0
 11
207.20045999999999
 21
103.44655
 31
0.0
  0
LINE
  5
548
  8
_0-1_HIDDEN
  6
DASHED3
 62
     6
 10
207.20045999999999
 20
103.44655
 30
0.0
 11
207.1834599999998
 21
103.44755000000001
 31
0.0
  0
LINE
  5
549
  8
_0-1_HIDDEN
  6
DASHED3
 62
     6
 10
203.97386
 20
95.012884999999983
 30
0.0
 11
203.96639999999999
 21
95.009737000000015
 31
0.0
  0
LINE
  5
54A
  8
_0-1_HIDDEN
  6
DASHED3
 62
     6
 10
203.96639999999999
 20
95.009737000000015
 30
0.0
 11
203.95893000000001
 21
95.006801999999993
 31
0.0
  0
LINE
  5
54B
  8
_0-1_HIDDEN
  6
DASHED3
 62
     6
 10
203.95893000000001
 20
95.006801999999993
 30
0.0
 11
203.95144999999999
 21
95.004080000000002
 31
0.0
  0
LINE
  5
54C
  8
_0-1_HIDDEN
  6
DASHED3
 62
     6
 10
203.95144999999999
 20
95.004080000000002
 30
0.0
 11
203.94398000000001
 21
95.001570999999998
 31
0.0
  0
LINE
  5
54D
  8
_0-1_HIDDEN
  6
DASHED3
 62
     6
 10
203.94398000000001
 20
95.001570999999998
 30
0.0
 11
203.93648999999991
 21
94.999274999999997
 31
0.0
  0
LINE
  5
54E
  8
_0-1_HIDDEN
  6
DASHED3
 62
     6
 10
203.93648999999991
 20
94.999274999999997
 30
0.0
 11
203.92901000000001
 21
94.997192999999996
 31
0.0
  0
LINE
  5
54F
  8
_0-1_HIDDEN
  6
DASHED3
 62
     6
 10
207.22599999999991
 20
96.953861000000003
 30
0.0
 11
203.97534999999991
 21
95.010391999999996
 31
0.0
  0
LINE
  5
550
  8
_0-1_HIDDEN
  6
DASHED3
 62
     6
 10
207.67736999999991
 20
97.938050000000004
 30
0.0
 11
209.53883999999999
 21
97.938050000000004
 31
0.0
  0
LINE
  5
551
  8
_0-1_HIDDEN
  6
DASHED3
 62
     6
 10
207.86451
 20
107.2880499999999
 30
0.0
 11
206.7145099999999
 21
107.2880499999999
 31
0.0
  0
LINE
  5
552
  8
_0-1_HIDDEN
  6
DASHED3
 62
     6
 10
203.94937999999991
 20
105.37273
 30
0.0
 11
203.95685
 21
105.37007
 31
0.0
  0
LINE
  5
553
  8
_0-1_HIDDEN
  6
DASHED3
 62
     6
 10
203.95685
 20
105.37007
 30
0.0
 11
203.9643199999999
 21
105.36718999999979
 31
0.0
  0
LINE
  5
554
  8
_0-1_HIDDEN
  6
DASHED3
 62
     6
 10
203.9643199999999
 20
105.36718999999979
 30
0.0
 11
203.9717899999998
 21
105.36411
 31
0.0
  0
LINE
  5
555
  8
_0-1_HIDDEN
  6
DASHED3
 62
     6
 10
203.9717899999998
 20
105.36411
 30
0.0
 11
203.97924999999989
 21
105.3608
 31
0.0
  0
LINE
  5
556
  8
_0-1_HIDDEN
  6
DASHED3
 62
     6
 10
203.97924999999989
 20
105.3608
 30
0.0
 11
203.9867099999999
 21
105.35729000000001
 31
0.0
  0
LINE
  5
557
  8
_0-1_HIDDEN
  6
DASHED3
 62
     6
 10
203.9867099999999
 20
105.35729000000001
 30
0.0
 11
203.99415999999999
 21
105.35356
 31
0.0
  0
LINE
  5
558
  8
_0-1_HIDDEN
  6
DASHED3
 62
     6
 10
207.18371999999999
 20
103.4475099999998
 30
0.0
 11
203.99456000000001
 21
105.35422
 31
0.0
  0
LINE
  5
559
  8
_0-0_0
  6
CONTINUOUS
 62
     5
 10
199.53767999999999
 20
112.36111
 30
0.0
 11
199.54214999999991
 21
112.3938499999999
 31
0.0
  0
LINE
  5
55A
  8
_0-0_0
  6
CONTINUOUS
 62
     5
 10
199.53538
 20
112.32813999999991
 30
0.0
 11
199.53767999999999
 21
112.36111
 31
0.0
  0
LINE
  5
55B
  8
_0-0_0
  6
CONTINUOUS
 62
     5
 10
199.53505000000001
 20
112.30988000000001
 30
0.0
 11
199.53538
 21
112.32813999999991
 31
0.0
  0
LINE
  5
55C
  8
_0-0_0
  6
CONTINUOUS
 62
     5
 10
199.53505000000001
 20
109.18805
 30
0.0
 11
199.53505000000001
 21
108.38805000000001
 31
0.0
  0
LINE
  5
55D
  8
_0-0_0
  6
CONTINUOUS
 62
     5
 10
199.53505000000001
 20
109.68805
 30
0.0
 11
199.53505000000001
 21
112.3098399999998
 31
0.0
  0
LINE
  5
55E
  8
_0-1_HIDDEN
  6
DASHED3
 62
     6
 10
206.2145099999999
 20
107.78805
 30
0.0
 11
206.2145099999999
 21
109.78805
 31
0.0
  0
ARC
  5
55F
  8
_0-1_HIDDEN
  6
DASHED3
 62
     6
 10
206.7145099999999
 20
107.78805
 30
0.0
 40
0.5
 50
180.0
 51
270.0
  0
ARC
  5
560
  8
_0-0_0
  6
CONTINUOUS
 62
     5
 10
206.06451000000001
 20
110.2880499999999
 30
0.0
 40
0.5
 50
180.0
 51
270.0
  0
LINE
  5
561
  8
_0-1_HIDDEN
  6
DASHED3
 62
     6
 10
207.86451
 20
102.08805
 30
0.0
 11
207.86451
 21
107.2880499999999
 31
0.0
  0
LINE
  5
562
  8
_0-0_0
  6
CONTINUOUS
 62
     5
 10
210.68120999999991
 20
104.38804999999979
 30
0.0
 11
210.5115099999999
 21
109.78805
 31
0.0
  0
LINE
  5
563
  8
_0-0_0
  6
CONTINUOUS
 62
     5
 10
211.29862
 20
109.78805
 30
0.0
 11
211.36892
 21
104.38804999999979
 31
0.0
  0
LINE
  5
564
  8
_0-1_HIDDEN
  6
DASHED3
 62
     6
 10
207.67736999999991
 20
102.43805
 30
0.0
 11
207.86451
 21
102.43805
 31
0.0
  0
LINE
  5
565
  8
_0-0_0
  6
CONTINUOUS
 62
     5
 10
199.92975000000001
 20
112.79866
 30
0.0
 11
199.9622699999999
 21
112.80455000000001
 31
0.0
  0
LINE
  5
566
  8
_0-0_0
  6
CONTINUOUS
 62
     5
 10
199.89769999999999
 20
112.79064
 30
0.0
 11
199.92975000000001
 21
112.79866
 31
0.0
  0
LINE
  5
567
  8
_0-0_0
  6
CONTINUOUS
 62
     5
 10
199.5575199999999
 20
112.4580899999999
 30
0.0
 11
199.56836000000001
 21
112.4893099999999
 31
0.0
  0
LINE
  5
568
  8
_0-0_0
  6
CONTINUOUS
 62
     5
 10
199.54876999999991
 20
112.4262199999999
 30
0.0
 11
199.5575199999999
 21
112.4580899999999
 31
0.0
  0
LINE
  5
569
  8
_0-0_0
  6
CONTINUOUS
 62
     5
 10
199.61285000000001
 20
112.57774000000001
 30
0.0
 11
199.63147000000001
 21
112.60504
 31
0.0
  0
LINE
  5
56A
  8
_0-0_0
  6
CONTINUOUS
 62
     5
 10
199.5960799999998
 20
112.54926999999979
 30
0.0
 11
199.61285000000001
 21
112.57774000000001
 31
0.0
  0
LINE
  5
56B
  8
_0-0_0
  6
CONTINUOUS
 62
     5
 10
199.58123000000001
 20
112.51975
 30
0.0
 11
199.5960799999998
 21
112.54926999999979
 31
0.0
  0
LINE
  5
56C
  8
_0-0_0
  6
CONTINUOUS
 62
     5
 10
199.56836000000001
 20
112.4893099999999
 30
0.0
 11
199.58123000000001
 21
112.51975
 31
0.0
  0
LINE
  5
56D
  8
_0-0_0
  6
CONTINUOUS
 62
     5
 10
199.69753
 20
112.6787699999999
 30
0.0
 11
199.7226399999999
 21
112.70026
 31
0.0
  0
LINE
  5
56E
  8
_0-0_0
  6
CONTINUOUS
 62
     5
 10
199.6738999999998
 20
112.65567
 30
0.0
 11
199.69753
 21
112.6787699999999
 31
0.0
  0
LINE
  5
56F
  8
_0-0_0
  6
CONTINUOUS
 62
     5
 10
199.65185
 20
112.63106000000001
 30
0.0
 11
199.6738999999998
 21
112.65567
 31
0.0
  0
LINE
  5
570
  8
_0-0_0
  6
CONTINUOUS
 62
     5
 10
199.63147000000001
 20
112.60504
 30
0.0
 11
199.65185
 21
112.63106000000001
 31
0.0
  0
LINE
  5
571
  8
_0-0_0
  6
CONTINUOUS
 62
     5
 10
199.86624
 20
112.78052
 30
0.0
 11
199.89769999999999
 21
112.79064
 31
0.0
  0
LINE
  5
572
  8
_0-0_0
  6
CONTINUOUS
 62
     5
 10
199.8355199999998
 20
112.76833999999999
 30
0.0
 11
199.86624
 21
112.78052
 31
0.0
  0
LINE
  5
573
  8
_0-0_0
  6
CONTINUOUS
 62
     5
 10
199.80566999999999
 20
112.75416
 30
0.0
 11
199.8355199999998
 21
112.76833999999999
 31
0.0
  0
LINE
  5
574
  8
_0-0_0
  6
CONTINUOUS
 62
     5
 10
199.7768299999999
 20
112.7380399999998
 30
0.0
 11
199.80566999999999
 21
112.75416
 31
0.0
  0
LINE
  5
575
  8
_0-0_0
  6
CONTINUOUS
 62
     5
 10
199.7491099999998
 20
112.7200399999999
 30
0.0
 11
199.7768299999999
 21
112.7380399999998
 31
0.0
  0
LINE
  5
576
  8
_0-0_0
  6
CONTINUOUS
 62
     5
 10
199.7226399999999
 20
112.70026
 30
0.0
 11
199.7491099999998
 21
112.7200399999999
 31
0.0
  0
LINE
  5
577
  8
_0-0_0
  6
CONTINUOUS
 62
     5
 10
205.5145099999998
 20
112.88805000000001
 30
0.0
 11
205.56451000000001
 21
112.88858
 31
0.0
  0
LINE
  5
578
  8
_0-0_0
  6
CONTINUOUS
 62
     5
 10
223.7145099999999
 20
112.58695
 30
0.0
 11
223.7145099999999
 21
110.2880499999999
 31
0.0
  0
LINE
  5
579
  8
_0-1_HIDDEN
  6
DASHED3
 62
     6
 10
232.91630000000001
 20
107.0269799999999
 30
0.0
 11
229.6581799999999
 21
108.92695999999989
 31
0.0
  0
LINE
  5
57A
  8
_0-1_HIDDEN
  6
DASHED3
 62
     6
 10
232.91630000000001
 20
98.249120000000005
 30
0.0
 11
229.75187
 21
96.403774000000013
 31
0.0
  0
LINE
  5
57B
  8
_0-1_HIDDEN
  6
DASHED3
 62
     6
 10
229.1709899999999
 20
96.088689000000002
 30
0.0
 11
229.1654199999999
 21
96.089487000000005
 31
0.0
  0
LINE
  5
57C
  8
_0-1_HIDDEN
  6
DASHED3
 62
     6
 10
229.1654199999999
 20
96.089487000000005
 30
0.0
 11
229.16262999999989
 21
96.090005000000005
 31
0.0
  0
LINE
  5
57D
  8
_0-1_HIDDEN
  6
DASHED3
 62
     6
 10
229.16262999999989
 20
96.090005000000005
 30
0.0
 11
229.1623899999999
 21
96.090055000000021
 31
0.0
  0
LINE
  5
57E
  8
_0-1_HIDDEN
  6
DASHED3
 62
     6
 10
229.1821299999998
 20
96.088049999999996
 30
0.0
 11
229.17517000000001
 21
96.088300000000004
 31
0.0
  0
LINE
  5
57F
  8
_0-1_HIDDEN
  6
DASHED3
 62
     6
 10
229.17517000000001
 20
96.088300000000004
 30
0.0
 11
229.16877999999991
 21
96.088967000000025
 31
0.0
  0
LINE
  5
580
  8
_0-1_HIDDEN
  6
DASHED3
 62
     6
 10
229.16877999999991
 20
96.088967000000025
 30
0.0
 11
229.1623899999999
 21
96.090055000000021
 31
0.0
  0
LINE
  5
581
  8
_0-1_HIDDEN
  6
DASHED3
 62
     6
 10
229.1623899999999
 20
96.090055000000021
 30
0.0
 11
229.15600000000001
 21
96.09156200000001
 31
0.0
  0
LINE
  5
582
  8
_0-1_HIDDEN
  6
DASHED3
 62
     6
 10
229.1821299999998
 20
96.088049999999996
 30
0.0
 11
229.17935
 21
96.088089999999994
 31
0.0
  0
LINE
  5
583
  8
_0-1_HIDDEN
  6
DASHED3
 62
     6
 10
229.17935
 20
96.088089999999994
 30
0.0
 11
229.17377999999991
 21
96.088409000000027
 31
0.0
  0
LINE
  5
584
  8
_0-1_HIDDEN
  6
DASHED3
 62
     6
 10
229.1831999999998
 20
96.088056000000023
 30
0.0
 11
229.1821299999998
 21
96.088049999999996
 31
0.0
  0
LINE
  5
585
  8
_0-1_HIDDEN
  6
DASHED3
 62
     6
 10
229.18859
 20
96.088265000000007
 30
0.0
 11
229.18673999999999
 21
96.088159000000005
 31
0.0
  0
LINE
  5
586
  8
_0-1_HIDDEN
  6
DASHED3
 62
     6
 10
229.19434000000001
 20
96.088817000000006
 30
0.0
 11
229.1879499999998
 21
96.088224000000011
 31
0.0
  0
LINE
  5
587
  8
_0-1_HIDDEN
  6
DASHED3
 62
     6
 10
229.1879499999998
 20
96.088224000000011
 30
0.0
 11
229.1821299999998
 21
96.088049999999996
 31
0.0
  0
LINE
  5
588
  8
_0-1_HIDDEN
  6
DASHED3
 62
     6
 10
229.19434000000001
 20
96.088815999999994
 30
0.0
 11
229.19156000000001
 21
96.088507000000007
 31
0.0
  0
LINE
  5
589
  8
_0-1_HIDDEN
  6
DASHED3
 62
     6
 10
229.19156000000001
 20
96.088507000000007
 30
0.0
 11
229.18859
 21
96.088265000000007
 31
0.0
  0
LINE
  5
58A
  8
_0-1_HIDDEN
  6
DASHED3
 62
     6
 10
229.16992999999991
 20
109.1872799999999
 30
0.0
 11
222.21450999999999
 21
109.1872799999999
 31
0.0
  0
LINE
  5
58B
  8
_0-0_0
  6
CONTINUOUS
 62
     5
 10
217.91750999999999
 20
109.78805
 30
0.0
 11
217.74780999999999
 21
104.38804999999979
 31
0.0
  0
LINE
  5
58C
  8
_0-0_0
  6
CONTINUOUS
 62
     5
 10
217.06011000000001
 20
104.38804999999979
 30
0.0
 11
217.13040000000001
 21
109.78805
 31
0.0
  0
LINE
  5
58D
  8
_0-1_HIDDEN
  6
DASHED3
 62
     6
 10
222.21450999999999
 20
109.78805
 30
0.0
 11
222.21450999999999
 21
109.1872799999999
 31
0.0
  0
ARC
  5
58E
  8
_0-0_0
  6
CONTINUOUS
 62
     5
 10
223.2145099999999
 20
110.2880499999999
 30
0.0
 40
0.5
 50
270.0
 51
0.0
  0
LINE
  5
58F
  8
_0-1_HIDDEN
  6
DASHED3
 62
     6
 10
228.89496
 20
109.18805
 30
0.0
 11
228.89397
 21
109.18805
 31
0.0
  0
LINE
  5
590
  8
_0-1_HIDDEN
  6
DASHED3
 62
     6
 10
229.20187999999999
 20
109.18603999999991
 30
0.0
 11
229.20827
 21
109.18453
 31
0.0
  0
LINE
  5
591
  8
_0-1_HIDDEN
  6
DASHED3
 62
     6
 10
229.20081999999999
 20
109.1862499999999
 30
0.0
 11
229.20251999999991
 21
109.18591000000001
 31
0.0
  0
LINE
  5
592
  8
_0-1_HIDDEN
  6
DASHED3
 62
     6
 10
229.19485
 20
109.18720999999999
 30
0.0
 11
229.19656000000001
 21
109.18698000000001
 31
0.0
  0
LINE
  5
593
  8
_0-1_HIDDEN
  6
DASHED3
 62
     6
 10
229.1821299999998
 20
109.18805
 30
0.0
 11
229.1891
 21
109.1877999999999
 31
0.0
  0
LINE
  5
594
  8
_0-1_HIDDEN
  6
DASHED3
 62
     6
 10
229.1891
 20
109.1877999999999
 30
0.0
 11
229.19548999999989
 21
109.18713
 31
0.0
  0
LINE
  5
595
  8
_0-1_HIDDEN
  6
DASHED3
 62
     6
 10
229.19548999999989
 20
109.18713
 30
0.0
 11
229.20187999999999
 21
109.18603999999991
 31
0.0
  0
LINE
  5
596
  8
_0-1_HIDDEN
  6
DASHED3
 62
     6
 10
229.1828999999999
 20
109.1880399999999
 30
0.0
 11
229.18568999999991
 21
109.18798
 31
0.0
  0
LINE
  5
597
  8
_0-1_HIDDEN
  6
DASHED3
 62
     6
 10
229.18568999999991
 20
109.18798
 30
0.0
 11
229.18847999999991
 21
109.1878399999998
 31
0.0
  0
LINE
  5
598
  8
_0-1_HIDDEN
  6
DASHED3
 62
     6
 10
229.18847999999991
 20
109.1878399999998
 30
0.0
 11
229.1912599999998
 21
109.1876199999999
 31
0.0
  0
LINE
  5
599
  8
_0-1_HIDDEN
  6
DASHED3
 62
     6
 10
229.1912599999998
 20
109.1876199999999
 30
0.0
 11
229.19485
 21
109.18720999999999
 31
0.0
  0
LINE
  5
59A
  8
_0-1_HIDDEN
  6
DASHED3
 62
     6
 10
229.16992999999991
 20
109.1872799999999
 30
0.0
 11
229.17632
 21
109.1878699999998
 31
0.0
  0
LINE
  5
59B
  8
_0-1_HIDDEN
  6
DASHED3
 62
     6
 10
229.17632
 20
109.1878699999998
 30
0.0
 11
229.1821299999998
 21
109.18805
 31
0.0
  0
LINE
  5
59C
  8
_0-1_HIDDEN
  6
DASHED3
 62
     6
 10
232.92846
 20
98.258250000000004
 30
0.0
 11
232.94046
 21
98.259249999999994
 31
0.0
  0
LINE
  5
59D
  8
_0-1_HIDDEN
  6
DASHED3
 62
     6
 10
232.94046
 20
98.259249999999994
 30
0.0
 11
232.95246
 21
98.262950000000004
 31
0.0
  0
LINE
  5
59E
  8
_0-1_HIDDEN
  6
DASHED3
 62
     6
 10
232.95246
 20
98.262950000000004
 30
0.0
 11
232.96445999999989
 21
98.269250000000014
 31
0.0
  0
LINE
  5
59F
  8
_0-1_HIDDEN
  6
DASHED3
 62
     6
 10
232.96445999999989
 20
98.269250000000014
 30
0.0
 11
232.97546
 21
98.27825
 31
0.0
  0
LINE
  5
5A0
  8
_0-1_HIDDEN
  6
DASHED3
 62
     6
 10
232.97546
 20
98.27825
 30
0.0
 11
232.98746
 21
98.289850000000015
 31
0.0
  0
LINE
  5
5A1
  8
_0-1_HIDDEN
  6
DASHED3
 62
     6
 10
232.98746
 20
98.289850000000015
 30
0.0
 11
232.99946
 21
98.304150000000021
 31
0.0
  0
LINE
  5
5A2
  8
_0-1_HIDDEN
  6
DASHED3
 62
     6
 10
232.99946
 20
98.304150000000021
 30
0.0
 11
233.01145999999989
 21
98.320949999999996
 31
0.0
  0
LINE
  5
5A3
  8
_0-1_HIDDEN
  6
DASHED3
 62
     6
 10
233.01145999999989
 20
98.320949999999996
 30
0.0
 11
233.02346
 21
98.340450000000004
 31
0.0
  0
LINE
  5
5A4
  8
_0-1_HIDDEN
  6
DASHED3
 62
     6
 10
233.02346
 20
98.340450000000004
 30
0.0
 11
233.03446
 21
98.362550000000013
 31
0.0
  0
LINE
  5
5A5
  8
_0-1_HIDDEN
  6
DASHED3
 62
     6
 10
233.03446
 20
98.362550000000013
 30
0.0
 11
233.04645999999991
 21
98.387150000000005
 31
0.0
  0
LINE
  5
5A6
  8
_0-1_HIDDEN
  6
DASHED3
 62
     6
 10
233.04645999999991
 20
98.387150000000005
 30
0.0
 11
233.05745999999991
 21
98.414350000000013
 31
0.0
  0
LINE
  5
5A7
  8
_0-1_HIDDEN
  6
DASHED3
 62
     6
 10
233.05745999999991
 20
98.414350000000013
 30
0.0
 11
233.06945999999999
 21
98.444149999999993
 31
0.0
  0
LINE
  5
5A8
  8
_0-1_HIDDEN
  6
DASHED3
 62
     6
 10
233.06945999999999
 20
98.444149999999993
 30
0.0
 11
233.08045999999999
 21
98.476449999999986
 31
0.0
  0
LINE
  5
5A9
  8
_0-1_HIDDEN
  6
DASHED3
 62
     6
 10
233.08045999999999
 20
98.476449999999986
 30
0.0
 11
233.0924599999999
 21
98.511250000000004
 31
0.0
  0
LINE
  5
5AA
  8
_0-1_HIDDEN
  6
DASHED3
 62
     6
 10
233.0924599999999
 20
98.511250000000004
 30
0.0
 11
233.10346000000001
 21
98.548649999999995
 31
0.0
  0
LINE
  5
5AB
  8
_0-1_HIDDEN
  6
DASHED3
 62
     6
 10
233.10346000000001
 20
98.548649999999995
 30
0.0
 11
233.11446000000001
 21
98.588449999999995
 31
0.0
  0
LINE
  5
5AC
  8
_0-1_HIDDEN
  6
DASHED3
 62
     6
 10
233.11446000000001
 20
98.588449999999995
 30
0.0
 11
233.12546
 21
98.630650000000003
 31
0.0
  0
LINE
  5
5AD
  8
_0-1_HIDDEN
  6
DASHED3
 62
     6
 10
233.12546
 20
98.630650000000003
 30
0.0
 11
233.13646
 21
98.675250000000005
 31
0.0
  0
LINE
  5
5AE
  8
_0-1_HIDDEN
  6
DASHED3
 62
     6
 10
233.13646
 20
98.675250000000005
 30
0.0
 11
233.14645999999991
 21
98.722350000000006
 31
0.0
  0
LINE
  5
5AF
  8
_0-1_HIDDEN
  6
DASHED3
 62
     6
 10
233.14645999999991
 20
98.722350000000006
 30
0.0
 11
233.1574599999999
 21
98.771750000000011
 31
0.0
  0
LINE
  5
5B0
  8
_0-1_HIDDEN
  6
DASHED3
 62
     6
 10
233.1574599999999
 20
98.771750000000011
 30
0.0
 11
233.16745999999989
 21
98.823549999999997
 31
0.0
  0
LINE
  5
5B1
  8
_0-1_HIDDEN
  6
DASHED3
 62
     6
 10
233.16745999999989
 20
98.823549999999997
 30
0.0
 11
233.17846
 21
98.877550000000014
 31
0.0
  0
LINE
  5
5B2
  8
_0-1_HIDDEN
  6
DASHED3
 62
     6
 10
233.17846
 20
98.877550000000014
 30
0.0
 11
233.18845999999991
 21
98.933949999999996
 31
0.0
  0
LINE
  5
5B3
  8
_0-1_HIDDEN
  6
DASHED3
 62
     6
 10
233.18845999999991
 20
98.933949999999996
 30
0.0
 11
233.19846000000001
 21
98.992450000000005
 31
0.0
  0
LINE
  5
5B4
  8
_0-1_HIDDEN
  6
DASHED3
 62
     6
 10
233.19846000000001
 20
98.992450000000005
 30
0.0
 11
233.20845999999989
 21
99.053250000000006
 31
0.0
  0
LINE
  5
5B5
  8
_0-1_HIDDEN
  6
DASHED3
 62
     6
 10
233.20845999999989
 20
99.053250000000006
 30
0.0
 11
233.21745999999999
 21
99.116150000000005
 31
0.0
  0
LINE
  5
5B6
  8
_0-1_HIDDEN
  6
DASHED3
 62
     6
 10
233.21745999999999
 20
99.116150000000005
 30
0.0
 11
233.22746000000001
 21
99.181250000000006
 31
0.0
  0
LINE
  5
5B7
  8
_0-1_HIDDEN
  6
DASHED3
 62
     6
 10
233.22746000000001
 20
99.181250000000006
 30
0.0
 11
233.23645999999999
 21
99.248450000000005
 31
0.0
  0
LINE
  5
5B8
  8
_0-1_HIDDEN
  6
DASHED3
 62
     6
 10
233.23645999999999
 20
99.248450000000005
 30
0.0
 11
233.24546000000001
 21
99.31765
 31
0.0
  0
LINE
  5
5B9
  8
_0-1_HIDDEN
  6
DASHED3
 62
     6
 10
233.24546000000001
 20
99.31765
 30
0.0
 11
233.25445999999991
 21
99.388850000000005
 31
0.0
  0
LINE
  5
5BA
  8
_0-1_HIDDEN
  6
DASHED3
 62
     6
 10
233.25445999999991
 20
99.388850000000005
 30
0.0
 11
233.26346000000001
 21
99.461950000000016
 31
0.0
  0
LINE
  5
5BB
  8
_0-1_HIDDEN
  6
DASHED3
 62
     6
 10
233.26346000000001
 20
99.461950000000016
 30
0.0
 11
233.27246
 21
99.537049999999994
 31
0.0
  0
LINE
  5
5BC
  8
_0-1_HIDDEN
  6
DASHED3
 62
     6
 10
233.27246
 20
99.537049999999994
 30
0.0
 11
233.28046000000001
 21
99.614050000000006
 31
0.0
  0
LINE
  5
5BD
  8
_0-1_HIDDEN
  6
DASHED3
 62
     6
 10
233.28046000000001
 20
99.614050000000006
 30
0.0
 11
233.2884599999999
 21
99.692850000000007
 31
0.0
  0
LINE
  5
5BE
  8
_0-1_HIDDEN
  6
DASHED3
 62
     6
 10
233.2884599999999
 20
99.692850000000007
 30
0.0
 11
233.29645999999991
 21
99.773449999999997
 31
0.0
  0
LINE
  5
5BF
  8
_0-1_HIDDEN
  6
DASHED3
 62
     6
 10
233.29645999999991
 20
99.773449999999997
 30
0.0
 11
233.30446000000001
 21
99.85575
 31
0.0
  0
LINE
  5
5C0
  8
_0-1_HIDDEN
  6
DASHED3
 62
     6
 10
233.30446000000001
 20
99.85575
 30
0.0
 11
233.31146000000001
 21
99.939750000000004
 31
0.0
  0
LINE
  5
5C1
  8
_0-1_HIDDEN
  6
DASHED3
 62
     6
 10
233.31146000000001
 20
99.939750000000004
 30
0.0
 11
233.31845999999999
 21
100.02535
 31
0.0
  0
LINE
  5
5C2
  8
_0-1_HIDDEN
  6
DASHED3
 62
     6
 10
233.31845999999999
 20
100.02535
 30
0.0
 11
233.32545999999999
 21
100.11255
 31
0.0
  0
LINE
  5
5C3
  8
_0-1_HIDDEN
  6
DASHED3
 62
     6
 10
233.32545999999999
 20
100.11255
 30
0.0
 11
233.33246
 21
100.2012499999999
 31
0.0
  0
LINE
  5
5C4
  8
_0-1_HIDDEN
  6
DASHED3
 62
     6
 10
233.33246
 20
100.2012499999999
 30
0.0
 11
233.33946
 21
100.2914499999999
 31
0.0
  0
LINE
  5
5C5
  8
_0-1_HIDDEN
  6
DASHED3
 62
     6
 10
233.33946
 20
100.2914499999999
 30
0.0
 11
233.34546
 21
100.38305
 31
0.0
  0
LINE
  5
5C6
  8
_0-1_HIDDEN
  6
DASHED3
 62
     6
 10
233.34546
 20
100.38305
 30
0.0
 11
233.35145999999989
 21
100.4760499999999
 31
0.0
  0
LINE
  5
5C7
  8
_0-1_HIDDEN
  6
DASHED3
 62
     6
 10
233.35145999999989
 20
100.4760499999999
 30
0.0
 11
233.35745999999989
 21
100.57035
 31
0.0
  0
LINE
  5
5C8
  8
_0-1_HIDDEN
  6
DASHED3
 62
     6
 10
233.35745999999989
 20
100.57035
 30
0.0
 11
233.36245999999991
 21
100.66585000000001
 31
0.0
  0
LINE
  5
5C9
  8
_0-1_HIDDEN
  6
DASHED3
 62
     6
 10
233.36245999999991
 20
100.66585000000001
 30
0.0
 11
233.36745999999999
 21
100.76255
 31
0.0
  0
LINE
  5
5CA
  8
_0-1_HIDDEN
  6
DASHED3
 62
     6
 10
233.36745999999999
 20
100.76255
 30
0.0
 11
233.37245999999999
 21
100.86045
 31
0.0
  0
LINE
  5
5CB
  8
_0-1_HIDDEN
  6
DASHED3
 62
     6
 10
233.37245999999999
 20
100.86045
 30
0.0
 11
233.37746000000001
 21
100.95935
 31
0.0
  0
LINE
  5
5CC
  8
_0-1_HIDDEN
  6
DASHED3
 62
     6
 10
233.37746000000001
 20
100.95935
 30
0.0
 11
233.38146
 21
101.0593499999999
 31
0.0
  0
LINE
  5
5CD
  8
_0-1_HIDDEN
  6
DASHED3
 62
     6
 10
233.38146
 20
101.0593499999999
 30
0.0
 11
233.38646
 21
101.16024999999991
 31
0.0
  0
LINE
  5
5CE
  8
_0-1_HIDDEN
  6
DASHED3
 62
     6
 10
233.38646
 20
101.16024999999991
 30
0.0
 11
233.38946000000001
 21
101.26205
 31
0.0
  0
LINE
  5
5CF
  8
_0-1_HIDDEN
  6
DASHED3
 62
     6
 10
233.38946000000001
 20
101.26205
 30
0.0
 11
233.39346
 21
101.3646499999999
 31
0.0
  0
LINE
  5
5D0
  8
_0-1_HIDDEN
  6
DASHED3
 62
     6
 10
233.39346
 20
101.3646499999999
 30
0.0
 11
233.39645999999991
 21
101.46805000000001
 31
0.0
  0
LINE
  5
5D1
  8
_0-1_HIDDEN
  6
DASHED3
 62
     6
 10
233.39645999999991
 20
101.46805000000001
 30
0.0
 11
233.39946
 21
101.57214999999979
 31
0.0
  0
LINE
  5
5D2
  8
_0-1_HIDDEN
  6
DASHED3
 62
     6
 10
233.39946
 20
101.57214999999979
 30
0.0
 11
233.40245999999991
 21
101.6768499999999
 31
0.0
  0
LINE
  5
5D3
  8
_0-1_HIDDEN
  6
DASHED3
 62
     6
 10
233.40245999999991
 20
101.6768499999999
 30
0.0
 11
233.40545999999989
 21
101.78225
 31
0.0
  0
LINE
  5
5D4
  8
_0-1_HIDDEN
  6
DASHED3
 62
     6
 10
233.40545999999989
 20
101.78225
 30
0.0
 11
233.40745999999999
 21
101.88805000000001
 31
0.0
  0
LINE
  5
5D5
  8
_0-1_HIDDEN
  6
DASHED3
 62
     6
 10
233.40745999999999
 20
101.88805000000001
 30
0.0
 11
233.40945999999991
 21
101.9943499999999
 31
0.0
  0
LINE
  5
5D6
  8
_0-1_HIDDEN
  6
DASHED3
 62
     6
 10
233.40945999999991
 20
101.9943499999999
 30
0.0
 11
233.4104599999998
 21
102.10105
 31
0.0
  0
LINE
  5
5D7
  8
_0-1_HIDDEN
  6
DASHED3
 62
     6
 10
233.4104599999998
 20
102.10105
 30
0.0
 11
233.4124599999999
 21
102.2080499999999
 31
0.0
  0
LINE
  5
5D8
  8
_0-1_HIDDEN
  6
DASHED3
 62
     6
 10
233.4124599999999
 20
102.2080499999999
 30
0.0
 11
233.41345999999999
 21
102.31535
 31
0.0
  0
LINE
  5
5D9
  8
_0-1_HIDDEN
  6
DASHED3
 62
     6
 10
233.41345999999999
 20
102.31535
 30
0.0
 11
233.41345999999999
 21
102.42274999999979
 31
0.0
  0
LINE
  5
5DA
  8
_0-1_HIDDEN
  6
DASHED3
 62
     6
 10
233.41345999999999
 20
102.42274999999979
 30
0.0
 11
233.41445999999999
 21
102.5303499999999
 31
0.0
  0
LINE
  5
5DB
  8
_0-1_HIDDEN
  6
DASHED3
 62
     6
 10
233.41445999999999
 20
102.5303499999999
 30
0.0
 11
233.41445999999999
 21
102.63805000000001
 31
0.0
  0
LINE
  5
5DC
  8
_0-1_HIDDEN
  6
DASHED3
 62
     6
 10
233.41445999999999
 20
102.63805000000001
 30
0.0
 11
233.41445999999999
 21
102.74575
 31
0.0
  0
LINE
  5
5DD
  8
_0-1_HIDDEN
  6
DASHED3
 62
     6
 10
233.41445999999999
 20
102.74575
 30
0.0
 11
233.41345999999999
 21
102.85334999999991
 31
0.0
  0
LINE
  5
5DE
  8
_0-1_HIDDEN
  6
DASHED3
 62
     6
 10
233.41345999999999
 20
102.85334999999991
 30
0.0
 11
233.41345999999999
 21
102.96075
 31
0.0
  0
LINE
  5
5DF
  8
_0-1_HIDDEN
  6
DASHED3
 62
     6
 10
233.41345999999999
 20
102.96075
 30
0.0
 11
233.4124599999999
 21
103.06805
 31
0.0
  0
LINE
  5
5E0
  8
_0-1_HIDDEN
  6
DASHED3
 62
     6
 10
233.4124599999999
 20
103.06805
 30
0.0
 11
233.4104599999998
 21
103.17505
 31
0.0
  0
LINE
  5
5E1
  8
_0-1_HIDDEN
  6
DASHED3
 62
     6
 10
233.4104599999998
 20
103.17505
 30
0.0
 11
233.40945999999991
 21
103.2817499999999
 31
0.0
  0
LINE
  5
5E2
  8
_0-1_HIDDEN
  6
DASHED3
 62
     6
 10
233.40945999999991
 20
103.2817499999999
 30
0.0
 11
233.40745999999999
 21
103.38804999999979
 31
0.0
  0
LINE
  5
5E3
  8
_0-1_HIDDEN
  6
DASHED3
 62
     6
 10
233.40745999999999
 20
103.38804999999979
 30
0.0
 11
233.40545999999989
 21
103.4938499999999
 31
0.0
  0
LINE
  5
5E4
  8
_0-1_HIDDEN
  6
DASHED3
 62
     6
 10
233.40545999999989
 20
103.4938499999999
 30
0.0
 11
233.40245999999991
 21
103.59925
 31
0.0
  0
LINE
  5
5E5
  8
_0-1_HIDDEN
  6
DASHED3
 62
     6
 10
233.40245999999991
 20
103.59925
 30
0.0
 11
233.39946
 21
103.70395000000001
 31
0.0
  0
LINE
  5
5E6
  8
_0-1_HIDDEN
  6
DASHED3
 62
     6
 10
233.39946
 20
103.70395000000001
 30
0.0
 11
233.39645999999991
 21
103.8080499999998
 31
0.0
  0
LINE
  5
5E7
  8
_0-1_HIDDEN
  6
DASHED3
 62
     6
 10
233.39645999999991
 20
103.8080499999998
 30
0.0
 11
233.39346
 21
103.9114499999999
 31
0.0
  0
LINE
  5
5E8
  8
_0-1_HIDDEN
  6
DASHED3
 62
     6
 10
233.39346
 20
103.9114499999999
 30
0.0
 11
233.38946000000001
 21
104.0140499999999
 31
0.0
  0
LINE
  5
5E9
  8
_0-1_HIDDEN
  6
DASHED3
 62
     6
 10
233.38946000000001
 20
104.0140499999999
 30
0.0
 11
233.38646
 21
104.1158499999999
 31
0.0
  0
LINE
  5
5EA
  8
_0-1_HIDDEN
  6
DASHED3
 62
     6
 10
233.38646
 20
104.1158499999999
 30
0.0
 11
233.38146
 21
104.21675
 31
0.0
  0
LINE
  5
5EB
  8
_0-1_HIDDEN
  6
DASHED3
 62
     6
 10
233.38146
 20
104.21675
 30
0.0
 11
233.37746000000001
 21
104.31675
 31
0.0
  0
LINE
  5
5EC
  8
_0-1_HIDDEN
  6
DASHED3
 62
     6
 10
233.37746000000001
 20
104.31675
 30
0.0
 11
233.37245999999999
 21
104.4156499999999
 31
0.0
  0
LINE
  5
5ED
  8
_0-1_HIDDEN
  6
DASHED3
 62
     6
 10
233.37245999999999
 20
104.4156499999999
 30
0.0
 11
233.36745999999999
 21
104.5135499999999
 31
0.0
  0
LINE
  5
5EE
  8
_0-1_HIDDEN
  6
DASHED3
 62
     6
 10
233.36745999999999
 20
104.5135499999999
 30
0.0
 11
233.36245999999991
 21
104.61024999999979
 31
0.0
  0
LINE
  5
5EF
  8
_0-1_HIDDEN
  6
DASHED3
 62
     6
 10
233.36245999999991
 20
104.61024999999979
 30
0.0
 11
233.35745999999989
 21
104.7057499999999
 31
0.0
  0
LINE
  5
5F0
  8
_0-1_HIDDEN
  6
DASHED3
 62
     6
 10
233.35745999999989
 20
104.7057499999999
 30
0.0
 11
233.35145999999989
 21
104.80005
 31
0.0
  0
LINE
  5
5F1
  8
_0-1_HIDDEN
  6
DASHED3
 62
     6
 10
233.35145999999989
 20
104.80005
 30
0.0
 11
233.34546
 21
104.8930499999999
 31
0.0
  0
LINE
  5
5F2
  8
_0-1_HIDDEN
  6
DASHED3
 62
     6
 10
233.34546
 20
104.8930499999999
 30
0.0
 11
233.33946
 21
104.98465
 31
0.0
  0
LINE
  5
5F3
  8
_0-1_HIDDEN
  6
DASHED3
 62
     6
 10
233.33946
 20
104.98465
 30
0.0
 11
233.33246
 21
105.07485
 31
0.0
  0
LINE
  5
5F4
  8
_0-1_HIDDEN
  6
DASHED3
 62
     6
 10
233.33246
 20
105.07485
 30
0.0
 11
233.32545999999999
 21
105.1635499999999
 31
0.0
  0
LINE
  5
5F5
  8
_0-1_HIDDEN
  6
DASHED3
 62
     6
 10
233.32545999999999
 20
105.1635499999999
 30
0.0
 11
233.31845999999999
 21
105.2507499999999
 31
0.0
  0
LINE
  5
5F6
  8
_0-1_HIDDEN
  6
DASHED3
 62
     6
 10
233.31845999999999
 20
105.2507499999999
 30
0.0
 11
233.31146000000001
 21
105.3363499999999
 31
0.0
  0
LINE
  5
5F7
  8
_0-1_HIDDEN
  6
DASHED3
 62
     6
 10
233.31146000000001
 20
105.3363499999999
 30
0.0
 11
233.30446000000001
 21
105.42035
 31
0.0
  0
LINE
  5
5F8
  8
_0-1_HIDDEN
  6
DASHED3
 62
     6
 10
233.30446000000001
 20
105.42035
 30
0.0
 11
233.29645999999991
 21
105.50265
 31
0.0
  0
LINE
  5
5F9
  8
_0-1_HIDDEN
  6
DASHED3
 62
     6
 10
233.29645999999991
 20
105.50265
 30
0.0
 11
233.2884599999999
 21
105.58325000000001
 31
0.0
  0
LINE
  5
5FA
  8
_0-1_HIDDEN
  6
DASHED3
 62
     6
 10
233.2884599999999
 20
105.58325000000001
 30
0.0
 11
233.28046000000001
 21
105.66204999999979
 31
0.0
  0
LINE
  5
5FB
  8
_0-1_HIDDEN
  6
DASHED3
 62
     6
 10
233.28046000000001
 20
105.66204999999979
 30
0.0
 11
233.27246
 21
105.73905000000001
 31
0.0
  0
LINE
  5
5FC
  8
_0-1_HIDDEN
  6
DASHED3
 62
     6
 10
233.27246
 20
105.73905000000001
 30
0.0
 11
233.26346000000001
 21
105.81415
 31
0.0
  0
LINE
  5
5FD
  8
_0-1_HIDDEN
  6
DASHED3
 62
     6
 10
233.26346000000001
 20
105.81415
 30
0.0
 11
233.25445999999991
 21
105.8872499999999
 31
0.0
  0
LINE
  5
5FE
  8
_0-1_HIDDEN
  6
DASHED3
 62
     6
 10
233.25445999999991
 20
105.8872499999999
 30
0.0
 11
233.24546000000001
 21
105.9584499999999
 31
0.0
  0
LINE
  5
5FF
  8
_0-1_HIDDEN
  6
DASHED3
 62
     6
 10
233.24546000000001
 20
105.9584499999999
 30
0.0
 11
233.23645999999999
 21
106.02764999999999
 31
0.0
  0
LINE
  5
600
  8
_0-1_HIDDEN
  6
DASHED3
 62
     6
 10
233.23645999999999
 20
106.02764999999999
 30
0.0
 11
233.22746000000001
 21
106.09484999999979
 31
0.0
  0
LINE
  5
601
  8
_0-1_HIDDEN
  6
DASHED3
 62
     6
 10
233.22746000000001
 20
106.09484999999979
 30
0.0
 11
233.21745999999999
 21
106.15994999999999
 31
0.0
  0
LINE
  5
602
  8
_0-1_HIDDEN
  6
DASHED3
 62
     6
 10
233.21745999999999
 20
106.15994999999999
 30
0.0
 11
233.20845999999989
 21
106.22284999999999
 31
0.0
  0
LINE
  5
603
  8
_0-1_HIDDEN
  6
DASHED3
 62
     6
 10
233.20845999999989
 20
106.22284999999999
 30
0.0
 11
233.19846000000001
 21
106.2836499999998
 31
0.0
  0
LINE
  5
604
  8
_0-1_HIDDEN
  6
DASHED3
 62
     6
 10
233.19846000000001
 20
106.2836499999998
 30
0.0
 11
233.18845999999991
 21
106.34215
 31
0.0
  0
LINE
  5
605
  8
_0-1_HIDDEN
  6
DASHED3
 62
     6
 10
233.18845999999991
 20
106.34215
 30
0.0
 11
233.17846
 21
106.39855
 31
0.0
  0
LINE
  5
606
  8
_0-1_HIDDEN
  6
DASHED3
 62
     6
 10
233.17846
 20
106.39855
 30
0.0
 11
233.16745999999989
 21
106.45255
 31
0.0
  0
LINE
  5
607
  8
_0-1_HIDDEN
  6
DASHED3
 62
     6
 10
233.16745999999989
 20
106.45255
 30
0.0
 11
233.1574599999999
 21
106.50435
 31
0.0
  0
LINE
  5
608
  8
_0-1_HIDDEN
  6
DASHED3
 62
     6
 10
233.1574599999999
 20
106.50435
 30
0.0
 11
233.14645999999991
 21
106.55374999999999
 31
0.0
  0
LINE
  5
609
  8
_0-1_HIDDEN
  6
DASHED3
 62
     6
 10
233.14645999999991
 20
106.55374999999999
 30
0.0
 11
233.13646
 21
106.6008499999998
 31
0.0
  0
LINE
  5
60A
  8
_0-1_HIDDEN
  6
DASHED3
 62
     6
 10
233.13646
 20
106.6008499999998
 30
0.0
 11
233.12546
 21
106.64545
 31
0.0
  0
LINE
  5
60B
  8
_0-1_HIDDEN
  6
DASHED3
 62
     6
 10
233.12546
 20
106.64545
 30
0.0
 11
233.11446000000001
 21
106.6877499999998
 31
0.0
  0
LINE
  5
60C
  8
_0-1_HIDDEN
  6
DASHED3
 62
     6
 10
233.11446000000001
 20
106.6877499999998
 30
0.0
 11
233.10346000000001
 21
106.72745
 31
0.0
  0
LINE
  5
60D
  8
_0-1_HIDDEN
  6
DASHED3
 62
     6
 10
233.10346000000001
 20
106.72745
 30
0.0
 11
233.0924599999999
 21
106.76485
 31
0.0
  0
LINE
  5
60E
  8
_0-1_HIDDEN
  6
DASHED3
 62
     6
 10
233.0924599999999
 20
106.76485
 30
0.0
 11
233.08045999999999
 21
106.79965
 31
0.0
  0
LINE
  5
60F
  8
_0-1_HIDDEN
  6
DASHED3
 62
     6
 10
233.08045999999999
 20
106.79965
 30
0.0
 11
233.06945999999999
 21
106.83195000000001
 31
0.0
  0
LINE
  5
610
  8
_0-1_HIDDEN
  6
DASHED3
 62
     6
 10
233.06945999999999
 20
106.83195000000001
 30
0.0
 11
233.05745999999991
 21
106.8617499999999
 31
0.0
  0
LINE
  5
611
  8
_0-1_HIDDEN
  6
DASHED3
 62
     6
 10
233.05745999999991
 20
106.8617499999999
 30
0.0
 11
233.04645999999991
 21
106.88894999999999
 31
0.0
  0
LINE
  5
612
  8
_0-1_HIDDEN
  6
DASHED3
 62
     6
 10
233.04645999999991
 20
106.88894999999999
 30
0.0
 11
233.03446
 21
106.91355
 31
0.0
  0
LINE
  5
613
  8
_0-1_HIDDEN
  6
DASHED3
 62
     6
 10
233.03446
 20
106.91355
 30
0.0
 11
233.02346
 21
106.93565
 31
0.0
  0
LINE
  5
614
  8
_0-1_HIDDEN
  6
DASHED3
 62
     6
 10
233.02346
 20
106.93565
 30
0.0
 11
233.01145999999989
 21
106.9551499999999
 31
0.0
  0
LINE
  5
615
  8
_0-1_HIDDEN
  6
DASHED3
 62
     6
 10
233.01145999999989
 20
106.9551499999999
 30
0.0
 11
232.99946
 21
106.97195000000001
 31
0.0
  0
LINE
  5
616
  8
_0-1_HIDDEN
  6
DASHED3
 62
     6
 10
232.99946
 20
106.97195000000001
 30
0.0
 11
232.98746
 21
106.9862499999999
 31
0.0
  0
LINE
  5
617
  8
_0-1_HIDDEN
  6
DASHED3
 62
     6
 10
232.98746
 20
106.9862499999999
 30
0.0
 11
232.97546
 21
106.9978499999999
 31
0.0
  0
LINE
  5
618
  8
_0-1_HIDDEN
  6
DASHED3
 62
     6
 10
232.97546
 20
106.9978499999999
 30
0.0
 11
232.96445999999989
 21
107.00685
 31
0.0
  0
LINE
  5
619
  8
_0-1_HIDDEN
  6
DASHED3
 62
     6
 10
232.96445999999989
 20
107.00685
 30
0.0
 11
232.95246
 21
107.01315
 31
0.0
  0
LINE
  5
61A
  8
_0-1_HIDDEN
  6
DASHED3
 62
     6
 10
232.95246
 20
107.01315
 30
0.0
 11
232.94046
 21
107.01685000000001
 31
0.0
  0
LINE
  5
61B
  8
_0-1_HIDDEN
  6
DASHED3
 62
     6
 10
232.94046
 20
107.01685000000001
 30
0.0
 11
232.92846
 21
107.01795
 31
0.0
  0
LINE
  5
61C
  8
_0-1_HIDDEN
  6
DASHED3
 62
     6
 10
233.2367899999999
 20
99.388050000000021
 30
0.0
 11
247.76647999999989
 21
99.388050000000021
 31
0.0
  0
LINE
  5
61D
  8
_0-1_HIDDEN
  6
DASHED3
 62
     6
 10
233.23700999999991
 20
105.88805000000001
 30
0.0
 11
247.76647999999989
 21
105.88805000000001
 31
0.0
  0
ARC
  5
61E
  8
_0-0_0
  6
CONTINUOUS
 62
     5
 10
224.21450999999999
 20
112.58695
 30
0.0
 40
0.5
 50
90.609506000000025
 51
180.0
  0
LINE
  5
61F
  8
_0-0_0
  6
CONTINUOUS
 62
     5
 10
224.20918999999981
 20
113.08693
 30
0.0
 11
228.96738999999991
 21
113.1375399999999
 31
0.0
  0
LINE
  5
620
  8
_0-0_0
  6
CONTINUOUS
 62
     5
 10
247.7145099999999
 20
145.8185899999998
 30
0.0
 11
205.5145099999998
 21
145.79605000000001
 31
0.0
  0
LINE
  5
621
  8
_0-0_0
  6
CONTINUOUS
 62
     5
 10
247.7145099999999
 20
150.15288999999979
 30
0.0
 11
205.65975
 21
151.20761999999991
 31
0.0
  0
LINE
  5
622
  8
_0-0_0
  6
CONTINUOUS
 62
     5
 10
247.7145099999999
 20
145.70707999999991
 30
0.0
 11
247.7145099999999
 21
150.85837000000001
 31
0.0
  0
LINE
  5
623
  8
_0-2_CENTER
  6
CENTER2
 62
     1
 10
360.68877999999989
 20
133.18805
 30
0.0
 11
311.29261999999989
 21
133.18805
 31
0.0
  0
LINE
  5
624
  8
_0-0_0
  6
CONTINUOUS
 62
     5
 10
258.21451000000002
 20
137.58805000000001
 30
0.0
 11
258.21451000000002
 21
128.78804999999991
 31
0.0
  0
LINE
  5
625
  8
_0-0_0
  6
CONTINUOUS
 62
     5
 10
279.31450999999993
 20
137.18805
 30
0.0
 11
279.31450999999993
 21
129.18804999999981
 31
0.0
  0
LINE
  5
626
  8
_0-0_0
  6
CONTINUOUS
 62
     5
 10
279.71451000000002
 20
129.58805000000001
 30
0.0
 11
279.71451000000002
 21
136.78805
 31
0.0
  0
LINE
  5
627
  8
_0-0_0
  6
CONTINUOUS
 62
     5
 10
257.21451000000002
 20
147.98803999999981
 30
0.0
 11
257.21451000000002
 21
118.38805000000001
 31
0.0
  0
LINE
  5
628
  8
_0-0_0
  6
CONTINUOUS
 62
     5
 10
257.01450999999992
 20
148.18805
 30
0.0
 11
257.01450999999992
 21
118.18805
 31
0.0
  0
LINE
  5
629
  8
_0-0_0
  6
CONTINUOUS
 62
     5
 10
254.7145099999999
 20
153.18804999999981
 30
0.0
 11
254.7145099999999
 21
113.18805
 31
0.0
  0
LINE
  5
62A
  8
_0-0_0
  6
CONTINUOUS
 62
     5
 10
249.71450999999999
 20
113.18805
 30
0.0
 11
249.71450999999999
 21
153.18804999999981
 31
0.0
  0
LINE
  5
62B
  8
_0-0_0
  6
CONTINUOUS
 62
     5
 10
258.61450999999988
 20
129.18804999999981
 30
0.0
 11
279.31450999999993
 21
129.18804999999981
 31
0.0
  0
LINE
  5
62C
  8
_0-0_0
  6
CONTINUOUS
 62
     5
 10
254.91451000000001
 20
118.18805
 30
0.0
 11
257.01450999999992
 21
118.18805
 31
0.0
  0
LINE
  5
62D
  8
_0-0_0
  6
CONTINUOUS
 62
     5
 10
254.7145099999999
 20
113.18805
 30
0.0
 11
249.71450999999999
 21
113.18805
 31
0.0
  0
ARC
  5
62E
  8
_0-0_0
  6
CONTINUOUS
 62
     5
 10
254.91451000000001
 20
117.98805
 30
0.0
 40
0.2
 50
90.0
 51
179.99998999999991
  0
LINE
  5
62F
  8
_0-0_0
  6
CONTINUOUS
 62
     5
 10
257.01450999999992
 20
118.18805
 30
0.0
 11
257.21451000000002
 21
118.38805000000001
 31
0.0
  0
ARC
  5
630
  8
_0-0_0
  6
CONTINUOUS
 62
     5
 10
258.61450999999988
 20
128.78804999999991
 30
0.0
 40
0.4
 50
90.0
 51
180.0
  0
LINE
  5
631
  8
_0-0_0
  6
CONTINUOUS
 62
     5
 10
258.21451000000002
 20
128.78804999999991
 30
0.0
 11
258.21451000000002
 21
128.18804999999981
 31
0.0
  0
LINE
  5
632
  8
_0-0_0
  6
CONTINUOUS
 62
     5
 10
257.21451000000002
 20
128.18804999999981
 30
0.0
 11
258.21451000000002
 21
128.18804999999981
 31
0.0
  0
LINE
  5
633
  8
_0-0_0
  6
CONTINUOUS
 62
     5
 10
279.71451000000002
 20
129.58805000000001
 30
0.0
 11
279.31450999999993
 21
129.18804999999981
 31
0.0
  0
LINE
  5
634
  8
_0-0_0
  6
CONTINUOUS
 62
     5
 10
258.61450999999988
 20
137.18805
 30
0.0
 11
279.31450999999993
 21
137.18805
 31
0.0
  0
ARC
  5
635
  8
_0-0_0
  6
CONTINUOUS
 62
     5
 10
258.61450999999988
 20
137.58805000000001
 30
0.0
 40
0.4
 50
180.0
 51
270.0
  0
LINE
  5
636
  8
_0-0_0
  6
CONTINUOUS
 62
     5
 10
257.21451000000002
 20
138.18805
 30
0.0
 11
258.21451000000002
 21
138.18805
 31
0.0
  0
LINE
  5
637
  8
_0-0_0
  6
CONTINUOUS
 62
     5
 10
258.21451000000002
 20
138.18804
 30
0.0
 11
258.21451000000002
 21
137.58805000000001
 31
0.0
  0
LINE
  5
638
  8
_0-0_0
  6
CONTINUOUS
 62
     5
 10
254.91451000000001
 20
148.18805
 30
0.0
 11
257.01450999999992
 21
148.18805
 31
0.0
  0
LINE
  5
639
  8
_0-0_0
  6
CONTINUOUS
 62
     5
 10
254.7145099999999
 20
153.18804999999981
 30
0.0
 11
249.71450999999999
 21
153.18804999999981
 31
0.0
  0
ARC
  5
63A
  8
_0-0_0
  6
CONTINUOUS
 62
     5
 10
254.91451000000001
 20
148.38804999999991
 30
0.0
 40
0.2
 50
180.0
 51
270.0
  0
LINE
  5
63B
  8
_0-0_0
  6
CONTINUOUS
 62
     5
 10
257.01450999999992
 20
148.18805
 30
0.0
 11
257.21451000000002
 21
147.9880499999999
 31
0.0
  0
LINE
  5
63C
  8
_0-0_0
  6
CONTINUOUS
 62
     5
 10
279.71451000000002
 20
136.78805
 30
0.0
 11
279.31450999999993
 21
137.18805
 31
0.0
  0
ARC
  5
63D
  8
_0-0_0
  6
CONTINUOUS
 62
     5
 10
335.65755000000001
 20
133.18805
 30
0.0
 40
20.5
 50
351.99004999999983
 51
8.0099427999999993
  0
LINE
  5
63E
  8
_0-0_0
  6
CONTINUOUS
 62
     5
 10
355.95755000000008
 20
119.98857
 30
0.0
 11
355.95755000000008
 21
150.98819
 31
0.0
  0
LINE
  5
63F
  8
_0-0_0
  6
CONTINUOUS
 62
     5
 10
355.65755000000001
 20
115.6880499999999
 30
0.0
 11
355.65755000000001
 21
150.68805
 31
0.0
  0
CIRCLE
  5
640
  8
_0-0_0
  6
CONTINUOUS
 62
     5
 10
335.65755000000001
 20
133.18805
 30
0.0
 40
4.0
  0
CIRCLE
  5
641
  8
_0-0_0
  6
CONTINUOUS
 62
     5
 10
335.65755000000001
 20
133.18805
 30
0.0
 40
5.0
  0
ARC
  5
642
  8
_0-0_0
  6
CONTINUOUS
 62
     5
 10
335.65755000000001
 20
133.18805
 30
0.0
 40
20.5
 50
171.99005
 51
188.0099399999998
  0
LINE
  5
643
  8
_0-0_0
  6
CONTINUOUS
 62
     5
 10
315.35755
 20
112.88805000000001
 30
0.0
 11
315.35755
 21
146.38751999999991
 31
0.0
  0
LINE
  5
644
  8
_0-0_0
  6
CONTINUOUS
 62
     5
 10
315.65755000000001
 20
150.68805
 30
0.0
 11
315.65755000000001
 21
115.6880499999999
 31
0.0
  0
LINE
  5
645
  8
_0-2_CENTER
  6
CENTER2
 62
     1
 10
335.65755000000001
 20
158.21601000000001
 30
0.0
 11
335.65755000000001
 21
89.792601000000005
 31
0.0
  0
CIRCLE
  5
646
  8
_0-0_0
  6
CONTINUOUS
 62
     5
 10
335.65755000000001
 20
133.18805
 30
0.0
 40
15.0
  0
CIRCLE
  5
647
  8
_0-0_0
  6
CONTINUOUS
 62
     5
 10
335.65755000000001
 20
133.18805
 30
0.0
 40
14.800000000000001
  0
LINE
  5
648
  8
_0-1_HIDDEN
  6
DASHED3
 62
     6
 10
352.22748999999982
 20
106.18805
 30
0.0
 11
341.03129999999982
 21
106.18805
 31
0.0
  0
LINE
  5
649
  8
_0-0_0
  6
CONTINUOUS
 62
     5
 10
318.15755000000001
 20
113.18805
 30
0.0
 11
353.15755000000001
 21
113.18805
 31
0.0
  0
LINE
  5
64A
  8
_0-0_0
  6
CONTINUOUS
 62
     5
 10
349.97402
 20
105.68805
 30
0.0
 11
346.35403999999983
 21
105.68805
 31
0.0
  0
LINE
  5
64B
  8
_0-0_0
  6
CONTINUOUS
 62
     5
 10
336.67241000000001
 20
106.18805
 30
0.0
 11
352.22672999999992
 21
106.18805
 31
0.0
  0
LINE
  5
64C
  8
_0-0_0
  6
CONTINUOUS
 62
     5
 10
352.02749999999992
 20
109.48805
 30
0.0
 11
336.77611999999988
 21
109.48805
 31
0.0
  0
LINE
  5
64D
  8
_0-0_0
  6
CONTINUOUS
 62
     5
 10
346.35403999999983
 20
105.98786
 30
0.0
 11
347.16070000000002
 21
105.98786
 31
0.0
  0
LINE
  5
64E
  8
_0-0_0
  6
CONTINUOUS
 62
     5
 10
347.26562999999999
 20
112.88805000000001
 30
0.0
 11
343.28343999999993
 21
112.88805000000001
 31
0.0
  0
LINE
  5
64F
  8
_0-0_0
  6
CONTINUOUS
 62
     5
 10
342.85807999999992
 20
112.5763199999999
 30
0.0
 11
342.85807999999992
 21
110.2880499999999
 31
0.0
  0
LINE
  5
650
  8
_0-0_0
  6
CONTINUOUS
 62
     5
 10
315.36342999999999
 20
112.8939
 30
0.0
 11
315.36342999999999
 21
110.2880499999999
 31
0.0
  0
LINE
  5
651
  8
_0-2_CENTER
  6
CENTER2
 62
     1
 10
340.55754999999982
 20
115.18761000000001
 30
0.0
 11
340.55754999999982
 21
92.097506999999979
 31
0.0
  0
LINE
  5
652
  8
_0-2_CENTER
  6
CENTER2
 62
     1
 10
341.45755000000008
 20
115.18761000000001
 30
0.0
 11
341.45755000000008
 21
92.420917000000017
 31
0.0
  0
LINE
  5
653
  8
_0-2_CENTER
  6
CENTER2
 62
     1
 10
329.25754999999992
 20
114.57538
 30
0.0
 11
329.25754999999992
 21
94.371533000000014
 31
0.0
  0
LINE
  5
654
  8
_0-1_HIDDEN
  6
DASHED3
 62
     6
 10
323.80754999999982
 20
96.088049999999996
 30
0.0
 11
334.70755000000003
 21
96.088049999999996
 31
0.0
  0
LINE
  5
655
  8
_0-0_0
  6
CONTINUOUS
 62
     5
 10
332.76693999999992
 20
110.0880499999999
 30
0.0
 11
325.74815999999993
 21
110.0880499999999
 31
0.0
  0
LINE
  5
656
  8
_0-0_0
  6
CONTINUOUS
 62
     5
 10
321.89924999999999
 20
104.38804999999979
 30
0.0
 11
336.61585000000002
 21
104.38804999999979
 31
0.0
  0
LINE
  5
657
  8
_0-0_0
  6
CONTINUOUS
 62
     5
 10
315.86342999999999
 20
109.78805
 30
0.0
 11
342.35807999999992
 21
109.78805
 31
0.0
  0
LINE
  5
658
  8
_0-1_HIDDEN
  6
DASHED3
 62
     6
 10
319.80754999999982
 20
107.2880499999999
 30
0.0
 11
319.80754999999982
 21
100.08805
 31
0.0
  0
LINE
  5
659
  8
_0-0_0
  6
CONTINUOUS
 62
     5
 10
321.89924999999999
 20
104.38804999999979
 30
0.0
 11
321.72955000000002
 21
109.78805
 31
0.0
  0
LINE
  5
65A
  8
_0-1_HIDDEN
  6
DASHED3
 62
     6
 10
317.50754999999992
 20
107.2880499999999
 30
0.0
 11
319.80754999999982
 21
107.2880499999999
 31
0.0
  0
LINE
  5
65B
  8
_0-1_HIDDEN
  6
DASHED3
 62
     6
 10
317.00754999999992
 20
109.78805
 30
0.0
 11
317.00754999999992
 21
107.78805
 31
0.0
  0
ARC
  5
65C
  8
_0-1_HIDDEN
  6
DASHED3
 62
     6
 10
317.50754999999992
 20
107.78805
 30
0.0
 40
0.5
 50
180.0
 51
270.0
  0
LINE
  5
65D
  8
_0-0_0
  6
CONTINUOUS
 62
     5
 10
322.51666
 20
109.78805
 30
0.0
 11
322.58694999999989
 21
104.38804999999979
 31
0.0
  0
LINE
  5
65E
  8
_0-0_0
  6
CONTINUOUS
 62
     5
 10
325.75754999999992
 20
109.98805
 30
0.0
 11
325.75754999999992
 21
110.0880499999999
 31
0.0
  0
ARC
  5
65F
  8
_0-0_0
  6
CONTINUOUS
 62
     5
 10
325.55754999999988
 20
109.98805
 30
0.0
 40
0.2
 50
270.0
 51
0.0
  0
LINE
  5
660
  8
_0-1_HIDDEN
  6
DASHED3
 62
     6
 10
338.70755000000003
 20
107.2880499999999
 30
0.0
 11
338.70755000000003
 21
100.08805
 31
0.0
  0
LINE
  5
661
  8
_0-0_0
  6
CONTINUOUS
 62
     5
 10
345.56594000000001
 20
100.68805
 30
0.0
 11
345.75450000000001
 21
100.9880499999999
 31
0.0
  0
LINE
  5
662
  8
_0-0_0
  6
CONTINUOUS
 62
     5
 10
336.88132000000002
 20
100.68805
 30
0.0
 11
336.56106
 21
100.9880499999999
 31
0.0
  0
LINE
  5
663
  8
_0-0_0
  6
CONTINUOUS
 62
     5
 10
337.16059000000001
 20
100.9880499999999
 30
0.0
 11
337.34915999999993
 21
100.68805
 31
0.0
  0
LINE
  5
664
  8
_0-0_0
  6
CONTINUOUS
 62
     5
 10
346.03377
 20
100.68805
 30
0.0
 11
346.35403999999983
 21
100.9880499999999
 31
0.0
  0
LINE
  5
665
  8
_0-1_HIDDEN
  6
DASHED3
 62
     6
 10
338.17419999999998
 20
94.388050000000007
 30
0.0
 11
343.72861
 21
94.388050000000007
 31
0.0
  0
LINE
  5
666
  8
_0-0_0
  6
CONTINUOUS
 62
     5
 10
346.03377
 20
100.68805
 30
0.0
 11
336.88132000000002
 21
100.68805
 31
0.0
  0
LINE
  5
667
  8
_0-1_HIDDEN
  6
DASHED3
 62
     6
 10
341.00754999999998
 20
107.2880499999999
 30
0.0
 11
338.70755000000003
 21
107.2880499999999
 31
0.0
  0
LINE
  5
668
  8
_0-0_0
  6
CONTINUOUS
 62
     5
 10
336.56106
 20
100.9880499999999
 30
0.0
 11
346.35403999999983
 21
100.9880499999999
 31
0.0
  0
ARC
  5
669
  8
_0-0_0
  6
CONTINUOUS
 62
     5
 10
336.86185
 20
106.9028599999999
 30
0.0
 40
0.6997814
 50
283.23016000000001
 51
355.00558999999993
  0
LINE
  5
66A
  8
_0-0_0
  6
CONTINUOUS
 62
     5
 10
338.05534
 20
106.18805
 30
0.0
 11
338.05534
 21
108.38805000000001
 31
0.0
  0
LINE
  5
66B
  8
_0-0_0
  6
CONTINUOUS
 62
     5
 10
336.78555
 20
109.78805
 30
0.0
 11
336.61585000000002
 21
104.38804999999979
 31
0.0
  0
LINE
  5
66C
  8
_0-0_0
  6
CONTINUOUS
 62
     5
 10
335.92813999999993
 20
104.38804999999979
 30
0.0
 11
335.99844000000002
 21
109.78805
 31
0.0
  0
LINE
  5
66D
  8
_0-0_0
  6
CONTINUOUS
 62
     5
 10
336.67354999999992
 20
106.2216499999999
 30
0.0
 11
337.02199999999982
 21
106.2216499999999
 31
0.0
  0
LINE
  5
66E
  8
_0-0_0
  6
CONTINUOUS
 62
     5
 10
336.56106
 20
104.38804999999979
 30
0.0
 11
336.56106
 21
100.9880499999999
 31
0.0
  0
LINE
  5
66F
  8
_0-0_0
  6
CONTINUOUS
 62
     5
 10
337.16059000000001
 20
106.18805
 30
0.0
 11
337.16059000000001
 21
100.9880499999999
 31
0.0
  0
LINE
  5
670
  8
_0-0_0
  6
CONTINUOUS
 62
     5
 10
332.75754999999998
 20
109.98805
 30
0.0
 11
332.75754999999998
 21
110.0880499999999
 31
0.0
  0
ARC
  5
671
  8
_0-0_0
  6
CONTINUOUS
 62
     5
 10
332.95755000000003
 20
109.98805
 30
0.0
 40
0.2
 50
180.0
 51
270.0
  0
LINE
  5
672
  8
_0-0_0
  6
CONTINUOUS
 62
     5
 10
336.71645999999993
 20
107.58805
 30
0.0
 11
338.01785999999993
 21
107.58805
 31
0.0
  0
LINE
  5
673
  8
_0-0_0
  6
CONTINUOUS
 62
     5
 10
338.05534
 20
108.38805000000001
 30
0.0
 11
336.74155000000002
 21
108.38805000000001
 31
0.0
  0
LINE
  5
674
  8
_0-0_0
  6
CONTINUOUS
 62
     5
 10
338.01785999999993
 20
107.58805
 30
0.0
 11
338.01785999999993
 21
108.38805000000001
 31
0.0
  0
LINE
  5
675
  8
_0-0_0
  6
CONTINUOUS
 62
     5
 10
337.55896999999987
 20
106.84193999999999
 30
0.0
 11
337.62425000000002
 21
107.58805
 31
0.0
  0
LINE
  5
676
  8
_0-0_0
  6
CONTINUOUS
 62
     5
 10
346.35403999999983
 20
100.9880499999999
 30
0.0
 11
346.35403999999983
 21
106.18805
 31
0.0
  0
LINE
  5
677
  8
_0-0_0
  6
CONTINUOUS
 62
     5
 10
345.75450000000001
 20
106.18805
 30
0.0
 11
345.75450000000001
 21
100.9880499999999
 31
0.0
  0
ARC
  5
678
  8
_0-0_0
  6
CONTINUOUS
 62
     5
 10
342.35807999999992
 20
110.2880499999999
 30
0.0
 40
0.5
 50
270.0
 51
0.0
  0
LINE
  5
679
  8
_0-1_HIDDEN
  6
DASHED3
 62
     6
 10
341.50754999999992
 20
109.78805
 30
0.0
 11
341.50754999999992
 21
107.78805
 31
0.0
  0
ARC
  5
67A
  8
_0-1_HIDDEN
  6
DASHED3
 62
     6
 10
341.00754999999998
 20
107.78805
 30
0.0
 40
0.5
 50
270.0
 51
0.0
  0
ARC
  5
67B
  8
_0-0_0
  6
CONTINUOUS
 62
     5
 10
318.12141999999977
 20
123.46760999999989
 30
0.0
 40
3.1000000000000001
 50
153.07151999999991
 51
206.92846999999981
  0
ARC
  5
67C
  8
_0-0_0
  6
CONTINUOUS
 62
     5
 10
318.7577
 20
116.2881899999999
 30
0.0
 40
1.5
 50
255.0
 51
195.0
  0
CIRCLE
  5
67D
  8
_0-0_0
  6
CONTINUOUS
 62
     5
 10
318.7577
 20
116.2881899999999
 30
0.0
 40
1.25
  0
LINE
  5
67E
  8
_0-0_0
  6
CONTINUOUS
 62
     5
 10
315.35755
 20
112.88805000000001
 30
0.0
 11
315.36345999999992
 21
112.8939499999999
 31
0.0
  0
LINE
  5
67F
  8
_0-0_0
  6
CONTINUOUS
 62
     5
 10
315.36342999999999
 20
112.8939
 30
0.0
 11
315.36345999999992
 21
112.8939499999999
 31
0.0
  0
LINE
  5
680
  8
_0-0_0
  6
CONTINUOUS
 62
     5
 10
315.36342999999999
 20
112.88805000000001
 30
0.0
 11
315.35755
 21
112.88805000000001
 31
0.0
  0
ARC
  5
681
  8
_0-0_0
  6
CONTINUOUS
 62
     5
 10
318.15755000000001
 20
115.6880499999999
 30
0.0
 40
2.5
 50
180.0
 51
270.0
  0
LINE
  5
682
  8
_0-0_0
  6
CONTINUOUS
 62
     5
 10
342.85811000000001
 20
112.58163999999979
 30
0.0
 11
342.85807999999992
 21
112.5763199999999
 31
0.0
  0
LINE
  5
683
  8
_0-0_0
  6
CONTINUOUS
 62
     5
 10
354.25754999999992
 20
113.18805
 30
0.0
 11
354.25754999999992
 21
111.38805000000001
 31
0.0
  0
LINE
  5
684
  8
_0-0_0
  6
CONTINUOUS
 62
     5
 10
352.22750000000002
 20
109.68805
 30
0.0
 11
352.22750000000002
 21
113.18805
 31
0.0
  0
LINE
  5
685
  8
_0-1_HIDDEN
  6
DASHED3
 62
     6
 10
348.43031999999982
 20
103.68805
 30
0.0
 11
348.43031999999982
 21
98.388050000000007
 31
0.0
  0
LINE
  5
686
  8
_0-0_0
  6
CONTINUOUS
 62
     5
 10
350.83082999999982
 20
109.48805
 30
0.0
 11
350.83082999999982
 21
106.18805
 31
0.0
  0
LINE
  5
687
  8
_0-0_0
  6
CONTINUOUS
 62
     5
 10
352.22750000000002
 20
106.18805
 30
0.0
 11
352.22750000000002
 21
109.18805
 31
0.0
  0
LINE
  5
688
  8
_0-1_HIDDEN
  6
DASHED3
 62
     6
 10
348.43031999999982
 20
103.68805
 30
0.0
 11
351.72750999999982
 21
103.68805
 31
0.0
  0
LINE
  5
689
  8
_0-0_0
  6
CONTINUOUS
 62
     5
 10
347.16070000000002
 20
105.98786
 30
0.0
 11
347.11212999999998
 21
105.68805
 31
0.0
  0
LINE
  5
68A
  8
_0-0_0
  6
CONTINUOUS
 62
     5
 10
347.16070000000002
 20
105.98786
 30
0.0
 11
347.16179
 21
106.18805
 31
0.0
  0
LINE
  5
68B
  8
_0-0_0
  6
CONTINUOUS
 62
     5
 10
349.97402
 20
105.68805
 30
0.0
 11
350.28066999999987
 21
105.98786
 31
0.0
  0
LINE
  5
68C
  8
_0-0_0
  6
CONTINUOUS
 62
     5
 10
350.28757000000002
 20
106.18805
 30
0.0
 11
350.28066999999987
 21
105.98786
 31
0.0
  0
LINE
  5
68D
  8
_0-1_HIDDEN
  6
DASHED3
 62
     6
 10
352.22750000000002
 20
106.18805
 30
0.0
 11
352.22750000000002
 21
104.1880499999999
 31
0.0
  0
ARC
  5
68E
  8
_0-1_HIDDEN
  6
DASHED3
 62
     6
 10
351.72750000000002
 20
104.1880499999999
 30
0.0
 40
0.5
 50
270.00043999999991
 51
0.0
  0
LINE
  5
68F
  8
_0-0_0
  6
CONTINUOUS
 62
     5
 10
352.75675999999982
 20
110.18805
 30
0.0
 11
352.84424999999999
 21
111.18805
 31
0.0
  0
LINE
  5
690
  8
_0-0_0
  6
CONTINUOUS
 62
     5
 10
351.92750000000001
 20
109.48805
 30
0.0
 11
352.22750000000002
 21
109.18805
 31
0.0
  0
ARC
  5
691
  8
_0-0_0
  6
CONTINUOUS
 62
     5
 10
352.02749999999992
 20
109.68805
 30
0.0
 40
0.2
 50
270.0
 51
0.0
  0
LINE
  5
692
  8
_0-0_0
  6
CONTINUOUS
 62
     5
 10
352.75675999999982
 20
110.18805
 30
0.0
 11
352.22750000000002
 21
110.18805
 31
0.0
  0
LINE
  5
693
  8
_0-0_0
  6
CONTINUOUS
 62
     5
 10
354.05754999999999
 20
111.18805
 30
0.0
 11
352.22750000000002
 21
111.18805
 31
0.0
  0
ARC
  5
694
  8
_0-0_0
  6
CONTINUOUS
 62
     5
 10
354.05754999999999
 20
111.38805000000001
 30
0.0
 40
0.2
 50
270.0
 51
0.0
  0
ARC
  5
695
  8
_0-2_CENTER
  6
CENTER2
 62
     1
 10
335.65755000000001
 20
133.18805
 30
0.0
 40
23.0
 50
304.15336000000002
 51
326.7790399999999
  0
LINE
  5
696
  8
_0-2_CENTER
  6
CENTER2
 62
     1
 10
349.30331999999993
 20
119.5422699999999
 30
0.0
 11
355.46825000000001
 21
113.37734999999979
 31
0.0
  0
ARC
  5
697
  8
_0-0_0
  6
CONTINUOUS
 62
     5
 10
353.15755000000001
 20
115.6880499999999
 30
0.0
 40
2.5
 50
270.0
 51
0.0
  0
ARC
  5
698
  8
_0-0_0
  6
CONTINUOUS
 62
     5
 10
353.86554999999993
 20
114.98005000000001
 30
0.0
 40
4.5999999999999979
 50
119.38943999999999
 51
155.7373299999999
  0
CIRCLE
  5
699
  8
_0-0_0
  6
CONTINUOUS
 62
     5
 10
351.92099999999999
 20
116.9245899999999
 30
0.0
 40
2.25
  0
ARC
  5
69A
  8
_0-0_0
  6
CONTINUOUS
 62
     5
 10
353.75754999999992
 20
113.18805
 30
0.0
 40
0.5
 50
0.0
 51
27.289400000000001
  0
LINE
  5
69B
  8
_0-0_0
  6
CONTINUOUS
 62
     5
 10
351.87090000000001
 20
119.17336
 30
0.0
 11
351.60812999999979
 21
118.98805
 31
0.0
  0
LINE
  5
69C
  8
_0-0_0
  6
CONTINUOUS
 62
     5
 10
352.81648999999999
 20
118.98805
 30
0.0
 11
351.60812999999979
 21
118.98805
 31
0.0
  0
LINE
  5
69D
  8
_0-0_0
  6
CONTINUOUS
 62
     5
 10
353.15755000000001
 20
153.18804999999981
 30
0.0
 11
318.15755000000001
 21
153.18804999999981
 31
0.0
  0
LINE
  5
69E
  8
_0-0_0
  6
CONTINUOUS
 62
     5
 10
323.04975999999999
 20
153.48804999999979
 30
0.0
 11
353.45769000000001
 21
153.48804999999979
 31
0.0
  0
ARC
  5
69F
  8
_0-2_CENTER
  6
CENTER2
 62
     1
 10
335.65755000000001
 20
133.18805
 30
0.0
 40
23.0
 50
123.22095
 51
145.84663
  0
LINE
  5
6A0
  8
_0-2_CENTER
  6
CENTER2
 62
     1
 10
322.01177000000001
 20
146.8338199999998
 30
0.0
 11
315.84685000000002
 21
152.99873999999991
 31
0.0
  0
CIRCLE
  5
6A1
  8
_0-0_0
  6
CONTINUOUS
 62
     5
 10
319.39409000000001
 20
149.45149999999981
 30
0.0
 40
2.25
  0
ARC
  5
6A2
  8
_0-0_0
  6
CONTINUOUS
 62
     5
 10
317.44954999999987
 20
151.39605
 30
0.0
 40
4.5999999999999979
 50
299.38943999999992
 51
335.73732999999987
  0
LINE
  5
6A3
  8
_0-0_0
  6
CONTINUOUS
 62
     5
 10
318.49860000000001
 20
147.38804999999991
 30
0.0
 11
319.70697000000001
 21
147.38804999999991
 31
0.0
  0
LINE
  5
6A4
  8
_0-0_0
  6
CONTINUOUS
 62
     5
 10
319.44420000000002
 20
147.20273
 30
0.0
 11
319.70697000000001
 21
147.38804999999991
 31
0.0
  0
ARC
  5
6A5
  8
_0-0_0
  6
CONTINUOUS
 62
     5
 10
323.0495499999999
 20
152.4880499999999
 30
0.0
 40
1.0
 50
90.0
 51
135.55957000000001
  0
ARC
  5
6A6
  8
_0-0_0
  6
CONTINUOUS
 62
     5
 10
318.15755000000001
 20
150.68805
 30
0.0
 40
2.5
 50
90.0
 51
180.0
  0
ARC
  5
6A7
  8
_0-0_0
  6
CONTINUOUS
 62
     5
 10
335.65755000000001
 20
133.18805
 30
0.0
 40
20.5
 50
81.990056999999979
 51
98.009942000000009
  0
ARC
  5
6A8
  8
_0-0_0
  6
CONTINUOUS
 62
     5
 10
345.37797999999992
 20
150.7241699999999
 30
0.0
 40
3.1000000000000001
 50
63.071520999999997
 51
116.9284699999999
  0
ARC
  5
6A9
  8
_0-0_0
  6
CONTINUOUS
 62
     5
 10
353.15755000000001
 20
150.68805
 30
0.0
 40
2.5
 50
0.0
 51
90.0
  0
ARC
  5
6AA
  8
_0-0_0
  6
CONTINUOUS
 62
     5
 10
352.55739999999992
 20
150.08789999999991
 30
0.0
 40
1.5
 50
255.0
 51
195.0
  0
CIRCLE
  5
6AB
  8
_0-0_0
  6
CONTINUOUS
 62
     5
 10
352.55739999999992
 20
150.08789999999991
 30
0.0
 40
1.25
  0
ARC
  5
6AC
  8
_0-1_HIDDEN
  6
DASHED3
 62
     6
 10
77.999806000000007
 20
101.63728
 30
0.0
 40
6.0274720000000004
 50
180.5784899999999
 51
185.93016
  0
ARC
  5
6AD
  8
_0-1_HIDDEN
  6
DASHED3
 62
     6
 10
74.012637999999981
 20
101.2231199999998
 30
0.0
 40
2.018852799999999
 50
185.93016
 51
195.18393999999989
  0
ARC
  5
6AE
  8
_0-1_HIDDEN
  6
DASHED3
 62
     6
 10
93.272886000000014
 20
106.4502199999999
 30
0.0
 40
21.975798999999999
 50
195.18393999999989
 51
197.0904699999999
  0
ARC
  5
6AF
  8
_0-1_HIDDEN
  6
DASHED3
 62
     6
 10
74.372955000000005
 20
100.6392799999999
 30
0.0
 40
2.2027271999999991
 50
197.0904699999999
 51
203.11487
  0
ARC
  5
6B0
  8
_0-1_HIDDEN
  6
DASHED3
 62
     6
 10
76.969470000000001
 20
101.7475899999999
 30
0.0
 40
5.0258867
 50
203.11487
 51
208.08180999999999
  0
ARC
  5
6B1
  8
_0-1_HIDDEN
  6
DASHED3
 62
     6
 10
78.502492000000004
 20
102.56551999999991
 30
0.0
 40
6.7634622000000002
 50
208.08180999999999
 51
212.36310999999981
  0
ARC
  5
6B2
  8
_0-1_HIDDEN
  6
DASHED3
 62
     6
 10
77.75834399999998
 20
102.09394
 30
0.0
 40
5.8824721000000002
 50
212.36310999999981
 51
217.4890399999999
  0
ARC
  5
6B3
  8
_0-1_HIDDEN
  6
DASHED3
 62
     6
 10
75.954166999999998
 20
100.7101
 30
0.0
 40
3.608689899999999
 50
217.4890399999999
 51
224.03495000000001
  0
ARC
  5
6B4
  8
_0-1_HIDDEN
  6
DASHED3
 62
     6
 10
75.96137299999998
 20
100.71706
 30
0.0
 40
3.6187135000000001
 50
224.03495000000001
 51
230.72363000000001
  0
ARC
  5
6B5
  8
_0-1_HIDDEN
  6
DASHED3
 62
     6
 10
76.389251000000002
 20
101.2402699999999
 30
0.0
 40
4.2946004000000002
 50
230.72363000000001
 51
236.86290999999991
  0
ARC
  5
6B6
  8
_0-1_HIDDEN
  6
DASHED3
 62
     6
 10
76.638246999999978
 20
101.62169
 30
0.0
 40
4.7500996999999989
 50
236.86290999999991
 51
240.95663999999999
  0
ARC
  5
6B7
  8
_0-1_HIDDEN
  6
DASHED3
 62
     6
 10
74.923298000000003
 20
98.533355
 30
0.0
 40
1.2175556000000001
 50
240.95663999999999
 51
249.04750999999999
  0
ARC
  5
6B8
  8
_0-1_HIDDEN
  6
DASHED3
 62
     6
 10
75.242171999999982
 20
99.366113000000027
 30
0.0
 40
2.1092767000000001
 50
249.04750999999999
 51
256.24538999999982
  0
ARC
  5
6B9
  8
_0-1_HIDDEN
  6
DASHED3
 62
     6
 10
75.675094999999985
 20
101.1346999999999
 30
0.0
 40
3.9300866000000001
 50
256.24538999999982
 51
261.51693
  0
ARC
  5
6BA
  8
_0-1_HIDDEN
  6
DASHED3
 62
     6
 10
76.014341000000002
 20
103.40925
 30
0.0
 40
6.2297956000000001
 50
261.51693
 51
263.66272999999978
  0
ARC
  5
6BB
  8
_0-1_HIDDEN
  6
DASHED3
 62
     6
 10
76.686252999999994
 20
109.45928000000001
 30
0.0
 40
12.317015
 50
263.66272999999978
 51
265.18876
  0
ARC
  5
6BC
  8
_0-1_HIDDEN
  6
DASHED3
 62
     6
 10
75.718339999999984
 20
97.959753000000021
 30
0.0
 40
0.776826
 50
265.18876
 51
270.53930000000003
  0
ARC
  5
6BD
  8
_0-1_HIDDEN
  6
DASHED3
 62
     6
 10
75.679946000000001
 20
102.03864
 30
0.0
 40
4.8558988999999988
 50
270.53930000000003
 51
272.67869000000002
  0
ARC
  5
6BE
  8
_0-1_HIDDEN
  6
DASHED3
 62
     6
 10
77.251258999999976
 20
98.378817999999995
 30
0.0
 40
5.6805308999999991
 50
180.20341999999991
 51
185.11598999999981
  0
ARC
  5
6BF
  8
_0-1_HIDDEN
  6
DASHED3
 62
     6
 10
73.574010999999999
 20
98.049598000000003
 30
0.0
 40
1.9885745999999991
 50
185.11598999999981
 51
193.42367999999991
  0
ARC
  5
6C0
  8
_0-1_HIDDEN
  6
DASHED3
 62
     6
 10
91.342848000000004
 20
102.29049000000001
 30
0.0
 40
20.256491
 50
193.42367999999991
 51
194.75648000000001
  0
ARC
  5
6C1
  8
_0-1_HIDDEN
  6
DASHED3
 62
     6
 10
78.361723999999981
 20
98.871277000000006
 30
0.0
 40
6.8326081999999992
 50
194.75648000000001
 51
197.0514399999999
  0
ARC
  5
6C2
  8
_0-1_HIDDEN
  6
DASHED3
 62
     6
 10
76.325856999999985
 20
98.246851000000007
 30
0.0
 40
4.7031342
 50
197.0514399999999
 51
204.38453000000001
  0
ARC
  5
6C3
  8
_0-1_HIDDEN
  6
DASHED3
 62
     6
 10
73.505222000000003
 20
96.968272000000013
 30
0.0
 40
1.6062408999999991
 50
204.38453000000001
 51
216.94917000000001
  0
ARC
  5
6C4
  8
_0-1_HIDDEN
  6
DASHED3
 62
     6
 10
73.462360000000004
 20
96.936032999999995
 30
0.0
 40
1.5526082999999991
 50
216.94917000000001
 51
229.13029999999981
  0
ARC
  5
6C5
  8
_0-1_HIDDEN
  6
DASHED3
 62
     6
 10
75.101101999999983
 20
98.829871000000011
 30
0.0
 40
4.057023899999999
 50
229.13029999999981
 51
236.65707999999981
  0
ARC
  5
6C6
  8
_0-1_HIDDEN
  6
DASHED3
 62
     6
 10
79.870662999999993
 20
106.07898999999991
 30
0.0
 40
12.73449499999999
 50
236.65707999999981
 51
239.4622599999999
  0
ARC
  5
6C7
  8
_0-1_HIDDEN
  6
DASHED3
 62
     6
 10
74.966093999999998
 20
97.765215000000012
 30
0.0
 40
3.0818408000000002
 50
239.4622599999999
 51
245.16629999999989
  0
ARC
  5
6C8
  8
_0-1_HIDDEN
  6
DASHED3
 62
     6
 10
77.193821
 20
102.57902
 30
0.0
 40
8.3861317999999976
 50
245.16629999999989
 51
247.77246
  0
ARC
  5
6C9
  8
_0-1_HIDDEN
  6
DASHED3
 62
     6
 10
76.022669999999977
 20
99.713139999999996
 30
0.0
 40
5.2901873999999989
 50
247.77246
 51
251.0539399999999
  0
ARC
  5
6CA
  8
_0-1_HIDDEN
  6
DASHED3
 62
     6
 10
76.501306999999983
 20
101.10746
 30
0.0
 40
6.7643785999999979
 50
251.0539399999999
 51
254.17330999999999
  0
ARC
  5
6CB
  8
_0-1_HIDDEN
  6
DASHED3
 62
     6
 10
75.737047000000004
 20
98.411422000000002
 30
0.0
 40
3.9621025999999988
 50
254.17330999999999
 51
258.24950000000001
  0
ARC
  5
6CC
  8
_0-1_HIDDEN
  6
DASHED3
 62
     6
 10
75.487693999999976
 20
97.212661999999995
 30
0.0
 40
2.7376830000000001
 50
258.24950000000001
 51
262.49180999999982
  0
ARC
  5
6CD
  8
_0-1_HIDDEN
  6
DASHED3
 62
     6
 10
79.943939
 20
131.02387999999999
 30
0.0
 40
36.841301999999999
 50
262.49180999999982
 51
263.64800999999989
  0
ARC
  5
6CE
  8
_0-1_HIDDEN
  6
DASHED3
 62
     6
 10
76.082486000000003
 20
96.335835000000003
 30
0.0
 40
1.938988499999998
 50
263.64800999999989
 51
267.0626299999999
  0
ARC
  5
6CF
  8
_0-1_HIDDEN
  6
DASHED3
 62
     6
 10
76.602553999999998
 20
106.47131
 30
0.0
 40
12.087801000000001
 50
267.0626299999999
 51
268.43004999999982
  0
ARC
  5
6D0
  8
_0-1_HIDDEN
  6
DASHED3
 62
     6
 10
83.028533999999979
 20
102.31834000000001
 30
0.0
 40
5.1249488000000003
 50
272.22343000000001
 51
277.92836999999992
  0
ARC
  5
6D1
  8
_0-1_HIDDEN
  6
DASHED3
 62
     6
 10
83.336650000000006
 20
100.1059099999998
 30
0.0
 40
2.8911736000000001
 50
277.92836999999992
 51
285.52634999999992
  0
ARC
  5
6D2
  8
_0-1_HIDDEN
  6
DASHED3
 62
     6
 10
79.330304999999981
 20
114.52656999999979
 30
0.0
 40
17.858003
 50
285.52634999999992
 51
286.96264999999983
  0
ARC
  5
6D3
  8
_0-1_HIDDEN
  6
DASHED3
 62
     6
 10
84.399664999999999
 20
97.906701999999996
 30
0.0
 40
0.4822041000000001
 50
286.96264999999983
 51
295.71159999999992
  0
ARC
  5
6D4
  8
_0-1_HIDDEN
  6
DASHED3
 62
     6
 10
84.001343999999975
 20
98.733922000000007
 30
0.0
 40
1.4003288
 50
295.71159999999992
 51
305.8970799999999
  0
ARC
  5
6D5
  8
_0-1_HIDDEN
  6
DASHED3
 62
     6
 10
82.791948000000005
 20
100.4048099999998
 30
0.0
 40
3.462978699999999
 50
305.8970799999999
 51
312.36896000000002
  0
ARC
  5
6D6
  8
_0-1_HIDDEN
  6
DASHED3
 62
     6
 10
77.531205
 20
106.17233
 30
0.0
 40
11.26936699999999
 50
312.36896000000002
 51
314.47052000000002
  0
ARC
  5
6D7
  8
_0-1_HIDDEN
  6
DASHED3
 62
     6
 10
81.644242000000006
 20
101.98255999999991
 30
0.0
 40
5.3981471000000001
 50
314.47052000000002
 51
317.50716999999992
  0
ARC
  5
6D8
  8
_0-1_HIDDEN
  6
DASHED3
 62
     6
 10
80.841013999999987
 20
102.7184
 30
0.0
 40
6.4874744
 50
317.50716999999992
 51
319.99773999999979
  0
ARC
  5
6D9
  8
_0-1_HIDDEN
  6
DASHED3
 62
     6
 10
78.21114799999998
 20
104.92529999999979
 30
0.0
 40
9.9206345999999996
 50
319.99773999999979
 51
322.01172000000003
  0
ARC
  5
6DA
  8
_0-1_HIDDEN
  6
DASHED3
 62
     6
 10
83.152562999999986
 20
101.0662699999999
 30
0.0
 40
3.6508899999999991
 50
322.01172000000003
 51
327.79126999999988
  0
ARC
  5
6DB
  8
_0-1_HIDDEN
  6
DASHED3
 62
     6
 10
82.710762000000017
 20
101.34457999999989
 30
0.0
 40
4.173044599999999
 50
327.79126999999988
 51
333.19687999999979
  0
ARC
  5
6DC
  8
_0-1_HIDDEN
  6
DASHED3
 62
     6
 10
83.705687999999995
 20
100.84193999999989
 30
0.0
 40
3.0583578999999981
 50
333.19687999999979
 51
341.01507999999978
  0
ARC
  5
6DD
  8
_0-1_HIDDEN
  6
DASHED3
 62
     6
 10
81.254529000000005
 20
101.6852199999999
 30
0.0
 40
5.6505204000000004
 50
341.01507999999978
 51
346.76486999999992
  0
ARC
  5
6DE
  8
_0-1_HIDDEN
  6
DASHED3
 62
     6
 10
80.710511999999966
 20
101.81317
 30
0.0
 40
6.209380799999999
 50
346.76486999999992
 51
349.73919999999998
  0
ARC
  5
6DF
  8
_0-1_HIDDEN
  6
DASHED3
 62
     6
 10
72.966965000000002
 20
103.2149399999999
 30
0.0
 40
14.078780999999999
 50
349.73919999999998
 51
351.71437999999978
  0
ARC
  5
6E0
  8
_0-1_HIDDEN
  6
DASHED3
 62
     6
 10
85.846016000000006
 20
101.33938999999999
 30
0.0
 40
1.063881699999998
 50
351.71437999999978
 51
358.02503999999999
  0
ARC
  5
6E1
  8
_0-1_HIDDEN
  6
DASHED3
 62
     6
 10
81.101937000000007
 20
101.50297999999989
 30
0.0
 40
5.8107800999999979
 50
358.02503999999999
 51
0.7241776
  0
ARC
  5
6E2
  8
_0-1_HIDDEN
  6
DASHED3
 62
     6
 10
75.309068999999965
 20
99.269829000000001
 30
0.0
 40
10.133065
 50
346.96316000000002
 51
350.14010999999982
  0
ARC
  5
6E3
  8
_0-1_HIDDEN
  6
DASHED3
 62
     6
 10
81.479303999999985
 20
97.841139000000013
 30
0.0
 40
3.7995866
 50
341.77387999999991
 51
346.96316000000002
  0
ARC
  5
6E4
  8
_0-1_HIDDEN
  6
DASHED3
 62
     6
 10
46.927578999999987
 20
109.2186199999999
 30
0.0
 40
40.176347999999983
 50
340.79202999999978
 51
341.77387999999991
  0
ARC
  5
6E5
  8
_0-1_HIDDEN
  6
DASHED3
 62
     6
 10
82.692078000000009
 20
96.758529999999993
 30
0.0
 40
2.3034924000000001
 50
336.69069999999982
 51
340.79202999999978
  0
ARC
  5
6E6
  8
_0-1_HIDDEN
  6
DASHED3
 62
     6
 10
83.047379000000006
 20
96.605444000000006
 30
0.0
 40
1.9166145000000001
 50
329.19587000000001
 51
336.69069999999982
  0
ARC
  5
6E7
  8
_0-1_HIDDEN
  6
DASHED3
 62
     6
 10
82.062701000000004
 20
97.192526000000001
 30
0.0
 40
3.0630250999999991
 50
323.26884000000001
 51
329.19587000000001
  0
ARC
  5
6E8
  8
_0-1_HIDDEN
  6
DASHED3
 62
     6
 10
83.110369999999975
 20
96.410730999999984
 30
0.0
 40
1.7558085999999991
 50
312.01560000000001
 51
323.26884000000001
  0
ARC
  5
6E9
  8
_0-1_HIDDEN
  6
DASHED3
 62
     6
 10
83.275389000000004
 20
96.227559000000014
 30
0.0
 40
1.509266399999998
 50
299.87477999999982
 51
312.01560000000001
  0
ARC
  5
6EA
  8
_0-1_HIDDEN
  6
DASHED3
 62
     6
 10
82.600905000000026
 20
97.401718999999986
 30
0.0
 40
2.8633635999999991
 50
292.99488999999988
 51
299.87477999999982
  0
ARC
  5
6EB
  8
_0-1_HIDDEN
  6
DASHED3
 62
     6
 10
82.340789000000001
 20
98.014664999999994
 30
0.0
 40
3.5292189
 50
286.79860999999988
 51
292.99488999999988
  0
ARC
  5
6EC
  8
_0-1_HIDDEN
  6
DASHED3
 62
     6
 10
80.129508000000001
 20
105.33941
 30
0.0
 40
11.180479
 50
284.17108999999982
 51
286.79860999999988
  0
ARC
  5
6ED
  8
_0-1_HIDDEN
  6
DASHED3
 62
     6
 10
82.411212000000006
 20
96.303043000000002
 30
0.0
 40
1.8604859
 50
277.72710000000001
 51
284.17108999999982
  0
ARC
  5
6EE
  8
_0-1_HIDDEN
  6
DASHED3
 62
     6
 10
82.059748999999996
 20
98.893296000000007
 30
0.0
 40
4.474475299999999
 50
276.18594000000002
 51
277.72710000000001
  0
ARC
  5
6EF
  8
_0-1_HIDDEN
  6
DASHED3
 62
     6
 10
78.038831000000002
 20
135.99121999999991
 30
0.0
 40
41.789676
 50
275.68166000000002
 51
276.18594000000002
  0
ARC
  5
6F0
  8
_0-1_HIDDEN
  6
DASHED3
 62
     6
 10
81.922190999999998
 20
96.958588000000006
 30
0.0
 40
2.5643354
 50
273.07200999999992
 51
275.68166000000002
  0
ARC
  5
6F1
  8
_0-1_HIDDEN
  6
DASHED3
 62
     6
 10
81.507618999999977
 20
104.68330999999991
 30
0.0
 40
10.300175999999979
 50
271.76998999999989
 51
273.07200999999992
  0
ARC
  5
6F2
  8
_0-1_HIDDEN
  6
DASHED3
 62
     6
 10
159.1335399999999
 20
109.13412
 30
0.0
 40
1.6539293999999991
 50
54.010039999999996
 51
89.909206999999981
  0
ARC
  5
6F3
  8
_0-1_HIDDEN
  6
DASHED3
 62
     6
 10
159.14375000000001
 20
98.809387000000015
 30
0.0
 40
1.621354499999998
 50
269.73399000000001
 51
306.34873999999991
  0
ARC
  5
6F4
  8
_0-1_HIDDEN
  6
DASHED3
 62
     6
 10
162.66482999999999
 20
108.18966
 30
0.0
 40
1.3983896
 50
81.785448000000002
 51
89.858807999999996
  0
ARC
  5
6F5
  8
_0-1_HIDDEN
  6
DASHED3
 62
     6
 10
162.7868499999999
 20
109.0348899999999
 30
0.0
 40
0.5444
 50
68.829307
 51
81.785448000000002
  0
ARC
  5
6F6
  8
_0-1_HIDDEN
  6
DASHED3
 62
     6
 10
161.94546
 20
106.86235000000001
 30
0.0
 40
2.874175199999998
 50
63.68149200000002
 51
68.829307
  0
ARC
  5
6F7
  8
_0-1_HIDDEN
  6
DASHED3
 62
     6
 10
162.85801000000001
 20
108.70726999999999
 30
0.0
 40
0.8159065
 50
54.011439000000003
 51
63.68149200000002
  0
ARC
  5
6F8
  8
_0-1_HIDDEN
  6
DASHED3
 62
     6
 10
162.5728499999999
 20
108.31461
 30
0.0
 40
1.3011900000000001
 50
44.856037999999977
 51
54.011439000000003
  0
ARC
  5
6F9
  8
_0-1_HIDDEN
  6
DASHED3
 62
     6
 10
162.65880999999999
 20
108.40013999999999
 30
0.0
 40
1.1799306000000001
 50
35.240642000000001
 51
44.856037999999977
  0
ARC
  5
6FA
  8
_0-1_HIDDEN
  6
DASHED3
 62
     6
 10
161.82032000000001
 20
107.80776
 30
0.0
 40
2.2065660999999981
 50
28.13823
 51
35.240642000000001
  0
ARC
  5
6FB
  8
_0-1_HIDDEN
  6
DASHED3
 62
     6
 10
162.2557699999999
 20
108.0406399999999
 30
0.0
 40
1.7127556999999991
 50
20.075223999999999
 51
28.13823
  0
ARC
  5
6FC
  8
_0-1_HIDDEN
  6
DASHED3
 62
     6
 10
157.48601999999991
 20
106.2975
 30
0.0
 40
6.7910407999999993
 50
17.293694999999978
 51
20.075223999999999
  0
ARC
  5
6FD
  8
_0-1_HIDDEN
  6
DASHED3
 62
     6
 10
161.36795000000001
 20
107.5061199999999
 30
0.0
 40
2.7253123000000001
 50
12.902252000000001
 51
17.293694999999978
  0
ARC
  5
6FE
  8
_0-1_HIDDEN
  6
DASHED3
 62
     6
 10
147.61293000000001
 20
104.35522999999991
 30
0.0
 40
16.83661
 50
11.849876
 51
12.902252000000001
  0
ARC
  5
6FF
  8
_0-1_HIDDEN
  6
DASHED3
 62
     6
 10
158.64526000000001
 20
106.67001999999979
 30
0.0
 40
5.5640552000000003
 50
10.019185
 51
11.849876
  0
ARC
  5
700
  8
_0-1_HIDDEN
  6
DASHED3
 62
     6
 10
154.4932499999999
 20
105.9364799999999
 30
0.0
 40
9.7803599000000006
 50
8.9908416000000013
 51
10.019185
  0
ARC
  5
701
  8
_0-1_HIDDEN
  6
DASHED3
 62
     6
 10
141.97031000000001
 20
103.95509
 30
0.0
 40
22.459081000000001
 50
8.3122372000000002
 51
8.9908416000000013
  0
ARC
  5
702
  8
_0-1_HIDDEN
  6
DASHED3
 62
     6
 10
150.97259
 20
105.27034999999999
 30
0.0
 40
13.36123299999999
 50
5.6208504000000001
 51
8.3122372000000002
  0
ARC
  5
703
  8
_0-1_HIDDEN
  6
DASHED3
 62
     6
 10
142.54729
 20
104.4411399999999
 30
0.0
 40
21.827231000000001
 50
3.5152080999999988
 51
5.6208504000000001
  0
ARC
  5
704
  8
_0-1_HIDDEN
  6
DASHED3
 62
     6
 10
135.89002999999991
 20
104.0321899999999
 30
0.0
 40
28.497040999999982
 50
2.118744299999999
 51
3.5152080999999988
  0
ARC
  5
705
  8
_0-1_HIDDEN
  6
DASHED3
 62
     6
 10
138.80807999999999
 20
104.14015000000001
 30
0.0
 40
25.576995
 50
0.6447154000000001
 51
2.118744299999999
  0
ARC
  5
706
  8
_0-1_HIDDEN
  6
DASHED3
 62
     6
 10
123.38003999999999
 20
103.96653999999999
 30
0.0
 40
41.006013000000003
 50
359.75698999999992
 51
0.6447154000000001
  0
ARC
  5
707
  8
_0-1_HIDDEN
  6
DASHED3
 62
     6
 10
134.3627799999999
 20
103.91996
 30
0.0
 40
30.023171999999999
 50
358.71952999999979
 51
359.75698999999992
  0
ARC
  5
708
  8
_0-1_HIDDEN
  6
DASHED3
 62
     6
 10
139.3170299999999
 20
103.8092199999999
 30
0.0
 40
25.067688
 50
357.33807999999982
 51
358.71952999999979
  0
ARC
  5
709
  8
_0-1_HIDDEN
  6
DASHED3
 62
     6
 10
137.7491599999999
 20
103.88212
 30
0.0
 40
26.637257000000002
 50
355.99795
 51
357.33807999999982
  0
ARC
  5
70A
  8
_0-1_HIDDEN
  6
DASHED3
 62
     6
 10
142.95785000000001
 20
103.5177
 30
0.0
 40
21.415825000000002
 50
354.31688999999989
 51
355.99795
  0
ARC
  5
70B
  8
_0-1_HIDDEN
  6
DASHED3
 62
     6
 10
148.92516000000001
 20
102.92386
 30
0.0
 40
15.419041999999999
 50
352.33569999999992
 51
354.31688999999989
  0
ARC
  5
70C
  8
_0-1_HIDDEN
  6
DASHED3
 62
     6
 10
152.71171000000001
 20
102.4143
 30
0.0
 40
11.598364
 50
351.10957000000002
 51
352.33569999999992
  0
ARC
  5
70D
  8
_0-1_HIDDEN
  6
DASHED3
 62
     6
 10
147.94380000000001
 20
103.16011999999991
 30
0.0
 40
16.424247999999992
 50
350.07920999999982
 51
351.10957000000002
  0
ARC
  5
70E
  8
_0-1_HIDDEN
  6
DASHED3
 62
     6
 10
157.37790000000001
 20
101.51008
 30
0.0
 40
6.8469455000000004
 50
347.11275000000001
 51
350.07920999999982
  0
ARC
  5
70F
  8
_0-1_HIDDEN
  6
DASHED3
 62
     6
 10
157.55538000000001
 20
101.4694699999999
 30
0.0
 40
6.6648737000000011
 50
344.10604000000001
 51
347.11275000000001
  0
ARC
  5
710
  8
_0-1_HIDDEN
  6
DASHED3
 62
     6
 10
161.02393000000001
 20
100.4818299999999
 30
0.0
 40
3.0584495
 50
339.97086999999999
 51
344.10604000000001
  0
ARC
  5
711
  8
_0-1_HIDDEN
  6
DASHED3
 62
     6
 10
160.8755399999998
 20
100.53592
 30
0.0
 40
3.2163973999999991
 50
335.93855000000002
 51
339.97086999999999
  0
ARC
  5
712
  8
_0-1_HIDDEN
  6
DASHED3
 62
     6
 10
162.17090999999991
 20
99.957526000000016
 30
0.0
 40
1.7977595
 50
331.28633000000002
 51
335.93855000000002
  0
ARC
  5
713
  8
_0-1_HIDDEN
  6
DASHED3
 62
     6
 10
161.7458
 20
100.19038999999989
 30
0.0
 40
2.282469299999998
 50
327.15777000000003
 51
331.28633000000002
  0
ARC
  5
714
  8
_0-1_HIDDEN
  6
DASHED3
 62
     6
 10
162.68610000000001
 20
99.583437000000004
 30
0.0
 40
1.1632943
 50
319.36588999999992
 51
327.15777000000003
  0
ARC
  5
715
  8
_0-1_HIDDEN
  6
DASHED3
 62
     6
 10
162.37939
 20
99.846635000000006
 30
0.0
 40
1.567452399999999
 50
312.65463
 51
319.36588999999992
  0
ARC
  5
716
  8
_0-1_HIDDEN
  6
DASHED3
 62
     6
 10
162.5874499999999
 20
99.620800000000003
 30
0.0
 40
1.2603826999999981
 50
304.37378000000001
 51
312.65463
  0
ARC
  5
717
  8
_0-1_HIDDEN
  6
DASHED3
 62
     6
 10
162.74445
 20
99.391284000000013
 30
0.0
 40
0.9823065999999997
 50
294.99146999999988
 51
304.37378000000001
  0
ARC
  5
718
  8
_0-1_HIDDEN
  6
DASHED3
 62
     6
 10
162.84810999999991
 20
99.168909000000014
 30
0.0
 40
0.7369601000000002
 50
289.66041999999999
 51
294.99146999999988
  0
ARC
  5
719
  8
_0-1_HIDDEN
  6
DASHED3
 62
     6
 10
161.65621999999991
 20
102.50497
 30
0.0
 40
4.2795430999999979
 50
287.44882000000001
 51
289.66041999999999
  0
ARC
  5
71A
  8
_0-1_HIDDEN
  6
DASHED3
 62
     6
 10
162.7570199999999
 20
99.002779000000004
 30
0.0
 40
0.6084257
 50
277.20870000000002
 51
287.44882000000001
  0
ARC
  5
71B
  8
_0-1_HIDDEN
  6
DASHED3
 62
     6
 10
162.6561199999999
 20
99.8005
 30
0.0
 40
1.412501999999999
 50
270.49310000000003
 51
277.20870000000002
  0
ARC
  5
71C
  8
_0-1_HIDDEN
  6
DASHED3
 62
     6
 10
180.6995399999999
 20
104.15782
 30
0.0
 40
0.4707494000000001
 50
176.31913
 51
273.68085999999983
  0
ARC
  5
71D
  8
_0-1_HIDDEN
  6
DASHED3
 62
     6
 10
190.14728999999991
 20
100.39848000000001
 30
0.0
 40
7.8904354000000003
 50
180.07574999999991
 51
184.40487999999991
  0
ARC
  5
71E
  8
_0-1_HIDDEN
  6
DASHED3
 62
     6
 10
184.79940999999999
 20
99.986525999999984
 30
0.0
 40
2.526705199999999
 50
184.40487999999991
 51
192.05897999999991
  0
ARC
  5
71F
  8
_0-1_HIDDEN
  6
DASHED3
 62
     6
 10
215.5223499999999
 20
106.54995
 30
0.0
 40
33.942909
 50
192.05897999999991
 51
193.34300999999991
  0
ARC
  5
720
  8
_0-1_HIDDEN
  6
DASHED3
 62
     6
 10
185.56342000000001
 20
99.444210999999996
 30
0.0
 40
3.152823799999998
 50
193.34300999999991
 51
197.55694
  0
ARC
  5
721
  8
_0-1_HIDDEN
  6
DASHED3
 62
     6
 10
188.87094999999999
 20
100.49068
 30
0.0
 40
6.621960399999999
 50
197.55694
 51
202.43657999999999
  0
ARC
  5
722
  8
_0-1_HIDDEN
  6
DASHED3
 62
     6
 10
187.9447199999999
 20
100.10822999999991
 30
0.0
 40
5.6198724000000002
 50
202.43657999999999
 51
207.73371
  0
ARC
  5
723
  8
_0-1_HIDDEN
  6
DASHED3
 62
     6
 10
190.28482
 20
101.33856
 30
0.0
 40
8.2636935000000005
 50
207.73371
 51
211.92956000000001
  0
ARC
  5
724
  8
_0-1_HIDDEN
  6
DASHED3
 62
     6
 10
193.1317699999999
 20
103.1126699999998
 30
0.0
 40
11.618183999999999
 50
211.92956000000001
 51
215.4679799999999
  0
ARC
  5
725
  8
_0-1_HIDDEN
  6
DASHED3
 62
     6
 10
188.95698999999991
 20
100.1383499999999
 30
0.0
 40
6.492227699999999
 50
215.4679799999999
 51
217.8157299999998
  0
ARC
  5
726
  8
_0-1_HIDDEN
  6
DASHED3
 62
     6
 10
186.74452999999991
 20
98.42121800000001
 30
0.0
 40
3.6915962999999992
 50
217.8157299999998
 51
220.92934
  0
ARC
  5
727
  8
_0-1_HIDDEN
  6
DASHED3
 62
     6
 10
185.02771000000001
 20
96.932529000000002
 30
0.0
 40
1.419231799999999
 50
220.92934
 51
235.88490999999999
  0
ARC
  5
728
  8
_0-1_HIDDEN
  6
DASHED3
 62
     6
 10
188.82719
 20
102.54115
 30
0.0
 40
8.1936458000000005
 50
235.88490999999999
 51
242.09460000000001
  0
ARC
  5
729
  8
_0-1_HIDDEN
  6
DASHED3
 62
     6
 10
190.54047
 20
105.77623
 30
0.0
 40
11.854388999999999
 50
242.09460000000001
 51
246.33967999999999
  0
ARC
  5
72A
  8
_0-1_HIDDEN
  6
DASHED3
 62
     6
 10
187.4718899999998
 20
98.772647000000006
 30
0.0
 40
4.2080611000000001
 50
246.33967999999999
 51
253.46763000000001
  0
ARC
  5
72B
  8
_0-1_HIDDEN
  6
DASHED3
 62
     6
 10
189.12841
 20
104.35338
 30
0.0
 40
10.029464999999981
 50
253.46763000000001
 51
257.28942999999998
  0
ARC
  5
72C
  8
_0-1_HIDDEN
  6
DASHED3
 62
     6
 10
187.8909499999998
 20
98.867031999999995
 30
0.0
 40
4.4052819000000003
 50
257.28942999999998
 51
263.05739999999992
  0
ARC
  5
72D
  8
_0-1_HIDDEN
  6
DASHED3
 62
     6
 10
188.87335999999991
 20
106.9349399999999
 30
0.0
 40
12.532787000000001
 50
263.05739999999992
 51
264.34151000000003
  0
ARC
  5
72E
  8
_0-1_HIDDEN
  6
DASHED3
 62
     6
 10
193.17193999999981
 20
150.31923
 30
0.0
 40
56.129508000000001
 50
264.34151000000003
 51
264.9482799999999
  0
ARC
  5
72F
  8
_0-1_HIDDEN
  6
DASHED3
 62
     6
 10
188.49168
 20
97.374077
 30
0.0
 40
2.9778942999999991
 50
264.9482799999999
 51
267.42403999999982
  0
ARC
  5
730
  8
_0-1_HIDDEN
  6
DASHED3
 62
     6
 10
189.1332699999999
 20
111.6352
 30
0.0
 40
17.253450000000001
 50
267.42403999999982
 51
268.45251999999988
  0
LINE
  5
731
  8
_0-1_HIDDEN
  6
DASHED3
 62
     6
 10
203.17999
 20
105.7970999999999
 30
0.0
 11
203.94846000000001
 21
105.3732499999999
 31
0.0
  0
LINE
  5
732
  8
_0-1_HIDDEN
  6
DASHED3
 62
     6
 10
203.15796999999989
 20
94.579001000000005
 30
0.0
 11
203.92901000000001
 21
94.997192999999996
 31
0.0
  0
ARC
  5
733
  8
_0-1_HIDDEN
  6
DASHED3
 62
     6
 10
213.88012000000001
 20
102.10278
 30
0.0
 40
6.0147525999999987
 50
180.3241899999999
 51
269.85135000000002
  0
LINE
  5
734
  8
_0-1_HIDDEN
  6
DASHED3
 62
     6
 10
229.20827
 20
109.18453
 30
0.0
 11
229.65946
 21
108.9263499999999
 31
0.0
  0
LINE
  5
735
  8
_0-1_HIDDEN
  6
DASHED3
 62
     6
 10
229.19445999999991
 20
96.088849999999994
 30
0.0
 11
229.75187
 21
96.403774000000013
 31
0.0
  0
ARC
  5
736
  8
_0-1_HIDDEN
  6
DASHED3
 62
     6
 10
323.82683999999989
 20
100.10733999999989
 30
0.0
 40
4.0193368999999981
 50
180.2749899999998
 51
269.72500000000002
  0
ARC
  5
737
  8
_0-1_HIDDEN
  6
DASHED3
 62
     6
 10
334.69259
 20
100.1046
 30
0.0
 40
4.0149023000000001
 50
270.49759999999992
 51
359.76379999999978
  0
ARC
  5
738
  8
_0-1_HIDDEN
  6
DASHED3
 62
     6
 10
338.01375000000002
 20
98.445609000000005
 30
0.0
 40
4.0607401000000003
 50
215.49088999999989
 51
272.26821000000001
  0
ARC
  5
739
  8
_0-1_HIDDEN
  6
DASHED3
 62
     6
 10
342.61317000000003
 20
98.404240000000001
 30
0.0
 40
5.8171775999999991
 50
353.42660999999993
 51
359.84053999999998
  0
ARC
  5
73A
  8
_0-1_HIDDEN
  6
DASHED3
 62
     6
 10
346.22129999999993
 20
97.988464000000022
 30
0.0
 40
2.1851752000000002
 50
342.95254999999997
 51
353.42660999999993
  0
ARC
  5
73B
  8
_0-1_HIDDEN
  6
DASHED3
 62
     6
 10
321.50326000000001
 20
105.56791
 30
0.0
 40
28.039169999999999
 50
341.61642999999992
 51
342.95254999999997
  0
ARC
  5
73C
  8
_0-1_HIDDEN
  6
DASHED3
 62
     6
 10
344.88157999999981
 20
97.798429000000013
 30
0.0
 40
3.4036199999999992
 50
337.78086999999999
 51
341.61642999999992
  0
ARC
  5
73D
  8
_0-1_HIDDEN
  6
DASHED3
 62
     6
 10
344.32085000000001
 20
98.027475999999993
 30
0.0
 40
4.009325099999999
 50
332.85255000000001
 51
337.78086999999999
  0
ARC
  5
73E
  8
_0-1_HIDDEN
  6
DASHED3
 62
     6
 10
346.14249999999993
 20
97.093385999999995
 30
0.0
 40
1.9621491
 50
325.80547999999999
 51
332.85255000000001
  0
ARC
  5
73F
  8
_0-1_HIDDEN
  6
DASHED3
 62
     6
 10
346.68857000000008
 20
96.722352999999998
 30
0.0
 40
1.3019513
 50
309.52676000000002
 51
325.80547999999999
  0
ARC
  5
740
  8
_0-1_HIDDEN
  6
DASHED3
 62
     6
 10
344.48466000000002
 20
99.393366
 30
0.0
 40
4.7648305000000004
 50
301.03829999999999
 51
309.52676000000002
  0
ARC
  5
741
  8
_0-1_HIDDEN
  6
DASHED3
 62
     6
 10
340.79372000000001
 20
105.5268199999999
 30
0.0
 40
11.923206
 50
298.5339899999999
 51
301.03829999999999
  0
ARC
  5
742
  8
_0-1_HIDDEN
  6
DASHED3
 62
     6
 10
344.54482999999982
 20
98.627919000000006
 30
0.0
 40
4.0704564999999988
 50
294.24722000000003
 51
298.5339899999999
  0
ARC
  5
743
  8
_0-1_HIDDEN
  6
DASHED3
 62
     6
 10
343.42811999999998
 20
101.1072299999999
 30
0.0
 40
6.7896558999999987
 50
289.80683999999991
 51
294.24722000000003
  0
ARC
  5
744
  8
_0-1_HIDDEN
  6
DASHED3
 62
     6
 10
344.24934999999982
 20
98.827043000000003
 30
0.0
 40
4.3660857999999987
 50
284.26877000000002
 51
289.80683999999991
  0
ARC
  5
745
  8
_0-1_HIDDEN
  6
DASHED3
 62
     6
 10
344.53300999999999
 20
97.711652000000001
 30
0.0
 40
3.2151892000000002
 50
279.89654999999982
 51
284.26877000000002
  0
ARC
  5
746
  8
_0-1_HIDDEN
  6
DASHED3
 62
     6
 10
339.88087999999982
 20
124.37663000000001
 30
0.0
 40
30.282948999999999
 50
278.47221000000002
 51
279.89654999999982
  0
ARC
  5
747
  8
_0-1_HIDDEN
  6
DASHED3
 62
     6
 10
344.00896
 20
96.663060999999985
 30
0.0
 40
2.2636129
 50
273.36480999999992
 51
278.47221000000002
  0
ARC
  5
748
  8
_0-1_HIDDEN
  6
DASHED3
 62
     6
 10
343.58311999999989
 20
103.90581999999991
 30
0.0
 40
9.5188871000000006
 50
270.87482
 51
273.36480999999992
  0
LINE
  5
749
  8
_0-1_HIDDEN
  6
DASHED3
 62
     6
 10
247.76646
 20
102.63805000000001
 30
0.0
 11
247.78146000000001
 21
102.6385499999999
 31
0.0
  0
LINE
  5
74A
  8
_0-1_HIDDEN
  6
DASHED3
 62
     6
 10
247.78146000000001
 20
102.6385499999999
 30
0.0
 11
247.79746
 21
102.64005
 31
0.0
  0
LINE
  5
74B
  8
_0-1_HIDDEN
  6
DASHED3
 62
     6
 10
247.79746
 20
102.64005
 30
0.0
 11
247.81245999999999
 21
102.64245
 31
0.0
  0
LINE
  5
74C
  8
_0-1_HIDDEN
  6
DASHED3
 62
     6
 10
247.81245999999999
 20
102.64245
 30
0.0
 11
247.82746
 21
102.64595
 31
0.0
  0
LINE
  5
74D
  8
_0-1_HIDDEN
  6
DASHED3
 62
     6
 10
247.82746
 20
102.64595
 30
0.0
 11
247.8424599999999
 21
102.65035
 31
0.0
  0
LINE
  5
74E
  8
_0-1_HIDDEN
  6
DASHED3
 62
     6
 10
247.8424599999999
 20
102.65035
 30
0.0
 11
247.85745999999989
 21
102.6556499999998
 31
0.0
  0
LINE
  5
74F
  8
_0-1_HIDDEN
  6
DASHED3
 62
     6
 10
247.85745999999989
 20
102.6556499999998
 30
0.0
 11
247.87245999999999
 21
102.66204999999979
 31
0.0
  0
LINE
  5
750
  8
_0-1_HIDDEN
  6
DASHED3
 62
     6
 10
247.87245999999999
 20
102.66204999999979
 30
0.0
 11
247.88746
 21
102.6693499999998
 31
0.0
  0
LINE
  5
751
  8
_0-1_HIDDEN
  6
DASHED3
 62
     6
 10
247.88746
 20
102.6693499999998
 30
0.0
 11
247.90245999999991
 21
102.67755
 31
0.0
  0
LINE
  5
752
  8
_0-1_HIDDEN
  6
DASHED3
 62
     6
 10
247.90245999999991
 20
102.67755
 30
0.0
 11
247.91745999999989
 21
102.68675
 31
0.0
  0
LINE
  5
753
  8
_0-1_HIDDEN
  6
DASHED3
 62
     6
 10
247.91745999999989
 20
102.68675
 30
0.0
 11
247.93245999999991
 21
102.69695
 31
0.0
  0
LINE
  5
754
  8
_0-1_HIDDEN
  6
DASHED3
 62
     6
 10
247.93245999999991
 20
102.69695
 30
0.0
 11
247.94646
 21
102.70805
 31
0.0
  0
LINE
  5
755
  8
_0-1_HIDDEN
  6
DASHED3
 62
     6
 10
247.94646
 20
102.70805
 30
0.0
 11
247.96145999999999
 21
102.7200499999999
 31
0.0
  0
LINE
  5
756
  8
_0-1_HIDDEN
  6
DASHED3
 62
     6
 10
247.96145999999999
 20
102.7200499999999
 30
0.0
 11
247.97546
 21
102.73305000000001
 31
0.0
  0
LINE
  5
757
  8
_0-1_HIDDEN
  6
DASHED3
 62
     6
 10
247.97546
 20
102.73305000000001
 30
0.0
 11
247.99046000000001
 21
102.74695
 31
0.0
  0
LINE
  5
758
  8
_0-1_HIDDEN
  6
DASHED3
 62
     6
 10
247.99046000000001
 20
102.74695
 30
0.0
 11
248.00445999999991
 21
102.76175000000001
 31
0.0
  0
LINE
  5
759
  8
_0-1_HIDDEN
  6
DASHED3
 62
     6
 10
248.00445999999991
 20
102.76175000000001
 30
0.0
 11
248.01846
 21
102.77745
 31
0.0
  0
LINE
  5
75A
  8
_0-1_HIDDEN
  6
DASHED3
 62
     6
 10
248.01846
 20
102.77745
 30
0.0
 11
248.0324599999999
 21
102.7940499999999
 31
0.0
  0
LINE
  5
75B
  8
_0-1_HIDDEN
  6
DASHED3
 62
     6
 10
248.0324599999999
 20
102.7940499999999
 30
0.0
 11
248.04645999999991
 21
102.8115499999999
 31
0.0
  0
LINE
  5
75C
  8
_0-1_HIDDEN
  6
DASHED3
 62
     6
 10
248.04645999999991
 20
102.8115499999999
 30
0.0
 11
248.0594599999998
 21
102.8299499999999
 31
0.0
  0
LINE
  5
75D
  8
_0-1_HIDDEN
  6
DASHED3
 62
     6
 10
248.0594599999998
 20
102.8299499999999
 30
0.0
 11
248.07246000000001
 21
102.8491499999999
 31
0.0
  0
LINE
  5
75E
  8
_0-1_HIDDEN
  6
DASHED3
 62
     6
 10
248.07246000000001
 20
102.8491499999999
 30
0.0
 11
248.0864599999999
 21
102.86924999999999
 31
0.0
  0
LINE
  5
75F
  8
_0-1_HIDDEN
  6
DASHED3
 62
     6
 10
248.0864599999999
 20
102.86924999999999
 30
0.0
 11
248.09945999999991
 21
102.89015000000001
 31
0.0
  0
LINE
  5
760
  8
_0-1_HIDDEN
  6
DASHED3
 62
     6
 10
248.09945999999991
 20
102.89015000000001
 30
0.0
 11
248.11145999999999
 21
102.91194999999991
 31
0.0
  0
LINE
  5
761
  8
_0-1_HIDDEN
  6
DASHED3
 62
     6
 10
248.11145999999999
 20
102.91194999999991
 30
0.0
 11
248.12446
 21
102.93455
 31
0.0
  0
LINE
  5
762
  8
_0-1_HIDDEN
  6
DASHED3
 62
     6
 10
248.12446
 20
102.93455
 30
0.0
 11
248.13646
 21
102.95784999999979
 31
0.0
  0
LINE
  5
763
  8
_0-1_HIDDEN
  6
DASHED3
 62
     6
 10
248.13646
 20
102.95784999999979
 30
0.0
 11
248.14845999999989
 21
102.98205
 31
0.0
  0
LINE
  5
764
  8
_0-1_HIDDEN
  6
DASHED3
 62
     6
 10
248.14845999999989
 20
102.98205
 30
0.0
 11
248.16046
 21
103.0069499999999
 31
0.0
  0
LINE
  5
765
  8
_0-1_HIDDEN
  6
DASHED3
 62
     6
 10
248.16046
 20
103.0069499999999
 30
0.0
 11
248.17246
 21
103.03265
 31
0.0
  0
LINE
  5
766
  8
_0-1_HIDDEN
  6
DASHED3
 62
     6
 10
248.17246
 20
103.03265
 30
0.0
 11
248.18346
 21
103.0590499999999
 31
0.0
  0
LINE
  5
767
  8
_0-1_HIDDEN
  6
DASHED3
 62
     6
 10
248.18346
 20
103.0590499999999
 30
0.0
 11
248.19545999999991
 21
103.08615
 31
0.0
  0
LINE
  5
768
  8
_0-1_HIDDEN
  6
DASHED3
 62
     6
 10
248.19545999999991
 20
103.08615
 30
0.0
 11
248.20645999999999
 21
103.11405000000001
 31
0.0
  0
LINE
  5
769
  8
_0-1_HIDDEN
  6
DASHED3
 62
     6
 10
248.20645999999999
 20
103.11405000000001
 30
0.0
 11
248.21646000000001
 21
103.14255
 31
0.0
  0
LINE
  5
76A
  8
_0-1_HIDDEN
  6
DASHED3
 62
     6
 10
248.21646000000001
 20
103.14255
 30
0.0
 11
248.22746000000001
 21
103.17175
 31
0.0
  0
LINE
  5
76B
  8
_0-1_HIDDEN
  6
DASHED3
 62
     6
 10
248.22746000000001
 20
103.17175
 30
0.0
 11
248.23745999999991
 21
103.20165
 31
0.0
  0
LINE
  5
76C
  8
_0-1_HIDDEN
  6
DASHED3
 62
     6
 10
248.23745999999991
 20
103.20165
 30
0.0
 11
248.2474599999999
 21
103.23215
 31
0.0
  0
LINE
  5
76D
  8
_0-1_HIDDEN
  6
DASHED3
 62
     6
 10
248.2474599999999
 20
103.23215
 30
0.0
 11
248.25645999999989
 21
103.2633499999999
 31
0.0
  0
LINE
  5
76E
  8
_0-1_HIDDEN
  6
DASHED3
 62
     6
 10
248.25645999999989
 20
103.2633499999999
 30
0.0
 11
248.26545999999999
 21
103.29505
 31
0.0
  0
LINE
  5
76F
  8
_0-1_HIDDEN
  6
DASHED3
 62
     6
 10
248.26545999999999
 20
103.29505
 30
0.0
 11
248.27446
 21
103.3273499999999
 31
0.0
  0
LINE
  5
770
  8
_0-1_HIDDEN
  6
DASHED3
 62
     6
 10
248.27446
 20
103.3273499999999
 30
0.0
 11
248.28345999999991
 21
103.36024999999979
 31
0.0
  0
LINE
  5
771
  8
_0-1_HIDDEN
  6
DASHED3
 62
     6
 10
248.28345999999991
 20
103.36024999999979
 30
0.0
 11
248.29145999999989
 21
103.3937499999999
 31
0.0
  0
LINE
  5
772
  8
_0-1_HIDDEN
  6
DASHED3
 62
     6
 10
248.29145999999989
 20
103.3937499999999
 30
0.0
 11
248.29946000000001
 21
103.42765
 31
0.0
  0
LINE
  5
773
  8
_0-1_HIDDEN
  6
DASHED3
 62
     6
 10
248.29946000000001
 20
103.42765
 30
0.0
 11
248.30745999999999
 21
103.4621499999998
 31
0.0
  0
LINE
  5
774
  8
_0-1_HIDDEN
  6
DASHED3
 62
     6
 10
248.30745999999999
 20
103.4621499999998
 30
0.0
 11
248.31446
 21
103.49705
 31
0.0
  0
LINE
  5
775
  8
_0-1_HIDDEN
  6
DASHED3
 62
     6
 10
248.31446
 20
103.49705
 30
0.0
 11
248.32146
 21
103.5324499999999
 31
0.0
  0
LINE
  5
776
  8
_0-1_HIDDEN
  6
DASHED3
 62
     6
 10
248.32146
 20
103.5324499999999
 30
0.0
 11
248.32846000000001
 21
103.56825000000001
 31
0.0
  0
LINE
  5
777
  8
_0-1_HIDDEN
  6
DASHED3
 62
     6
 10
248.32846000000001
 20
103.56825000000001
 30
0.0
 11
248.33446000000001
 21
103.6045499999999
 31
0.0
  0
LINE
  5
778
  8
_0-1_HIDDEN
  6
DASHED3
 62
     6
 10
248.33446000000001
 20
103.6045499999999
 30
0.0
 11
248.34046000000001
 21
103.6412499999999
 31
0.0
  0
LINE
  5
779
  8
_0-1_HIDDEN
  6
DASHED3
 62
     6
 10
248.34046000000001
 20
103.6412499999999
 30
0.0
 11
248.34646000000001
 21
103.67825000000001
 31
0.0
  0
LINE
  5
77A
  8
_0-1_HIDDEN
  6
DASHED3
 62
     6
 10
248.34646000000001
 20
103.67825000000001
 30
0.0
 11
248.35145999999989
 21
103.71565
 31
0.0
  0
LINE
  5
77B
  8
_0-1_HIDDEN
  6
DASHED3
 62
     6
 10
248.35145999999989
 20
103.71565
 30
0.0
 11
248.35646
 21
103.7533499999998
 31
0.0
  0
LINE
  5
77C
  8
_0-1_HIDDEN
  6
DASHED3
 62
     6
 10
248.35646
 20
103.7533499999998
 30
0.0
 11
248.36145999999999
 21
103.7913499999998
 31
0.0
  0
LINE
  5
77D
  8
_0-1_HIDDEN
  6
DASHED3
 62
     6
 10
248.36145999999999
 20
103.7913499999998
 30
0.0
 11
248.36546000000001
 21
103.8296499999999
 31
0.0
  0
LINE
  5
77E
  8
_0-1_HIDDEN
  6
DASHED3
 62
     6
 10
248.36546000000001
 20
103.8296499999999
 30
0.0
 11
248.36946
 21
103.8682499999999
 31
0.0
  0
LINE
  5
77F
  8
_0-1_HIDDEN
  6
DASHED3
 62
     6
 10
248.36946
 20
103.8682499999999
 30
0.0
 11
248.37345999999999
 21
103.90705
 31
0.0
  0
LINE
  5
780
  8
_0-1_HIDDEN
  6
DASHED3
 62
     6
 10
248.37345999999999
 20
103.90705
 30
0.0
 11
248.37646000000001
 21
103.94605
 31
0.0
  0
LINE
  5
781
  8
_0-1_HIDDEN
  6
DASHED3
 62
     6
 10
248.37646000000001
 20
103.94605
 30
0.0
 11
248.37945999999991
 21
103.98524999999979
 31
0.0
  0
LINE
  5
782
  8
_0-1_HIDDEN
  6
DASHED3
 62
     6
 10
248.37945999999991
 20
103.98524999999979
 30
0.0
 11
248.38146
 21
104.0246499999998
 31
0.0
  0
LINE
  5
783
  8
_0-1_HIDDEN
  6
DASHED3
 62
     6
 10
248.38146
 20
104.0246499999998
 30
0.0
 11
248.38346000000001
 21
104.0641499999999
 31
0.0
  0
LINE
  5
784
  8
_0-1_HIDDEN
  6
DASHED3
 62
     6
 10
248.38346000000001
 20
104.0641499999999
 30
0.0
 11
248.38545999999991
 21
104.10375000000001
 31
0.0
  0
LINE
  5
785
  8
_0-1_HIDDEN
  6
DASHED3
 62
     6
 10
248.38545999999991
 20
104.10375000000001
 30
0.0
 11
248.38645999999989
 21
104.14354999999991
 31
0.0
  0
LINE
  5
786
  8
_0-1_HIDDEN
  6
DASHED3
 62
     6
 10
248.38645999999989
 20
104.14354999999991
 30
0.0
 11
248.38746
 21
104.18335
 31
0.0
  0
LINE
  5
787
  8
_0-1_HIDDEN
  6
DASHED3
 62
     6
 10
248.38746
 20
104.18335
 30
0.0
 11
248.38746
 21
104.2231499999999
 31
0.0
  0
LINE
  5
788
  8
_0-1_HIDDEN
  6
DASHED3
 62
     6
 10
248.38746
 20
104.2231499999999
 30
0.0
 11
248.38846000000001
 21
104.26305000000001
 31
0.0
  0
LINE
  5
789
  8
_0-1_HIDDEN
  6
DASHED3
 62
     6
 10
248.38846000000001
 20
104.26305000000001
 30
0.0
 11
248.38746
 21
104.30295
 31
0.0
  0
LINE
  5
78A
  8
_0-1_HIDDEN
  6
DASHED3
 62
     6
 10
248.38746
 20
104.30295
 30
0.0
 11
248.38746
 21
104.3427499999999
 31
0.0
  0
LINE
  5
78B
  8
_0-1_HIDDEN
  6
DASHED3
 62
     6
 10
248.38746
 20
104.3427499999999
 30
0.0
 11
248.38645999999989
 21
104.3826499999999
 31
0.0
  0
LINE
  5
78C
  8
_0-1_HIDDEN
  6
DASHED3
 62
     6
 10
248.38645999999989
 20
104.3826499999999
 30
0.0
 11
248.38545999999991
 21
104.4223499999998
 31
0.0
  0
LINE
  5
78D
  8
_0-1_HIDDEN
  6
DASHED3
 62
     6
 10
248.38545999999991
 20
104.4223499999998
 30
0.0
 11
248.38346000000001
 21
104.46195
 31
0.0
  0
LINE
  5
78E
  8
_0-1_HIDDEN
  6
DASHED3
 62
     6
 10
248.38346000000001
 20
104.46195
 30
0.0
 11
248.38146
 21
104.50145000000001
 31
0.0
  0
LINE
  5
78F
  8
_0-1_HIDDEN
  6
DASHED3
 62
     6
 10
248.38146
 20
104.50145000000001
 30
0.0
 11
248.37945999999991
 21
104.54085000000001
 31
0.0
  0
LINE
  5
790
  8
_0-1_HIDDEN
  6
DASHED3
 62
     6
 10
248.37945999999991
 20
104.54085000000001
 30
0.0
 11
248.37646000000001
 21
104.5800499999999
 31
0.0
  0
LINE
  5
791
  8
_0-1_HIDDEN
  6
DASHED3
 62
     6
 10
248.37646000000001
 20
104.5800499999999
 30
0.0
 11
248.37345999999999
 21
104.61915
 31
0.0
  0
LINE
  5
792
  8
_0-1_HIDDEN
  6
DASHED3
 62
     6
 10
248.37345999999999
 20
104.61915
 30
0.0
 11
248.36946
 21
104.6579499999999
 31
0.0
  0
LINE
  5
793
  8
_0-1_HIDDEN
  6
DASHED3
 62
     6
 10
248.36946
 20
104.6579499999999
 30
0.0
 11
248.36546000000001
 21
104.69645
 31
0.0
  0
LINE
  5
794
  8
_0-1_HIDDEN
  6
DASHED3
 62
     6
 10
248.36546000000001
 20
104.69645
 30
0.0
 11
248.36145999999999
 21
104.73475000000001
 31
0.0
  0
LINE
  5
795
  8
_0-1_HIDDEN
  6
DASHED3
 62
     6
 10
248.36145999999999
 20
104.73475000000001
 30
0.0
 11
248.35646
 21
104.77275
 31
0.0
  0
LINE
  5
796
  8
_0-1_HIDDEN
  6
DASHED3
 62
     6
 10
248.35646
 20
104.77275
 30
0.0
 11
248.35145999999989
 21
104.81055000000001
 31
0.0
  0
LINE
  5
797
  8
_0-1_HIDDEN
  6
DASHED3
 62
     6
 10
248.35145999999989
 20
104.81055000000001
 30
0.0
 11
248.34646000000001
 21
104.8478499999998
 31
0.0
  0
LINE
  5
798
  8
_0-1_HIDDEN
  6
DASHED3
 62
     6
 10
248.34646000000001
 20
104.8478499999998
 30
0.0
 11
248.34046000000001
 21
104.8849499999999
 31
0.0
  0
LINE
  5
799
  8
_0-1_HIDDEN
  6
DASHED3
 62
     6
 10
248.34046000000001
 20
104.8849499999999
 30
0.0
 11
248.33446000000001
 21
104.92155
 31
0.0
  0
LINE
  5
79A
  8
_0-1_HIDDEN
  6
DASHED3
 62
     6
 10
248.33446000000001
 20
104.92155
 30
0.0
 11
248.32846000000001
 21
104.95784999999979
 31
0.0
  0
LINE
  5
79B
  8
_0-1_HIDDEN
  6
DASHED3
 62
     6
 10
248.32846000000001
 20
104.95784999999979
 30
0.0
 11
248.32146
 21
104.99365
 31
0.0
  0
LINE
  5
79C
  8
_0-1_HIDDEN
  6
DASHED3
 62
     6
 10
248.32146
 20
104.99365
 30
0.0
 11
248.31446
 21
105.02905
 31
0.0
  0
LINE
  5
79D
  8
_0-1_HIDDEN
  6
DASHED3
 62
     6
 10
248.31446
 20
105.02905
 30
0.0
 11
248.30745999999999
 21
105.0640499999999
 31
0.0
  0
LINE
  5
79E
  8
_0-1_HIDDEN
  6
DASHED3
 62
     6
 10
248.30745999999999
 20
105.0640499999999
 30
0.0
 11
248.29946000000001
 21
105.0984499999999
 31
0.0
  0
LINE
  5
79F
  8
_0-1_HIDDEN
  6
DASHED3
 62
     6
 10
248.29946000000001
 20
105.0984499999999
 30
0.0
 11
248.29145999999989
 21
105.13244999999991
 31
0.0
  0
LINE
  5
7A0
  8
_0-1_HIDDEN
  6
DASHED3
 62
     6
 10
248.29145999999989
 20
105.13244999999991
 30
0.0
 11
248.28345999999991
 21
105.16585000000001
 31
0.0
  0
LINE
  5
7A1
  8
_0-1_HIDDEN
  6
DASHED3
 62
     6
 10
248.28345999999991
 20
105.16585000000001
 30
0.0
 11
248.27446
 21
105.19875
 31
0.0
  0
LINE
  5
7A2
  8
_0-1_HIDDEN
  6
DASHED3
 62
     6
 10
248.27446
 20
105.19875
 30
0.0
 11
248.26545999999999
 21
105.2310499999999
 31
0.0
  0
LINE
  5
7A3
  8
_0-1_HIDDEN
  6
DASHED3
 62
     6
 10
248.26545999999999
 20
105.2310499999999
 30
0.0
 11
248.25645999999989
 21
105.2628499999999
 31
0.0
  0
LINE
  5
7A4
  8
_0-1_HIDDEN
  6
DASHED3
 62
     6
 10
248.25645999999989
 20
105.2628499999999
 30
0.0
 11
248.2474599999999
 21
105.2939499999999
 31
0.0
  0
LINE
  5
7A5
  8
_0-1_HIDDEN
  6
DASHED3
 62
     6
 10
248.2474599999999
 20
105.2939499999999
 30
0.0
 11
248.23745999999991
 21
105.3244499999999
 31
0.0
  0
LINE
  5
7A6
  8
_0-1_HIDDEN
  6
DASHED3
 62
     6
 10
248.23745999999991
 20
105.3244499999999
 30
0.0
 11
248.22746000000001
 21
105.3543499999999
 31
0.0
  0
LINE
  5
7A7
  8
_0-1_HIDDEN
  6
DASHED3
 62
     6
 10
248.22746000000001
 20
105.3543499999999
 30
0.0
 11
248.21646000000001
 21
105.3835499999999
 31
0.0
  0
LINE
  5
7A8
  8
_0-1_HIDDEN
  6
DASHED3
 62
     6
 10
248.21646000000001
 20
105.3835499999999
 30
0.0
 11
248.20645999999999
 21
105.4121499999999
 31
0.0
  0
LINE
  5
7A9
  8
_0-1_HIDDEN
  6
DASHED3
 62
     6
 10
248.20645999999999
 20
105.4121499999999
 30
0.0
 11
248.19545999999991
 21
105.4399499999999
 31
0.0
  0
LINE
  5
7AA
  8
_0-1_HIDDEN
  6
DASHED3
 62
     6
 10
248.19545999999991
 20
105.4399499999999
 30
0.0
 11
248.18346
 21
105.46705
 31
0.0
  0
LINE
  5
7AB
  8
_0-1_HIDDEN
  6
DASHED3
 62
     6
 10
248.18346
 20
105.46705
 30
0.0
 11
248.17246
 21
105.49355
 31
0.0
  0
LINE
  5
7AC
  8
_0-1_HIDDEN
  6
DASHED3
 62
     6
 10
248.17246
 20
105.49355
 30
0.0
 11
248.16046
 21
105.51915
 31
0.0
  0
LINE
  5
7AD
  8
_0-1_HIDDEN
  6
DASHED3
 62
     6
 10
248.16046
 20
105.51915
 30
0.0
 11
248.14845999999989
 21
105.54415
 31
0.0
  0
LINE
  5
7AE
  8
_0-1_HIDDEN
  6
DASHED3
 62
     6
 10
248.14845999999989
 20
105.54415
 30
0.0
 11
248.13646
 21
105.56825000000001
 31
0.0
  0
LINE
  5
7AF
  8
_0-1_HIDDEN
  6
DASHED3
 62
     6
 10
248.13646
 20
105.56825000000001
 30
0.0
 11
248.12446
 21
105.5916499999999
 31
0.0
  0
LINE
  5
7B0
  8
_0-1_HIDDEN
  6
DASHED3
 62
     6
 10
248.12446
 20
105.5916499999999
 30
0.0
 11
248.11145999999999
 21
105.61415
 31
0.0
  0
LINE
  5
7B1
  8
_0-1_HIDDEN
  6
DASHED3
 62
     6
 10
248.11145999999999
 20
105.61415
 30
0.0
 11
248.09945999999991
 21
105.6359499999998
 31
0.0
  0
LINE
  5
7B2
  8
_0-1_HIDDEN
  6
DASHED3
 62
     6
 10
248.09945999999991
 20
105.6359499999998
 30
0.0
 11
248.0864599999999
 21
105.65685000000001
 31
0.0
  0
LINE
  5
7B3
  8
_0-1_HIDDEN
  6
DASHED3
 62
     6
 10
248.0864599999999
 20
105.65685000000001
 30
0.0
 11
248.07246000000001
 21
105.67695000000001
 31
0.0
  0
LINE
  5
7B4
  8
_0-1_HIDDEN
  6
DASHED3
 62
     6
 10
248.07246000000001
 20
105.67695000000001
 30
0.0
 11
248.0594599999998
 21
105.69615
 31
0.0
  0
LINE
  5
7B5
  8
_0-1_HIDDEN
  6
DASHED3
 62
     6
 10
248.0594599999998
 20
105.69615
 30
0.0
 11
248.04645999999991
 21
105.71455
 31
0.0
  0
LINE
  5
7B6
  8
_0-1_HIDDEN
  6
DASHED3
 62
     6
 10
248.04645999999991
 20
105.71455
 30
0.0
 11
248.0324599999999
 21
105.73205
 31
0.0
  0
LINE
  5
7B7
  8
_0-1_HIDDEN
  6
DASHED3
 62
     6
 10
248.0324599999999
 20
105.73205
 30
0.0
 11
248.01846
 21
105.7486499999999
 31
0.0
  0
LINE
  5
7B8
  8
_0-1_HIDDEN
  6
DASHED3
 62
     6
 10
248.01846
 20
105.7486499999999
 30
0.0
 11
248.00445999999991
 21
105.76434999999979
 31
0.0
  0
LINE
  5
7B9
  8
_0-1_HIDDEN
  6
DASHED3
 62
     6
 10
248.00445999999991
 20
105.76434999999979
 30
0.0
 11
247.99046000000001
 21
105.7791499999999
 31
0.0
  0
LINE
  5
7BA
  8
_0-1_HIDDEN
  6
DASHED3
 62
     6
 10
247.99046000000001
 20
105.7791499999999
 30
0.0
 11
247.97546
 21
105.79304999999979
 31
0.0
  0
LINE
  5
7BB
  8
_0-1_HIDDEN
  6
DASHED3
 62
     6
 10
247.97546
 20
105.79304999999979
 30
0.0
 11
247.96145999999999
 21
105.80605
 31
0.0
  0
LINE
  5
7BC
  8
_0-1_HIDDEN
  6
DASHED3
 62
     6
 10
247.96145999999999
 20
105.80605
 30
0.0
 11
247.94646
 21
105.8180499999999
 31
0.0
  0
LINE
  5
7BD
  8
_0-1_HIDDEN
  6
DASHED3
 62
     6
 10
247.94646
 20
105.8180499999999
 30
0.0
 11
247.93245999999991
 21
105.8291499999999
 31
0.0
  0
LINE
  5
7BE
  8
_0-1_HIDDEN
  6
DASHED3
 62
     6
 10
247.93245999999991
 20
105.8291499999999
 30
0.0
 11
247.91745999999989
 21
105.8393499999999
 31
0.0
  0
LINE
  5
7BF
  8
_0-1_HIDDEN
  6
DASHED3
 62
     6
 10
247.91745999999989
 20
105.8393499999999
 30
0.0
 11
247.90245999999991
 21
105.8485499999999
 31
0.0
  0
LINE
  5
7C0
  8
_0-1_HIDDEN
  6
DASHED3
 62
     6
 10
247.90245999999991
 20
105.8485499999999
 30
0.0
 11
247.88746
 21
105.85684999999999
 31
0.0
  0
LINE
  5
7C1
  8
_0-1_HIDDEN
  6
DASHED3
 62
     6
 10
247.88746
 20
105.85684999999999
 30
0.0
 11
247.87245999999999
 21
105.86415
 31
0.0
  0
LINE
  5
7C2
  8
_0-1_HIDDEN
  6
DASHED3
 62
     6
 10
247.87245999999999
 20
105.86415
 30
0.0
 11
247.85745999999989
 21
105.87045000000001
 31
0.0
  0
LINE
  5
7C3
  8
_0-1_HIDDEN
  6
DASHED3
 62
     6
 10
247.85745999999989
 20
105.87045000000001
 30
0.0
 11
247.8424599999999
 21
105.8758499999999
 31
0.0
  0
LINE
  5
7C4
  8
_0-1_HIDDEN
  6
DASHED3
 62
     6
 10
247.8424599999999
 20
105.8758499999999
 30
0.0
 11
247.82746
 21
105.88025
 31
0.0
  0
LINE
  5
7C5
  8
_0-1_HIDDEN
  6
DASHED3
 62
     6
 10
247.82746
 20
105.88025
 30
0.0
 11
247.81245999999999
 21
105.8836499999999
 31
0.0
  0
LINE
  5
7C6
  8
_0-1_HIDDEN
  6
DASHED3
 62
     6
 10
247.81245999999999
 20
105.8836499999999
 30
0.0
 11
247.79746
 21
105.8860499999999
 31
0.0
  0
LINE
  5
7C7
  8
_0-1_HIDDEN
  6
DASHED3
 62
     6
 10
247.79746
 20
105.8860499999999
 30
0.0
 11
247.78146000000001
 21
105.88755
 31
0.0
  0
LINE
  5
7C8
  8
_0-1_HIDDEN
  6
DASHED3
 62
     6
 10
247.78146000000001
 20
105.88755
 30
0.0
 11
247.76646
 21
105.88805000000001
 31
0.0
  0
LINE
  5
7C9
  8
_0-1_HIDDEN
  6
DASHED3
 62
     6
 10
247.76646
 20
102.63805000000001
 30
0.0
 11
247.73645999999999
 21
102.6361499999999
 31
0.0
  0
LINE
  5
7CA
  8
_0-1_HIDDEN
  6
DASHED3
 62
     6
 10
247.73645999999999
 20
102.6361499999999
 30
0.0
 11
247.70645999999991
 21
102.63025
 31
0.0
  0
LINE
  5
7CB
  8
_0-1_HIDDEN
  6
DASHED3
 62
     6
 10
247.70645999999991
 20
102.63025
 30
0.0
 11
247.67545999999999
 21
102.62044999999991
 31
0.0
  0
LINE
  5
7CC
  8
_0-1_HIDDEN
  6
DASHED3
 62
     6
 10
247.67545999999999
 20
102.62044999999991
 30
0.0
 11
247.64546000000001
 21
102.60684999999999
 31
0.0
  0
LINE
  5
7CD
  8
_0-1_HIDDEN
  6
DASHED3
 62
     6
 10
247.64546000000001
 20
102.60684999999999
 30
0.0
 11
247.61645999999999
 21
102.58935
 31
0.0
  0
LINE
  5
7CE
  8
_0-1_HIDDEN
  6
DASHED3
 62
     6
 10
247.61645999999999
 20
102.58935
 30
0.0
 11
247.58745999999999
 21
102.56815
 31
0.0
  0
LINE
  5
7CF
  8
_0-1_HIDDEN
  6
DASHED3
 62
     6
 10
247.58745999999999
 20
102.56815
 30
0.0
 11
247.55845999999991
 21
102.54315
 31
0.0
  0
LINE
  5
7D0
  8
_0-1_HIDDEN
  6
DASHED3
 62
     6
 10
247.55845999999991
 20
102.54315
 30
0.0
 11
247.52946
 21
102.5144499999999
 31
0.0
  0
LINE
  5
7D1
  8
_0-1_HIDDEN
  6
DASHED3
 62
     6
 10
247.52946
 20
102.5144499999999
 30
0.0
 11
247.50246000000001
 21
102.48205
 31
0.0
  0
LINE
  5
7D2
  8
_0-1_HIDDEN
  6
DASHED3
 62
     6
 10
247.50246000000001
 20
102.48205
 30
0.0
 11
247.47445999999999
 21
102.44625000000001
 31
0.0
  0
LINE
  5
7D3
  8
_0-1_HIDDEN
  6
DASHED3
 62
     6
 10
247.47445999999999
 20
102.44625000000001
 30
0.0
 11
247.44846000000001
 21
102.4069499999999
 31
0.0
  0
LINE
  5
7D4
  8
_0-1_HIDDEN
  6
DASHED3
 62
     6
 10
247.44846000000001
 20
102.4069499999999
 30
0.0
 11
247.4224599999998
 21
102.36425
 31
0.0
  0
LINE
  5
7D5
  8
_0-1_HIDDEN
  6
DASHED3
 62
     6
 10
247.4224599999998
 20
102.36425
 30
0.0
 11
247.39746
 21
102.31835
 31
0.0
  0
LINE
  5
7D6
  8
_0-1_HIDDEN
  6
DASHED3
 62
     6
 10
247.39746
 20
102.31835
 30
0.0
 11
247.37345999999991
 21
102.26925
 31
0.0
  0
LINE
  5
7D7
  8
_0-1_HIDDEN
  6
DASHED3
 62
     6
 10
247.37345999999991
 20
102.26925
 30
0.0
 11
247.35046
 21
102.21715
 31
0.0
  0
LINE
  5
7D8
  8
_0-1_HIDDEN
  6
DASHED3
 62
     6
 10
247.35046
 20
102.21715
 30
0.0
 11
247.32845999999989
 21
102.1621499999999
 31
0.0
  0
LINE
  5
7D9
  8
_0-1_HIDDEN
  6
DASHED3
 62
     6
 10
247.32845999999989
 20
102.1621499999999
 30
0.0
 11
247.30745999999991
 21
102.1043499999999
 31
0.0
  0
LINE
  5
7DA
  8
_0-1_HIDDEN
  6
DASHED3
 62
     6
 10
247.30745999999991
 20
102.1043499999999
 30
0.0
 11
247.2884599999999
 21
102.04405
 31
0.0
  0
LINE
  5
7DB
  8
_0-1_HIDDEN
  6
DASHED3
 62
     6
 10
247.2884599999999
 20
102.04405
 30
0.0
 11
247.26946000000001
 21
101.98115
 31
0.0
  0
LINE
  5
7DC
  8
_0-1_HIDDEN
  6
DASHED3
 62
     6
 10
247.26946000000001
 20
101.98115
 30
0.0
 11
247.25146000000001
 21
101.9159499999999
 31
0.0
  0
LINE
  5
7DD
  8
_0-1_HIDDEN
  6
DASHED3
 62
     6
 10
247.25146000000001
 20
101.9159499999999
 30
0.0
 11
247.23545999999999
 21
101.84855
 31
0.0
  0
LINE
  5
7DE
  8
_0-1_HIDDEN
  6
DASHED3
 62
     6
 10
247.23545999999999
 20
101.84855
 30
0.0
 11
247.22045999999989
 21
101.7791499999999
 31
0.0
  0
LINE
  5
7DF
  8
_0-1_HIDDEN
  6
DASHED3
 62
     6
 10
247.22045999999989
 20
101.7791499999999
 30
0.0
 11
247.20746
 21
101.70784999999979
 31
0.0
  0
LINE
  5
7E0
  8
_0-1_HIDDEN
  6
DASHED3
 62
     6
 10
247.20746
 20
101.70784999999979
 30
0.0
 11
247.19445999999999
 21
101.63495
 31
0.0
  0
LINE
  5
7E1
  8
_0-1_HIDDEN
  6
DASHED3
 62
     6
 10
247.19445999999999
 20
101.63495
 30
0.0
 11
247.18346
 21
101.56055000000001
 31
0.0
  0
LINE
  5
7E2
  8
_0-1_HIDDEN
  6
DASHED3
 62
     6
 10
247.18346
 20
101.56055000000001
 30
0.0
 11
247.17446000000001
 21
101.48484999999999
 31
0.0
  0
LINE
  5
7E3
  8
_0-1_HIDDEN
  6
DASHED3
 62
     6
 10
247.17446000000001
 20
101.48484999999999
 30
0.0
 11
247.16645999999989
 21
101.40795
 31
0.0
  0
LINE
  5
7E4
  8
_0-1_HIDDEN
  6
DASHED3
 62
     6
 10
247.16645999999989
 20
101.40795
 30
0.0
 11
247.15945999999991
 21
101.33015
 31
0.0
  0
LINE
  5
7E5
  8
_0-1_HIDDEN
  6
DASHED3
 62
     6
 10
247.15945999999991
 20
101.33015
 30
0.0
 11
247.15446
 21
101.2515499999999
 31
0.0
  0
LINE
  5
7E6
  8
_0-1_HIDDEN
  6
DASHED3
 62
     6
 10
247.15446
 20
101.2515499999999
 30
0.0
 11
247.15046000000001
 21
101.1723499999998
 31
0.0
  0
LINE
  5
7E7
  8
_0-1_HIDDEN
  6
DASHED3
 62
     6
 10
247.15046000000001
 20
101.1723499999998
 30
0.0
 11
247.14846
 21
101.0928499999999
 31
0.0
  0
LINE
  5
7E8
  8
_0-1_HIDDEN
  6
DASHED3
 62
     6
 10
247.14846
 20
101.0928499999999
 30
0.0
 11
247.14746
 21
101.0131499999999
 31
0.0
  0
LINE
  5
7E9
  8
_0-1_HIDDEN
  6
DASHED3
 62
     6
 10
247.14746
 20
101.0131499999999
 30
0.0
 11
247.14846
 21
100.93335
 31
0.0
  0
LINE
  5
7EA
  8
_0-1_HIDDEN
  6
DASHED3
 62
     6
 10
247.14846
 20
100.93335
 30
0.0
 11
247.15046000000001
 21
100.85384999999999
 31
0.0
  0
LINE
  5
7EB
  8
_0-1_HIDDEN
  6
DASHED3
 62
     6
 10
247.15046000000001
 20
100.85384999999999
 30
0.0
 11
247.15446
 21
100.7746499999998
 31
0.0
  0
LINE
  5
7EC
  8
_0-1_HIDDEN
  6
DASHED3
 62
     6
 10
247.15446
 20
100.7746499999998
 30
0.0
 11
247.15945999999991
 21
100.6960499999999
 31
0.0
  0
LINE
  5
7ED
  8
_0-1_HIDDEN
  6
DASHED3
 62
     6
 10
247.15945999999991
 20
100.6960499999999
 30
0.0
 11
247.16645999999989
 21
100.6182499999999
 31
0.0
  0
LINE
  5
7EE
  8
_0-1_HIDDEN
  6
DASHED3
 62
     6
 10
247.16645999999989
 20
100.6182499999999
 30
0.0
 11
247.17446000000001
 21
100.5413499999998
 31
0.0
  0
LINE
  5
7EF
  8
_0-1_HIDDEN
  6
DASHED3
 62
     6
 10
247.17446000000001
 20
100.5413499999998
 30
0.0
 11
247.18346
 21
100.46565
 31
0.0
  0
LINE
  5
7F0
  8
_0-1_HIDDEN
  6
DASHED3
 62
     6
 10
247.18346
 20
100.46565
 30
0.0
 11
247.19445999999999
 21
100.3912499999999
 31
0.0
  0
LINE
  5
7F1
  8
_0-1_HIDDEN
  6
DASHED3
 62
     6
 10
247.19445999999999
 20
100.3912499999999
 30
0.0
 11
247.20645999999991
 21
100.31835
 31
0.0
  0
LINE
  5
7F2
  8
_0-1_HIDDEN
  6
DASHED3
 62
     6
 10
247.20645999999991
 20
100.31835
 30
0.0
 11
247.22045999999989
 21
100.24705
 31
0.0
  0
LINE
  5
7F3
  8
_0-1_HIDDEN
  6
DASHED3
 62
     6
 10
247.22045999999989
 20
100.24705
 30
0.0
 11
247.23545999999999
 21
100.17765
 31
0.0
  0
LINE
  5
7F4
  8
_0-1_HIDDEN
  6
DASHED3
 62
     6
 10
247.23545999999999
 20
100.17765
 30
0.0
 11
247.25146000000001
 21
100.11024999999999
 31
0.0
  0
LINE
  5
7F5
  8
_0-1_HIDDEN
  6
DASHED3
 62
     6
 10
247.25146000000001
 20
100.11024999999999
 30
0.0
 11
247.26946000000001
 21
100.04505
 31
0.0
  0
LINE
  5
7F6
  8
_0-1_HIDDEN
  6
DASHED3
 62
     6
 10
247.26946000000001
 20
100.04505
 30
0.0
 11
247.28746000000001
 21
99.982249999999993
 31
0.0
  0
LINE
  5
7F7
  8
_0-1_HIDDEN
  6
DASHED3
 62
     6
 10
247.28746000000001
 20
99.982249999999993
 30
0.0
 11
247.30745999999991
 21
99.921850000000006
 31
0.0
  0
LINE
  5
7F8
  8
_0-1_HIDDEN
  6
DASHED3
 62
     6
 10
247.30745999999991
 20
99.921850000000006
 30
0.0
 11
247.32845999999989
 21
99.864050000000006
 31
0.0
  0
LINE
  5
7F9
  8
_0-1_HIDDEN
  6
DASHED3
 62
     6
 10
247.32845999999989
 20
99.864050000000006
 30
0.0
 11
247.35046
 21
99.809049999999985
 31
0.0
  0
LINE
  5
7FA
  8
_0-1_HIDDEN
  6
DASHED3
 62
     6
 10
247.35046
 20
99.809049999999985
 30
0.0
 11
247.37345999999991
 21
99.756950000000003
 31
0.0
  0
LINE
  5
7FB
  8
_0-1_HIDDEN
  6
DASHED3
 62
     6
 10
247.37345999999991
 20
99.756950000000003
 30
0.0
 11
247.39746
 21
99.707849999999993
 31
0.0
  0
LINE
  5
7FC
  8
_0-1_HIDDEN
  6
DASHED3
 62
     6
 10
247.39746
 20
99.707849999999993
 30
0.0
 11
247.4224599999998
 21
99.661950000000004
 31
0.0
  0
LINE
  5
7FD
  8
_0-1_HIDDEN
  6
DASHED3
 62
     6
 10
247.4224599999998
 20
99.661950000000004
 30
0.0
 11
247.44846000000001
 21
99.619249999999994
 31
0.0
  0
LINE
  5
7FE
  8
_0-1_HIDDEN
  6
DASHED3
 62
     6
 10
247.44846000000001
 20
99.619249999999994
 30
0.0
 11
247.47445999999999
 21
99.579949999999997
 31
0.0
  0
LINE
  5
7FF
  8
_0-1_HIDDEN
  6
DASHED3
 62
     6
 10
247.47445999999999
 20
99.579949999999997
 30
0.0
 11
247.50146000000001
 21
99.544050000000013
 31
0.0
  0
LINE
  5
800
  8
_0-1_HIDDEN
  6
DASHED3
 62
     6
 10
247.50146000000001
 20
99.544050000000013
 30
0.0
 11
247.52946
 21
99.511750000000006
 31
0.0
  0
LINE
  5
801
  8
_0-1_HIDDEN
  6
DASHED3
 62
     6
 10
247.52946
 20
99.511750000000006
 30
0.0
 11
247.55745999999991
 21
99.483050000000006
 31
0.0
  0
LINE
  5
802
  8
_0-1_HIDDEN
  6
DASHED3
 62
     6
 10
247.55745999999991
 20
99.483050000000006
 30
0.0
 11
247.5864599999999
 21
99.45805
 31
0.0
  0
LINE
  5
803
  8
_0-1_HIDDEN
  6
DASHED3
 62
     6
 10
247.5864599999999
 20
99.45805
 30
0.0
 11
247.61645999999999
 21
99.436750000000004
 31
0.0
  0
LINE
  5
804
  8
_0-1_HIDDEN
  6
DASHED3
 62
     6
 10
247.61645999999999
 20
99.436750000000004
 30
0.0
 11
247.64546000000001
 21
99.419250000000005
 31
0.0
  0
LINE
  5
805
  8
_0-1_HIDDEN
  6
DASHED3
 62
     6
 10
247.64546000000001
 20
99.419250000000005
 30
0.0
 11
247.67545999999999
 21
99.405649999999994
 31
0.0
  0
LINE
  5
806
  8
_0-1_HIDDEN
  6
DASHED3
 62
     6
 10
247.67545999999999
 20
99.405649999999994
 30
0.0
 11
247.7054599999999
 21
99.39585000000001
 31
0.0
  0
LINE
  5
807
  8
_0-1_HIDDEN
  6
DASHED3
 62
     6
 10
247.7054599999999
 20
99.39585000000001
 30
0.0
 11
247.73645999999999
 21
99.390050000000016
 31
0.0
  0
LINE
  5
808
  8
_0-1_HIDDEN
  6
DASHED3
 62
     6
 10
247.73645999999999
 20
99.390050000000016
 30
0.0
 11
247.76646
 21
99.388050000000021
 31
0.0
  0
LINE
  5
809
  8
_0-1_HIDDEN
  6
DASHED3
 62
     6
 10
247.76646
 20
99.388050000000021
 30
0.0
 11
247.79645999999991
 21
99.390050000000016
 31
0.0
  0
LINE
  5
80A
  8
_0-1_HIDDEN
  6
DASHED3
 62
     6
 10
247.79645999999991
 20
99.390050000000016
 30
0.0
 11
247.82746
 21
99.39585000000001
 31
0.0
  0
LINE
  5
80B
  8
_0-1_HIDDEN
  6
DASHED3
 62
     6
 10
247.82746
 20
99.39585000000001
 30
0.0
 11
247.85745999999989
 21
99.405649999999994
 31
0.0
  0
LINE
  5
80C
  8
_0-1_HIDDEN
  6
DASHED3
 62
     6
 10
247.85745999999989
 20
99.405649999999994
 30
0.0
 11
247.88746
 21
99.419250000000005
 31
0.0
  0
LINE
  5
80D
  8
_0-1_HIDDEN
  6
DASHED3
 62
     6
 10
247.88746
 20
99.419250000000005
 30
0.0
 11
247.91646
 21
99.436750000000004
 31
0.0
  0
LINE
  5
80E
  8
_0-1_HIDDEN
  6
DASHED3
 62
     6
 10
247.91646
 20
99.436750000000004
 30
0.0
 11
247.94646
 21
99.45805
 31
0.0
  0
LINE
  5
80F
  8
_0-1_HIDDEN
  6
DASHED3
 62
     6
 10
247.94646
 20
99.45805
 30
0.0
 11
247.97546
 21
99.483050000000006
 31
0.0
  0
LINE
  5
810
  8
_0-1_HIDDEN
  6
DASHED3
 62
     6
 10
247.97546
 20
99.483050000000006
 30
0.0
 11
248.0034599999999
 21
99.511750000000006
 31
0.0
  0
LINE
  5
811
  8
_0-1_HIDDEN
  6
DASHED3
 62
     6
 10
248.0034599999999
 20
99.511750000000006
 30
0.0
 11
248.03146000000001
 21
99.544050000000013
 31
0.0
  0
LINE
  5
812
  8
_0-1_HIDDEN
  6
DASHED3
 62
     6
 10
248.03146000000001
 20
99.544050000000013
 30
0.0
 11
248.05845999999991
 21
99.579949999999997
 31
0.0
  0
LINE
  5
813
  8
_0-1_HIDDEN
  6
DASHED3
 62
     6
 10
248.05845999999991
 20
99.579949999999997
 30
0.0
 11
248.08446000000001
 21
99.619249999999994
 31
0.0
  0
LINE
  5
814
  8
_0-1_HIDDEN
  6
DASHED3
 62
     6
 10
248.08446000000001
 20
99.619249999999994
 30
0.0
 11
248.11045999999999
 21
99.661850000000015
 31
0.0
  0
LINE
  5
815
  8
_0-1_HIDDEN
  6
DASHED3
 62
     6
 10
248.11045999999999
 20
99.661850000000015
 30
0.0
 11
248.13545999999991
 21
99.707849999999993
 31
0.0
  0
LINE
  5
816
  8
_0-1_HIDDEN
  6
DASHED3
 62
     6
 10
248.13545999999991
 20
99.707849999999993
 30
0.0
 11
248.15946
 21
99.75685
 31
0.0
  0
LINE
  5
817
  8
_0-1_HIDDEN
  6
DASHED3
 62
     6
 10
248.15946
 20
99.75685
 30
0.0
 11
248.18245999999991
 21
99.808949999999996
 31
0.0
  0
LINE
  5
818
  8
_0-1_HIDDEN
  6
DASHED3
 62
     6
 10
248.18245999999991
 20
99.808949999999996
 30
0.0
 11
248.20446000000001
 21
99.863950000000017
 31
0.0
  0
LINE
  5
819
  8
_0-1_HIDDEN
  6
DASHED3
 62
     6
 10
248.20446000000001
 20
99.863950000000017
 30
0.0
 11
248.22546
 21
99.921750000000003
 31
0.0
  0
LINE
  5
81A
  8
_0-1_HIDDEN
  6
DASHED3
 62
     6
 10
248.22546
 20
99.921750000000003
 30
0.0
 11
248.24546000000001
 21
99.982150000000004
 31
0.0
  0
LINE
  5
81B
  8
_0-1_HIDDEN
  6
DASHED3
 62
     6
 10
248.24546000000001
 20
99.982150000000004
 30
0.0
 11
248.26346000000001
 21
100.04505
 31
0.0
  0
LINE
  5
81C
  8
_0-1_HIDDEN
  6
DASHED3
 62
     6
 10
248.26346000000001
 20
100.04505
 30
0.0
 11
248.28146000000001
 21
100.11024999999999
 31
0.0
  0
LINE
  5
81D
  8
_0-1_HIDDEN
  6
DASHED3
 62
     6
 10
248.28146000000001
 20
100.11024999999999
 30
0.0
 11
248.29745999999989
 21
100.1775499999999
 31
0.0
  0
LINE
  5
81E
  8
_0-1_HIDDEN
  6
DASHED3
 62
     6
 10
248.29745999999989
 20
100.1775499999999
 30
0.0
 11
248.31245999999999
 21
100.2469499999999
 31
0.0
  0
LINE
  5
81F
  8
_0-1_HIDDEN
  6
DASHED3
 62
     6
 10
248.31245999999999
 20
100.2469499999999
 30
0.0
 11
248.32646
 21
100.31825000000001
 31
0.0
  0
LINE
  5
820
  8
_0-1_HIDDEN
  6
DASHED3
 62
     6
 10
248.32646
 20
100.31825000000001
 30
0.0
 11
248.33845999999991
 21
100.39115
 31
0.0
  0
LINE
  5
821
  8
_0-1_HIDDEN
  6
DASHED3
 62
     6
 10
248.33845999999991
 20
100.39115
 30
0.0
 11
248.34945999999991
 21
100.46554999999979
 31
0.0
  0
LINE
  5
822
  8
_0-1_HIDDEN
  6
DASHED3
 62
     6
 10
248.34945999999991
 20
100.46554999999979
 30
0.0
 11
248.3594599999999
 21
100.5413499999998
 31
0.0
  0
LINE
  5
823
  8
_0-1_HIDDEN
  6
DASHED3
 62
     6
 10
248.3594599999999
 20
100.5413499999998
 30
0.0
 11
248.36745999999999
 21
100.61815
 31
0.0
  0
LINE
  5
824
  8
_0-1_HIDDEN
  6
DASHED3
 62
     6
 10
248.36745999999999
 20
100.61815
 30
0.0
 11
248.37345999999999
 21
100.69595
 31
0.0
  0
LINE
  5
825
  8
_0-1_HIDDEN
  6
DASHED3
 62
     6
 10
248.37345999999999
 20
100.69595
 30
0.0
 11
248.37945999999991
 21
100.77454999999991
 31
0.0
  0
LINE
  5
826
  8
_0-1_HIDDEN
  6
DASHED3
 62
     6
 10
248.37945999999991
 20
100.77454999999991
 30
0.0
 11
248.38246000000001
 21
100.85375000000001
 31
0.0
  0
LINE
  5
827
  8
_0-1_HIDDEN
  6
DASHED3
 62
     6
 10
248.38246000000001
 20
100.85375000000001
 30
0.0
 11
248.38545999999991
 21
100.9332499999999
 31
0.0
  0
LINE
  5
828
  8
_0-1_HIDDEN
  6
DASHED3
 62
     6
 10
248.38545999999991
 20
100.9332499999999
 30
0.0
 11
248.38545999999991
 21
101.01305000000001
 31
0.0
  0
LINE
  5
829
  8
_0-1_HIDDEN
  6
DASHED3
 62
     6
 10
248.38545999999991
 20
101.01305000000001
 30
0.0
 11
248.38545999999991
 21
101.0927499999999
 31
0.0
  0
LINE
  5
82A
  8
_0-1_HIDDEN
  6
DASHED3
 62
     6
 10
248.38545999999991
 20
101.0927499999999
 30
0.0
 11
248.38246000000001
 21
101.17225000000001
 31
0.0
  0
LINE
  5
82B
  8
_0-1_HIDDEN
  6
DASHED3
 62
     6
 10
248.38246000000001
 20
101.17225000000001
 30
0.0
 11
248.37945999999991
 21
101.25144999999991
 31
0.0
  0
LINE
  5
82C
  8
_0-1_HIDDEN
  6
DASHED3
 62
     6
 10
248.37945999999991
 20
101.25144999999991
 30
0.0
 11
248.37345999999999
 21
101.3300499999999
 31
0.0
  0
LINE
  5
82D
  8
_0-1_HIDDEN
  6
DASHED3
 62
     6
 10
248.37345999999999
 20
101.3300499999999
 30
0.0
 11
248.36745999999999
 21
101.4078499999999
 31
0.0
  0
LINE
  5
82E
  8
_0-1_HIDDEN
  6
DASHED3
 62
     6
 10
248.36745999999999
 20
101.4078499999999
 30
0.0
 11
248.3594599999999
 21
101.48475000000001
 31
0.0
  0
LINE
  5
82F
  8
_0-1_HIDDEN
  6
DASHED3
 62
     6
 10
248.3594599999999
 20
101.48475000000001
 30
0.0
 11
248.34945999999991
 21
101.56045
 31
0.0
  0
LINE
  5
830
  8
_0-1_HIDDEN
  6
DASHED3
 62
     6
 10
248.34945999999991
 20
101.56045
 30
0.0
 11
248.33845999999991
 21
101.63485
 31
0.0
  0
LINE
  5
831
  8
_0-1_HIDDEN
  6
DASHED3
 62
     6
 10
248.33845999999991
 20
101.63485
 30
0.0
 11
248.32646
 21
101.70784999999979
 31
0.0
  0
LINE
  5
832
  8
_0-1_HIDDEN
  6
DASHED3
 62
     6
 10
248.32646
 20
101.70784999999979
 30
0.0
 11
248.31245999999999
 21
101.77905
 31
0.0
  0
LINE
  5
833
  8
_0-1_HIDDEN
  6
DASHED3
 62
     6
 10
248.31245999999999
 20
101.77905
 30
0.0
 11
248.29745999999989
 21
101.84845
 31
0.0
  0
LINE
  5
834
  8
_0-1_HIDDEN
  6
DASHED3
 62
     6
 10
248.29745999999989
 20
101.84845
 30
0.0
 11
248.28146000000001
 21
101.91585000000001
 31
0.0
  0
LINE
  5
835
  8
_0-1_HIDDEN
  6
DASHED3
 62
     6
 10
248.28146000000001
 20
101.91585000000001
 30
0.0
 11
248.2644599999999
 21
101.9810499999999
 31
0.0
  0
LINE
  5
836
  8
_0-1_HIDDEN
  6
DASHED3
 62
     6
 10
248.2644599999999
 20
101.9810499999999
 30
0.0
 11
248.24546000000001
 21
102.0439499999999
 31
0.0
  0
LINE
  5
837
  8
_0-1_HIDDEN
  6
DASHED3
 62
     6
 10
248.24546000000001
 20
102.0439499999999
 30
0.0
 11
248.22546
 21
102.1043499999999
 31
0.0
  0
LINE
  5
838
  8
_0-1_HIDDEN
  6
DASHED3
 62
     6
 10
248.22546
 20
102.1043499999999
 30
0.0
 11
248.20446000000001
 21
102.16204999999999
 31
0.0
  0
LINE
  5
839
  8
_0-1_HIDDEN
  6
DASHED3
 62
     6
 10
248.20446000000001
 20
102.16204999999999
 30
0.0
 11
248.18245999999991
 21
102.21705
 31
0.0
  0
LINE
  5
83A
  8
_0-1_HIDDEN
  6
DASHED3
 62
     6
 10
248.18245999999991
 20
102.21705
 30
0.0
 11
248.15946
 21
102.26915
 31
0.0
  0
LINE
  5
83B
  8
_0-1_HIDDEN
  6
DASHED3
 62
     6
 10
248.15946
 20
102.26915
 30
0.0
 11
248.13545999999991
 21
102.31825000000001
 31
0.0
  0
LINE
  5
83C
  8
_0-1_HIDDEN
  6
DASHED3
 62
     6
 10
248.13545999999991
 20
102.31825000000001
 30
0.0
 11
248.11045999999999
 21
102.3641499999999
 31
0.0
  0
LINE
  5
83D
  8
_0-1_HIDDEN
  6
DASHED3
 62
     6
 10
248.11045999999999
 20
102.3641499999999
 30
0.0
 11
248.08546000000001
 21
102.40685000000001
 31
0.0
  0
LINE
  5
83E
  8
_0-1_HIDDEN
  6
DASHED3
 62
     6
 10
248.08546000000001
 20
102.40685000000001
 30
0.0
 11
248.05845999999991
 21
102.44615
 31
0.0
  0
LINE
  5
83F
  8
_0-1_HIDDEN
  6
DASHED3
 62
     6
 10
248.05845999999991
 20
102.44615
 30
0.0
 11
248.03146000000001
 21
102.48205
 31
0.0
  0
LINE
  5
840
  8
_0-1_HIDDEN
  6
DASHED3
 62
     6
 10
248.03146000000001
 20
102.48205
 30
0.0
 11
248.0034599999999
 21
102.51434999999979
 31
0.0
  0
LINE
  5
841
  8
_0-1_HIDDEN
  6
DASHED3
 62
     6
 10
248.0034599999999
 20
102.51434999999979
 30
0.0
 11
247.97546
 21
102.54304999999979
 31
0.0
  0
LINE
  5
842
  8
_0-1_HIDDEN
  6
DASHED3
 62
     6
 10
247.97546
 20
102.54304999999979
 30
0.0
 11
247.94646
 21
102.5680499999999
 31
0.0
  0
LINE
  5
843
  8
_0-1_HIDDEN
  6
DASHED3
 62
     6
 10
247.94646
 20
102.5680499999999
 30
0.0
 11
247.91745999999989
 21
102.58935
 31
0.0
  0
LINE
  5
844
  8
_0-1_HIDDEN
  6
DASHED3
 62
     6
 10
247.91745999999989
 20
102.58935
 30
0.0
 11
247.88746
 21
102.60684999999999
 31
0.0
  0
LINE
  5
845
  8
_0-1_HIDDEN
  6
DASHED3
 62
     6
 10
247.88746
 20
102.60684999999999
 30
0.0
 11
247.85745999999989
 21
102.62044999999991
 31
0.0
  0
LINE
  5
846
  8
_0-1_HIDDEN
  6
DASHED3
 62
     6
 10
247.85745999999989
 20
102.62044999999991
 30
0.0
 11
247.82746
 21
102.63025
 31
0.0
  0
LINE
  5
847
  8
_0-1_HIDDEN
  6
DASHED3
 62
     6
 10
247.82746
 20
102.63025
 30
0.0
 11
247.79746
 21
102.6361499999999
 31
0.0
  0
LINE
  5
848
  8
_0-1_HIDDEN
  6
DASHED3
 62
     6
 10
247.79746
 20
102.6361499999999
 30
0.0
 11
247.76646
 21
102.63805000000001
 31
0.0
  0
ARC
  5
849
  8
_0-0_0
  6
CONTINUOUS
 62
     5
 10
136.12518
 20
144.4354899999999
 30
0.0
 40
4.6845948999999987
 50
168.3989099999998
 51
178.6572899999999
  0
ARC
  5
84A
  8
_0-0_0
  6
CONTINUOUS
 62
     5
 10
136.19597999999991
 20
143.78865999999991
 30
0.0
 40
4.7555717
 50
181.41945000000001
 51
191.52432999999999
  0
ARC
  5
84B
  8
_0-0_0
  6
CONTINUOUS
 62
     5
 10
136.5603899999999
 20
123.74336
 30
0.0
 40
5.1214431999999981
 50
168.81166999999991
 51
177.46397999999991
  0
ARC
  5
84C
  8
_0-0_0
  6
CONTINUOUS
 62
     5
 10
136.57403999999991
 20
123.19351999999991
 30
0.0
 40
5.1351468000000002
 50
182.54438999999999
 51
191.17692
  0
ARC
  5
84D
  8
_0-0_0
  6
CONTINUOUS
 62
     5
 10
159.69318000000001
 20
116.7519699999999
 30
0.0
 40
4.9227841000000003
 50
163.90305000000001
 51
177.92659999999981
  0
ARC
  5
84E
  8
_0-0_0
  6
CONTINUOUS
 62
     5
 10
159.72901999999991
 20
115.8301399999998
 30
0.0
 40
4.9588042999999979
 50
182.12457000000001
 51
196.04575
  0
ARC
  5
84F
  8
_0-0_0
  6
CONTINUOUS
 62
     5
 10
133.3519399999999
 20
144.63998999999981
 30
0.0
 40
1.9124198999999991
 50
182.83920000000001
 51
187.56982999999991
  0
ARC
  5
850
  8
_0-0_0
  6
CONTINUOUS
 62
     5
 10
133.3118399999999
 20
143.57978
 30
0.0
 40
1.872182199999999
 50
172.37929
 51
177.21165999999991
  0
ARC
  5
851
  8
_0-0_0
  6
CONTINUOUS
 62
     5
 10
132.34962999999991
 20
123.90825
 30
0.0
 40
0.9077638999999999
 50
176.10092999999981
 51
190.1925
  0
ARC
  5
852
  8
_0-0_0
  6
CONTINUOUS
 62
     5
 10
132.3490799999999
 20
123.02703
 30
0.0
 40
0.9072146
 50
169.80447000000001
 51
183.88567
  0
ARC
  5
853
  8
_0-0_0
  6
CONTINUOUS
 62
     5
 10
156.59603000000001
 20
117.05856
 30
0.0
 40
1.8269308
 50
184.0328299999999
 51
195.56977000000001
  0
ARC
  5
854
  8
_0-0_0
  6
CONTINUOUS
 62
     5
 10
156.5960399999999
 20
115.5178199999999
 30
0.0
 40
1.8269409999999979
 50
164.43026
 51
175.96712999999991
  0
ARC
  5
855
  8
_0-0_0
  6
CONTINUOUS
 62
     5
 10
353.45774999999992
 20
150.98824999999991
 30
0.0
 40
2.499797899999999
 50
359.99860999999993
 51
90.001389000000003
  0
ARC
  5
856
  8
_0-0_0
  6
CONTINUOUS
 62
     5
 10
316.36061999999993
 20
144.79445000000001
 30
0.0
 40
1.0030774
 50
134.50077999999991
 51
179.9066
  0
ARC
  5
857
  8
_0-0_0
  6
CONTINUOUS
 62
     5
 10
316.39445999999992
 20
144.87828999999991
 30
0.0
 40
1.0369118999999991
 50
135.29021
 51
180.02631999999991
  0
ARC
  5
858
  8
_0-0_0
  6
CONTINUOUS
 62
     5
 10
324.04410999999982
 20
152.46965
 30
0.0
 40
1.0184109999999991
 50
89.696150000000003
 51
135.13737
  0
ARC
  5
859
  8
_0-0_0
  6
CONTINUOUS
 62
     5
 10
331.99678999999992
 20
110.9644799999999
 30
0.0
 40
1.1749994999999991
 50
312.58584000000002
 51
324.85187999999982
  0
ARC
  5
85A
  8
_0-0_0
  6
CONTINUOUS
 62
     5
 10
332.75527
 20
110.14695
 30
0.0
 40
0.0600457
 50
281.20377999999999
 51
307.6001
  0
ARC
  5
85B
  8
_0-0_0
  6
CONTINUOUS
 62
     5
 10
326.70862
 20
111.1272899999999
 30
0.0
 40
1.4245401
 50
216.09572
 51
226.01059000000001
  0
ARC
  5
85C
  8
_0-0_0
  6
CONTINUOUS
 62
     5
 10
325.76020999999992
 20
110.1486699999999
 30
0.0
 40
0.0618113
 50
228.49345
 51
258.76038999999992
  0
ARC
  5
85D
  8
_0-0_0
  6
CONTINUOUS
 62
     5
 10
315.86390999999992
 20
110.28852999999999
 30
0.0
 40
0.5004876000000003
 50
180.05579
 51
269.94420000000002
  0
ARC
  5
85E
  8
_0-0_0
  6
CONTINUOUS
 62
     5
 10
354.95927
 20
121.57962999999999
 30
0.0
 40
0.9982807000000001
 50
314.38556
 51
0.0218282
  0
ARC
  5
85F
  8
_0-0_0
  6
CONTINUOUS
 62
     5
 10
354.91951999999992
 20
121.49826
 30
0.0
 40
1.0380228
 50
315.31543999999991
 51
0.0010986
  0
ARC
  5
860
  8
_0-0_0
  6
CONTINUOUS
 62
     5
 10
343.35816
 20
112.39388
 30
0.0
 40
0.5000770000000001
 50
90.008826999999982
 51
180.00253000000001
  0
LINE
  5
861
  8
_0-0_0
  6
CONTINUOUS
 62
     5
 10
342.85811000000001
 20
112.58163999999979
 30
0.0
 11
342.85807999999992
 21
112.5763199999999
 31
0.0
  0
ARC
  5
862
  8
_0-0_0
  6
CONTINUOUS
 62
     5
 10
347.26596000000001
 20
113.88633
 30
0.0
 40
0.9982807000000001
 50
269.97816999999992
 51
315.61442999999991
  0
LINE
  5
863
  8
_0-1_HIDDEN
  6
DASHED3
 62
     6
 10
178.47146000000001
 20
100.33805
 30
0.0
 11
178.51346000000001
 21
100.34045
 31
0.0
  0
LINE
  5
864
  8
_0-1_HIDDEN
  6
DASHED3
 62
     6
 10
178.51346000000001
 20
100.34045
 30
0.0
 11
178.55546000000001
 21
100.34735000000001
 31
0.0
  0
LINE
  5
865
  8
_0-1_HIDDEN
  6
DASHED3
 62
     6
 10
178.55546000000001
 20
100.34735000000001
 30
0.0
 11
178.59746000000001
 21
100.35854999999999
 31
0.0
  0
LINE
  5
866
  8
_0-1_HIDDEN
  6
DASHED3
 62
     6
 10
178.59746000000001
 20
100.35854999999999
 30
0.0
 11
178.63846000000001
 21
100.3740499999999
 31
0.0
  0
LINE
  5
867
  8
_0-1_HIDDEN
  6
DASHED3
 62
     6
 10
178.63846000000001
 20
100.3740499999999
 30
0.0
 11
178.68046000000001
 21
100.39385
 31
0.0
  0
LINE
  5
868
  8
_0-1_HIDDEN
  6
DASHED3
 62
     6
 10
178.68046000000001
 20
100.39385
 30
0.0
 11
178.72046
 21
100.41804999999979
 31
0.0
  0
LINE
  5
869
  8
_0-1_HIDDEN
  6
DASHED3
 62
     6
 10
178.72046
 20
100.41804999999979
 30
0.0
 11
178.76045999999991
 21
100.4463499999999
 31
0.0
  0
LINE
  5
86A
  8
_0-1_HIDDEN
  6
DASHED3
 62
     6
 10
178.76045999999991
 20
100.4463499999999
 30
0.0
 11
178.79946000000001
 21
100.47875000000001
 31
0.0
  0
LINE
  5
86B
  8
_0-1_HIDDEN
  6
DASHED3
 62
     6
 10
178.79946000000001
 20
100.47875000000001
 30
0.0
 11
178.83846
 21
100.5152499999999
 31
0.0
  0
LINE
  5
86C
  8
_0-1_HIDDEN
  6
DASHED3
 62
     6
 10
178.83846
 20
100.5152499999999
 30
0.0
 11
178.87546
 21
100.55575
 31
0.0
  0
LINE
  5
86D
  8
_0-1_HIDDEN
  6
DASHED3
 62
     6
 10
178.87546
 20
100.55575
 30
0.0
 11
178.91246000000001
 21
100.60005
 31
0.0
  0
LINE
  5
86E
  8
_0-1_HIDDEN
  6
DASHED3
 62
     6
 10
178.91246000000001
 20
100.60005
 30
0.0
 11
178.94746000000001
 21
100.64815
 31
0.0
  0
LINE
  5
86F
  8
_0-1_HIDDEN
  6
DASHED3
 62
     6
 10
178.94746000000001
 20
100.64815
 30
0.0
 11
178.98145999999991
 21
100.69995
 31
0.0
  0
LINE
  5
870
  8
_0-1_HIDDEN
  6
DASHED3
 62
     6
 10
178.98145999999991
 20
100.69995
 30
0.0
 11
179.01446000000001
 21
100.75525
 31
0.0
  0
LINE
  5
871
  8
_0-1_HIDDEN
  6
DASHED3
 62
     6
 10
179.01446000000001
 20
100.75525
 30
0.0
 11
179.04645999999991
 21
100.81385
 31
0.0
  0
LINE
  5
872
  8
_0-1_HIDDEN
  6
DASHED3
 62
     6
 10
179.04645999999991
 20
100.81385
 30
0.0
 11
179.07645999999991
 21
100.87585
 31
0.0
  0
LINE
  5
873
  8
_0-1_HIDDEN
  6
DASHED3
 62
     6
 10
179.07645999999991
 20
100.87585
 30
0.0
 11
179.10545999999999
 21
100.9408499999999
 31
0.0
  0
LINE
  5
874
  8
_0-1_HIDDEN
  6
DASHED3
 62
     6
 10
179.10545999999999
 20
100.9408499999999
 30
0.0
 11
179.13246000000001
 21
101.00875000000001
 31
0.0
  0
LINE
  5
875
  8
_0-1_HIDDEN
  6
DASHED3
 62
     6
 10
179.13246000000001
 20
101.00875000000001
 30
0.0
 11
179.15845999999999
 21
101.0795499999999
 31
0.0
  0
LINE
  5
876
  8
_0-1_HIDDEN
  6
DASHED3
 62
     6
 10
179.15845999999999
 20
101.0795499999999
 30
0.0
 11
179.1814599999999
 21
101.15285
 31
0.0
  0
LINE
  5
877
  8
_0-1_HIDDEN
  6
DASHED3
 62
     6
 10
179.1814599999999
 20
101.15285
 30
0.0
 11
179.20446000000001
 21
101.22865
 31
0.0
  0
LINE
  5
878
  8
_0-1_HIDDEN
  6
DASHED3
 62
     6
 10
179.20446000000001
 20
101.22865
 30
0.0
 11
179.22445999999999
 21
101.30665
 31
0.0
  0
LINE
  5
879
  8
_0-1_HIDDEN
  6
DASHED3
 62
     6
 10
179.22445999999999
 20
101.30665
 30
0.0
 11
179.24345999999991
 21
101.38675000000001
 31
0.0
  0
LINE
  5
87A
  8
_0-1_HIDDEN
  6
DASHED3
 62
     6
 10
179.24345999999991
 20
101.38675000000001
 30
0.0
 11
179.2594599999999
 21
101.4687499999999
 31
0.0
  0
LINE
  5
87B
  8
_0-1_HIDDEN
  6
DASHED3
 62
     6
 10
179.2594599999999
 20
101.4687499999999
 30
0.0
 11
179.27445999999981
 21
101.55235
 31
0.0
  0
LINE
  5
87C
  8
_0-1_HIDDEN
  6
DASHED3
 62
     6
 10
179.27445999999981
 20
101.55235
 30
0.0
 11
179.28746000000001
 21
101.6374499999999
 31
0.0
  0
LINE
  5
87D
  8
_0-1_HIDDEN
  6
DASHED3
 62
     6
 10
179.28746000000001
 20
101.6374499999999
 30
0.0
 11
179.2974599999998
 21
101.7238499999999
 31
0.0
  0
LINE
  5
87E
  8
_0-1_HIDDEN
  6
DASHED3
 62
     6
 10
179.2974599999998
 20
101.7238499999999
 30
0.0
 11
179.3064599999999
 21
101.8112499999999
 31
0.0
  0
LINE
  5
87F
  8
_0-1_HIDDEN
  6
DASHED3
 62
     6
 10
179.3064599999999
 20
101.8112499999999
 30
0.0
 11
179.31345999999991
 21
101.89955
 31
0.0
  0
LINE
  5
880
  8
_0-1_HIDDEN
  6
DASHED3
 62
     6
 10
179.31345999999991
 20
101.89955
 30
0.0
 11
179.31845999999999
 21
101.98845
 31
0.0
  0
LINE
  5
881
  8
_0-1_HIDDEN
  6
DASHED3
 62
     6
 10
179.31845999999999
 20
101.98845
 30
0.0
 11
179.32045999999991
 21
102.0777499999999
 31
0.0
  0
LINE
  5
882
  8
_0-1_HIDDEN
  6
DASHED3
 62
     6
 10
179.32045999999991
 20
102.0777499999999
 30
0.0
 11
179.3214599999998
 21
102.1672499999999
 31
0.0
  0
LINE
  5
883
  8
_0-1_HIDDEN
  6
DASHED3
 62
     6
 10
179.3214599999998
 20
102.1672499999999
 30
0.0
 11
179.31945999999991
 21
102.2568499999999
 31
0.0
  0
LINE
  5
884
  8
_0-1_HIDDEN
  6
DASHED3
 62
     6
 10
179.31945999999991
 20
102.2568499999999
 30
0.0
 11
179.31646000000001
 21
102.34605000000001
 31
0.0
  0
LINE
  5
885
  8
_0-1_HIDDEN
  6
DASHED3
 62
     6
 10
179.31646000000001
 20
102.34605000000001
 30
0.0
 11
179.31046000000001
 21
102.43495
 31
0.0
  0
LINE
  5
886
  8
_0-1_HIDDEN
  6
DASHED3
 62
     6
 10
179.31046000000001
 20
102.43495
 30
0.0
 11
179.30246
 21
102.52315
 31
0.0
  0
LINE
  5
887
  8
_0-1_HIDDEN
  6
DASHED3
 62
     6
 10
179.30246
 20
102.52315
 30
0.0
 11
179.29346000000001
 21
102.6104499999999
 31
0.0
  0
LINE
  5
888
  8
_0-1_HIDDEN
  6
DASHED3
 62
     6
 10
179.29346000000001
 20
102.6104499999999
 30
0.0
 11
179.2814599999999
 21
102.69665000000001
 31
0.0
  0
LINE
  5
889
  8
_0-1_HIDDEN
  6
DASHED3
 62
     6
 10
179.2814599999999
 20
102.69665000000001
 30
0.0
 11
179.2674599999998
 21
102.7816499999999
 31
0.0
  0
LINE
  5
88A
  8
_0-1_HIDDEN
  6
DASHED3
 62
     6
 10
179.2674599999998
 20
102.7816499999999
 30
0.0
 11
179.25146000000001
 21
102.86515
 31
0.0
  0
LINE
  5
88B
  8
_0-1_HIDDEN
  6
DASHED3
 62
     6
 10
179.25146000000001
 20
102.86515
 30
0.0
 11
179.23446000000001
 21
102.9468499999999
 31
0.0
  0
LINE
  5
88C
  8
_0-1_HIDDEN
  6
DASHED3
 62
     6
 10
179.23446000000001
 20
102.9468499999999
 30
0.0
 11
179.21446
 21
103.02675000000001
 31
0.0
  0
LINE
  5
88D
  8
_0-1_HIDDEN
  6
DASHED3
 62
     6
 10
179.21446
 20
103.02675000000001
 30
0.0
 11
179.1934599999999
 21
103.10455
 31
0.0
  0
LINE
  5
88E
  8
_0-1_HIDDEN
  6
DASHED3
 62
     6
 10
179.1934599999999
 20
103.10455
 30
0.0
 11
179.17045999999991
 21
103.1800499999998
 31
0.0
  0
LINE
  5
88F
  8
_0-1_HIDDEN
  6
DASHED3
 62
     6
 10
179.17045999999991
 20
103.1800499999998
 30
0.0
 11
179.14546000000001
 21
103.25315000000001
 31
0.0
  0
LINE
  5
890
  8
_0-1_HIDDEN
  6
DASHED3
 62
     6
 10
179.14546000000001
 20
103.25315000000001
 30
0.0
 11
179.11946
 21
103.32365
 31
0.0
  0
LINE
  5
891
  8
_0-1_HIDDEN
  6
DASHED3
 62
     6
 10
179.11946
 20
103.32365
 30
0.0
 11
179.09146000000001
 21
103.39125
 31
0.0
  0
LINE
  5
892
  8
_0-1_HIDDEN
  6
DASHED3
 62
     6
 10
179.09146000000001
 20
103.39125
 30
0.0
 11
179.0624599999999
 21
103.45595
 31
0.0
  0
LINE
  5
893
  8
_0-1_HIDDEN
  6
DASHED3
 62
     6
 10
179.0624599999999
 20
103.45595
 30
0.0
 11
179.03146000000001
 21
103.51755
 31
0.0
  0
LINE
  5
894
  8
_0-1_HIDDEN
  6
DASHED3
 62
     6
 10
179.03146000000001
 20
103.51755
 30
0.0
 11
178.99845999999991
 21
103.57585
 31
0.0
  0
LINE
  5
895
  8
_0-1_HIDDEN
  6
DASHED3
 62
     6
 10
178.99845999999991
 20
103.57585
 30
0.0
 11
178.96546000000001
 21
103.63075000000001
 31
0.0
  0
LINE
  5
896
  8
_0-1_HIDDEN
  6
DASHED3
 62
     6
 10
178.96546000000001
 20
103.63075000000001
 30
0.0
 11
178.93046000000001
 21
103.68214999999979
 31
0.0
  0
LINE
  5
897
  8
_0-1_HIDDEN
  6
DASHED3
 62
     6
 10
178.93046000000001
 20
103.68214999999979
 30
0.0
 11
178.89446000000001
 21
103.7298499999999
 31
0.0
  0
LINE
  5
898
  8
_0-1_HIDDEN
  6
DASHED3
 62
     6
 10
178.89446000000001
 20
103.7298499999999
 30
0.0
 11
178.85746
 21
103.77374999999979
 31
0.0
  0
LINE
  5
899
  8
_0-1_HIDDEN
  6
DASHED3
 62
     6
 10
178.85746
 20
103.77374999999979
 30
0.0
 11
178.81945999999991
 21
103.81385
 31
0.0
  0
LINE
  5
89A
  8
_0-1_HIDDEN
  6
DASHED3
 62
     6
 10
178.81945999999991
 20
103.81385
 30
0.0
 11
178.78046000000001
 21
103.84995000000001
 31
0.0
  0
LINE
  5
89B
  8
_0-1_HIDDEN
  6
DASHED3
 62
     6
 10
178.78046000000001
 20
103.84995000000001
 30
0.0
 11
178.7414599999999
 21
103.88195
 31
0.0
  0
LINE
  5
89C
  8
_0-1_HIDDEN
  6
DASHED3
 62
     6
 10
178.7414599999999
 20
103.88195
 30
0.0
 11
178.70146
 21
103.90975
 31
0.0
  0
LINE
  5
89D
  8
_0-1_HIDDEN
  6
DASHED3
 62
     6
 10
178.70146
 20
103.90975
 30
0.0
 11
178.6604599999998
 21
103.93344999999999
 31
0.0
  0
LINE
  5
89E
  8
_0-1_HIDDEN
  6
DASHED3
 62
     6
 10
178.6604599999998
 20
103.93344999999999
 30
0.0
 11
178.61846
 21
103.95285
 31
0.0
  0
LINE
  5
89F
  8
_0-1_HIDDEN
  6
DASHED3
 62
     6
 10
178.61846
 20
103.95285
 30
0.0
 11
178.57746
 21
103.96795
 31
0.0
  0
LINE
  5
8A0
  8
_0-1_HIDDEN
  6
DASHED3
 62
     6
 10
178.57746
 20
103.96795
 30
0.0
 11
178.5354599999998
 21
103.9786499999999
 31
0.0
  0
LINE
  5
8A1
  8
_0-1_HIDDEN
  6
DASHED3
 62
     6
 10
178.5354599999998
 20
103.9786499999999
 30
0.0
 11
178.49345999999991
 21
103.98495
 31
0.0
  0
LINE
  5
8A2
  8
_0-1_HIDDEN
  6
DASHED3
 62
     6
 10
178.49345999999991
 20
103.98495
 30
0.0
 11
178.45045999999991
 21
103.98694999999999
 31
0.0
  0
LINE
  5
8A3
  8
_0-1_HIDDEN
  6
DASHED3
 62
     6
 10
178.45045999999991
 20
103.98694999999999
 30
0.0
 11
178.40845999999991
 21
103.9845499999999
 31
0.0
  0
LINE
  5
8A4
  8
_0-1_HIDDEN
  6
DASHED3
 62
     6
 10
178.40845999999991
 20
103.9845499999999
 30
0.0
 11
178.3664599999999
 21
103.9776499999998
 31
0.0
  0
LINE
  5
8A5
  8
_0-1_HIDDEN
  6
DASHED3
 62
     6
 10
178.3664599999999
 20
103.9776499999998
 30
0.0
 11
178.3244599999999
 21
103.9664499999999
 31
0.0
  0
LINE
  5
8A6
  8
_0-1_HIDDEN
  6
DASHED3
 62
     6
 10
178.3244599999999
 20
103.9664499999999
 30
0.0
 11
178.28345999999991
 21
103.95095000000001
 31
0.0
  0
LINE
  5
8A7
  8
_0-1_HIDDEN
  6
DASHED3
 62
     6
 10
178.28345999999991
 20
103.95095000000001
 30
0.0
 11
178.24245999999991
 21
103.9311499999999
 31
0.0
  0
LINE
  5
8A8
  8
_0-1_HIDDEN
  6
DASHED3
 62
     6
 10
178.24245999999991
 20
103.9311499999999
 30
0.0
 11
178.20146
 21
103.9069499999999
 31
0.0
  0
LINE
  5
8A9
  8
_0-1_HIDDEN
  6
DASHED3
 62
     6
 10
178.20146
 20
103.9069499999999
 30
0.0
 11
178.16146000000001
 21
103.87864999999999
 31
0.0
  0
LINE
  5
8AA
  8
_0-1_HIDDEN
  6
DASHED3
 62
     6
 10
178.16146000000001
 20
103.87864999999999
 30
0.0
 11
178.1224599999999
 21
103.84625
 31
0.0
  0
LINE
  5
8AB
  8
_0-1_HIDDEN
  6
DASHED3
 62
     6
 10
178.1224599999999
 20
103.84625
 30
0.0
 11
178.08445999999981
 21
103.8097499999998
 31
0.0
  0
LINE
  5
8AC
  8
_0-1_HIDDEN
  6
DASHED3
 62
     6
 10
178.08445999999981
 20
103.8097499999998
 30
0.0
 11
178.04645999999991
 21
103.7692499999999
 31
0.0
  0
LINE
  5
8AD
  8
_0-1_HIDDEN
  6
DASHED3
 62
     6
 10
178.04645999999991
 20
103.7692499999999
 30
0.0
 11
178.01045999999999
 21
103.72495000000001
 31
0.0
  0
LINE
  5
8AE
  8
_0-1_HIDDEN
  6
DASHED3
 62
     6
 10
178.01045999999999
 20
103.72495000000001
 30
0.0
 11
177.97445999999991
 21
103.6768499999999
 31
0.0
  0
LINE
  5
8AF
  8
_0-1_HIDDEN
  6
DASHED3
 62
     6
 10
177.97445999999991
 20
103.6768499999999
 30
0.0
 11
177.94046
 21
103.6250499999999
 31
0.0
  0
LINE
  5
8B0
  8
_0-1_HIDDEN
  6
DASHED3
 62
     6
 10
177.94046
 20
103.6250499999999
 30
0.0
 11
177.9074599999999
 21
103.5697499999999
 31
0.0
  0
LINE
  5
8B1
  8
_0-1_HIDDEN
  6
DASHED3
 62
     6
 10
177.9074599999999
 20
103.5697499999999
 30
0.0
 11
177.87646000000001
 21
103.5111499999999
 31
0.0
  0
LINE
  5
8B2
  8
_0-1_HIDDEN
  6
DASHED3
 62
     6
 10
177.87646000000001
 20
103.5111499999999
 30
0.0
 11
177.84546
 21
103.44915
 31
0.0
  0
LINE
  5
8B3
  8
_0-1_HIDDEN
  6
DASHED3
 62
     6
 10
177.84546
 20
103.44915
 30
0.0
 11
177.81746000000001
 21
103.38415000000001
 31
0.0
  0
LINE
  5
8B4
  8
_0-1_HIDDEN
  6
DASHED3
 62
     6
 10
177.81746000000001
 20
103.38415000000001
 30
0.0
 11
177.78945999999991
 21
103.3162499999999
 31
0.0
  0
LINE
  5
8B5
  8
_0-1_HIDDEN
  6
DASHED3
 62
     6
 10
177.78945999999991
 20
103.3162499999999
 30
0.0
 11
177.76446000000001
 21
103.24545000000001
 31
0.0
  0
LINE
  5
8B6
  8
_0-1_HIDDEN
  6
DASHED3
 62
     6
 10
177.76446000000001
 20
103.24545000000001
 30
0.0
 11
177.74046000000001
 21
103.1721499999999
 31
0.0
  0
LINE
  5
8B7
  8
_0-1_HIDDEN
  6
DASHED3
 62
     6
 10
177.74046000000001
 20
103.1721499999999
 30
0.0
 11
177.71845999999999
 21
103.0963499999999
 31
0.0
  0
LINE
  5
8B8
  8
_0-1_HIDDEN
  6
DASHED3
 62
     6
 10
177.71845999999999
 20
103.0963499999999
 30
0.0
 11
177.69746000000001
 21
103.0183499999999
 31
0.0
  0
LINE
  5
8B9
  8
_0-1_HIDDEN
  6
DASHED3
 62
     6
 10
177.69746000000001
 20
103.0183499999999
 30
0.0
 11
177.67946000000001
 21
102.93825
 31
0.0
  0
LINE
  5
8BA
  8
_0-1_HIDDEN
  6
DASHED3
 62
     6
 10
177.67946000000001
 20
102.93825
 30
0.0
 11
177.66246000000001
 21
102.85625
 31
0.0
  0
LINE
  5
8BB
  8
_0-1_HIDDEN
  6
DASHED3
 62
     6
 10
177.66246000000001
 20
102.85625
 30
0.0
 11
177.64746
 21
102.7726499999999
 31
0.0
  0
LINE
  5
8BC
  8
_0-1_HIDDEN
  6
DASHED3
 62
     6
 10
177.64746
 20
102.7726499999999
 30
0.0
 11
177.63545999999991
 21
102.68755
 31
0.0
  0
LINE
  5
8BD
  8
_0-1_HIDDEN
  6
DASHED3
 62
     6
 10
177.63545999999991
 20
102.68755
 30
0.0
 11
177.62446
 21
102.60115
 31
0.0
  0
LINE
  5
8BE
  8
_0-1_HIDDEN
  6
DASHED3
 62
     6
 10
177.62446
 20
102.60115
 30
0.0
 11
177.61546000000001
 21
102.51375
 31
0.0
  0
LINE
  5
8BF
  8
_0-1_HIDDEN
  6
DASHED3
 62
     6
 10
177.61546000000001
 20
102.51375
 30
0.0
 11
177.60846000000001
 21
102.42545
 31
0.0
  0
LINE
  5
8C0
  8
_0-1_HIDDEN
  6
DASHED3
 62
     6
 10
177.60846000000001
 20
102.42545
 30
0.0
 11
177.6044599999999
 21
102.33655
 31
0.0
  0
LINE
  5
8C1
  8
_0-1_HIDDEN
  6
DASHED3
 62
     6
 10
177.6044599999999
 20
102.33655
 30
0.0
 11
177.60146
 21
102.2472499999998
 31
0.0
  0
LINE
  5
8C2
  8
_0-1_HIDDEN
  6
DASHED3
 62
     6
 10
177.60146
 20
102.2472499999998
 30
0.0
 11
177.60146
 21
102.15774999999999
 31
0.0
  0
LINE
  5
8C3
  8
_0-1_HIDDEN
  6
DASHED3
 62
     6
 10
177.60146
 20
102.15774999999999
 30
0.0
 11
177.60246000000001
 21
102.06815
 31
0.0
  0
LINE
  5
8C4
  8
_0-1_HIDDEN
  6
DASHED3
 62
     6
 10
177.60246000000001
 20
102.06815
 30
0.0
 11
177.60645999999991
 21
101.9789499999999
 31
0.0
  0
LINE
  5
8C5
  8
_0-1_HIDDEN
  6
DASHED3
 62
     6
 10
177.60645999999991
 20
101.9789499999999
 30
0.0
 11
177.61145999999991
 21
101.8900499999999
 31
0.0
  0
LINE
  5
8C6
  8
_0-1_HIDDEN
  6
DASHED3
 62
     6
 10
177.61145999999991
 20
101.8900499999999
 30
0.0
 11
177.61946
 21
101.8018499999999
 31
0.0
  0
LINE
  5
8C7
  8
_0-1_HIDDEN
  6
DASHED3
 62
     6
 10
177.61946
 20
101.8018499999999
 30
0.0
 11
177.62945999999991
 21
101.71455
 31
0.0
  0
LINE
  5
8C8
  8
_0-1_HIDDEN
  6
DASHED3
 62
     6
 10
177.62945999999991
 20
101.71455
 30
0.0
 11
177.64146
 21
101.6283499999999
 31
0.0
  0
LINE
  5
8C9
  8
_0-1_HIDDEN
  6
DASHED3
 62
     6
 10
177.64146
 20
101.6283499999999
 30
0.0
 11
177.65446
 21
101.54335
 31
0.0
  0
LINE
  5
8CA
  8
_0-1_HIDDEN
  6
DASHED3
 62
     6
 10
177.65446
 20
101.54335
 30
0.0
 11
177.67045999999991
 21
101.4598499999999
 31
0.0
  0
LINE
  5
8CB
  8
_0-1_HIDDEN
  6
DASHED3
 62
     6
 10
177.67045999999991
 20
101.4598499999999
 30
0.0
 11
177.68745999999999
 21
101.37815000000001
 31
0.0
  0
LINE
  5
8CC
  8
_0-1_HIDDEN
  6
DASHED3
 62
     6
 10
177.68745999999999
 20
101.37815000000001
 30
0.0
 11
177.70745999999991
 21
101.2982499999999
 31
0.0
  0
LINE
  5
8CD
  8
_0-1_HIDDEN
  6
DASHED3
 62
     6
 10
177.70745999999991
 20
101.2982499999999
 30
0.0
 11
177.72846000000001
 21
101.2204499999999
 31
0.0
  0
LINE
  5
8CE
  8
_0-1_HIDDEN
  6
DASHED3
 62
     6
 10
177.72846000000001
 20
101.2204499999999
 30
0.0
 11
177.75146000000001
 21
101.1449499999998
 31
0.0
  0
LINE
  5
8CF
  8
_0-1_HIDDEN
  6
DASHED3
 62
     6
 10
177.75146000000001
 20
101.1449499999998
 30
0.0
 11
177.7764599999999
 21
101.07185
 31
0.0
  0
LINE
  5
8D0
  8
_0-1_HIDDEN
  6
DASHED3
 62
     6
 10
177.7764599999999
 20
101.07185
 30
0.0
 11
177.80245999999991
 21
101.00135
 31
0.0
  0
LINE
  5
8D1
  8
_0-1_HIDDEN
  6
DASHED3
 62
     6
 10
177.80245999999991
 20
101.00135
 30
0.0
 11
177.83045999999999
 21
100.9337499999999
 31
0.0
  0
LINE
  5
8D2
  8
_0-1_HIDDEN
  6
DASHED3
 62
     6
 10
177.83045999999999
 20
100.9337499999999
 30
0.0
 11
177.8604599999999
 21
100.8690499999999
 31
0.0
  0
LINE
  5
8D3
  8
_0-1_HIDDEN
  6
DASHED3
 62
     6
 10
177.8604599999999
 20
100.8690499999999
 30
0.0
 11
177.89146
 21
100.8074499999999
 31
0.0
  0
LINE
  5
8D4
  8
_0-1_HIDDEN
  6
DASHED3
 62
     6
 10
177.89146
 20
100.8074499999999
 30
0.0
 11
177.92346000000001
 21
100.7491499999999
 31
0.0
  0
LINE
  5
8D5
  8
_0-1_HIDDEN
  6
DASHED3
 62
     6
 10
177.92346000000001
 20
100.7491499999999
 30
0.0
 11
177.95645999999999
 21
100.69425
 31
0.0
  0
LINE
  5
8D6
  8
_0-1_HIDDEN
  6
DASHED3
 62
     6
 10
177.95645999999999
 20
100.69425
 30
0.0
 11
177.9914599999999
 21
100.6428499999999
 31
0.0
  0
LINE
  5
8D7
  8
_0-1_HIDDEN
  6
DASHED3
 62
     6
 10
177.9914599999999
 20
100.6428499999999
 30
0.0
 11
178.02745999999999
 21
100.59515
 31
0.0
  0
LINE
  5
8D8
  8
_0-1_HIDDEN
  6
DASHED3
 62
     6
 10
178.02745999999999
 20
100.59515
 30
0.0
 11
178.06446
 21
100.55125
 31
0.0
  0
LINE
  5
8D9
  8
_0-1_HIDDEN
  6
DASHED3
 62
     6
 10
178.06446
 20
100.55125
 30
0.0
 11
178.10246000000001
 21
100.5111499999999
 31
0.0
  0
LINE
  5
8DA
  8
_0-1_HIDDEN
  6
DASHED3
 62
     6
 10
178.10246000000001
 20
100.5111499999999
 30
0.0
 11
178.14146
 21
100.4750499999999
 31
0.0
  0
LINE
  5
8DB
  8
_0-1_HIDDEN
  6
DASHED3
 62
     6
 10
178.14146
 20
100.4750499999999
 30
0.0
 11
178.18046000000001
 21
100.44305
 31
0.0
  0
LINE
  5
8DC
  8
_0-1_HIDDEN
  6
DASHED3
 62
     6
 10
178.18046000000001
 20
100.44305
 30
0.0
 11
178.22146000000001
 21
100.41525
 31
0.0
  0
LINE
  5
8DD
  8
_0-1_HIDDEN
  6
DASHED3
 62
     6
 10
178.22146000000001
 20
100.41525
 30
0.0
 11
178.26246
 21
100.3915499999999
 31
0.0
  0
LINE
  5
8DE
  8
_0-1_HIDDEN
  6
DASHED3
 62
     6
 10
178.26246
 20
100.3915499999999
 30
0.0
 11
178.30346
 21
100.37215
 31
0.0
  0
LINE
  5
8DF
  8
_0-1_HIDDEN
  6
DASHED3
 62
     6
 10
178.30346
 20
100.37215
 30
0.0
 11
178.3454599999998
 21
100.3570499999999
 31
0.0
  0
LINE
  5
8E0
  8
_0-1_HIDDEN
  6
DASHED3
 62
     6
 10
178.3454599999998
 20
100.3570499999999
 30
0.0
 11
178.38646
 21
100.34635
 31
0.0
  0
LINE
  5
8E1
  8
_0-1_HIDDEN
  6
DASHED3
 62
     6
 10
178.38646
 20
100.34635
 30
0.0
 11
178.42946000000001
 21
100.34005000000001
 31
0.0
  0
LINE
  5
8E2
  8
_0-1_HIDDEN
  6
DASHED3
 62
     6
 10
178.42946000000001
 20
100.34005000000001
 30
0.0
 11
178.47146000000001
 21
100.33805
 31
0.0
  0
LINE
  5
8E3
  8
_0-1_HIDDEN
  6
DASHED3
 62
     6
 10
178.47146000000001
 20
103.9865499999998
 30
0.0
 11
178.49145999999999
 21
103.98715
 31
0.0
  0
LINE
  5
8E4
  8
_0-1_HIDDEN
  6
DASHED3
 62
     6
 10
178.49145999999999
 20
103.98715
 30
0.0
 11
178.51246
 21
103.98875
 31
0.0
  0
LINE
  5
8E5
  8
_0-1_HIDDEN
  6
DASHED3
 62
     6
 10
178.51246
 20
103.98875
 30
0.0
 11
178.5324599999999
 21
103.9915499999999
 31
0.0
  0
LINE
  5
8E6
  8
_0-1_HIDDEN
  6
DASHED3
 62
     6
 10
178.5324599999999
 20
103.9915499999999
 30
0.0
 11
178.55346
 21
103.9953499999999
 31
0.0
  0
LINE
  5
8E7
  8
_0-1_HIDDEN
  6
DASHED3
 62
     6
 10
178.55346
 20
103.9953499999999
 30
0.0
 11
178.57346000000001
 21
104.0002499999998
 31
0.0
  0
LINE
  5
8E8
  8
_0-1_HIDDEN
  6
DASHED3
 62
     6
 10
178.57346000000001
 20
104.0002499999998
 30
0.0
 11
178.59446
 21
104.00635
 31
0.0
  0
LINE
  5
8E9
  8
_0-1_HIDDEN
  6
DASHED3
 62
     6
 10
178.59446
 20
104.00635
 30
0.0
 11
178.61446000000001
 21
104.01345000000001
 31
0.0
  0
LINE
  5
8EA
  8
_0-1_HIDDEN
  6
DASHED3
 62
     6
 10
178.61446000000001
 20
104.01345000000001
 30
0.0
 11
178.6344599999999
 21
104.02164999999979
 31
0.0
  0
LINE
  5
8EB
  8
_0-1_HIDDEN
  6
DASHED3
 62
     6
 10
178.6344599999999
 20
104.02164999999979
 30
0.0
 11
178.65446
 21
104.0309499999999
 31
0.0
  0
LINE
  5
8EC
  8
_0-1_HIDDEN
  6
DASHED3
 62
     6
 10
178.65446
 20
104.0309499999999
 30
0.0
 11
178.67446000000001
 21
104.04124999999991
 31
0.0
  0
LINE
  5
8ED
  8
_0-1_HIDDEN
  6
DASHED3
 62
     6
 10
178.67446000000001
 20
104.04124999999991
 30
0.0
 11
178.69445999999991
 21
104.0526499999999
 31
0.0
  0
LINE
  5
8EE
  8
_0-1_HIDDEN
  6
DASHED3
 62
     6
 10
178.69445999999991
 20
104.0526499999999
 30
0.0
 11
178.7144599999998
 21
104.06515
 31
0.0
  0
LINE
  5
8EF
  8
_0-1_HIDDEN
  6
DASHED3
 62
     6
 10
178.7144599999998
 20
104.06515
 30
0.0
 11
178.73346000000001
 21
104.0787499999999
 31
0.0
  0
LINE
  5
8F0
  8
_0-1_HIDDEN
  6
DASHED3
 62
     6
 10
178.73346000000001
 20
104.0787499999999
 30
0.0
 11
178.7534599999999
 21
104.09325
 31
0.0
  0
LINE
  5
8F1
  8
_0-1_HIDDEN
  6
DASHED3
 62
     6
 10
178.7534599999999
 20
104.09325
 30
0.0
 11
178.77245999999991
 21
104.10885
 31
0.0
  0
LINE
  5
8F2
  8
_0-1_HIDDEN
  6
DASHED3
 62
     6
 10
178.77245999999991
 20
104.10885
 30
0.0
 11
178.79146
 21
104.12555
 31
0.0
  0
LINE
  5
8F3
  8
_0-1_HIDDEN
  6
DASHED3
 62
     6
 10
178.79146
 20
104.12555
 30
0.0
 11
178.81046000000001
 21
104.14315000000001
 31
0.0
  0
LINE
  5
8F4
  8
_0-1_HIDDEN
  6
DASHED3
 62
     6
 10
178.81046000000001
 20
104.14315000000001
 30
0.0
 11
178.82946000000001
 21
104.16185
 31
0.0
  0
LINE
  5
8F5
  8
_0-1_HIDDEN
  6
DASHED3
 62
     6
 10
178.82946000000001
 20
104.16185
 30
0.0
 11
178.84746000000001
 21
104.18145
 31
0.0
  0
LINE
  5
8F6
  8
_0-1_HIDDEN
  6
DASHED3
 62
     6
 10
178.84746000000001
 20
104.18145
 30
0.0
 11
178.86546000000001
 21
104.20215
 31
0.0
  0
LINE
  5
8F7
  8
_0-1_HIDDEN
  6
DASHED3
 62
     6
 10
178.86546000000001
 20
104.20215
 30
0.0
 11
178.88346000000001
 21
104.2237499999999
 31
0.0
  0
LINE
  5
8F8
  8
_0-1_HIDDEN
  6
DASHED3
 62
     6
 10
178.88346000000001
 20
104.2237499999999
 30
0.0
 11
178.9014599999999
 21
104.24634999999979
 31
0.0
  0
LINE
  5
8F9
  8
_0-1_HIDDEN
  6
DASHED3
 62
     6
 10
178.9014599999999
 20
104.24634999999979
 30
0.0
 11
178.9194599999999
 21
104.26984999999991
 31
0.0
  0
LINE
  5
8FA
  8
_0-1_HIDDEN
  6
DASHED3
 62
     6
 10
178.9194599999999
 20
104.26984999999991
 30
0.0
 11
178.93646000000001
 21
104.29425000000001
 31
0.0
  0
LINE
  5
8FB
  8
_0-1_HIDDEN
  6
DASHED3
 62
     6
 10
178.93646000000001
 20
104.29425000000001
 30
0.0
 11
178.95346000000001
 21
104.31955000000001
 31
0.0
  0
LINE
  5
8FC
  8
_0-1_HIDDEN
  6
DASHED3
 62
     6
 10
178.95346000000001
 20
104.31955000000001
 30
0.0
 11
178.97046
 21
104.34585
 31
0.0
  0
LINE
  5
8FD
  8
_0-1_HIDDEN
  6
DASHED3
 62
     6
 10
178.97046
 20
104.34585
 30
0.0
 11
178.98645999999999
 21
104.3729499999999
 31
0.0
  0
LINE
  5
8FE
  8
_0-1_HIDDEN
  6
DASHED3
 62
     6
 10
178.98645999999999
 20
104.3729499999999
 30
0.0
 11
179.00246000000001
 21
104.40094999999999
 31
0.0
  0
LINE
  5
8FF
  8
_0-1_HIDDEN
  6
DASHED3
 62
     6
 10
179.00246000000001
 20
104.40094999999999
 30
0.0
 11
179.01846
 21
104.42985
 31
0.0
  0
LINE
  5
900
  8
_0-1_HIDDEN
  6
DASHED3
 62
     6
 10
179.01846
 20
104.42985
 30
0.0
 11
179.03345999999991
 21
104.45954999999999
 31
0.0
  0
LINE
  5
901
  8
_0-1_HIDDEN
  6
DASHED3
 62
     6
 10
179.03345999999991
 20
104.45954999999999
 30
0.0
 11
179.04846000000001
 21
104.49005
 31
0.0
  0
LINE
  5
902
  8
_0-1_HIDDEN
  6
DASHED3
 62
     6
 10
179.04846000000001
 20
104.49005
 30
0.0
 11
179.06345999999991
 21
104.52135
 31
0.0
  0
LINE
  5
903
  8
_0-1_HIDDEN
  6
DASHED3
 62
     6
 10
179.06345999999991
 20
104.52135
 30
0.0
 11
179.0774599999998
 21
104.5533499999999
 31
0.0
  0
LINE
  5
904
  8
_0-1_HIDDEN
  6
DASHED3
 62
     6
 10
179.0774599999998
 20
104.5533499999999
 30
0.0
 11
179.09146000000001
 21
104.58625000000001
 31
0.0
  0
LINE
  5
905
  8
_0-1_HIDDEN
  6
DASHED3
 62
     6
 10
179.09146000000001
 20
104.58625000000001
 30
0.0
 11
179.10545999999999
 21
104.6197499999999
 31
0.0
  0
LINE
  5
906
  8
_0-1_HIDDEN
  6
DASHED3
 62
     6
 10
179.10545999999999
 20
104.6197499999999
 30
0.0
 11
179.11846
 21
104.65405
 31
0.0
  0
LINE
  5
907
  8
_0-1_HIDDEN
  6
DASHED3
 62
     6
 10
179.11846
 20
104.65405
 30
0.0
 11
179.13145999999981
 21
104.6890499999999
 31
0.0
  0
LINE
  5
908
  8
_0-1_HIDDEN
  6
DASHED3
 62
     6
 10
179.13145999999981
 20
104.6890499999999
 30
0.0
 11
179.14346
 21
104.72475
 31
0.0
  0
LINE
  5
909
  8
_0-1_HIDDEN
  6
DASHED3
 62
     6
 10
179.14346
 20
104.72475
 30
0.0
 11
179.15545999999981
 21
104.76105
 31
0.0
  0
LINE
  5
90A
  8
_0-1_HIDDEN
  6
DASHED3
 62
     6
 10
179.15545999999981
 20
104.76105
 30
0.0
 11
179.16746000000001
 21
104.79795
 31
0.0
  0
LINE
  5
90B
  8
_0-1_HIDDEN
  6
DASHED3
 62
     6
 10
179.16746000000001
 20
104.79795
 30
0.0
 11
179.1784599999998
 21
104.8355499999999
 31
0.0
  0
LINE
  5
90C
  8
_0-1_HIDDEN
  6
DASHED3
 62
     6
 10
179.1784599999998
 20
104.8355499999999
 30
0.0
 11
179.18946
 21
104.8736499999999
 31
0.0
  0
LINE
  5
90D
  8
_0-1_HIDDEN
  6
DASHED3
 62
     6
 10
179.18946
 20
104.8736499999999
 30
0.0
 11
179.1994599999999
 21
104.91235
 31
0.0
  0
LINE
  5
90E
  8
_0-1_HIDDEN
  6
DASHED3
 62
     6
 10
179.1994599999999
 20
104.91235
 30
0.0
 11
179.20946000000001
 21
104.9516499999999
 31
0.0
  0
LINE
  5
90F
  8
_0-1_HIDDEN
  6
DASHED3
 62
     6
 10
179.20946000000001
 20
104.9516499999999
 30
0.0
 11
179.21946
 21
104.99145
 31
0.0
  0
LINE
  5
910
  8
_0-1_HIDDEN
  6
DASHED3
 62
     6
 10
179.21946
 20
104.99145
 30
0.0
 11
179.22846000000001
 21
105.03165
 31
0.0
  0
LINE
  5
911
  8
_0-1_HIDDEN
  6
DASHED3
 62
     6
 10
179.22846000000001
 20
105.03165
 30
0.0
 11
179.23645999999991
 21
105.07245
 31
0.0
  0
LINE
  5
912
  8
_0-1_HIDDEN
  6
DASHED3
 62
     6
 10
179.23645999999991
 20
105.07245
 30
0.0
 11
179.24446
 21
105.11365000000001
 31
0.0
  0
LINE
  5
913
  8
_0-1_HIDDEN
  6
DASHED3
 62
     6
 10
179.24446
 20
105.11365000000001
 30
0.0
 11
179.25246000000001
 21
105.1552499999999
 31
0.0
  0
LINE
  5
914
  8
_0-1_HIDDEN
  6
DASHED3
 62
     6
 10
179.25246000000001
 20
105.1552499999999
 30
0.0
 11
179.2594599999999
 21
105.1972499999999
 31
0.0
  0
LINE
  5
915
  8
_0-1_HIDDEN
  6
DASHED3
 62
     6
 10
179.2594599999999
 20
105.1972499999999
 30
0.0
 11
179.26646
 21
105.23954999999999
 31
0.0
  0
LINE
  5
916
  8
_0-1_HIDDEN
  6
DASHED3
 62
     6
 10
179.26646
 20
105.23954999999999
 30
0.0
 11
179.27245999999991
 21
105.28234999999979
 31
0.0
  0
LINE
  5
917
  8
_0-1_HIDDEN
  6
DASHED3
 62
     6
 10
179.27245999999991
 20
105.28234999999979
 30
0.0
 11
179.27846
 21
105.32535
 31
0.0
  0
LINE
  5
918
  8
_0-1_HIDDEN
  6
DASHED3
 62
     6
 10
179.27846
 20
105.32535
 30
0.0
 11
179.28345999999991
 21
105.3686499999999
 31
0.0
  0
LINE
  5
919
  8
_0-1_HIDDEN
  6
DASHED3
 62
     6
 10
179.28345999999991
 20
105.3686499999999
 30
0.0
 11
179.2884599999999
 21
105.41225
 31
0.0
  0
LINE
  5
91A
  8
_0-1_HIDDEN
  6
DASHED3
 62
     6
 10
179.2884599999999
 20
105.41225
 30
0.0
 11
179.29246000000001
 21
105.45614999999979
 31
0.0
  0
LINE
  5
91B
  8
_0-1_HIDDEN
  6
DASHED3
 62
     6
 10
179.29246000000001
 20
105.45614999999979
 30
0.0
 11
179.29645999999991
 21
105.50015
 31
0.0
  0
LINE
  5
91C
  8
_0-1_HIDDEN
  6
DASHED3
 62
     6
 10
179.29645999999991
 20
105.50015
 30
0.0
 11
179.29946000000001
 21
105.5444499999999
 31
0.0
  0
LINE
  5
91D
  8
_0-1_HIDDEN
  6
DASHED3
 62
     6
 10
179.29946000000001
 20
105.5444499999999
 30
0.0
 11
179.30246
 21
105.58884999999999
 31
0.0
  0
LINE
  5
91E
  8
_0-1_HIDDEN
  6
DASHED3
 62
     6
 10
179.30246
 20
105.58884999999999
 30
0.0
 11
179.30445999999981
 21
105.63334999999999
 31
0.0
  0
LINE
  5
91F
  8
_0-1_HIDDEN
  6
DASHED3
 62
     6
 10
179.30445999999981
 20
105.63334999999999
 30
0.0
 11
179.3064599999999
 21
105.6779499999999
 31
0.0
  0
LINE
  5
920
  8
_0-1_HIDDEN
  6
DASHED3
 62
     6
 10
179.3064599999999
 20
105.6779499999999
 30
0.0
 11
179.30745999999991
 21
105.72274999999991
 31
0.0
  0
LINE
  5
921
  8
_0-1_HIDDEN
  6
DASHED3
 62
     6
 10
179.30745999999991
 20
105.72274999999991
 30
0.0
 11
179.30846
 21
105.76745
 31
0.0
  0
LINE
  5
922
  8
_0-1_HIDDEN
  6
DASHED3
 62
     6
 10
179.30846
 20
105.76745
 30
0.0
 11
179.30846
 21
105.8123499999999
 31
0.0
  0
LINE
  5
923
  8
_0-1_HIDDEN
  6
DASHED3
 62
     6
 10
179.30846
 20
105.8123499999999
 30
0.0
 11
179.30846
 21
105.8571499999999
 31
0.0
  0
LINE
  5
924
  8
_0-1_HIDDEN
  6
DASHED3
 62
     6
 10
179.30846
 20
105.8571499999999
 30
0.0
 11
179.30745999999991
 21
105.90185
 31
0.0
  0
LINE
  5
925
  8
_0-1_HIDDEN
  6
DASHED3
 62
     6
 10
179.30745999999991
 20
105.90185
 30
0.0
 11
179.3064599999999
 21
105.94665000000001
 31
0.0
  0
LINE
  5
926
  8
_0-1_HIDDEN
  6
DASHED3
 62
     6
 10
179.3064599999999
 20
105.94665000000001
 30
0.0
 11
179.30445999999981
 21
105.99124999999999
 31
0.0
  0
LINE
  5
927
  8
_0-1_HIDDEN
  6
DASHED3
 62
     6
 10
179.30445999999981
 20
105.99124999999999
 30
0.0
 11
179.30246
 21
106.03574999999979
 31
0.0
  0
LINE
  5
928
  8
_0-1_HIDDEN
  6
DASHED3
 62
     6
 10
179.30246
 20
106.03574999999979
 30
0.0
 11
179.29946000000001
 21
106.0801499999999
 31
0.0
  0
LINE
  5
929
  8
_0-1_HIDDEN
  6
DASHED3
 62
     6
 10
179.29946000000001
 20
106.0801499999999
 30
0.0
 11
179.29645999999991
 21
106.1244499999999
 31
0.0
  0
LINE
  5
92A
  8
_0-1_HIDDEN
  6
DASHED3
 62
     6
 10
179.29645999999991
 20
106.1244499999999
 30
0.0
 11
179.29246000000001
 21
106.16845000000001
 31
0.0
  0
LINE
  5
92B
  8
_0-1_HIDDEN
  6
DASHED3
 62
     6
 10
179.29246000000001
 20
106.16845000000001
 30
0.0
 11
179.2884599999999
 21
106.2123499999999
 31
0.0
  0
LINE
  5
92C
  8
_0-1_HIDDEN
  6
DASHED3
 62
     6
 10
179.2884599999999
 20
106.2123499999999
 30
0.0
 11
179.28345999999991
 21
106.25595
 31
0.0
  0
LINE
  5
92D
  8
_0-1_HIDDEN
  6
DASHED3
 62
     6
 10
179.28345999999991
 20
106.25595
 30
0.0
 11
179.27846
 21
106.29925
 31
0.0
  0
LINE
  5
92E
  8
_0-1_HIDDEN
  6
DASHED3
 62
     6
 10
179.27846
 20
106.29925
 30
0.0
 11
179.27245999999991
 21
106.34225000000001
 31
0.0
  0
LINE
  5
92F
  8
_0-1_HIDDEN
  6
DASHED3
 62
     6
 10
179.27245999999991
 20
106.34225000000001
 30
0.0
 11
179.26646
 21
106.38505000000001
 31
0.0
  0
LINE
  5
930
  8
_0-1_HIDDEN
  6
DASHED3
 62
     6
 10
179.26646
 20
106.38505000000001
 30
0.0
 11
179.2594599999999
 21
106.42735
 31
0.0
  0
LINE
  5
931
  8
_0-1_HIDDEN
  6
DASHED3
 62
     6
 10
179.2594599999999
 20
106.42735
 30
0.0
 11
179.25246000000001
 21
106.46935000000001
 31
0.0
  0
LINE
  5
932
  8
_0-1_HIDDEN
  6
DASHED3
 62
     6
 10
179.25246000000001
 20
106.46935000000001
 30
0.0
 11
179.24446
 21
106.5109499999998
 31
0.0
  0
LINE
  5
933
  8
_0-1_HIDDEN
  6
DASHED3
 62
     6
 10
179.24446
 20
106.5109499999998
 30
0.0
 11
179.23645999999991
 21
106.55215
 31
0.0
  0
LINE
  5
934
  8
_0-1_HIDDEN
  6
DASHED3
 62
     6
 10
179.23645999999991
 20
106.55215
 30
0.0
 11
179.22846000000001
 21
106.5929499999999
 31
0.0
  0
LINE
  5
935
  8
_0-1_HIDDEN
  6
DASHED3
 62
     6
 10
179.22846000000001
 20
106.5929499999999
 30
0.0
 11
179.21946
 21
106.6331499999999
 31
0.0
  0
LINE
  5
936
  8
_0-1_HIDDEN
  6
DASHED3
 62
     6
 10
179.21946
 20
106.6331499999999
 30
0.0
 11
179.20946000000001
 21
106.67295
 31
0.0
  0
LINE
  5
937
  8
_0-1_HIDDEN
  6
DASHED3
 62
     6
 10
179.20946000000001
 20
106.67295
 30
0.0
 11
179.1994599999999
 21
106.7122499999999
 31
0.0
  0
LINE
  5
938
  8
_0-1_HIDDEN
  6
DASHED3
 62
     6
 10
179.1994599999999
 20
106.7122499999999
 30
0.0
 11
179.18946
 21
106.75095
 31
0.0
  0
LINE
  5
939
  8
_0-1_HIDDEN
  6
DASHED3
 62
     6
 10
179.18946
 20
106.75095
 30
0.0
 11
179.1784599999998
 21
106.78905
 31
0.0
  0
LINE
  5
93A
  8
_0-1_HIDDEN
  6
DASHED3
 62
     6
 10
179.1784599999998
 20
106.78905
 30
0.0
 11
179.16746000000001
 21
106.82665
 31
0.0
  0
LINE
  5
93B
  8
_0-1_HIDDEN
  6
DASHED3
 62
     6
 10
179.16746000000001
 20
106.82665
 30
0.0
 11
179.15545999999981
 21
106.86355
 31
0.0
  0
LINE
  5
93C
  8
_0-1_HIDDEN
  6
DASHED3
 62
     6
 10
179.15545999999981
 20
106.86355
 30
0.0
 11
179.14346
 21
106.8998499999999
 31
0.0
  0
LINE
  5
93D
  8
_0-1_HIDDEN
  6
DASHED3
 62
     6
 10
179.14346
 20
106.8998499999999
 30
0.0
 11
179.13145999999981
 21
106.93555000000001
 31
0.0
  0
LINE
  5
93E
  8
_0-1_HIDDEN
  6
DASHED3
 62
     6
 10
179.13145999999981
 20
106.93555000000001
 30
0.0
 11
179.11846
 21
106.9705499999999
 31
0.0
  0
LINE
  5
93F
  8
_0-1_HIDDEN
  6
DASHED3
 62
     6
 10
179.11846
 20
106.9705499999999
 30
0.0
 11
179.10545999999999
 21
107.00485
 31
0.0
  0
LINE
  5
940
  8
_0-1_HIDDEN
  6
DASHED3
 62
     6
 10
179.10545999999999
 20
107.00485
 30
0.0
 11
179.09146000000001
 21
107.0383499999998
 31
0.0
  0
LINE
  5
941
  8
_0-1_HIDDEN
  6
DASHED3
 62
     6
 10
179.09146000000001
 20
107.0383499999998
 30
0.0
 11
179.0774599999998
 21
107.07125000000001
 31
0.0
  0
LINE
  5
942
  8
_0-1_HIDDEN
  6
DASHED3
 62
     6
 10
179.0774599999998
 20
107.07125000000001
 30
0.0
 11
179.06345999999991
 21
107.10335000000001
 31
0.0
  0
LINE
  5
943
  8
_0-1_HIDDEN
  6
DASHED3
 62
     6
 10
179.06345999999991
 20
107.10335000000001
 30
0.0
 11
179.04846000000001
 21
107.13455
 31
0.0
  0
LINE
  5
944
  8
_0-1_HIDDEN
  6
DASHED3
 62
     6
 10
179.04846000000001
 20
107.13455
 30
0.0
 11
179.03345999999991
 21
107.16504999999999
 31
0.0
  0
LINE
  5
945
  8
_0-1_HIDDEN
  6
DASHED3
 62
     6
 10
179.03345999999991
 20
107.16504999999999
 30
0.0
 11
179.01846
 21
107.19475
 31
0.0
  0
LINE
  5
946
  8
_0-1_HIDDEN
  6
DASHED3
 62
     6
 10
179.01846
 20
107.19475
 30
0.0
 11
179.00246000000001
 21
107.22365000000001
 31
0.0
  0
LINE
  5
947
  8
_0-1_HIDDEN
  6
DASHED3
 62
     6
 10
179.00246000000001
 20
107.22365000000001
 30
0.0
 11
178.98645999999999
 21
107.25165
 31
0.0
  0
LINE
  5
948
  8
_0-1_HIDDEN
  6
DASHED3
 62
     6
 10
178.98645999999999
 20
107.25165
 30
0.0
 11
178.97046
 21
107.27875
 31
0.0
  0
LINE
  5
949
  8
_0-1_HIDDEN
  6
DASHED3
 62
     6
 10
178.97046
 20
107.27875
 30
0.0
 11
178.95346000000001
 21
107.3050499999998
 31
0.0
  0
LINE
  5
94A
  8
_0-1_HIDDEN
  6
DASHED3
 62
     6
 10
178.95346000000001
 20
107.3050499999998
 30
0.0
 11
178.93646000000001
 21
107.3303499999999
 31
0.0
  0
LINE
  5
94B
  8
_0-1_HIDDEN
  6
DASHED3
 62
     6
 10
178.93646000000001
 20
107.3303499999999
 30
0.0
 11
178.9194599999999
 21
107.3547499999999
 31
0.0
  0
LINE
  5
94C
  8
_0-1_HIDDEN
  6
DASHED3
 62
     6
 10
178.9194599999999
 20
107.3547499999999
 30
0.0
 11
178.9014599999999
 21
107.3782499999998
 31
0.0
  0
LINE
  5
94D
  8
_0-1_HIDDEN
  6
DASHED3
 62
     6
 10
178.9014599999999
 20
107.3782499999998
 30
0.0
 11
178.88346000000001
 21
107.40085000000001
 31
0.0
  0
LINE
  5
94E
  8
_0-1_HIDDEN
  6
DASHED3
 62
     6
 10
178.88346000000001
 20
107.40085000000001
 30
0.0
 11
178.86546000000001
 21
107.4224499999999
 31
0.0
  0
LINE
  5
94F
  8
_0-1_HIDDEN
  6
DASHED3
 62
     6
 10
178.86546000000001
 20
107.4224499999999
 30
0.0
 11
178.84746000000001
 21
107.4431499999999
 31
0.0
  0
LINE
  5
950
  8
_0-1_HIDDEN
  6
DASHED3
 62
     6
 10
178.84746000000001
 20
107.4431499999999
 30
0.0
 11
178.82946000000001
 21
107.46275
 31
0.0
  0
LINE
  5
951
  8
_0-1_HIDDEN
  6
DASHED3
 62
     6
 10
178.82946000000001
 20
107.46275
 30
0.0
 11
178.81046000000001
 21
107.48145
 31
0.0
  0
LINE
  5
952
  8
_0-1_HIDDEN
  6
DASHED3
 62
     6
 10
178.81046000000001
 20
107.48145
 30
0.0
 11
178.79146
 21
107.4990499999999
 31
0.0
  0
LINE
  5
953
  8
_0-1_HIDDEN
  6
DASHED3
 62
     6
 10
178.79146
 20
107.4990499999999
 30
0.0
 11
178.77245999999991
 21
107.5157499999999
 31
0.0
  0
LINE
  5
954
  8
_0-1_HIDDEN
  6
DASHED3
 62
     6
 10
178.77245999999991
 20
107.5157499999999
 30
0.0
 11
178.7534599999999
 21
107.53135
 31
0.0
  0
LINE
  5
955
  8
_0-1_HIDDEN
  6
DASHED3
 62
     6
 10
178.7534599999999
 20
107.53135
 30
0.0
 11
178.73346000000001
 21
107.54595
 31
0.0
  0
LINE
  5
956
  8
_0-1_HIDDEN
  6
DASHED3
 62
     6
 10
178.73346000000001
 20
107.54595
 30
0.0
 11
178.7144599999998
 21
107.55945
 31
0.0
  0
LINE
  5
957
  8
_0-1_HIDDEN
  6
DASHED3
 62
     6
 10
178.7144599999998
 20
107.55945
 30
0.0
 11
178.69445999999991
 21
107.5719499999999
 31
0.0
  0
LINE
  5
958
  8
_0-1_HIDDEN
  6
DASHED3
 62
     6
 10
178.69445999999991
 20
107.5719499999999
 30
0.0
 11
178.67446000000001
 21
107.5833499999999
 31
0.0
  0
LINE
  5
959
  8
_0-1_HIDDEN
  6
DASHED3
 62
     6
 10
178.67446000000001
 20
107.5833499999999
 30
0.0
 11
178.65446
 21
107.59365
 31
0.0
  0
LINE
  5
95A
  8
_0-1_HIDDEN
  6
DASHED3
 62
     6
 10
178.65446
 20
107.59365
 30
0.0
 11
178.6344599999999
 21
107.60295000000001
 31
0.0
  0
LINE
  5
95B
  8
_0-1_HIDDEN
  6
DASHED3
 62
     6
 10
178.6344599999999
 20
107.60295000000001
 30
0.0
 11
178.61446000000001
 21
107.6111499999999
 31
0.0
  0
LINE
  5
95C
  8
_0-1_HIDDEN
  6
DASHED3
 62
     6
 10
178.61446000000001
 20
107.6111499999999
 30
0.0
 11
178.59446
 21
107.61825
 31
0.0
  0
LINE
  5
95D
  8
_0-1_HIDDEN
  6
DASHED3
 62
     6
 10
178.59446
 20
107.61825
 30
0.0
 11
178.57346000000001
 21
107.62435000000001
 31
0.0
  0
LINE
  5
95E
  8
_0-1_HIDDEN
  6
DASHED3
 62
     6
 10
178.57346000000001
 20
107.62435000000001
 30
0.0
 11
178.55346
 21
107.62925
 31
0.0
  0
LINE
  5
95F
  8
_0-1_HIDDEN
  6
DASHED3
 62
     6
 10
178.55346
 20
107.62925
 30
0.0
 11
178.5324599999999
 21
107.6331499999999
 31
0.0
  0
LINE
  5
960
  8
_0-1_HIDDEN
  6
DASHED3
 62
     6
 10
178.5324599999999
 20
107.6331499999999
 30
0.0
 11
178.51246
 21
107.63584999999991
 31
0.0
  0
LINE
  5
961
  8
_0-1_HIDDEN
  6
DASHED3
 62
     6
 10
178.51246
 20
107.63584999999991
 30
0.0
 11
178.49145999999999
 21
107.63755
 31
0.0
  0
LINE
  5
962
  8
_0-1_HIDDEN
  6
DASHED3
 62
     6
 10
178.49145999999999
 20
107.63755
 30
0.0
 11
178.47146000000001
 21
107.63805000000001
 31
0.0
  0
ARC
  5
963
  8
_0-0_0
  6
CONTINUOUS
 62
     5
 10
316.35640999999993
 20
146.38805999999991
 30
0.0
 40
0.9988578
 50
134.39947000000001
 51
180.03102000000001
  0
ARC
  5
964
  8
_0-0_0
  6
CONTINUOUS
 62
     5
 10
354.95335999999992
 20
119.9902699999999
 30
0.0
 40
1.0041854999999991
 50
314.52728999999999
 51
359.90320000000008
  0
ENDSEC
  0
EOF
