  0
SECTION
  2
HEADER
  9
$ACADVER
  1
AC1009
  9
$INSBASE
 10
0.0
 20
0.0
 30
0.0
  9
$EXTMIN
 10
-422.79289
 20
-165.0
 30
0.0
  9
$EXTMAX
 10
435.499991
 20
207.960948
 30
0.0
  9
$LIMMIN
 10
0.0
 20
0.0
  9
$LIMMAX
 10
12.0
 20
9.0
  9
$ORTHOMODE
 70
     1
  9
$REGENMODE
 70
     1
  9
$FILLMODE
 70
     1
  9
$QTEXTMODE
 70
     0
  9
$MIRRTEXT
 70
     1
  9
$DRAGMODE
 70
     2
  9
$LTSCALE
 40
1.0
  9
$OSMODE
 70
    39
  9
$ATTMODE
 70
     1
  9
$TEXTSIZE
 40
2.8
  9
$TRACEWID
 40
0.05
  9
$TEXTSTYLE
  7
STANDARD1
  9
$CLAYER
  8
0
  9
$CELTYPE
  6
CONTINUOUS
  9
$CECOLOR
 62
   256
  9
$DIMSCALE
 40
0.0
  9
$DIMASZ
 40
1.931852
  9
$DIMEXO
 40
1.0
  9
$DIMDLI
 40
0.38
  9
$DIMRND
 40
0.0
  9
$DIMDLE
 40
0.0
  9
$DIMEXE
 40
2.0
  9
$DIMTP
 40
0.0
  9
$DIMTM
 40
0.0
  9
$DIMTXT
 40
3.2
  9
$DIMCEN
 40
0.09
  9
$DIMTSZ
 40
0.0
  9
$DIMTOL
 70
     0
  9
$DIMLIM
 70
     0
  9
$DIMTIH
 70
     1
  9
$DIMTOH
 70
     1
  9
$DIMSE1
 70
     0
  9
$DIMSE2
 70
     0
  9
$DIMTAD
 70
     1
  9
$DIMZIN
 70
     0
  9
$DIMBLK
  1

  9
$DIMASO
 70
     1
  9
$DIMSHO
 70
     1
  9
$DIMPOST
  1

  9
$DIMAPOST
  1

  9
$DIMALT
 70
     0
  9
$DIMALTD
 70
     2
  9
$DIMALTF
 40
25.4
  9
$DIMLFAC
 40
1.0
  9
$DIMTOFL
 70
     0
  9
$DIMTVP
 40
0.0
  9
$DIMTIX
 70
     0
  9
$DIMSOXD
 70
     0
  9
$DIMSAH
 70
     0
  9
$DIMBLK1
  1

  9
$DIMBLK2
  1

  9
$DIMSTYLE
  2
STANDARD
  9
$DIMCLRD
 70
     0
  9
$DIMCLRE
 70
     0
  9
$DIMCLRT
 70
     0
  9
$DIMTFAC
 40
0.625
  9
$DIMGAP
 40
0.09
  9
$LUNITS
 70
     2
  9
$LUPREC
 70
     3
  9
$SKETCHINC
 40
0.1
  9
$FILLETRAD
 40
0.0
  9
$AUNITS
 70
     0
  9
$AUPREC
 70
     0
  9
$MENU
  1
.
  9
$ELEVATION
 40
0.0
  9
$PELEVATION
 40
0.0
  9
$THICKNESS
 40
0.0
  9
$LIMCHECK
 70
     0
  9
$BLIPMODE
 70
     0
  9
$CHAMFERA
 40
0.0
  9
$CHAMFERB
 40
0.0
  9
$SKPOLY
 70
     0
  9
$TDCREATE
 40
2450836.579552
  9
$TDUPDATE
 40
2450836.579552
  9
$TDINDWG
 40
0.0
  9
$TDUSRTIMER
 40
0.0
  9
$USRTIMER
 70
     1
  9
$ANGBASE
 50
0.0
  9
$ANGDIR
 70
     0
  9
$PDMODE
 70
     0
  9
$PDSIZE
 40
0.0
  9
$PLINEWID
 40
0.0
  9
$COORDS
 70
     1
  9
$SPLFRAME
 70
     0
  9
$SPLINETYPE
 70
     6
  9
$SPLINESEGS
 70
     8
  9
$ATTDIA
 70
     0
  9
$ATTREQ
 70
     1
  9
$HANDLING
 70
     1
  9
$HANDSEED
  5
91A
  9
$SURFTAB1
 70
     6
  9
$SURFTAB2
 70
     6
  9
$SURFTYPE
 70
     6
  9
$SURFU
 70
     6
  9
$SURFV
 70
     6
  9
$UCSNAME
  2

  9
$UCSORG
 10
0.0
 20
0.0
 30
0.0
  9
$UCSXDIR
 10
1.0
 20
0.0
 30
0.0
  9
$UCSYDIR
 10
0.0
 20
1.0
 30
0.0
  9
$PUCSNAME
  2

  9
$PUCSORG
 10
0.0
 20
0.0
 30
0.0
  9
$PUCSXDIR
 10
1.0
 20
0.0
 30
0.0
  9
$PUCSYDIR
 10
0.0
 20
1.0
 30
0.0
  9
$USERI1
 70
     0
  9
$USERI2
 70
     0
  9
$USERI3
 70
     0
  9
$USERI4
 70
     0
  9
$USERI5
 70
     0
  9
$USERR1
 40
0.0
  9
$USERR2
 40
0.0
  9
$USERR3
 40
0.0
  9
$USERR4
 40
0.0
  9
$USERR5
 40
0.0
  9
$WORLDVIEW
 70
     1
  9
$SHADEDGE
 70
     3
  9
$SHADEDIF
 70
    70
  9
$TILEMODE
 70
     1
  9
$MAXACTVP
 70
    48
  9
$PLIMCHECK
 70
     0
  9
$PEXTMIN
 10
1.000000E+020
 20
1.000000E+020
 30
1.000000E+020
  9
$PEXTMAX
 10
-1.000000E+020
 20
-1.000000E+020
 30
-1.000000E+020
  9
$PLIMMIN
 10
0.0
 20
0.0
  9
$PLIMMAX
 10
12.0
 20
9.0
  9
$UNITMODE
 70
     0
  9
$VISRETAIN
 70
     1
  9
$PLINEGEN
 70
     0
  9
$PSLTSCALE
 70
     1
  0
ENDSEC
  0
SECTION
  2
TABLES
  0
TABLE
  2
VPORT
 70
     2
  0
VPORT
  2
*ACTIVE
 70
     0
 10
0.0
 20
0.0
 11
1.0
 21
1.0
 12
3.239343
 22
-2.861694
 13
0.0
 23
0.0
 14
1.0
 24
1.0
 15
0.0
 25
0.0
 16
0.0
 26
0.0
 36
1.0
 17
0.0
 27
0.0
 37
0.0
 40
522.769504
 41
1.722533
 42
50.0
 43
0.0
 44
0.0
 50
0.0
 51
0.0
 71
     0
 72
   100
 73
     1
 74
     1
 75
     0
 76
     0
 77
     0
 78
     0
  0
ENDTAB
  0
TABLE
  2
LTYPE
 70
     5
  0
LTYPE
  2
CONTINUOUS
 70
     0
  3
Solid line
 72
    65
 73
     0
 40
0.0
  0
LTYPE
  2
DASHED
 70
     0
  3
-- -- -- -- -- -- -- -- -- -- -- -- -- -- --
 72
    65
 73
     2
 40
0.75
 49
0.5
 49
-0.25
  0
LTYPE
  2
DASHDOT
 70
     0
  3
__ . __ . __ . __ . __ . __ . __ . __ . __ . __
 72
    65
 73
     4
 40
1.0
 49
0.5
 49
-0.25
 49
0.0
 49
-0.25
  0
LTYPE
  2
DIVIDE
 70
     0
  3
__ . . __ . . __ . . __ . . __ . . __ . . __
 72
    65
 73
     6
 40
1.25
 49
0.5
 49
-0.25
 49
0.0
 49
-0.25
 49
0.0
 49
-0.25
  0
LTYPE
  2
CENTER
 70
     0
  3
____ _ ____ _ ____ _ ____ _ ____ _ ____ _ ____
 72
    65
 73
     4
 40
17.5
 49
13.0
 49
-1.5
 49
1.5
 49
-1.5
  0
ENDTAB
  0
TABLE
  2
LAYER
 70
     5
  0
LAYER
  2
0
 70
     0
 62
     3
  6
CONTINUOUS
  0
LAYER
  2
1
 70
     0
 62
    -3
  6
CONTINUOUS
  0
LAYER
  2
DEFPOINTS
 70
     0
 62
     7
  6
CONTINUOUS
  0
ENDTAB
  0
TABLE
  2
STYLE
 70
     5
  0
STYLE
  2
STANDARD
 70
     0
 40
0.0
 41
1.0
 50
0.0
 71
     0
 42
0.2
  3
txt
  4

  0
STYLE
  2
STANDARD1
 70
     0
 40
0.0
 41
1.0
 50
0.0
 71
     0
 42
2.8
  3
MONOTXT
  4
BIGFONT
  0
STYLE
  2
STANDARD2
 70
     4
 40
0.0
 41
1.0
 50
0.0
 71
     0
 42
2.8
  3
MONOTXT
  4
BIGFONT
  0
STYLE
  2
STANDARD3
 70
     0
 40
0.0
 41
1.0
 50
0.0
 71
     0
 42
2.8
  3
MONOTXT
  4

  0
STYLE
  2
STANDARD4
 70
     4
 40
0.0
 41
1.0
 50
0.0
 71
     0
 42
2.8
  3
MONOTXT
  4

  0
ENDTAB
  0
TABLE
  2
VIEW
 70
     0
  0
ENDTAB
  0
TABLE
  2
UCS
 70
     0
  0
ENDTAB
  0
TABLE
  2
APPID
 70
     1
  0
APPID
  2
ACAD
 70
     0
  0
ENDTAB
  0
TABLE
  2
DIMSTYLE
 70
     1
  0
DIMSTYLE
  2
STANDARD
 70
     0
  3

  4

  5

  6

  7

 40
1.0
 41
0.18
 42
0.0625
 43
0.38
 44
0.18
 45
0.0
 46
0.0
 47
0.0
 48
0.0
140
0.18
141
0.09
142
0.0
143
25.4
144
1.0
145
0.0
146
1.0
147
0.09
 71
     0
 72
     0
 73
     1
 74
     1
 75
     0
 76
     0
 77
     0
 78
     0
170
     0
171
     2
172
     0
173
     0
174
     0
175
     0
176
     0
177
     0
178
     0
  0
ENDTAB
  0
ENDSEC
  0
SECTION
  2
BLOCKS
  0
BLOCK
  8
0
  2
$MODEL_SPACE
 70
     0
 10
0.0
 20
0.0
 30
0.0
  3
$MODEL_SPACE
  1

  0
ENDBLK
  5
912
  8
0
  0
BLOCK
 67
     1
  8
0
  2
$PAPER_SPACE
 70
     0
 10
0.0
 20
0.0
 30
0.0
  3
$PAPER_SPACE
  1

  0
ENDBLK
  5
910
 67
     1
  8
0
  0
BLOCK
  8
0
  2
SYM1
 70
     0
 10
0.0
 20
0.0
 30
0.0
  3
SYM1
  1

  0
LINE
  5
2D
  8
0
  6
CONTINUOUS
 62
     3
 10
-2.192027
 20
2.192034
 30
0.0
 11
2.192027
 21
-2.192034
 31
0.0
  0
LINE
  5
2E
  8
0
  6
CONTINUOUS
 62
     3
 10
2.192034
 20
2.192027
 30
0.0
 11
-2.192034
 21
-2.192027
 31
0.0
  0
POINT
  5
2F
  8
0
  6
CONTINUOUS
 62
     3
 10
0.0
 20
0.0
 30
0.0
  0
CIRCLE
  5
30
  8
0
  6
CONTINUOUS
 62
     3
 10
0.0
 20
0.0
 30
0.0
 40
5.249999
  0
CIRCLE
  5
31
  8
0
  6
CONTINUOUS
 62
     3
 10
0.0
 20
0.0
 30
0.0
 40
6.499999
  0
ENDBLK
  5
32
  8
0
  0
BLOCK
  8
0
  2
*D1
 70
     1
 10
0.0
 20
0.0
 30
0.0
  3
*D1
  1

  0
TEXT
  5
35
  8
0
  6
CONTINUOUS
 62
     4
 10
-167.597693
 20
-23.074577
 30
0.0
 40
3.2
  1
139
 50
90.000005
 41
0.7
  7
STANDARD1
  0
LINE
  5
36
  8
0
  6
CONTINUOUS
 62
     4
 10
-186.360336
 20
7.5
 30
0.0
 11
-164.597687
 21
7.5
 31
0.0
  0
LINE
  5
37
  8
0
  6
CONTINUOUS
 62
     4
 10
-156.899994
 20
-62.0
 30
0.0
 11
-168.597687
 21
-62.0
 31
0.0
  0
LINE
  5
38
  8
0
  6
CONTINUOUS
 62
     4
 10
-166.597687
 20
7.5
 30
0.0
 11
-166.597687
 21
-62.0
 31
0.0
  0
LINE
  5
39
  8
0
  6
CONTINUOUS
 62
     4
 10
-166.597687
 20
7.5
 30
0.0
 11
-166.080049
 21
5.568148
 31
0.0
  0
LINE
  5
3A
  8
0
  6
CONTINUOUS
 62
     4
 10
-166.597687
 20
7.5
 30
0.0
 11
-167.115325
 21
5.568148
 31
0.0
  0
LINE
  5
3B
  8
0
  6
CONTINUOUS
 62
     4
 10
-166.597687
 20
-62.0
 30
0.0
 11
-167.115325
 21
-60.068148
 31
0.0
  0
LINE
  5
3C
  8
0
  6
CONTINUOUS
 62
     4
 10
-166.597687
 20
-62.0
 30
0.0
 11
-166.080049
 21
-60.068148
 31
0.0
  0
POINT
  5
3E
  8
DEFPOINTS
  6
BYBLOCK
 10
-155.899994
 20
-62.0
 30
0.0
  0
POINT
  5
3F
  8
DEFPOINTS
  6
BYBLOCK
 10
-187.360336
 20
7.5
 30
0.0
  0
POINT
  5
40
  8
DEFPOINTS
  6
BYBLOCK
 10
-166.597687
 20
7.5
 30
0.0
  0
ENDBLK
  5
41
  8
0
  0
BLOCK
  8
0
  2
*D2
 70
     1
 10
0.0
 20
0.0
 30
0.0
  3
*D2
  1

  0
TEXT
  5
44
  8
0
  6
CONTINUOUS
 62
     4
 10
38.41901
 20
70.153334
 30
0.0
 40
3.2
  1
60
 50
0.000003
 41
0.7
  7
STANDARD1
  0
LINE
  5
45
  8
0
  6
CONTINUOUS
 62
     4
 10
26.500008
 20
18.5
 30
0.0
 11
26.500008
 21
71.153336
 31
0.0
  0
LINE
  5
46
  8
0
  6
CONTINUOUS
 62
     4
 10
56.500008
 20
17.25
 30
0.0
 11
56.500008
 21
71.153336
 31
0.0
  0
LINE
  5
47
  8
0
  6
CONTINUOUS
 62
     4
 10
26.500008
 20
69.153336
 30
0.0
 11
56.500008
 21
69.153336
 31
0.0
  0
LINE
  5
48
  8
0
  6
CONTINUOUS
 62
     4
 10
26.500008
 20
69.153336
 30
0.0
 11
28.431859
 21
69.670974
 31
0.0
  0
LINE
  5
49
  8
0
  6
CONTINUOUS
 62
     4
 10
26.500008
 20
69.153336
 30
0.0
 11
28.431859
 21
68.635697
 31
0.0
  0
LINE
  5
4A
  8
0
  6
CONTINUOUS
 62
     4
 10
56.500008
 20
69.153336
 30
0.0
 11
54.568156
 21
68.635697
 31
0.0
  0
LINE
  5
4B
  8
0
  6
CONTINUOUS
 62
     4
 10
56.500008
 20
69.153336
 30
0.0
 11
54.568156
 21
69.670974
 31
0.0
  0
POINT
  5
4C
  8
DEFPOINTS
  6
BYBLOCK
 10
56.500008
 20
16.25
 30
0.0
  0
POINT
  5
4D
  8
DEFPOINTS
  6
BYBLOCK
 10
26.500008
 20
17.5
 30
0.0
  0
POINT
  5
4E
  8
DEFPOINTS
  6
BYBLOCK
 10
26.500008
 20
69.153336
 30
0.0
  0
ENDBLK
  5
4F
  8
0
  0
BLOCK
  8
0
  2
*D3
 70
     1
 10
0.0
 20
0.0
 30
0.0
  3
*D3
  1

  0
TEXT
  5
52
  8
0
  6
CONTINUOUS
 62
     4
 10
39.641647
 20
81.322569
 30
0.0
 40
3.2
  1
65
 50
0.000003
 41
0.7
  7
STANDARD1
  0
LINE
  5
53
  8
0
  6
CONTINUOUS
 62
     4
 10
24.000008
 20
63.5
 30
0.0
 11
24.000008
 21
82.322571
 31
0.0
  0
LINE
  5
54
  8
0
  6
CONTINUOUS
 62
     4
 10
56.500008
 20
17.25
 30
0.0
 11
56.500008
 21
82.322571
 31
0.0
  0
LINE
  5
55
  8
0
  6
CONTINUOUS
 62
     4
 10
24.000008
 20
80.322571
 30
0.0
 11
56.500008
 21
80.322571
 31
0.0
  0
LINE
  5
56
  8
0
  6
CONTINUOUS
 62
     4
 10
24.000008
 20
80.322571
 30
0.0
 11
25.931859
 21
80.840209
 31
0.0
  0
LINE
  5
57
  8
0
  6
CONTINUOUS
 62
     4
 10
24.000008
 20
80.322571
 30
0.0
 11
25.931859
 21
79.804933
 31
0.0
  0
LINE
  5
58
  8
0
  6
CONTINUOUS
 62
     4
 10
56.500008
 20
80.322571
 30
0.0
 11
54.568156
 21
79.804933
 31
0.0
  0
LINE
  5
59
  8
0
  6
CONTINUOUS
 62
     4
 10
56.500008
 20
80.322571
 30
0.0
 11
54.568156
 21
80.840209
 31
0.0
  0
POINT
  5
5A
  8
DEFPOINTS
  6
BYBLOCK
 10
56.500008
 20
16.25
 30
0.0
  0
POINT
  5
5B
  8
DEFPOINTS
  6
BYBLOCK
 10
24.000008
 20
62.5
 30
0.0
  0
POINT
  5
5C
  8
DEFPOINTS
  6
BYBLOCK
 10
24.000008
 20
80.322571
 30
0.0
  0
ENDBLK
  5
5D
  8
0
  0
BLOCK
  8
0
  2
*D4
 70
     1
 10
0.0
 20
0.0
 30
0.0
  3
*D4
  1

  0
TEXT
  5
60
  8
0
  6
CONTINUOUS
 62
     4
 10
67.670877
 20
-0.11928
 30
0.0
 40
3.2
  1
ѓУ
 50
90.000005
 41
0.583333
  7
STANDARD1
  0
TEXT
  5
61
  8
0
  6
CONTINUOUS
 62
     4
 10
67.670877
 20
2.120721
 30
0.0
 40
3.2
  1
35
 50
90.000005
 41
0.7
  7
STANDARD1
  0
TEXT
  5
62
  8
0
  6
CONTINUOUS
 62
     4
 10
65.820877
 20
7.10072
 30
0.0
 40
2.0
  1
+0.010
 50
90.000005
 41
0.7
  7
STANDARD1
  0
TEXT
  5
63
  8
0
  6
CONTINUOUS
 62
     4
 10
68.320877
 20
7.10072
 30
0.0
 40
2.0
  1
Ѓ@0
 50
90.000005
 41
0.636364
  7
STANDARD1
  0
LINE
  5
64
  8
0
  6
CONTINUOUS
 62
     4
 10
57.500008
 20
16.25
 30
0.0
 11
71.320877
 21
16.25
 31
0.0
  0
LINE
  5
65
  8
0
  6
CONTINUOUS
 62
     4
 10
57.500008
 20
-1.25
 30
0.0
 11
71.320877
 21
-1.25
 31
0.0
  0
LINE
  5
66
  8
0
  6
CONTINUOUS
 62
     4
 10
69.320877
 20
16.25
 30
0.0
 11
69.320877
 21
-1.25
 31
0.0
  0
LINE
  5
67
  8
0
  6
CONTINUOUS
 62
     4
 10
69.320877
 20
16.25
 30
0.0
 11
69.838515
 21
14.318148
 31
0.0
  0
LINE
  5
68
  8
0
  6
CONTINUOUS
 62
     4
 10
69.320877
 20
16.25
 30
0.0
 11
68.803239
 21
14.318148
 31
0.0
  0
LINE
  5
69
  8
0
  6
CONTINUOUS
 62
     4
 10
69.320877
 20
-1.25
 30
0.0
 11
68.803239
 21
0.681852
 31
0.0
  0
LINE
  5
6A
  8
0
  6
CONTINUOUS
 62
     4
 10
69.320877
 20
-1.25
 30
0.0
 11
69.838515
 21
0.681852
 31
0.0
  0
POINT
  5
6B
  8
DEFPOINTS
  6
BYBLOCK
 10
56.500008
 20
-1.25
 30
0.0
  0
POINT
  5
6C
  8
DEFPOINTS
  6
BYBLOCK
 10
56.500008
 20
16.25
 30
0.0
  0
POINT
  5
6D
  8
DEFPOINTS
  6
BYBLOCK
 10
69.320877
 20
16.25
 30
0.0
  0
ENDBLK
  5
6E
  8
0
  0
BLOCK
  8
0
  2
SYM6
 70
     0
 10
0.0
 20
0.0
 30
0.0
  3
SYM6
  1

  0
LINE
  5
71
  8
0
  6
CONTINUOUS
 62
     2
 10
0.0
 20
7.7
 30
0.0
 11
3.7
 21
7.7
 31
0.0
  0
LINE
  5
72
  8
0
  6
CONTINUOUS
 62
     2
 10
5.0
 20
9.0
 30
0.0
 11
0.0
 21
9.0
 31
0.0
  0
LINE
  5
73
  8
0
  6
CONTINUOUS
 62
     2
 10
0.0
 20
7.7
 30
0.0
 11
0.0
 21
9.0
 31
0.0
  0
LINE
  5
74
  8
0
  6
CONTINUOUS
 62
     2
 10
5.0
 20
7.7
 30
0.0
 11
5.0
 21
9.0
 31
0.0
  0
ARC
  5
75
  8
0
  6
CONTINUOUS
 62
     2
 10
22.12648
 20
-2.628768
 30
0.0
 40
20.0
 50
148.90632
 51
172.44725
  0
ARC
  5
76
  8
0
  6
CONTINUOUS
 62
     2
 10
20.826492
 20
-2.628768
 30
0.0
 40
20.0
 50
148.90632
 51
172.44725
  0
LINE
  5
77
  8
0
  6
CONTINUOUS
 62
     2
 10
2.3
 20
0.0
 30
0.0
 11
1.0
 21
0.0
 31
0.0
  0
ENDBLK
  5
78
  8
0
  0
BLOCK
  8
0
  2
SYM7
 70
     0
 10
0.0
 20
0.0
 30
0.0
  3
SYM7
  1

  0
LINE
  5
7B
  8
0
  6
CONTINUOUS
 62
     2
 10
2.699999
 20
9.0
 30
0.0
 11
-0.000001
 21
3.0
 31
0.0
  0
LINE
  5
7C
  8
0
  6
CONTINUOUS
 62
     2
 10
1.3
 20
3.0
 30
0.0
 11
2.699997
 21
6.111109
 31
0.0
  0
LINE
  5
7D
  8
0
  6
CONTINUOUS
 62
     2
 10
1.3
 20
3.0
 30
0.0
 11
2.7
 21
3.0
 31
0.0
  0
LINE
  5
7E
  8
0
  6
CONTINUOUS
 62
     2
 10
0.0
 20
1.7
 30
0.0
 11
2.7
 21
1.7
 31
0.0
  0
LINE
  5
7F
  8
0
  6
CONTINUOUS
 62
     2
 10
2.7
 20
6.111109
 30
0.0
 11
2.7
 21
3.0
 31
0.0
  0
LINE
  5
80
  8
0
  6
CONTINUOUS
 62
     2
 10
4.0
 20
9.0
 30
0.0
 11
4.0
 21
3.0
 31
0.0
  0
LINE
  5
81
  8
0
  6
CONTINUOUS
 62
     2
 10
5.0
 20
1.7
 30
0.0
 11
5.0
 21
3.0
 31
0.0
  0
LINE
  5
82
  8
0
  6
CONTINUOUS
 62
     2
 10
0.0
 20
1.7
 30
0.0
 11
0.0
 21
3.0
 31
0.0
  0
LINE
  5
83
  8
0
  6
CONTINUOUS
 62
     2
 10
2.7
 20
9.0
 30
0.0
 11
4.0
 21
9.0
 31
0.0
  0
LINE
  5
84
  8
0
  6
CONTINUOUS
 62
     2
 10
4.0
 20
0.0
 30
0.0
 11
2.7
 21
0.0
 31
0.0
  0
LINE
  5
85
  8
0
  6
CONTINUOUS
 62
     2
 10
2.7
 20
0.0
 30
0.0
 11
2.7
 21
1.7
 31
0.0
  0
LINE
  5
86
  8
0
  6
CONTINUOUS
 62
     2
 10
4.0
 20
0.0
 30
0.0
 11
4.0
 21
1.7
 31
0.0
  0
LINE
  5
87
  8
0
  6
CONTINUOUS
 62
     2
 10
5.0
 20
1.7
 30
0.0
 11
4.0
 21
1.7
 31
0.0
  0
LINE
  5
88
  8
0
  6
CONTINUOUS
 62
     2
 10
5.0
 20
3.0
 30
0.0
 11
4.0
 21
3.0
 31
0.0
  0
ENDBLK
  5
89
  8
0
  0
BLOCK
  8
0
  2
SYM8
 70
     0
 10
0.0
 20
0.0
 30
0.0
  3
SYM8
  1

  0
ARC
  5
8C
  8
0
  6
CONTINUOUS
 62
     2
 10
2.5
 20
6.5
 30
0.0
 40
2.5
 50
0.0
 51
180.000019
  0
ARC
  5
8D
  8
0
  6
CONTINUOUS
 62
     2
 10
2.5
 20
2.5
 30
0.0
 40
2.5
 50
53.130061
 51
118.685465
  0
ARC
  5
8E
  8
0
  6
CONTINUOUS
 62
     2
 10
2.5
 20
2.5
 30
0.0
 40
2.5
 50
180.000019
 51
53.130003
  0
LINE
  5
8F
  8
0
  6
CONTINUOUS
 62
     2
 10
3.7
 20
6.5
 30
0.0
 11
5.0
 21
6.5
 31
0.0
  0
LINE
  5
90
  8
0
  6
CONTINUOUS
 62
     2
 10
0.0
 20
2.5
 30
0.0
 11
0.0
 21
6.5
 31
0.0
  0
ARC
  5
91
  8
0
  6
CONTINUOUS
 62
     2
 10
2.5
 20
6.5
 30
0.0
 40
1.2
 50
0.0
 51
180.000019
  0
CIRCLE
  5
92
  8
0
  6
CONTINUOUS
 62
     2
 10
2.5
 20
2.5
 30
0.0
 40
1.2
  0
LINE
  5
93
  8
0
  6
CONTINUOUS
 62
     2
 10
1.3
 20
6.5
 30
0.0
 11
1.3
 21
4.693172
 31
0.0
  0
ENDBLK
  5
94
  8
0
  0
BLOCK
  8
0
  2
*D8
 70
     1
 10
0.0
 20
0.0
 30
0.0
  3
*D8
  1

  0
TEXT
  5
97
  8
0
  6
CONTINUOUS
 62
     4
 10
-60.675932
 20
-15.815226
 30
0.0
 40
3.2
  1
81.5
 50
90.000005
 41
0.7
  7
STANDARD1
  0
LINE
  5
98
  8
0
  6
CONTINUOUS
 62
     4
 10
-59.544342
 20
7.5
 30
0.0
 11
-61.675934
 21
7.5
 31
0.0
  0
LINE
  5
99
  8
0
  6
CONTINUOUS
 62
     4
 10
-55.149994
 20
-33.25
 30
0.0
 11
-61.675934
 21
-33.25
 31
0.0
  0
LINE
  5
9A
  8
0
  6
CONTINUOUS
 62
     4
 10
-59.675934
 20
7.5
 30
0.0
 11
-59.675934
 21
-33.25
 31
0.0
  0
LINE
  5
9B
  8
0
  6
CONTINUOUS
 62
     4
 10
-59.675934
 20
7.5
 30
0.0
 11
-59.158296
 21
5.568148
 31
0.0
  0
LINE
  5
9C
  8
0
  6
CONTINUOUS
 62
     4
 10
-59.675934
 20
7.5
 30
0.0
 11
-60.193572
 21
5.568148
 31
0.0
  0
LINE
  5
9D
  8
0
  6
CONTINUOUS
 62
     4
 10
-59.675934
 20
-33.25
 30
0.0
 11
-60.193572
 21
-31.318148
 31
0.0
  0
LINE
  5
9E
  8
0
  6
CONTINUOUS
 62
     4
 10
-59.675934
 20
-33.25
 30
0.0
 11
-59.158296
 21
-31.318148
 31
0.0
  0
POINT
  5
9F
  8
DEFPOINTS
  6
BYBLOCK
 10
-54.149994
 20
-33.25
 30
0.0
  0
POINT
  5
A0
  8
DEFPOINTS
  6
BYBLOCK
 10
-58.544342
 20
7.5
 30
0.0
  0
POINT
  5
A1
  8
DEFPOINTS
  6
BYBLOCK
 10
-59.675934
 20
7.5
 30
0.0
  0
ENDBLK
  5
A2
  8
0
  0
BLOCK
  8
0
  2
SYM10
 70
     0
 10
0.0
 20
0.0
 30
0.0
  3
SYM10
  1

  0
POINT
  5
A5
  8
0
  6
CONTINUOUS
 62
     3
 10
0.0
 20
0.0
 30
0.0
  0
LINE
  5
A6
  8
0
  6
CONTINUOUS
 62
     3
 10
0.0
 20
-10.5
 30
0.0
 11
0.0
 21
10.5
 31
0.0
  0
LINE
  5
A7
  8
0
  6
CONTINUOUS
 62
     3
 10
-2.0
 20
-10.5
 30
0.0
 11
-2.0
 21
10.5
 31
0.0
  0
LINE
  5
A8
  8
0
  6
CONTINUOUS
 62
     3
 10
-12.0
 20
6.960612
 30
0.0
 11
-12.0
 21
-6.960912
 31
0.0
  0
LINE
  5
A9
  8
0
  6
CONTINUOUS
 62
     3
 10
-2.0
 20
8.0
 30
0.0
 11
-11.4
 21
8.0
 31
0.0
  0
LINE
  5
AA
  8
0
  6
CONTINUOUS
 62
     3
 10
-2.0
 20
-8.0
 30
0.0
 11
-11.4
 21
-8.0
 31
0.0
  0
LINE
  5
AB
  8
0
  6
CONTINUOUS
 62
     3
 10
0.0
 20
10.5
 30
0.0
 11
-2.0
 21
10.5
 31
0.0
  0
LINE
  5
AC
  8
0
  6
CONTINUOUS
 62
     3
 10
0.0
 20
-10.5
 30
0.0
 11
-2.0
 21
-10.5
 31
0.0
  0
POINT
  5
AD
  8
0
  6
CONTINUOUS
 62
     3
 10
0.0
 20
0.0
 30
0.0
  0
LINE
  5
AE
  8
0
  6
CONTINUOUS
 62
     3
 10
-11.399996
 20
7.999998
 30
0.0
 11
-11.999996
 21
6.96061
 31
0.0
  0
LINE
  5
AF
  8
0
  6
CONTINUOUS
 62
     3
 10
-11.399999
 20
-7.999999
 30
0.0
 11
-11.999998
 21
-6.96091
 31
0.0
  0
LINE
  5
B0
  8
0
  6
CONTINUOUS
 62
     3
 10
-11.4
 20
8.0
 30
0.0
 11
-11.4
 21
-8.0
 31
0.0
  0
ENDBLK
  5
B1
  8
0
  0
BLOCK
  8
0
  2
*D10
 70
     1
 10
0.0
 20
0.0
 30
0.0
  3
*D10
  1

  0
TEXT
  5
B4
  8
0
  6
CONTINUOUS
 62
     4
 10
-144.53511
 20
-79.472612
 30
0.0
 40
3.2
  1
42
 50
0.000003
 41
0.7
  7
STANDARD1
  0
LINE
  5
B5
  8
0
  6
CONTINUOUS
 62
     4
 10
-131.25
 20
-79.75
 30
0.0
 11
-131.25
 21
-82.47261
 31
0.0
  0
LINE
  5
B6
  8
0
  6
CONTINUOUS
 62
     4
 10
-152.25
 20
-63.7034
 30
0.0
 11
-152.25
 21
-82.47261
 31
0.0
  0
LINE
  5
B7
  8
0
  6
CONTINUOUS
 62
     4
 10
-131.25
 20
-80.47261
 30
0.0
 11
-152.25
 21
-80.47261
 31
0.0
  0
LINE
  5
B8
  8
0
  6
CONTINUOUS
 62
     4
 10
-131.25
 20
-80.47261
 30
0.0
 11
-133.181852
 21
-80.990249
 31
0.0
  0
LINE
  5
B9
  8
0
  6
CONTINUOUS
 62
     4
 10
-131.25
 20
-80.47261
 30
0.0
 11
-133.181852
 21
-79.954972
 31
0.0
  0
LINE
  5
BA
  8
0
  6
CONTINUOUS
 62
     4
 10
-152.25
 20
-80.47261
 30
0.0
 11
-150.318148
 21
-79.954972
 31
0.0
  0
LINE
  5
BB
  8
0
  6
CONTINUOUS
 62
     4
 10
-152.25
 20
-80.47261
 30
0.0
 11
-150.318148
 21
-80.990249
 31
0.0
  0
POINT
  5
BC
  8
DEFPOINTS
  6
BYBLOCK
 10
-152.25
 20
-62.7034
 30
0.0
  0
POINT
  5
BD
  8
DEFPOINTS
  6
BYBLOCK
 10
-131.25
 20
-78.75
 30
0.0
  0
POINT
  5
BE
  8
DEFPOINTS
  6
BYBLOCK
 10
-131.25
 20
-80.47261
 30
0.0
  0
ENDBLK
  5
BF
  8
0
  0
BLOCK
  8
0
  2
SYM12
 70
     0
 10
0.0
 20
0.0
 30
0.0
  3
SYM12
  1

  0
ARC
  5
C2
  8
0
  6
CONTINUOUS
 62
     2
 10
2.5
 20
6.5
 30
0.0
 40
1.2
 50
0.0
 51
180.000019
  0
ARC
  5
C3
  8
0
  6
CONTINUOUS
 62
     2
 10
2.5
 20
6.5
 30
0.0
 40
2.5
 50
0.0
 51
180.000019
  0
LINE
  5
C4
  8
0
  6
CONTINUOUS
 62
     2
 10
1.3
 20
6.5
 30
0.0
 11
1.3
 21
2.5
 31
0.0
  0
LINE
  5
C5
  8
0
  6
CONTINUOUS
 62
     2
 10
3.7
 20
2.5
 30
0.0
 11
3.7
 21
6.5
 31
0.0
  0
LINE
  5
C6
  8
0
  6
CONTINUOUS
 62
     2
 10
5.0
 20
6.5
 30
0.0
 11
5.0
 21
2.5
 31
0.0
  0
LINE
  5
C7
  8
0
  6
CONTINUOUS
 62
     2
 10
0.0
 20
6.5
 30
0.0
 11
0.0
 21
2.5
 31
0.0
  0
ARC
  5
C8
  8
0
  6
CONTINUOUS
 62
     2
 10
2.5
 20
2.5
 30
0.0
 40
1.2
 50
180.000019
 51
359.999983
  0
ARC
  5
C9
  8
0
  6
CONTINUOUS
 62
     2
 10
2.5
 20
2.5
 30
0.0
 40
2.5
 50
180.000019
 51
359.999983
  0
ENDBLK
  5
CA
  8
0
  0
BLOCK
  8
0
  2
SYM13
 70
     0
 10
0.0
 20
0.0
 30
0.0
  3
SYM13
  1

  0
LINE
  5
CD
  8
0
  6
CONTINUOUS
 62
     2
 10
3.150001
 20
0.0
 30
0.0
 11
1.85
 21
0.0
 31
0.0
  0
LINE
  5
CE
  8
0
  6
CONTINUOUS
 62
     2
 10
1.85
 20
9.0
 30
0.0
 11
3.150001
 21
9.0
 31
0.0
  0
LINE
  5
CF
  8
0
  6
CONTINUOUS
 62
     2
 10
1.85
 20
0.0
 30
0.0
 11
1.85
 21
7.7
 31
0.0
  0
LINE
  5
D0
  8
0
  6
CONTINUOUS
 62
     2
 10
3.150001
 20
0.0
 30
0.0
 11
3.150001
 21
9.0
 31
0.0
  0
LINE
  5
D1
  8
0
  6
CONTINUOUS
 62
     2
 10
1.85
 20
7.7
 30
0.0
 11
1.2
 21
7.7
 31
0.0
  0
LINE
  5
D2
  8
0
  6
CONTINUOUS
 62
     2
 10
1.2
 20
7.7
 30
0.0
 11
1.85
 21
9.0
 31
0.0
  0
ENDBLK
  5
D3
  8
0
  0
BLOCK
  8
0
  2
SYM14
 70
     0
 10
0.0
 20
0.0
 30
0.0
  3
SYM14
  1

  0
LINE
  5
D6
  8
0
  6
CONTINUOUS
 62
     2
 10
5.0
 20
6.0
 30
0.0
 11
3.7
 21
6.0
 31
0.0
  0
LINE
  5
D7
  8
0
  6
CONTINUOUS
 62
     2
 10
5.0
 20
3.0
 30
0.0
 11
3.7
 21
3.0
 31
0.0
  0
ARC
  5
D8
  8
0
  6
CONTINUOUS
 62
     2
 10
2.0
 20
2.0
 30
0.0
 40
0.7
 50
180.000019
 51
270.0
  0
ARC
  5
D9
  8
0
  6
CONTINUOUS
 62
     2
 10
2.999999
 20
2.0
 30
0.0
 40
0.7
 50
270.0
 51
359.999928
  0
ARC
  5
DA
  8
0
  6
CONTINUOUS
 62
     2
 10
2.999999
 20
6.999999
 30
0.0
 40
0.7
 50
0.0
 51
90.0
  0
ARC
  5
DB
  8
0
  6
CONTINUOUS
 62
     2
 10
2.0
 20
6.999999
 30
0.0
 40
0.7
 50
90.0
 51
180.000019
  0
ARC
  5
DC
  8
0
  6
CONTINUOUS
 62
     2
 10
2.0
 20
7.0
 30
0.0
 40
2.0
 50
90.0
 51
180.000019
  0
ARC
  5
DD
  8
0
  6
CONTINUOUS
 62
     2
 10
3.0
 20
7.0
 30
0.0
 40
2.0
 50
0.0
 51
90.0
  0
ARC
  5
DE
  8
0
  6
CONTINUOUS
 62
     2
 10
3.0
 20
2.0
 30
0.0
 40
2.0
 50
270.0
 51
359.999928
  0
ARC
  5
DF
  8
0
  6
CONTINUOUS
 62
     2
 10
2.0
 20
2.0
 30
0.0
 40
2.0
 50
180.000019
 51
270.0
  0
LINE
  5
E0
  8
0
  6
CONTINUOUS
 62
     2
 10
3.7
 20
6.999999
 30
0.0
 11
3.7
 21
6.0
 31
0.0
  0
LINE
  5
E1
  8
0
  6
CONTINUOUS
 62
     2
 10
2.999999
 20
7.7
 30
0.0
 11
2.0
 21
7.7
 31
0.0
  0
LINE
  5
E2
  8
0
  6
CONTINUOUS
 62
     2
 10
2.0
 20
1.3
 30
0.0
 11
2.999999
 21
1.3
 31
0.0
  0
LINE
  5
E3
  8
0
  6
CONTINUOUS
 62
     2
 10
1.3
 20
2.0
 30
0.0
 11
1.3
 21
6.999999
 31
0.0
  0
LINE
  5
E4
  8
0
  6
CONTINUOUS
 62
     2
 10
5.0
 20
2.0
 30
0.0
 11
5.0
 21
3.0
 31
0.0
  0
LINE
  5
E5
  8
0
  6
CONTINUOUS
 62
     2
 10
0.0
 20
7.0
 30
0.0
 11
0.0
 21
2.0
 31
0.0
  0
LINE
  5
E6
  8
0
  6
CONTINUOUS
 62
     2
 10
2.0
 20
9.0
 30
0.0
 11
3.0
 21
9.0
 31
0.0
  0
LINE
  5
E7
  8
0
  6
CONTINUOUS
 62
     2
 10
3.0
 20
0.0
 30
0.0
 11
2.0
 21
0.0
 31
0.0
  0
LINE
  5
E8
  8
0
  6
CONTINUOUS
 62
     2
 10
5.0
 20
7.0
 30
0.0
 11
5.0
 21
6.0
 31
0.0
  0
LINE
  5
E9
  8
0
  6
CONTINUOUS
 62
     2
 10
3.7
 20
2.0
 30
0.0
 11
3.7
 21
3.0
 31
0.0
  0
ENDBLK
  5
EA
  8
0
  0
BLOCK
  8
0
  2
SYM15
 70
     0
 10
0.0
 20
0.0
 30
0.0
  3
SYM15
  1

  0
LINE
  5
ED
  8
0
  6
CONTINUOUS
 62
     2
 10
1.2
 20
7.8
 30
0.0
 11
1.2
 21
5.2
 31
0.0
  0
LINE
  5
EE
  8
0
  6
CONTINUOUS
 62
     2
 10
1.2
 20
1.2
 30
0.0
 11
2.5
 21
1.2
 31
0.0
  0
LINE
  5
EF
  8
0
  6
CONTINUOUS
 62
     2
 10
1.2
 20
7.8
 30
0.0
 11
2.5
 21
7.8
 31
0.0
  0
LINE
  5
F0
  8
0
  6
CONTINUOUS
 62
     2
 10
1.2
 20
3.8
 30
0.0
 11
2.5
 21
3.8
 31
0.0
  0
LINE
  5
F1
  8
0
  6
CONTINUOUS
 62
     2
 10
1.2
 20
5.2
 30
0.0
 11
2.5
 21
5.2
 31
0.0
  0
LINE
  5
F2
  8
0
  6
CONTINUOUS
 62
     2
 10
0.0
 20
0.0
 30
0.0
 11
0.0
 21
9.0
 31
0.0
  0
LINE
  5
F3
  8
0
  6
CONTINUOUS
 62
     2
 10
0.0
 20
9.0
 30
0.0
 11
2.5
 21
9.0
 31
0.0
  0
LINE
  5
F4
  8
0
  6
CONTINUOUS
 62
     2
 10
0.0
 20
0.0
 30
0.0
 11
2.5
 21
0.0
 31
0.0
  0
ARC
  5
F5
  8
0
  6
CONTINUOUS
 62
     2
 10
2.5
 20
2.5
 30
0.0
 40
2.5
 50
270.0
 51
53.130057
  0
ARC
  5
F6
  8
0
  6
CONTINUOUS
 62
     2
 10
2.5
 20
6.5
 30
0.0
 40
2.5
 50
306.869908
 51
90.0
  0
ARC
  5
F7
  8
0
  6
CONTINUOUS
 62
     2
 10
2.5
 20
6.5
 30
0.0
 40
1.3
 50
270.0
 51
90.0
  0
ARC
  5
F8
  8
0
  6
CONTINUOUS
 62
     2
 10
2.5
 20
2.5
 30
0.0
 40
1.3
 50
270.0
 51
90.0
  0
LINE
  5
F9
  8
0
  6
CONTINUOUS
 62
     2
 10
1.2
 20
1.2
 30
0.0
 11
1.2
 21
3.740001
 31
0.0
  0
ENDBLK
  5
FA
  8
0
  0
BLOCK
  8
0
  2
*D15
 70
     1
 10
0.0
 20
0.0
 30
0.0
  3
*D15
  1

  0
TEXT
  5
FD
  8
0
  6
CONTINUOUS
 62
     4
 10
-19.197792
 20
81.27455
 30
0.0
 40
3.2
  1
‚k
 50
0.000003
 41
0.583333
  7
STANDARD1
  0
LINE
  5
FE
  8
0
  6
CONTINUOUS
 62
     4
 10
24.000008
 20
63.5
 30
0.0
 11
24.000008
 21
82.274551
 31
0.0
  0
LINE
  5
FF
  8
0
  6
CONTINUOUS
 62
     4
 10
-56.999992
 20
23.5
 30
0.0
 11
-56.999992
 21
82.274551
 31
0.0
  0
LINE
  5
100
  8
0
  6
CONTINUOUS
 62
     4
 10
24.000008
 20
80.274551
 30
0.0
 11
-56.999992
 21
80.274551
 31
0.0
  0
LINE
  5
101
  8
0
  6
CONTINUOUS
 62
     4
 10
24.000008
 20
80.274551
 30
0.0
 11
22.068156
 21
79.756913
 31
0.0
  0
LINE
  5
102
  8
0
  6
CONTINUOUS
 62
     4
 10
24.000008
 20
80.274551
 30
0.0
 11
22.068156
 21
80.792189
 31
0.0
  0
LINE
  5
103
  8
0
  6
CONTINUOUS
 62
     4
 10
-56.999992
 20
80.274551
 30
0.0
 11
-55.068141
 21
80.792189
 31
0.0
  0
LINE
  5
104
  8
0
  6
CONTINUOUS
 62
     4
 10
-56.999992
 20
80.274551
 30
0.0
 11
-55.068141
 21
79.756913
 31
0.0
  0
POINT
  5
105
  8
DEFPOINTS
  6
BYBLOCK
 10
-56.999992
 20
22.5
 30
0.0
  0
POINT
  5
106
  8
DEFPOINTS
  6
BYBLOCK
 10
24.000008
 20
62.5
 30
0.0
  0
POINT
  5
107
  8
DEFPOINTS
  6
BYBLOCK
 10
24.000008
 20
80.274551
 30
0.0
  0
ENDBLK
  5
108
  8
0
  0
BLOCK
  8
0
  2
*D16
 70
     1
 10
0.0
 20
0.0
 30
0.0
  3
*D16
  1

  0
TEXT
  5
10B
  8
0
  6
CONTINUOUS
 62
     4
 10
28.658159
 20
75.898505
 30
0.0
 40
3.2
  1
4
 50
0.000003
 41
0.7
  7
STANDARD1
  0
LINE
  5
10C
  8
0
  6
CONTINUOUS
 62
     4
 10
24.000008
 20
63.5
 30
0.0
 11
24.000008
 21
76.898506
 31
0.0
  0
LINE
  5
10D
  8
0
  6
CONTINUOUS
 62
     4
 10
26.000008
 20
58.5
 30
0.0
 11
26.000008
 21
76.898506
 31
0.0
  0
LINE
  5
10E
  8
0
  6
CONTINUOUS
 62
     4
 10
19.000008
 20
74.898506
 30
0.0
 11
31.000008
 21
74.898506
 31
0.0
  0
LINE
  5
10F
  8
0
  6
CONTINUOUS
 62
     4
 10
24.000008
 20
74.898506
 30
0.0
 11
22.068156
 21
75.416144
 31
0.0
  0
LINE
  5
110
  8
0
  6
CONTINUOUS
 62
     4
 10
24.000008
 20
74.898506
 30
0.0
 11
22.068156
 21
74.380868
 31
0.0
  0
LINE
  5
111
  8
0
  6
CONTINUOUS
 62
     4
 10
26.000008
 20
74.898506
 30
0.0
 11
27.931859
 21
74.380868
 31
0.0
  0
LINE
  5
112
  8
0
  6
CONTINUOUS
 62
     4
 10
26.000008
 20
74.898506
 30
0.0
 11
27.931859
 21
75.416144
 31
0.0
  0
POINT
  5
113
  8
DEFPOINTS
  6
BYBLOCK
 10
26.000008
 20
57.5
 30
0.0
  0
POINT
  5
114
  8
DEFPOINTS
  6
BYBLOCK
 10
24.000008
 20
62.5
 30
0.0
  0
POINT
  5
115
  8
DEFPOINTS
  6
BYBLOCK
 10
24.000008
 20
74.898506
 30
0.0
  0
ENDBLK
  5
116
  8
0
  0
BLOCK
  8
0
  2
*D17
 70
     1
 10
0.0
 20
0.0
 30
0.0
  3
*D17
  1

  0
TEXT
  5
119
  8
0
  6
CONTINUOUS
 62
     4
 10
117.107488
 20
45.514495
 30
0.0
 40
3.2
  1
ѓУ
 50
300.963758
 41
0.583333
  7
STANDARD1
  0
TEXT
  5
11A
  8
0
  6
CONTINUOUS
 62
     4
 10
118.259962
 20
43.593711
 30
0.0
 40
3.2
  1
250
 50
300.963758
 41
0.7
  7
STANDARD1
  0
LINE
  5
11B
  8
0
  6
CONTINUOUS
 62
     4
 10
170.905991
 20
-46.093307
 30
0.0
 11
106.594017
 21
61.093307
 31
0.0
  0
LINE
  5
11C
  8
0
  6
CONTINUOUS
 62
     4
 10
170.905991
 20
-46.093307
 30
0.0
 11
169.46819
 21
-44.703081
 31
0.0
  0
LINE
  5
11D
  8
0
  6
CONTINUOUS
 62
     4
 10
170.905991
 20
-46.093307
 30
0.0
 11
170.355932
 21
-44.170436
 31
0.0
  0
LINE
  5
11E
  8
0
  6
CONTINUOUS
 62
     4
 10
106.594017
 20
61.093307
 30
0.0
 11
108.031818
 21
59.703081
 31
0.0
  0
LINE
  5
11F
  8
0
  6
CONTINUOUS
 62
     4
 10
106.594017
 20
61.093307
 30
0.0
 11
107.144076
 21
59.170436
 31
0.0
  0
POINT
  5
120
  8
DEFPOINTS
  6
BYBLOCK
 10
170.905991
 20
-46.093307
 30
0.0
  0
POINT
  5
121
  8
DEFPOINTS
  6
BYBLOCK
 10
106.594017
 20
61.093307
 30
0.0
  0
ENDBLK
  5
122
  8
0
  0
BLOCK
  8
0
  2
*D18
 70
     1
 10
0.0
 20
0.0
 30
0.0
  3
*D18
  1

  0
TEXT
  5
125
  8
0
  6
CONTINUOUS
 62
     4
 10
-56.604992
 20
-46.500002
 30
0.0
 40
3.2
  1
19.5
 50
0.000003
 41
0.7
  7
STANDARD1
  0
LINE
  5
126
  8
0
  6
CONTINUOUS
 62
     4
 10
-47.249992
 20
-37.421375
 30
0.0
 11
-47.249992
 21
-49.5
 31
0.0
  0
LINE
  5
127
  8
0
  6
CONTINUOUS
 62
     4
 10
-56.999992
 20
-22.5
 30
0.0
 11
-56.999992
 21
-49.5
 31
0.0
  0
LINE
  5
128
  8
0
  6
CONTINUOUS
 62
     4
 10
-47.249992
 20
-47.5
 30
0.0
 11
-56.999992
 21
-47.5
 31
0.0
  0
LINE
  5
129
  8
0
  6
CONTINUOUS
 62
     4
 10
-47.249992
 20
-47.5
 30
0.0
 11
-49.181844
 21
-48.017638
 31
0.0
  0
LINE
  5
12A
  8
0
  6
CONTINUOUS
 62
     4
 10
-47.249992
 20
-47.5
 30
0.0
 11
-49.181844
 21
-46.982362
 31
0.0
  0
LINE
  5
12B
  8
0
  6
CONTINUOUS
 62
     4
 10
-56.999992
 20
-47.5
 30
0.0
 11
-55.068141
 21
-46.982362
 31
0.0
  0
LINE
  5
12C
  8
0
  6
CONTINUOUS
 62
     4
 10
-56.999992
 20
-47.5
 30
0.0
 11
-55.068141
 21
-48.017638
 31
0.0
  0
POINT
  5
12D
  8
DEFPOINTS
  6
BYBLOCK
 10
-56.999992
 20
-21.5
 30
0.0
  0
POINT
  5
12E
  8
DEFPOINTS
  6
BYBLOCK
 10
-47.249992
 20
-36.421375
 30
0.0
  0
POINT
  5
12F
  8
DEFPOINTS
  6
BYBLOCK
 10
-47.249992
 20
-47.5
 30
0.0
  0
ENDBLK
  5
130
  8
0
  0
BLOCK
  8
0
  2
*D19
 70
     1
 10
0.0
 20
0.0
 30
0.0
  3
*D19
  1

  0
TEXT
  5
133
  8
0
  6
CONTINUOUS
 62
     4
 10
16.25
 20
-54.000002
 30
0.0
 40
3.2
  1
KL
 50
0.000003
 41
0.7
  7
STANDARD1
  0
LINE
  5
134
  8
0
  6
CONTINUOUS
 62
     4
 10
24.000008
 20
-48.5
 30
0.0
 11
24.000008
 21
-57.0
 31
0.0
  0
LINE
  5
135
  8
0
  6
CONTINUOUS
 62
     4
 10
3.0
 20
-56.5
 30
0.0
 11
3.0
 21
-53.0
 31
0.0
  0
LINE
  5
136
  8
0
  6
CONTINUOUS
 62
     4
 10
24.000008
 20
-55.0
 30
0.0
 11
3.0
 21
-55.0
 31
0.0
  0
LINE
  5
137
  8
0
  6
CONTINUOUS
 62
     4
 10
24.000008
 20
-55.0
 30
0.0
 11
22.068156
 21
-55.517638
 31
0.0
  0
LINE
  5
138
  8
0
  6
CONTINUOUS
 62
     4
 10
24.000008
 20
-55.0
 30
0.0
 11
22.068156
 21
-54.482362
 31
0.0
  0
LINE
  5
139
  8
0
  6
CONTINUOUS
 62
     4
 10
3.0
 20
-55.0
 30
0.0
 11
4.931852
 21
-54.482362
 31
0.0
  0
LINE
  5
13A
  8
0
  6
CONTINUOUS
 62
     4
 10
3.0
 20
-55.0
 30
0.0
 11
4.931852
 21
-55.517638
 31
0.0
  0
POINT
  5
13B
  8
DEFPOINTS
  6
BYBLOCK
 10
3.0
 20
-57.5
 30
0.0
  0
POINT
  5
13C
  8
DEFPOINTS
  6
BYBLOCK
 10
24.000008
 20
-47.5
 30
0.0
  0
POINT
  5
13D
  8
DEFPOINTS
  6
BYBLOCK
 10
24.000008
 20
-55.0
 30
0.0
  0
ENDBLK
  5
13E
  8
0
  0
BLOCK
  8
0
  2
*D20
 70
     1
 10
0.0
 20
0.0
 30
0.0
  3
*D20
  1

  0
TEXT
  5
141
  8
0
  6
CONTINUOUS
 62
     4
 10
150.104283
 20
-28.691758
 30
0.0
 40
3.2
  1
45%%d%%d
 50
22.499998
 41
0.65625
  7
STANDARD1
  0
LINE
  5
142
  8
0
  6
CONTINUOUS
 62
     4
 10
175.42775
 20
-29.17775
 30
0.0
 11
164.864182
 21
-18.614182
 31
0.0
  0
ARC
  5
143
  8
0
  6
CONTINUOUS
 62
     4
 10
138.75
 20
7.5
 30
0.0
 40
38.93103
 50
270.0
 51
315.000002
  0
LINE
  5
144
  8
0
  6
CONTINUOUS
 62
     4
 10
138.75
 20
-31.43103
 30
0.0
 11
140.681852
 21
-30.913392
 31
0.0
  0
LINE
  5
145
  8
0
  6
CONTINUOUS
 62
     4
 10
138.75
 20
-31.43103
 30
0.0
 11
140.681852
 21
-31.948668
 31
0.0
  0
LINE
  5
146
  8
0
  6
CONTINUOUS
 62
     4
 10
166.278397
 20
-20.028395
 30
0.0
 11
165.278397
 21
-21.760446
 31
0.0
  0
LINE
  5
147
  8
0
  6
CONTINUOUS
 62
     4
 10
166.278397
 20
-20.028395
 30
0.0
 11
164.546346
 21
-21.028395
 31
0.0
  0
POINT
  5
148
  8
DEFPOINTS
  6
BYBLOCK
 10
0.0
 20
0.0
 30
0.0
  0
POINT
  5
149
  8
DEFPOINTS
  6
BYBLOCK
 10
138.75
 20
7.5
 30
0.0
  0
POINT
  5
14A
  8
DEFPOINTS
  6
BYBLOCK
 10
138.75
 20
-31.43103
 30
0.0
  0
POINT
  5
14B
  8
DEFPOINTS
  6
BYBLOCK
 10
176.134857
 20
-29.884857
 30
0.0
  0
POINT
  5
14C
  8
DEFPOINTS
  6
BYBLOCK
 10
307.296522
 20
-56.935164
 30
0.0
  0
ENDBLK
  5
14D
  8
0
  0
BLOCK
  8
0
  2
*D21
 70
     1
 10
0.0
 20
0.0
 30
0.0
  3
*D21
  1

  0
TEXT
  5
150
  8
0
  6
CONTINUOUS
 62
     4
 10
110.624998
 20
72.931979
 30
0.0
 40
3.2
  1
37.5%%d%%d
 50
18.749999
 41
0.673077
  7
STANDARD1
  0
LINE
  5
151
  8
0
  6
CONTINUOUS
 62
     4
 10
138.75
 20
65.633789
 30
0.0
 11
138.75
 21
79.5
 31
0.0
  0
LINE
  5
152
  8
0
  6
CONTINUOUS
 62
     4
 10
97.962069
 20
60.655871
 30
0.0
 11
94.919174
 21
64.621437
 31
0.0
  0
ARC
  5
153
  8
0
  6
CONTINUOUS
 62
     4
 10
138.75
 20
7.5
 30
0.0
 40
70.0
 50
90.0
 51
127.500003
  0
LINE
  5
154
  8
0
  6
CONTINUOUS
 62
     4
 10
138.75
 20
77.5
 30
0.0
 11
136.818148
 21
76.982362
 31
0.0
  0
LINE
  5
155
  8
0
  6
CONTINUOUS
 62
     4
 10
138.75
 20
77.5
 30
0.0
 11
136.818148
 21
78.017638
 31
0.0
  0
LINE
  5
156
  8
0
  6
CONTINUOUS
 62
     4
 10
96.136696
 20
63.034733
 30
0.0
 11
97.354219
 21
64.62144
 31
0.0
  0
LINE
  5
157
  8
0
  6
CONTINUOUS
 62
     4
 10
96.136696
 20
63.034733
 30
0.0
 11
97.984455
 21
63.8001
 31
0.0
  0
POINT
  5
158
  8
DEFPOINTS
  6
BYBLOCK
 10
0.0
 20
0.0
 30
0.0
  0
POINT
  5
159
  8
DEFPOINTS
  6
BYBLOCK
 10
138.75
 20
7.5
 30
0.0
  0
POINT
  5
15A
  8
DEFPOINTS
  6
BYBLOCK
 10
138.75
 20
64.633789
 30
0.0
  0
POINT
  5
15B
  8
DEFPOINTS
  6
BYBLOCK
 10
98.570831
 20
59.862518
 30
0.0
  0
POINT
  5
15C
  8
DEFPOINTS
  6
BYBLOCK
 10
232.498471
 20
147.570217
 30
0.0
  0
ENDBLK
  5
15D
  8
0
  0
BLOCK
  8
0
  2
*D22
 70
     1
 10
0.0
 20
0.0
 30
0.0
  3
*D22
  1

  0
TEXT
  5
160
  8
0
  6
CONTINUOUS
 62
     4
 10
17.760008
 20
75.898505
 30
0.0
 40
3.2
  1
16
 50
0.000003
 41
0.7
  7
STANDARD1
  0
LINE
  5
161
  8
0
  6
CONTINUOUS
 62
     4
 10
24.000008
 20
63.5
 30
0.0
 11
24.000008
 21
76.898506
 31
0.0
  0
LINE
  5
162
  8
0
  6
CONTINUOUS
 62
     4
 10
16.000008
 20
63.5
 30
0.0
 11
16.000008
 21
76.898506
 31
0.0
  0
LINE
  5
163
  8
0
  6
CONTINUOUS
 62
     4
 10
24.000008
 20
74.898506
 30
0.0
 11
16.000008
 21
74.898506
 31
0.0
  0
LINE
  5
164
  8
0
  6
CONTINUOUS
 62
     4
 10
24.000008
 20
74.898506
 30
0.0
 11
22.068156
 21
74.380868
 31
0.0
  0
LINE
  5
165
  8
0
  6
CONTINUOUS
 62
     4
 10
24.000008
 20
74.898506
 30
0.0
 11
22.068156
 21
75.416144
 31
0.0
  0
LINE
  5
166
  8
0
  6
CONTINUOUS
 62
     4
 10
16.000008
 20
74.898506
 30
0.0
 11
17.931859
 21
75.416144
 31
0.0
  0
LINE
  5
167
  8
0
  6
CONTINUOUS
 62
     4
 10
16.000008
 20
74.898506
 30
0.0
 11
17.931859
 21
74.380868
 31
0.0
  0
POINT
  5
168
  8
DEFPOINTS
  6
BYBLOCK
 10
16.000008
 20
62.5
 30
0.0
  0
POINT
  5
169
  8
DEFPOINTS
  6
BYBLOCK
 10
24.000008
 20
62.5
 30
0.0
  0
POINT
  5
16A
  8
DEFPOINTS
  6
BYBLOCK
 10
24.000008
 20
74.898506
 30
0.0
  0
ENDBLK
  5
16B
  8
0
  0
BLOCK
  8
1
  2
*D23
 70
     1
 10
0.0
 20
0.0
 30
0.0
  3
*D23
  1

  0
TEXT
  5
16E
  8
1
  6
CONTINUOUS
 62
     4
 10
136.509995
 20
-80.250002
 30
0.0
 40
3.2
  1
47
 50
0.000003
 41
0.7
  7
STANDARD1
  0
LINE
  5
16F
  8
1
  6
CONTINUOUS
 62
     4
 10
127.0
 20
-62.5
 30
0.0
 11
127.0
 21
-83.25
 31
0.0
  0
LINE
  5
170
  8
1
  6
CONTINUOUS
 62
     4
 10
150.5
 20
-62.5
 30
0.0
 11
150.5
 21
-83.25
 31
0.0
  0
LINE
  5
171
  8
1
  6
CONTINUOUS
 62
     4
 10
127.0
 20
-81.25
 30
0.0
 11
150.5
 21
-81.25
 31
0.0
  0
LINE
  5
172
  8
1
  6
CONTINUOUS
 62
     4
 10
127.0
 20
-81.25
 30
0.0
 11
128.931852
 21
-80.732362
 31
0.0
  0
LINE
  5
173
  8
1
  6
CONTINUOUS
 62
     4
 10
127.0
 20
-81.25
 30
0.0
 11
128.931852
 21
-81.767638
 31
0.0
  0
LINE
  5
174
  8
1
  6
CONTINUOUS
 62
     4
 10
150.5
 20
-81.25
 30
0.0
 11
148.568148
 21
-81.767638
 31
0.0
  0
LINE
  5
175
  8
1
  6
CONTINUOUS
 62
     4
 10
150.5
 20
-81.25
 30
0.0
 11
148.568148
 21
-80.732362
 31
0.0
  0
POINT
  5
176
  8
DEFPOINTS
  6
BYBLOCK
 10
150.5
 20
-61.5
 30
0.0
  0
POINT
  5
177
  8
DEFPOINTS
  6
BYBLOCK
 10
127.0
 20
-61.5
 30
0.0
  0
POINT
  5
178
  8
DEFPOINTS
  6
BYBLOCK
 10
127.0
 20
-81.25
 30
0.0
  0
ENDBLK
  5
179
  8
1
  0
BLOCK
  8
1
  2
*D24
 70
     1
 10
0.0
 20
0.0
 30
0.0
  3
*D24
  1

  0
TEXT
  5
17C
  8
1
  6
CONTINUOUS
 62
     4
 10
163.494983
 20
25.474826
 30
0.0
 40
3.2
  1
ѓУ
 50
34.121066
 41
0.583333
  7
STANDARD1
  0
TEXT
  5
17D
  8
1
  6
CONTINUOUS
 62
     4
 10
165.349368
 20
26.73134
 30
0.0
 40
3.2
  1
235
 50
34.121066
 41
0.7
  7
STANDARD1
  0
LINE
  5
17E
  8
1
  6
CONTINUOUS
 62
     4
 10
90.113571
 20
-25.45542
 30
0.0
 11
187.386429
 21
40.455421
 31
0.0
  0
LINE
  5
17F
  8
1
  6
CONTINUOUS
 62
     4
 10
90.113571
 20
-25.45542
 30
0.0
 11
91.422497
 21
-23.943231
 31
0.0
  0
LINE
  5
180
  8
1
  6
CONTINUOUS
 62
     4
 10
90.113571
 20
-25.45542
 30
0.0
 11
92.003228
 21
-24.800289
 31
0.0
  0
LINE
  5
181
  8
1
  6
CONTINUOUS
 62
     4
 10
187.386429
 20
40.455421
 30
0.0
 11
186.077503
 21
38.943233
 31
0.0
  0
LINE
  5
182
  8
1
  6
CONTINUOUS
 62
     4
 10
187.386429
 20
40.455421
 30
0.0
 11
185.496772
 21
39.800291
 31
0.0
  0
POINT
  5
183
  8
DEFPOINTS
  6
BYBLOCK
 10
90.113571
 20
-25.45542
 30
0.0
  0
POINT
  5
184
  8
DEFPOINTS
  6
BYBLOCK
 10
187.386429
 20
40.455421
 30
0.0
  0
ENDBLK
  5
185
  8
1
  0
BLOCK
  8
1
  2
*D25
 70
     1
 10
0.0
 20
0.0
 30
0.0
  3
*D25
  1

  0
TEXT
  5
188
  8
1
  6
CONTINUOUS
 62
     4
 10
168.511108
 20
-10.3003
 30
0.0
 40
3.2
  1
ѓУ
 50
327.463645
 41
0.583333
  7
STANDARD1
  0
TEXT
  5
189
  8
1
  6
CONTINUOUS
 62
     4
 10
170.399535
 20
-11.50505
 30
0.0
 40
3.2
  1
270
 50
327.463645
 41
0.7
  7
STANDARD1
  0
LINE
  5
18A
  8
1
  6
CONTINUOUS
 62
     4
 10
81.844093
 20
43.803822
 30
0.0
 11
195.655899
 21
-28.803822
 31
0.0
  0
LINE
  5
18B
  8
1
  6
CONTINUOUS
 62
     4
 10
81.844093
 20
43.803822
 30
0.0
 11
83.751145
 21
43.2012
 31
0.0
  0
LINE
  5
18C
  8
1
  6
CONTINUOUS
 62
     4
 10
81.844093
 20
43.803822
 30
0.0
 11
83.194338
 21
42.32841
 31
0.0
  0
LINE
  5
18D
  8
1
  6
CONTINUOUS
 62
     4
 10
195.655899
 20
-28.803822
 30
0.0
 11
193.748847
 21
-28.2012
 31
0.0
  0
LINE
  5
18E
  8
1
  6
CONTINUOUS
 62
     4
 10
195.655899
 20
-28.803822
 30
0.0
 11
194.305654
 21
-27.32841
 31
0.0
  0
POINT
  5
18F
  8
DEFPOINTS
  6
BYBLOCK
 10
81.844093
 20
43.803822
 30
0.0
  0
POINT
  5
190
  8
DEFPOINTS
  6
BYBLOCK
 10
195.655899
 20
-28.803822
 30
0.0
  0
ENDBLK
  5
191
  8
1
  0
BLOCK
  8
1
  2
*D26
 70
     1
 10
0.0
 20
0.0
 30
0.0
  3
*D26
  1

  0
TEXT
  5
194
  8
1
  6
CONTINUOUS
 62
     4
 10
120.40526
 20
-61.018066
 30
0.0
 40
3.2
  1
164
 50
90.000005
 41
0.7
  7
STANDARD1
  0
LINE
  5
195
  8
1
  6
CONTINUOUS
 62
     4
 10
146.849838
 20
-74.189995
 30
0.0
 11
119.405258
 21
-74.189995
 31
0.0
  0
LINE
  5
196
  8
1
  6
CONTINUOUS
 62
     4
 10
121.405258
 20
7.5
 30
0.0
 11
121.405258
 21
-74.189995
 31
0.0
  0
LINE
  5
197
  8
1
  6
CONTINUOUS
 62
     4
 10
121.405258
 20
7.5
 30
0.0
 11
121.922896
 21
5.568148
 31
0.0
  0
LINE
  5
198
  8
1
  6
CONTINUOUS
 62
     4
 10
121.405258
 20
7.5
 30
0.0
 11
120.88762
 21
5.568148
 31
0.0
  0
LINE
  5
199
  8
1
  6
CONTINUOUS
 62
     4
 10
121.405258
 20
-74.189995
 30
0.0
 11
120.88762
 21
-72.258143
 31
0.0
  0
LINE
  5
19A
  8
1
  6
CONTINUOUS
 62
     4
 10
121.405258
 20
-74.189995
 30
0.0
 11
121.922896
 21
-72.258143
 31
0.0
  0
POINT
  5
19B
  8
DEFPOINTS
  6
BYBLOCK
 10
147.849838
 20
-74.189995
 30
0.0
  0
POINT
  5
19C
  8
DEFPOINTS
  6
BYBLOCK
 10
218.817764
 20
7.5
 30
0.0
  0
POINT
  5
19D
  8
DEFPOINTS
  6
BYBLOCK
 10
121.405258
 20
7.5
 30
0.0
  0
ENDBLK
  5
19E
  8
1
  0
BLOCK
  8
1
  2
*D27
 70
     1
 10
0.0
 20
0.0
 30
0.0
  3
*D27
  1

  0
TEXT
  5
1A1
  8
1
  6
CONTINUOUS
 62
     4
 10
134.138947
 20
83.571005
 30
0.0
 40
3.2
  1
Ѓ ‚Q‚Q‚O
 50
0.000003
 41
0.583333
  7
STANDARD1
  0
LINE
  5
1A2
  8
1
  6
CONTINUOUS
 62
     4
 10
193.749985
 20
47.631191
 30
0.0
 11
193.749985
 21
84.5
 31
0.0
  0
LINE
  5
1A3
  8
1
  6
CONTINUOUS
 62
     4
 10
83.75
 20
47.631191
 30
0.0
 11
83.75
 21
84.5
 31
0.0
  0
LINE
  5
1A4
  8
1
  6
CONTINUOUS
 62
     4
 10
193.749985
 20
82.5
 30
0.0
 11
83.75
 21
82.5
 31
0.0
  0
LINE
  5
1A5
  8
1
  6
CONTINUOUS
 62
     4
 10
193.749985
 20
82.5
 30
0.0
 11
191.818133
 21
81.982362
 31
0.0
  0
LINE
  5
1A6
  8
1
  6
CONTINUOUS
 62
     4
 10
193.749985
 20
82.5
 30
0.0
 11
191.818133
 21
83.017638
 31
0.0
  0
LINE
  5
1A7
  8
1
  6
CONTINUOUS
 62
     4
 10
83.75
 20
82.5
 30
0.0
 11
85.681852
 21
83.017638
 31
0.0
  0
LINE
  5
1A8
  8
1
  6
CONTINUOUS
 62
     4
 10
83.75
 20
82.5
 30
0.0
 11
85.681852
 21
81.982362
 31
0.0
  0
POINT
  5
1A9
  8
DEFPOINTS
  6
BYBLOCK
 10
83.75
 20
46.631191
 30
0.0
  0
POINT
  5
1AA
  8
DEFPOINTS
  6
BYBLOCK
 10
193.749985
 20
46.631191
 30
0.0
  0
POINT
  5
1AB
  8
DEFPOINTS
  6
BYBLOCK
 10
193.749985
 20
82.5
 30
0.0
  0
ENDBLK
  5
1AC
  8
1
  0
BLOCK
  8
1
  2
*D28
 70
     1
 10
0.0
 20
0.0
 30
0.0
  3
*D28
  1

  0
TEXT
  5
1AF
  8
1
  6
CONTINUOUS
 62
     4
 10
63.249223
 20
37.207798
 30
0.0
 40
3.2
  1
ѓУ
 50
90.000005
 41
0.583333
  7
STANDARD1
  0
TEXT
  5
1B0
  8
1
  6
CONTINUOUS
 62
     4
 10
63.249223
 20
39.4478
 30
0.0
 40
3.2
  1
200
 50
90.000005
 41
0.7
  7
STANDARD1
  0
TEXT
  5
1B1
  8
1
  6
CONTINUOUS
 62
     4
 10
61.399223
 20
46.667797
 30
0.0
 40
2.0
  1
Ѓ@0
 50
90.000005
 41
0.636364
  7
STANDARD1
  0
TEXT
  5
1B2
  8
1
  6
CONTINUOUS
 62
     4
 10
63.899223
 20
46.667797
 30
0.0
 40
2.0
  1
-0.046
 50
90.000005
 41
0.7
  7
STANDARD1
  0
LINE
  5
1B3
  8
1
  6
CONTINUOUS
 62
     4
 10
26.500008
 20
57.5
 30
0.0
 11
66.899223
 21
57.5
 31
0.0
  0
LINE
  5
1B4
  8
1
  6
CONTINUOUS
 62
     4
 10
64.899223
 20
35.6078
 30
0.0
 11
64.899223
 21
57.5
 31
0.0
  0
LINE
  5
1B5
  8
1
  6
CONTINUOUS
 62
     4
 10
64.899223
 20
57.5
 30
0.0
 11
65.416861
 21
55.568148
 31
0.0
  0
LINE
  5
1B6
  8
1
  6
CONTINUOUS
 62
     4
 10
64.899223
 20
57.5
 30
0.0
 11
64.381585
 21
55.568148
 31
0.0
  0
POINT
  5
1B7
  8
DEFPOINTS
  6
BYBLOCK
 10
25.500008
 20
57.5
 30
0.0
  0
POINT
  5
1B8
  8
DEFPOINTS
  6
BYBLOCK
 10
64.899223
 20
35.6078
 30
0.0
  0
POINT
  5
1B9
  8
DEFPOINTS
  6
BYBLOCK
 10
64.899223
 20
35.6078
 30
0.0
  0
ENDBLK
  5
1BA
  8
1
  0
BLOCK
  8
1
  2
*X29
 70
     1
 10
0.0
 20
0.0
 30
0.0
  3
*X29
  1

  0
LINE
  5
1BD
  8
1
  6
CONTINUOUS
 62
     4
 10
34.398879
 20
-106.698022
 30
0.0
 11
35.998813
 21
-106.698022
 31
0.0
  0
LINE
  5
1BE
  8
1
  6
CONTINUOUS
 62
     4
 10
34.342212
 20
-106.598022
 30
0.0
 11
35.938813
 21
-106.598022
 31
0.0
  0
LINE
  5
1BF
  8
1
  6
CONTINUOUS
 62
     4
 10
34.285546
 20
-106.498022
 30
0.0
 11
35.878813
 21
-106.498022
 31
0.0
  0
LINE
  5
1C0
  8
1
  6
CONTINUOUS
 62
     4
 10
34.228879
 20
-106.398022
 30
0.0
 11
35.818813
 21
-106.398022
 31
0.0
  0
LINE
  5
1C1
  8
1
  6
CONTINUOUS
 62
     4
 10
34.172212
 20
-106.298022
 30
0.0
 11
35.758813
 21
-106.298022
 31
0.0
  0
LINE
  5
1C2
  8
1
  6
CONTINUOUS
 62
     4
 10
34.115546
 20
-106.198022
 30
0.0
 11
35.698813
 21
-106.198022
 31
0.0
  0
LINE
  5
1C3
  8
1
  6
CONTINUOUS
 62
     4
 10
34.058879
 20
-106.098022
 30
0.0
 11
35.638813
 21
-106.098022
 31
0.0
  0
LINE
  5
1C4
  8
1
  6
CONTINUOUS
 62
     4
 10
34.002212
 20
-105.998022
 30
0.0
 11
35.578813
 21
-105.998022
 31
0.0
  0
LINE
  5
1C5
  8
1
  6
CONTINUOUS
 62
     4
 10
33.945546
 20
-105.898022
 30
0.0
 11
35.518813
 21
-105.898022
 31
0.0
  0
LINE
  5
1C6
  8
1
  6
CONTINUOUS
 62
     4
 10
33.888879
 20
-105.798022
 30
0.0
 11
35.458813
 21
-105.798022
 31
0.0
  0
LINE
  5
1C7
  8
1
  6
CONTINUOUS
 62
     4
 10
33.832212
 20
-105.698022
 30
0.0
 11
35.398813
 21
-105.698022
 31
0.0
  0
LINE
  5
1C8
  8
1
  6
CONTINUOUS
 62
     4
 10
33.775546
 20
-105.598022
 30
0.0
 11
35.338813
 21
-105.598022
 31
0.0
  0
LINE
  5
1C9
  8
1
  6
CONTINUOUS
 62
     4
 10
33.718879
 20
-105.498022
 30
0.0
 11
35.278813
 21
-105.498022
 31
0.0
  0
LINE
  5
1CA
  8
1
  6
CONTINUOUS
 62
     4
 10
33.662212
 20
-105.398022
 30
0.0
 11
35.218813
 21
-105.398022
 31
0.0
  0
LINE
  5
1CB
  8
1
  6
CONTINUOUS
 62
     4
 10
33.605546
 20
-105.298022
 30
0.0
 11
35.158813
 21
-105.298022
 31
0.0
  0
ENDBLK
  5
1CC
  8
1
  0
BLOCK
  8
1
  2
*X30
 70
     1
 10
0.0
 20
0.0
 30
0.0
  3
*X30
  1

  0
LINE
  5
1CF
  8
1
  6
CONTINUOUS
 62
     4
 10
33.541412
 20
-102.297647
 30
0.0
 11
33.652078
 21
-102.297647
 31
0.0
  0
LINE
  5
1D0
  8
1
  6
CONTINUOUS
 62
     4
 10
33.481412
 20
-102.397647
 30
0.0
 11
33.705412
 21
-102.397647
 31
0.0
  0
LINE
  5
1D1
  8
1
  6
CONTINUOUS
 62
     4
 10
33.421412
 20
-102.497647
 30
0.0
 11
33.758745
 21
-102.497647
 31
0.0
  0
LINE
  5
1D2
  8
1
  6
CONTINUOUS
 62
     4
 10
33.361412
 20
-102.597647
 30
0.0
 11
33.812078
 21
-102.597647
 31
0.0
  0
LINE
  5
1D3
  8
1
  6
CONTINUOUS
 62
     4
 10
33.301412
 20
-102.697647
 30
0.0
 11
33.865412
 21
-102.697647
 31
0.0
  0
LINE
  5
1D4
  8
1
  6
CONTINUOUS
 62
     4
 10
33.241412
 20
-102.797647
 30
0.0
 11
33.918745
 21
-102.797647
 31
0.0
  0
LINE
  5
1D5
  8
1
  6
CONTINUOUS
 62
     4
 10
33.181412
 20
-102.897647
 30
0.0
 11
33.972078
 21
-102.897647
 31
0.0
  0
LINE
  5
1D6
  8
1
  6
CONTINUOUS
 62
     4
 10
33.121412
 20
-102.997647
 30
0.0
 11
34.025412
 21
-102.997647
 31
0.0
  0
LINE
  5
1D7
  8
1
  6
CONTINUOUS
 62
     4
 10
33.061412
 20
-103.097647
 30
0.0
 11
34.078745
 21
-103.097647
 31
0.0
  0
LINE
  5
1D8
  8
1
  6
CONTINUOUS
 62
     4
 10
33.001412
 20
-103.197647
 30
0.0
 11
34.132078
 21
-103.197647
 31
0.0
  0
LINE
  5
1D9
  8
1
  6
CONTINUOUS
 62
     4
 10
32.941412
 20
-103.297647
 30
0.0
 11
34.185412
 21
-103.297647
 31
0.0
  0
LINE
  5
1DA
  8
1
  6
CONTINUOUS
 62
     4
 10
32.881412
 20
-103.397647
 30
0.0
 11
34.238745
 21
-103.397647
 31
0.0
  0
LINE
  5
1DB
  8
1
  6
CONTINUOUS
 62
     4
 10
32.821412
 20
-103.497647
 30
0.0
 11
34.292078
 21
-103.497647
 31
0.0
  0
LINE
  5
1DC
  8
1
  6
CONTINUOUS
 62
     4
 10
32.761412
 20
-103.597647
 30
0.0
 11
34.345412
 21
-103.597647
 31
0.0
  0
LINE
  5
1DD
  8
1
  6
CONTINUOUS
 62
     4
 10
32.701412
 20
-103.697647
 30
0.0
 11
34.398745
 21
-103.697647
 31
0.0
  0
LINE
  5
1DE
  8
1
  6
CONTINUOUS
 62
     4
 10
32.755333
 20
-103.797647
 30
0.0
 11
34.344667
 21
-103.797647
 31
0.0
  0
LINE
  5
1DF
  8
1
  6
CONTINUOUS
 62
     4
 10
32.812
 20
-103.897647
 30
0.0
 11
34.288
 21
-103.897647
 31
0.0
  0
LINE
  5
1E0
  8
1
  6
CONTINUOUS
 62
     4
 10
32.868667
 20
-103.997647
 30
0.0
 11
34.231333
 21
-103.997647
 31
0.0
  0
LINE
  5
1E1
  8
1
  6
CONTINUOUS
 62
     4
 10
32.925333
 20
-104.097647
 30
0.0
 11
34.174667
 21
-104.097647
 31
0.0
  0
LINE
  5
1E2
  8
1
  6
CONTINUOUS
 62
     4
 10
32.982
 20
-104.197647
 30
0.0
 11
34.118
 21
-104.197647
 31
0.0
  0
LINE
  5
1E3
  8
1
  6
CONTINUOUS
 62
     4
 10
33.038667
 20
-104.297647
 30
0.0
 11
34.061333
 21
-104.297647
 31
0.0
  0
LINE
  5
1E4
  8
1
  6
CONTINUOUS
 62
     4
 10
33.095333
 20
-104.397647
 30
0.0
 11
34.004667
 21
-104.397647
 31
0.0
  0
LINE
  5
1E5
  8
1
  6
CONTINUOUS
 62
     4
 10
33.152
 20
-104.497647
 30
0.0
 11
33.948
 21
-104.497647
 31
0.0
  0
LINE
  5
1E6
  8
1
  6
CONTINUOUS
 62
     4
 10
33.208667
 20
-104.597647
 30
0.0
 11
33.891333
 21
-104.597647
 31
0.0
  0
LINE
  5
1E7
  8
1
  6
CONTINUOUS
 62
     4
 10
33.265333
 20
-104.697647
 30
0.0
 11
33.834667
 21
-104.697647
 31
0.0
  0
LINE
  5
1E8
  8
1
  6
CONTINUOUS
 62
     4
 10
33.322
 20
-104.797647
 30
0.0
 11
33.778
 21
-104.797647
 31
0.0
  0
LINE
  5
1E9
  8
1
  6
CONTINUOUS
 62
     4
 10
33.378667
 20
-104.897647
 30
0.0
 11
33.721333
 21
-104.897647
 31
0.0
  0
LINE
  5
1EA
  8
1
  6
CONTINUOUS
 62
     4
 10
33.435333
 20
-104.997647
 30
0.0
 11
33.664667
 21
-104.997647
 31
0.0
  0
LINE
  5
1EB
  8
1
  6
CONTINUOUS
 62
     4
 10
33.492
 20
-105.097647
 30
0.0
 11
33.608
 21
-105.097647
 31
0.0
  0
LINE
  5
1EC
  8
1
  6
CONTINUOUS
 62
     4
 10
33.548667
 20
-105.197647
 30
0.0
 11
33.551333
 21
-105.197647
 31
0.0
  0
ENDBLK
  5
1ED
  8
1
  0
BLOCK
  8
1
  2
*X31
 70
     1
 10
0.0
 20
0.0
 30
0.0
  3
*X31
  1

  0
LINE
  5
1F0
  8
1
  6
CONTINUOUS
 62
     4
 10
31.001217
 20
-106.697972
 30
0.0
 11
32.701149
 21
-106.697972
 31
0.0
  0
LINE
  5
1F1
  8
1
  6
CONTINUOUS
 62
     4
 10
31.061217
 20
-106.597972
 30
0.0
 11
32.757816
 21
-106.597972
 31
0.0
  0
LINE
  5
1F2
  8
1
  6
CONTINUOUS
 62
     4
 10
31.121217
 20
-106.497972
 30
0.0
 11
32.814483
 21
-106.497972
 31
0.0
  0
LINE
  5
1F3
  8
1
  6
CONTINUOUS
 62
     4
 10
31.181217
 20
-106.397972
 30
0.0
 11
32.871149
 21
-106.397972
 31
0.0
  0
LINE
  5
1F4
  8
1
  6
CONTINUOUS
 62
     4
 10
31.241217
 20
-106.297972
 30
0.0
 11
32.927816
 21
-106.297972
 31
0.0
  0
LINE
  5
1F5
  8
1
  6
CONTINUOUS
 62
     4
 10
31.301217
 20
-106.197972
 30
0.0
 11
32.984483
 21
-106.197972
 31
0.0
  0
LINE
  5
1F6
  8
1
  6
CONTINUOUS
 62
     4
 10
31.361217
 20
-106.097972
 30
0.0
 11
33.041149
 21
-106.097972
 31
0.0
  0
LINE
  5
1F7
  8
1
  6
CONTINUOUS
 62
     4
 10
31.421217
 20
-105.997972
 30
0.0
 11
33.097816
 21
-105.997972
 31
0.0
  0
LINE
  5
1F8
  8
1
  6
CONTINUOUS
 62
     4
 10
31.481217
 20
-105.897972
 30
0.0
 11
33.154483
 21
-105.897972
 31
0.0
  0
LINE
  5
1F9
  8
1
  6
CONTINUOUS
 62
     4
 10
31.541217
 20
-105.797972
 30
0.0
 11
33.211149
 21
-105.797972
 31
0.0
  0
LINE
  5
1FA
  8
1
  6
CONTINUOUS
 62
     4
 10
31.601217
 20
-105.697972
 30
0.0
 11
33.267816
 21
-105.697972
 31
0.0
  0
LINE
  5
1FB
  8
1
  6
CONTINUOUS
 62
     4
 10
31.661217
 20
-105.597972
 30
0.0
 11
33.324483
 21
-105.597972
 31
0.0
  0
LINE
  5
1FC
  8
1
  6
CONTINUOUS
 62
     4
 10
31.721217
 20
-105.497972
 30
0.0
 11
33.381149
 21
-105.497972
 31
0.0
  0
LINE
  5
1FD
  8
1
  6
CONTINUOUS
 62
     4
 10
31.781217
 20
-105.397972
 30
0.0
 11
33.437816
 21
-105.397972
 31
0.0
  0
LINE
  5
1FE
  8
1
  6
CONTINUOUS
 62
     4
 10
31.841217
 20
-105.297972
 30
0.0
 11
33.494483
 21
-105.297972
 31
0.0
  0
ENDBLK
  5
1FF
  8
1
  0
BLOCK
  8
0
  2
*D32
 70
     1
 10
0.0
 20
0.0
 30
0.0
  3
*D32
  1

  0
LINE
  5
600
  8
0
  6
BYBLOCK
 62
     0
 10
36.000007
 20
107.5
 30
0.0
 11
115.798438
 21
107.5
 31
0.0
  0
LINE
  5
601
  8
0
  6
BYBLOCK
 62
     0
 10
112.798438
 20
63.715599
 30
0.0
 11
111.798438
 21
63.715599
 31
0.0
  0
LINE
  5
602
  8
0
  6
BYBLOCK
 62
     0
 10
113.798438
 20
105.568148
 30
0.0
 11
113.798438
 21
87.2978
 31
0.0
  0
LINE
  5
603
  8
0
  6
BYBLOCK
 62
     0
 10
113.798438
 20
65.647451
 30
0.0
 11
113.798438
 21
83.9178
 31
0.0
  0
SOLID
  5
604
  8
0
  6
BYBLOCK
 62
     0
 10
113.476463
 20
105.568148
 30
0.0
 11
114.120413
 21
105.568148
 31
0.0
 12
113.798438
 22
107.5
 32
0.0
 13
113.798438
 23
107.5
 33
0.0
  0
SOLID
  5
605
  8
0
  6
BYBLOCK
 62
     0
 10
113.476463
 20
65.647451
 30
0.0
 11
114.120413
 21
65.647451
 31
0.0
 12
113.798438
 22
63.715599
 32
0.0
 13
113.798438
 23
63.715599
 33
0.0
  0
TEXT
  5
606
  8
0
  6
BYBLOCK
 62
     0
 10
104.198438
 20
84.0078
 30
0.0
 40
3.2
  1
43.7844
  0
POINT
  5
607
  8
DEFPOINTS
  6
BYBLOCK
 62
     0
 10
35.000007
 20
107.5
 30
0.0
  0
POINT
  5
608
  8
DEFPOINTS
  6
BYBLOCK
 62
     0
 10
113.798438
 20
63.715599
 30
0.0
  0
POINT
  5
609
  8
DEFPOINTS
  6
BYBLOCK
 62
     0
 10
113.798438
 20
63.715599
 30
0.0
  0
ENDBLK
  5
60A
  8
0
  0
BLOCK
  8
0
  2
*D33
 70
     1
 10
0.0
 20
0.0
 30
0.0
  3
*D33
  1

  0
LINE
  5
60D
  8
0
  6
BYBLOCK
 62
     0
 10
97.000007
 20
26.0
 30
0.0
 11
97.000007
 21
160.345142
 31
0.0
  0
LINE
  5
60E
  8
0
  6
BYBLOCK
 62
     0
 10
32.000007
 20
118.5
 30
0.0
 11
32.000007
 21
160.345142
 31
0.0
  0
LINE
  5
60F
  8
0
  6
BYBLOCK
 62
     0
 10
95.068155
 20
158.345142
 30
0.0
 11
33.931858
 21
158.345142
 31
0.0
  0
SOLID
  5
610
  8
0
  6
BYBLOCK
 62
     0
 10
95.068155
 20
158.667117
 30
0.0
 11
95.068155
 21
158.023167
 31
0.0
 12
97.000007
 22
158.345142
 32
0.0
 13
97.000007
 23
158.345142
 33
0.0
  0
SOLID
  5
611
  8
0
  6
BYBLOCK
 62
     0
 10
33.931858
 20
158.667117
 30
0.0
 11
33.931858
 21
158.023167
 31
0.0
 12
32.000007
 22
158.345142
 32
0.0
 13
32.000007
 23
158.345142
 33
0.0
  0
TEXT
  5
612
  8
0
  6
BYBLOCK
 62
     0
 10
59.229953
 20
158.435142
 30
0.0
 40
3.2
  1
65.0000
  0
POINT
  5
613
  8
DEFPOINTS
  6
BYBLOCK
 62
     0
 10
97.000007
 20
25.0
 30
0.0
  0
POINT
  5
614
  8
DEFPOINTS
  6
BYBLOCK
 62
     0
 10
32.000007
 20
117.5
 30
0.0
  0
POINT
  5
615
  8
DEFPOINTS
  6
BYBLOCK
 62
     0
 10
32.000007
 20
158.345142
 30
0.0
  0
ENDBLK
  5
616
  8
0
  0
BLOCK
  8
0
  2
*D34
 70
     1
 10
0.0
 20
0.0
 30
0.0
  3
*D34
  1

  0
LINE
  5
619
  8
0
  6
BYBLOCK
 62
     0
 10
97.000007
 20
26.0
 30
0.0
 11
97.000007
 21
138.006671
 31
0.0
  0
LINE
  5
61A
  8
0
  6
BYBLOCK
 62
     0
 10
37.000007
 20
28.5
 30
0.0
 11
37.000007
 21
138.006671
 31
0.0
  0
LINE
  5
61B
  8
0
  6
BYBLOCK
 62
     0
 10
95.068155
 20
136.006671
 30
0.0
 11
38.931858
 21
136.006671
 31
0.0
  0
SOLID
  5
61C
  8
0
  6
BYBLOCK
 62
     0
 10
95.068155
 20
136.328647
 30
0.0
 11
95.068155
 21
135.684696
 31
0.0
 12
97.000007
 22
136.006671
 32
0.0
 13
97.000007
 23
136.006671
 33
0.0
  0
SOLID
  5
61D
  8
0
  6
BYBLOCK
 62
     0
 10
38.931858
 20
136.328647
 30
0.0
 11
38.931858
 21
135.684696
 31
0.0
 12
37.000007
 22
136.006671
 32
0.0
 13
37.000007
 23
136.006671
 33
0.0
  0
TEXT
  5
61E
  8
0
  6
BYBLOCK
 62
     0
 10
57.051345
 20
136.096671
 30
0.0
 40
3.2
  1
60.0000
  0
POINT
  5
61F
  8
DEFPOINTS
  6
BYBLOCK
 62
     0
 10
97.000007
 20
25.0
 30
0.0
  0
POINT
  5
620
  8
DEFPOINTS
  6
BYBLOCK
 62
     0
 10
37.000007
 20
27.5
 30
0.0
  0
POINT
  5
621
  8
DEFPOINTS
  6
BYBLOCK
 62
     0
 10
37.000007
 20
136.006671
 30
0.0
  0
ENDBLK
  5
622
  8
0
  0
BLOCK
  8
0
  2
*D35
 70
     1
 10
0.0
 20
0.0
 30
0.0
  3
*D35
  1

  0
LINE
  5
625
  8
0
  6
BYBLOCK
 62
     0
 10
-125.299996
 20
-74.0
 30
0.0
 11
-142.551877
 21
-74.0
 31
0.0
  0
LINE
  5
626
  8
0
  6
BYBLOCK
 62
     0
 10
-134.088693
 20
7.5
 30
0.0
 11
-142.551877
 21
7.5
 31
0.0
  0
LINE
  5
627
  8
0
  6
BYBLOCK
 62
     0
 10
-140.551877
 20
-72.068148
 30
0.0
 11
-140.551877
 21
-31.860453
 31
0.0
  0
LINE
  5
628
  8
0
  6
BYBLOCK
 62
     0
 10
-140.551877
 20
5.568148
 30
0.0
 11
-140.551877
 21
-28.480453
 31
0.0
  0
SOLID
  5
629
  8
0
  6
BYBLOCK
 62
     0
 10
-140.873852
 20
-72.068148
 30
0.0
 11
-140.229902
 21
-72.068148
 31
0.0
 12
-140.551877
 22
-74.0
 32
0.0
 13
-140.551877
 23
-74.0
 33
0.0
  0
SOLID
  5
62A
  8
0
  6
BYBLOCK
 62
     0
 10
-140.873852
 20
5.568148
 30
0.0
 11
-140.229902
 21
5.568148
 31
0.0
 12
-140.551877
 22
7.5
 32
0.0
 13
-140.551877
 23
7.5
 33
0.0
  0
TEXT
  5
62B
  8
0
  6
BYBLOCK
 62
     0
 10
-148.818544
 20
-31.770453
 30
0.0
 40
3.2
  1
81.5000
  0
POINT
  5
62C
  8
DEFPOINTS
  6
BYBLOCK
 62
     0
 10
-124.299996
 20
-74.0
 30
0.0
  0
POINT
  5
62D
  8
DEFPOINTS
  6
BYBLOCK
 62
     0
 10
-133.088693
 20
7.5
 30
0.0
  0
POINT
  5
62E
  8
DEFPOINTS
  6
BYBLOCK
 62
     0
 10
-140.551877
 20
7.5
 30
0.0
  0
ENDBLK
  5
62F
  8
0
  0
BLOCK
  8
0
  2
*D36
 70
     1
 10
0.0
 20
0.0
 30
0.0
  3
*D36
  1

  0
LINE
  5
632
  8
0
  6
BYBLOCK
 62
     0
 10
-328.799996
 20
-131.5
 30
0.0
 11
-356.395383
 21
-131.5
 31
0.0
  0
LINE
  5
633
  8
0
  6
BYBLOCK
 62
     0
 10
-389.720681
 20
7.5
 30
0.0
 11
-352.395383
 21
7.5
 31
0.0
  0
LINE
  5
634
  8
0
  6
BYBLOCK
 62
     0
 10
-354.395383
 20
-129.568148
 30
0.0
 11
-354.395383
 21
-48.619155
 31
0.0
  0
LINE
  5
635
  8
0
  6
BYBLOCK
 62
     0
 10
-354.395383
 20
5.568148
 30
0.0
 11
-354.395383
 21
-45.239155
 31
0.0
  0
SOLID
  5
636
  8
0
  6
BYBLOCK
 62
     0
 10
-354.717358
 20
-129.568148
 30
0.0
 11
-354.073407
 21
-129.568148
 31
0.0
 12
-354.395383
 22
-131.5
 32
0.0
 13
-354.395383
 23
-131.5
 33
0.0
  0
SOLID
  5
637
  8
0
  6
BYBLOCK
 62
     0
 10
-354.717358
 20
5.568148
 30
0.0
 11
-354.073407
 21
5.568148
 31
0.0
 12
-354.395383
 22
7.5
 32
0.0
 13
-354.395383
 23
7.5
 33
0.0
  0
TEXT
  5
638
  8
0
  6
BYBLOCK
 62
     0
 10
-363.995383
 20
-48.529155
 30
0.0
 40
3.2
  1
139.0000
  0
POINT
  5
639
  8
DEFPOINTS
  6
BYBLOCK
 62
     0
 10
-327.799996
 20
-131.5
 30
0.0
  0
POINT
  5
63A
  8
DEFPOINTS
  6
BYBLOCK
 62
     0
 10
-390.720681
 20
7.5
 30
0.0
  0
POINT
  5
63B
  8
DEFPOINTS
  6
BYBLOCK
 62
     0
 10
-354.395383
 20
7.5
 30
0.0
  0
ENDBLK
  5
63C
  8
0
  0
BLOCK
  8
0
  2
*D37
 70
     1
 10
0.0
 20
0.0
 30
0.0
  3
*D37
  1

  0
LINE
  5
63F
  8
0
  6
BYBLOCK
 62
     0
 10
-320.500009
 20
-133.906799
 30
0.0
 11
-320.500009
 21
-165.245221
 31
0.0
  0
LINE
  5
640
  8
0
  6
BYBLOCK
 62
     0
 10
-278.500009
 20
-164.0
 30
0.0
 11
-278.500009
 21
-161.245221
 31
0.0
  0
LINE
  5
641
  8
0
  6
BYBLOCK
 62
     0
 10
-318.568157
 20
-163.245221
 30
0.0
 11
-280.43186
 21
-163.245221
 31
0.0
  0
SOLID
  5
642
  8
0
  6
BYBLOCK
 62
     0
 10
-318.568157
 20
-162.923245
 30
0.0
 11
-318.568157
 21
-163.567196
 31
0.0
 12
-320.500009
 22
-163.245221
 32
0.0
 13
-320.500009
 23
-163.245221
 33
0.0
  0
SOLID
  5
643
  8
0
  6
BYBLOCK
 62
     0
 10
-280.43186
 20
-162.923245
 30
0.0
 11
-280.43186
 21
-163.567196
 31
0.0
 12
-278.500009
 22
-163.245221
 32
0.0
 13
-278.500009
 23
-163.245221
 33
0.0
  0
TEXT
  5
644
  8
0
  6
BYBLOCK
 62
     0
 10
-309.123563
 20
-163.155221
 30
0.0
 40
3.2
  1
42.0000
  0
POINT
  5
645
  8
DEFPOINTS
  6
BYBLOCK
 62
     0
 10
-320.500009
 20
-132.906799
 30
0.0
  0
POINT
  5
646
  8
DEFPOINTS
  6
BYBLOCK
 62
     0
 10
-278.500009
 20
-165.0
 30
0.0
  0
POINT
  5
647
  8
DEFPOINTS
  6
BYBLOCK
 62
     0
 10
-278.500009
 20
-163.245221
 30
0.0
  0
ENDBLK
  5
648
  8
0
  0
BLOCK
  8
0
  2
*D38
 70
     1
 10
0.0
 20
0.0
 30
0.0
  3
*D38
  1

  0
LINE
  5
64B
  8
0
  6
BYBLOCK
 62
     0
 10
-129.999993
 20
-51.5
 30
0.0
 11
-129.999993
 21
-99.3
 31
0.0
  0
LINE
  5
64C
  8
0
  6
BYBLOCK
 62
     0
 10
-110.499993
 20
-81.342751
 30
0.0
 11
-110.499993
 21
-99.3
 31
0.0
  0
LINE
  5
64D
  8
0
  6
BYBLOCK
 62
     0
 10
-128.068142
 20
-97.3
 30
0.0
 11
-112.431845
 21
-97.3
 31
0.0
  0
SOLID
  5
64E
  8
0
  6
BYBLOCK
 62
     0
 10
-128.068142
 20
-96.978025
 30
0.0
 11
-128.068142
 21
-97.621975
 31
0.0
 12
-129.999993
 22
-97.3
 32
0.0
 13
-129.999993
 23
-97.3
 33
0.0
  0
SOLID
  5
64F
  8
0
  6
BYBLOCK
 62
     0
 10
-112.431845
 20
-96.978025
 30
0.0
 11
-112.431845
 21
-97.621975
 31
0.0
 12
-110.499993
 22
-97.3
 32
0.0
 13
-110.499993
 23
-97.3
 33
0.0
  0
TEXT
  5
650
  8
0
  6
BYBLOCK
 62
     0
 10
-128.51666
 20
-97.21
 30
0.0
 40
3.2
  1
19.5000
  0
POINT
  5
651
  8
DEFPOINTS
  6
BYBLOCK
 62
     0
 10
-129.999993
 20
-50.5
 30
0.0
  0
POINT
  5
652
  8
DEFPOINTS
  6
BYBLOCK
 62
     0
 10
-110.499993
 20
-80.342751
 30
0.0
  0
POINT
  5
653
  8
DEFPOINTS
  6
BYBLOCK
 62
     0
 10
-110.499993
 20
-97.3
 30
0.0
  0
ENDBLK
  5
654
  8
0
  0
BLOCK
  8
0
  2
*D39
 70
     1
 10
0.0
 20
0.0
 30
0.0
  3
*D39
  1

  0
LINE
  5
657
  8
0
  6
BYBLOCK
 62
     0
 10
-10.000009
 20
-121.5
 30
0.0
 11
-10.000009
 21
-110.3
 31
0.0
  0
LINE
  5
658
  8
0
  6
BYBLOCK
 62
     0
 10
32.000007
 20
-103.5
 30
0.0
 11
32.000007
 21
-114.3
 31
0.0
  0
LINE
  5
659
  8
0
  6
BYBLOCK
 62
     0
 10
-8.068157
 20
-112.3
 30
0.0
 11
30.068155
 21
-112.3
 31
0.0
  0
SOLID
  5
65A
  8
0
  6
BYBLOCK
 62
     0
 10
-8.068157
 20
-111.978024
 30
0.0
 11
-8.068157
 21
-112.621975
 31
0.0
 12
-10.000009
 22
-112.3
 32
0.0
 13
-10.000009
 23
-112.3
 33
0.0
  0
SOLID
  5
65B
  8
0
  6
BYBLOCK
 62
     0
 10
30.068155
 20
-111.978024
 30
0.0
 11
30.068155
 21
-112.621975
 31
0.0
 12
32.000007
 22
-112.3
 32
0.0
 13
32.000007
 23
-112.3
 33
0.0
  0
TEXT
  5
65C
  8
0
  6
BYBLOCK
 62
     0
 10
12.446658
 20
-112.21
 30
0.0
 40
3.2
  1
42.0000
  0
POINT
  5
65D
  8
DEFPOINTS
  6
BYBLOCK
 62
     0
 10
-10.000009
 20
-122.5
 30
0.0
  0
POINT
  5
65E
  8
DEFPOINTS
  6
BYBLOCK
 62
     0
 10
32.000007
 20
-102.5
 30
0.0
  0
POINT
  5
65F
  8
DEFPOINTS
  6
BYBLOCK
 62
     0
 10
32.000007
 20
-112.3
 30
0.0
  0
ENDBLK
  5
660
  8
0
  0
BLOCK
  8
0
  2
*D40
 70
     1
 10
0.0
 20
0.0
 30
0.0
  3
*D40
  1

  0
LINE
  5
729
  8
0
  6
BYBLOCK
 62
     0
 10
-129.999993
 20
38.5
 30
0.0
 11
-129.999993
 21
160.249103
 31
0.0
  0
LINE
  5
72A
  8
0
  6
BYBLOCK
 62
     0
 10
31.000009
 20
118.5
 30
0.0
 11
31.000009
 21
160.249103
 31
0.0
  0
LINE
  5
72B
  8
0
  6
BYBLOCK
 62
     0
 10
-128.068142
 20
158.249103
 30
0.0
 11
29.068157
 21
158.249103
 31
0.0
  0
SOLID
  5
72C
  8
0
  6
BYBLOCK
 62
     0
 10
-128.068142
 20
158.571078
 30
0.0
 11
-128.068142
 21
157.927128
 31
0.0
 12
-129.999993
 22
158.249103
 32
0.0
 13
-129.999993
 23
158.249103
 33
0.0
  0
SOLID
  5
72D
  8
0
  6
BYBLOCK
 62
     0
 10
29.068157
 20
158.571078
 30
0.0
 11
29.068157
 21
157.927128
 31
0.0
 12
31.000009
 22
158.249103
 32
0.0
 13
31.000009
 23
158.249103
 33
0.0
  0
TEXT
  5
72E
  8
0
  6
BYBLOCK
 62
     0
 10
-61.22226
 20
158.339103
 30
0.0
 40
3.2
  1
161.0000
  0
POINT
  5
72F
  8
DEFPOINTS
  6
BYBLOCK
 62
     0
 10
-129.999993
 20
37.5
 30
0.0
  0
POINT
  5
730
  8
DEFPOINTS
  6
BYBLOCK
 62
     0
 10
31.000009
 20
117.5
 30
0.0
  0
POINT
  5
731
  8
DEFPOINTS
  6
BYBLOCK
 62
     0
 10
31.000009
 20
158.249103
 30
0.0
  0
ENDBLK
  5
732
  8
0
  0
BLOCK
  8
0
  2
*D41
 70
     1
 10
0.0
 20
0.0
 30
0.0
  3
*D41
  1

  0
LINE
  5
66F
  8
0
  6
BYBLOCK
 62
     0
 10
16.000007
 20
118.5
 30
0.0
 11
16.000007
 21
149.497012
 31
0.0
  0
LINE
  5
670
  8
0
  6
BYBLOCK
 62
     0
 10
32.000007
 20
118.5
 30
0.0
 11
32.000007
 21
149.497012
 31
0.0
  0
LINE
  5
671
  8
0
  6
BYBLOCK
 62
     0
 10
17.931858
 20
147.497012
 30
0.0
 11
30.068155
 21
147.497012
 31
0.0
  0
SOLID
  5
672
  8
0
  6
BYBLOCK
 62
     0
 10
17.931858
 20
147.818988
 30
0.0
 11
17.931858
 21
147.175037
 31
0.0
 12
16.000007
 22
147.497012
 32
0.0
 13
16.000007
 23
147.497012
 33
0.0
  0
SOLID
  5
673
  8
0
  6
BYBLOCK
 62
     0
 10
30.068155
 20
147.818988
 30
0.0
 11
30.068155
 21
147.175037
 31
0.0
 12
32.000007
 22
147.497012
 32
0.0
 13
32.000007
 23
147.497012
 33
0.0
  0
TEXT
  5
674
  8
0
  6
BYBLOCK
 62
     0
 10
16.000007
 20
147.587012
 30
0.0
 40
3.2
  1
16.0000
  0
POINT
  5
675
  8
DEFPOINTS
  6
BYBLOCK
 62
     0
 10
16.000007
 20
117.5
 30
0.0
  0
POINT
  5
676
  8
DEFPOINTS
  6
BYBLOCK
 62
     0
 10
32.000007
 20
117.5
 30
0.0
  0
POINT
  5
677
  8
DEFPOINTS
  6
BYBLOCK
 62
     0
 10
32.000007
 20
147.497012
 30
0.0
  0
ENDBLK
  5
678
  8
0
  0
BLOCK
  8
0
  2
*D42
 70
     1
 10
0.0
 20
0.0
 30
0.0
  3
*D42
  1

  0
LINE
  5
67B
  8
0
  6
BYBLOCK
 62
     0
 10
36.000007
 20
108.5
 30
0.0
 11
36.000007
 21
149.497012
 31
0.0
  0
LINE
  5
67C
  8
0
  6
BYBLOCK
 62
     0
 10
32.000007
 20
118.5
 30
0.0
 11
32.000007
 21
149.497012
 31
0.0
  0
LINE
  5
67D
  8
0
  6
BYBLOCK
 62
     0
 10
30.068155
 20
147.497012
 30
0.0
 11
28.136303
 21
147.497012
 31
0.0
  0
LINE
  5
67E
  8
0
  6
BYBLOCK
 62
     0
 10
37.931858
 20
147.497012
 30
0.0
 11
53.910377
 21
147.497012
 31
0.0
  0
SOLID
  5
67F
  8
0
  6
BYBLOCK
 62
     0
 10
30.068155
 20
147.818988
 30
0.0
 11
30.068155
 21
147.175037
 31
0.0
 12
32.000007
 22
147.497012
 32
0.0
 13
32.000007
 23
147.497012
 33
0.0
  0
SOLID
  5
680
  8
0
  6
BYBLOCK
 62
     0
 10
37.931858
 20
147.818988
 30
0.0
 11
37.931858
 21
147.175037
 31
0.0
 12
36.000007
 22
147.497012
 32
0.0
 13
36.000007
 23
147.497012
 33
0.0
  0
TEXT
  5
681
  8
0
  6
BYBLOCK
 62
     0
 10
39.95371
 20
147.587012
 30
0.0
 40
3.2
  1
4.0000
  0
POINT
  5
682
  8
DEFPOINTS
  6
BYBLOCK
 62
     0
 10
36.000007
 20
107.5
 30
0.0
  0
POINT
  5
683
  8
DEFPOINTS
  6
BYBLOCK
 62
     0
 10
32.000007
 20
117.5
 30
0.0
  0
POINT
  5
684
  8
DEFPOINTS
  6
BYBLOCK
 62
     0
 10
32.000007
 20
147.497012
 30
0.0
  0
ENDBLK
  5
685
  8
0
  0
BLOCK
  8
0
  2
*D43
 70
     1
 10
0.0
 20
0.0
 30
0.0
  3
*D43
  1

  0
LINE
  5
688
  8
0
  6
BYBLOCK
 62
     0
 10
322.560467
 20
-30.221838
 30
0.0
 11
320.628615
 21
-30.221838
 31
0.0
  0
LINE
  5
689
  8
0
  6
BYBLOCK
 62
     0
 10
320.628615
 20
-30.221838
 30
0.0
 11
373.683141
 21
-64.068627
 31
0.0
  0
TEXT
  5
68A
  8
0
  6
BYBLOCK
 62
     0
 10
322.650467
 20
-31.821838
 30
0.0
 40
3.2
  1
%%c270.0000
  0
SOLID
  5
68B
  8
0
  6
BYBLOCK
 62
     0
 10
373.856311
 20
-63.797185
 30
0.0
 11
373.509972
 21
-64.340068
 31
0.0
 12
375.31179
 22
-65.107643
 32
0.0
 13
375.31179
 23
-65.107643
 33
0.0
  0
POINT
  5
68C
  8
DEFPOINTS
  6
BYBLOCK
 62
     0
 10
375.31179
 20
-65.107643
 30
0.0
  0
POINT
  5
68D
  8
DEFPOINTS
  6
BYBLOCK
 62
     0
 10
147.688178
 20
80.107643
 30
0.0
  0
ENDBLK
  5
68E
  8
0
  0
BLOCK
  8
0
  2
*D44
 70
     1
 10
0.0
 20
0.0
 30
0.0
  3
*D44
  1

  0
LINE
  5
691
  8
0
  6
BYBLOCK
 62
     0
 10
323.95076
 20
51.12484
 30
0.0
 11
325.882612
 21
51.12484
 31
0.0
  0
LINE
  5
692
  8
0
  6
BYBLOCK
 62
     0
 10
325.882612
 20
51.12484
 30
0.0
 11
357.173558
 21
72.327184
 31
0.0
  0
TEXT
  5
693
  8
0
  6
BYBLOCK
 62
     0
 10
300.394093
 20
49.52484
 30
0.0
 40
3.2
  1
%%c235.0000
  0
SOLID
  5
694
  8
0
  6
BYBLOCK
 62
     0
 10
356.992948
 20
72.593732
 30
0.0
 11
357.354168
 21
72.060635
 31
0.0
 12
358.772849
 22
73.410843
 32
0.0
 13
358.772849
 23
73.410843
 33
0.0
  0
POINT
  5
695
  8
DEFPOINTS
  6
BYBLOCK
 62
     0
 10
358.772849
 20
73.410843
 30
0.0
  0
POINT
  5
696
  8
DEFPOINTS
  6
BYBLOCK
 62
     0
 10
164.227134
 20
-58.410839
 30
0.0
  0
ENDBLK
  5
697
  8
0
  0
BLOCK
  8
0
  2
*D45
 70
     1
 10
0.0
 20
0.0
 30
0.0
  3
*D45
  1

  0
LINE
  5
69A
  8
0
  6
BYBLOCK
 62
     0
 10
221.436503
 20
77.492242
 30
0.0
 11
219.504651
 21
77.492242
 31
0.0
  0
LINE
  5
69B
  8
0
  6
BYBLOCK
 62
     0
 10
219.504651
 20
77.492242
 30
0.0
 11
198.181955
 21
113.030066
 31
0.0
  0
TEXT
  5
69C
  8
0
  6
BYBLOCK
 62
     0
 10
221.526503
 20
75.892242
 30
0.0
 40
3.2
  1
%%c250.0000
  0
SOLID
  5
69D
  8
0
  6
BYBLOCK
 62
     0
 10
198.458047
 20
113.195721
 30
0.0
 11
197.905864
 21
112.864411
 31
0.0
 12
197.188026
 22
114.686615
 32
0.0
 13
197.188026
 23
114.686615
 33
0.0
  0
POINT
  5
69E
  8
DEFPOINTS
  6
BYBLOCK
 62
     0
 10
197.188026
 20
114.686615
 30
0.0
  0
POINT
  5
69F
  8
DEFPOINTS
  6
BYBLOCK
 62
     0
 10
325.811973
 20
-99.686615
 30
0.0
  0
ENDBLK
  5
6A0
  8
0
  0
BLOCK
  8
0
  2
*D46
 70
     1
 10
0.0
 20
0.0
 30
0.0
  3
*D46
  1

  0
LINE
  5
6A3
  8
0
  6
BYBLOCK
 62
     0
 10
98.000007
 20
-10.0
 30
0.0
 11
124.641746
 21
-10.0
 31
0.0
  0
LINE
  5
6A4
  8
0
  6
BYBLOCK
 62
     0
 10
98.000007
 20
25.0
 30
0.0
 11
124.641746
 21
25.0
 31
0.0
  0
LINE
  5
6A5
  8
0
  6
BYBLOCK
 62
     0
 10
122.641746
 20
-8.068148
 30
0.0
 11
122.641746
 21
5.81
 31
0.0
  0
LINE
  5
6A6
  8
0
  6
BYBLOCK
 62
     0
 10
122.641746
 20
23.068148
 30
0.0
 11
122.641746
 21
9.19
 31
0.0
  0
SOLID
  5
6A7
  8
0
  6
BYBLOCK
 62
     0
 10
122.31977
 20
-8.068148
 30
0.0
 11
122.963721
 21
-8.068148
 31
0.0
 12
122.641746
 22
-10.0
 32
0.0
 13
122.641746
 23
-10.0
 33
0.0
  0
SOLID
  5
6A8
  8
0
  6
BYBLOCK
 62
     0
 10
122.31977
 20
23.068148
 30
0.0
 11
122.963721
 21
23.068148
 31
0.0
 12
122.641746
 22
25.0
 32
0.0
 13
122.641746
 23
25.0
 33
0.0
  0
TEXT
  5
6A9
  8
0
  6
BYBLOCK
 62
     0
 10
114.108412
 20
5.9
 30
0.0
 40
3.2
  1
35.0000
  0
POINT
  5
6AA
  8
DEFPOINTS
  6
BYBLOCK
 62
     0
 10
97.000007
 20
-10.0
 30
0.0
  0
POINT
  5
6AB
  8
DEFPOINTS
  6
BYBLOCK
 62
     0
 10
97.000007
 20
25.0
 30
0.0
  0
POINT
  5
6AC
  8
DEFPOINTS
  6
BYBLOCK
 62
     0
 10
122.641746
 20
25.0
 30
0.0
  0
ENDBLK
  5
6AD
  8
0
  0
BLOCK
  8
0
  2
*D47
 70
     1
 10
0.0
 20
0.0
 30
0.0
  3
*D47
  1

  0
LINE
  5
6B0
  8
0
  6
BYBLOCK
 62
     0
 10
284.999991
 20
-131.5
 30
0.0
 11
284.999991
 21
-166.8
 31
0.0
  0
LINE
  5
6B1
  8
0
  6
BYBLOCK
 62
     0
 10
237.999991
 20
-131.5
 30
0.0
 11
237.999991
 21
-166.8
 31
0.0
  0
LINE
  5
6B2
  8
0
  6
BYBLOCK
 62
     0
 10
283.06814
 20
-164.8
 30
0.0
 11
239.931843
 21
-164.8
 31
0.0
  0
SOLID
  5
6B3
  8
0
  6
BYBLOCK
 62
     0
 10
283.06814
 20
-164.478025
 30
0.0
 11
283.06814
 21
-165.121975
 31
0.0
 12
284.999991
 22
-164.8
 32
0.0
 13
284.999991
 23
-164.8
 33
0.0
  0
SOLID
  5
6B4
  8
0
  6
BYBLOCK
 62
     0
 10
239.931843
 20
-164.478025
 30
0.0
 11
239.931843
 21
-165.121975
 31
0.0
 12
237.999991
 22
-164.8
 32
0.0
 13
237.999991
 23
-164.8
 33
0.0
  0
TEXT
  5
6B5
  8
0
  6
BYBLOCK
 62
     0
 10
252.966658
 20
-164.71
 30
0.0
 40
3.2
  1
47.0000
  0
POINT
  5
6B6
  8
DEFPOINTS
  6
BYBLOCK
 62
     0
 10
284.999991
 20
-130.5
 30
0.0
  0
POINT
  5
6B7
  8
DEFPOINTS
  6
BYBLOCK
 62
     0
 10
237.999991
 20
-130.5
 30
0.0
  0
POINT
  5
6B8
  8
DEFPOINTS
  6
BYBLOCK
 62
     0
 10
237.999991
 20
-164.8
 30
0.0
  0
ENDBLK
  5
6B9
  8
0
  0
BLOCK
  8
0
  2
*D48
 70
     1
 10
0.0
 20
0.0
 30
0.0
  3
*D48
  1

  0
LINE
  5
6BC
  8
0
  6
BYBLOCK
 62
     0
 10
151.499991
 20
86.762383
 30
0.0
 11
151.499991
 21
164.842014
 31
0.0
  0
LINE
  5
6BD
  8
0
  6
BYBLOCK
 62
     0
 10
371.499961
 20
86.762383
 30
0.0
 11
371.499961
 21
164.842014
 31
0.0
  0
LINE
  5
6BE
  8
0
  6
BYBLOCK
 62
     0
 10
153.431843
 20
162.842014
 30
0.0
 11
369.568109
 21
162.842014
 31
0.0
  0
SOLID
  5
6BF
  8
0
  6
BYBLOCK
 62
     0
 10
153.431843
 20
163.163989
 30
0.0
 11
153.431843
 21
162.520039
 31
0.0
 12
151.499991
 22
162.842014
 32
0.0
 13
151.499991
 23
162.842014
 33
0.0
  0
SOLID
  5
6C0
  8
0
  6
BYBLOCK
 62
     0
 10
369.568109
 20
163.163989
 30
0.0
 11
369.568109
 21
162.520039
 31
0.0
 12
371.499961
 22
162.842014
 32
0.0
 13
371.499961
 23
162.842014
 33
0.0
  0
TEXT
  5
6C1
  8
0
  6
BYBLOCK
 62
     0
 10
251.371218
 20
162.932014
 30
0.0
 40
3.2
  1
220.0000
  0
POINT
  5
6C2
  8
DEFPOINTS
  6
BYBLOCK
 62
     0
 10
151.499991
 20
85.762383
 30
0.0
  0
POINT
  5
6C3
  8
DEFPOINTS
  6
BYBLOCK
 62
     0
 10
371.499961
 20
85.762383
 30
0.0
  0
POINT
  5
6C4
  8
DEFPOINTS
  6
BYBLOCK
 62
     0
 10
371.499961
 20
162.842014
 30
0.0
  0
ENDBLK
  5
6C5
  8
0
  0
BLOCK
  8
0
  2
*D49
 70
     1
 10
0.0
 20
0.0
 30
0.0
  3
*D49
  1

  0
LINE
  5
6C8
  8
0
  6
BYBLOCK
 62
     0
 10
316.521269
 20
74.408504
 30
0.0
 11
353.350184
 21
74.408504
 31
0.0
  0
LINE
  5
6C9
  8
0
  6
BYBLOCK
 62
     0
 10
353.350184
 20
74.408504
 30
0.0
 11
354.911665
 21
75.545969
 31
0.0
  0
TEXT
  5
6CA
  8
0
  6
BYBLOCK
 62
     0
 10
292.964602
 20
72.808504
 30
0.0
 40
3.2
  1
%%c235.0000
  0
SOLID
  5
6CB
  8
0
  6
BYBLOCK
 62
     0
 10
354.722088
 20
75.806215
 30
0.0
 11
355.101243
 21
75.285722
 31
0.0
 12
356.473147
 22
76.683434
 32
0.0
 13
356.473147
 23
76.683434
 33
0.0
  0
POINT
  5
6CC
  8
DEFPOINTS
  6
BYBLOCK
 62
     0
 10
356.473147
 20
76.683434
 30
0.0
  0
POINT
  5
6CD
  8
DEFPOINTS
  6
BYBLOCK
 62
     0
 10
166.526836
 20
-61.683434
 30
0.0
  0
ENDBLK
  5
6CE
  8
0
  0
BLOCK
  8
0
  2
*D50
 70
     1
 10
0.0
 20
0.0
 30
0.0
  3
*D50
  1

  0
LINE
  5
6D2
  8
0
  6
BYBLOCK
 62
     0
 10
401.342524
 20
-100.321726
 30
0.0
 11
378.319191
 21
-100.321726
 31
0.0
  0
LINE
  5
6D3
  8
0
  6
BYBLOCK
 62
     0
 10
378.319191
 20
-100.321726
 30
0.0
 11
362.122873
 21
-85.372857
 31
0.0
  0
TEXT
  5
6D4
  8
0
  6
BYBLOCK
 62
     0
 10
378.409191
 20
-100.231726
 30
0.0
 40
3.2
  1
%%c270.0000
  0
SOLID
  5
6D5
  8
0
  6
BYBLOCK
 62
     0
 10
362.34125
 20
-85.136257
 30
0.0
 11
361.904496
 21
-85.609457
 31
0.0
 12
360.703273
 22
-84.062596
 32
0.0
 13
360.703273
 23
-84.062596
 33
0.0
  0
LINE
  5
6D6
  8
0
  6
BYBLOCK
 62
     0
 10
261.409991
 20
7.5
 30
0.0
 11
261.589991
 21
7.5
 31
0.0
  0
LINE
  5
6D7
  8
0
  6
BYBLOCK
 62
     0
 10
261.499991
 20
7.41
 30
0.0
 11
261.499991
 21
7.59
 31
0.0
  0
POINT
  5
6D8
  8
DEFPOINTS
  6
BYBLOCK
 62
     0
 10
360.703273
 20
-84.062596
 30
0.0
  0
POINT
  5
6D9
  8
DEFPOINTS
  6
BYBLOCK
 62
     0
 10
162.29671
 20
99.062596
 30
0.0
  0
ENDBLK
  5
6DA
  8
0
  0
BLOCK
  8
0
  2
*D51
 70
     1
 10
0.0
 20
0.0
 30
0.0
  3
*D51
  1

  0
LINE
  5
6DE
  8
0
  6
BYBLOCK
 62
     0
 10
237.999991
 20
-103.5
 30
0.0
 11
237.999991
 21
-177.561781
 31
0.0
  0
LINE
  5
6DF
  8
0
  6
BYBLOCK
 62
     0
 10
284.999991
 20
-103.5
 30
0.0
 11
284.999991
 21
-177.561781
 31
0.0
  0
LINE
  5
6E0
  8
0
  6
BYBLOCK
 62
     0
 10
239.931843
 20
-175.561781
 30
0.0
 11
283.06814
 21
-175.561781
 31
0.0
  0
SOLID
  5
6E1
  8
0
  6
BYBLOCK
 62
     0
 10
239.931843
 20
-175.239806
 30
0.0
 11
239.931843
 21
-175.883756
 31
0.0
 12
237.999991
 22
-175.561781
 32
0.0
 13
237.999991
 23
-175.561781
 33
0.0
  0
SOLID
  5
6E2
  8
0
  6
BYBLOCK
 62
     0
 10
283.06814
 20
-175.239806
 30
0.0
 11
283.06814
 21
-175.883756
 31
0.0
 12
284.999991
 22
-175.561781
 32
0.0
 13
284.999991
 23
-175.561781
 33
0.0
  0
TEXT
  5
6E3
  8
0
  6
BYBLOCK
 62
     0
 10
252.966658
 20
-175.471781
 30
0.0
 40
3.2
  1
47.0000
  0
POINT
  5
6E4
  8
DEFPOINTS
  6
BYBLOCK
 62
     0
 10
237.999991
 20
-102.5
 30
0.0
  0
POINT
  5
6E5
  8
DEFPOINTS
  6
BYBLOCK
 62
     0
 10
284.999991
 20
-102.5
 30
0.0
  0
POINT
  5
6E6
  8
DEFPOINTS
  6
BYBLOCK
 62
     0
 10
284.999991
 20
-175.561781
 30
0.0
  0
ENDBLK
  5
6E7
  8
0
  0
BLOCK
  8
0
  2
*D52
 70
     1
 10
0.0
 20
0.0
 30
0.0
  3
*D52
  1

  0
LINE
  5
6EB
  8
0
  6
BYBLOCK
 62
     0
 10
98.000009
 20
25.0
 30
0.0
 11
129.437172
 21
25.0
 31
0.0
  0
LINE
  5
6EC
  8
0
  6
BYBLOCK
 62
     0
 10
98.000009
 20
-10.0
 30
0.0
 11
129.437172
 21
-10.0
 31
0.0
  0
LINE
  5
6ED
  8
0
  6
BYBLOCK
 62
     0
 10
127.437172
 20
23.068148
 30
0.0
 11
127.437172
 21
9.19
 31
0.0
  0
LINE
  5
6EE
  8
0
  6
BYBLOCK
 62
     0
 10
127.437172
 20
-8.068148
 30
0.0
 11
127.437172
 21
5.81
 31
0.0
  0
SOLID
  5
6EF
  8
0
  6
BYBLOCK
 62
     0
 10
127.115197
 20
23.068148
 30
0.0
 11
127.759148
 21
23.068148
 31
0.0
 12
127.437172
 22
25.0
 32
0.0
 13
127.437172
 23
25.0
 33
0.0
  0
SOLID
  5
6F0
  8
0
  6
BYBLOCK
 62
     0
 10
127.115197
 20
-8.068148
 30
0.0
 11
127.759148
 21
-8.068148
 31
0.0
 12
127.437172
 22
-10.0
 32
0.0
 13
127.437172
 23
-10.0
 33
0.0
  0
TEXT
  5
6F1
  8
0
  6
BYBLOCK
 62
     0
 10
118.903839
 20
5.9
 30
0.0
 40
3.2
  1
35.0000
  0
POINT
  5
6F2
  8
DEFPOINTS
  6
BYBLOCK
 62
     0
 10
97.000009
 20
25.0
 30
0.0
  0
POINT
  5
6F3
  8
DEFPOINTS
  6
BYBLOCK
 62
     0
 10
97.000009
 20
-10.0
 30
0.0
  0
POINT
  5
6F4
  8
DEFPOINTS
  6
BYBLOCK
 62
     0
 10
127.437172
 20
-10.0
 30
0.0
  0
ENDBLK
  5
6F5
  8
0
  0
BLOCK
  8
0
  2
*D53
 70
     1
 10
0.0
 20
0.0
 30
0.0
  3
*D53
  1

  0
LINE
  5
6F9
  8
0
  6
BYBLOCK
 62
     0
 10
97.000009
 20
26.0
 30
0.0
 11
97.000009
 21
55.295609
 31
0.0
  0
LINE
  5
6FA
  8
0
  6
BYBLOCK
 62
     0
 10
37.000009
 20
26.0
 30
0.0
 11
37.000009
 21
55.295609
 31
0.0
  0
LINE
  5
6FB
  8
0
  6
BYBLOCK
 62
     0
 10
95.068157
 20
53.295609
 30
0.0
 11
38.93186
 21
53.295609
 31
0.0
  0
SOLID
  5
6FC
  8
0
  6
BYBLOCK
 62
     0
 10
95.068157
 20
53.617584
 30
0.0
 11
95.068157
 21
52.973633
 31
0.0
 12
97.000009
 22
53.295609
 32
0.0
 13
97.000009
 23
53.295609
 33
0.0
  0
SOLID
  5
6FD
  8
0
  6
BYBLOCK
 62
     0
 10
38.93186
 20
53.617584
 30
0.0
 11
38.93186
 21
52.973633
 31
0.0
 12
37.000009
 22
53.295609
 32
0.0
 13
37.000009
 23
53.295609
 33
0.0
  0
TEXT
  5
6FE
  8
0
  6
BYBLOCK
 62
     0
 10
58.733342
 20
53.385609
 30
0.0
 40
3.2
  1
60.0000
  0
POINT
  5
6FF
  8
DEFPOINTS
  6
BYBLOCK
 62
     0
 10
97.000009
 20
25.0
 30
0.0
  0
POINT
  5
700
  8
DEFPOINTS
  6
BYBLOCK
 62
     0
 10
37.000009
 20
25.0
 30
0.0
  0
POINT
  5
701
  8
DEFPOINTS
  6
BYBLOCK
 62
     0
 10
37.000009
 20
53.295609
 30
0.0
  0
ENDBLK
  5
702
  8
0
  0
BLOCK
  8
0
  2
*D54
 70
     1
 10
0.0
 20
0.0
 30
0.0
  3
*D54
  1

  0
LINE
  5
735
  8
0
  6
BYBLOCK
 62
     0
 10
31.000009
 20
118.5
 30
0.0
 11
31.000009
 21
130.823345
 31
0.0
  0
LINE
  5
736
  8
0
  6
BYBLOCK
 62
     0
 10
-129.999991
 20
8.5
 30
0.0
 11
-129.999991
 21
130.823345
 31
0.0
  0
LINE
  5
737
  8
0
  6
BYBLOCK
 62
     0
 10
29.068157
 20
128.823345
 30
0.0
 11
-128.06814
 21
128.823345
 31
0.0
  0
SOLID
  5
738
  8
0
  6
BYBLOCK
 62
     0
 10
29.068157
 20
129.14532
 30
0.0
 11
29.068157
 21
128.50137
 31
0.0
 12
31.000009
 22
128.823345
 32
0.0
 13
31.000009
 23
128.823345
 33
0.0
  0
SOLID
  5
739
  8
0
  6
BYBLOCK
 62
     0
 10
-128.06814
 20
129.14532
 30
0.0
 11
-128.06814
 21
128.50137
 31
0.0
 12
-129.999991
 22
128.823345
 32
0.0
 13
-129.999991
 23
128.823345
 33
0.0
  0
TEXT
  5
73A
  8
0
  6
BYBLOCK
 62
     0
 10
-58.566658
 20
128.913345
 30
0.0
 40
3.2
  1
161.0000
  0
POINT
  5
73B
  8
DEFPOINTS
  6
BYBLOCK
 62
     0
 10
31.000009
 20
117.5
 30
0.0
  0
POINT
  5
73C
  8
DEFPOINTS
  6
BYBLOCK
 62
     0
 10
-129.999991
 20
7.5
 30
0.0
  0
POINT
  5
73D
  8
DEFPOINTS
  6
BYBLOCK
 62
     0
 10
-129.999991
 20
128.823345
 30
0.0
  0
ENDBLK
  5
73E
  8
0
  0
BLOCK
  8
0
  2
*D55
 70
     1
 10
0.0
 20
0.0
 30
0.0
  3
*D55
  1

  0
LINE
  5
742
  8
0
  6
BYBLOCK
 62
     0
 10
96.000009
 20
26.0
 30
0.0
 11
96.000009
 21
125.140048
 31
0.0
  0
LINE
  5
743
  8
0
  6
BYBLOCK
 62
     0
 10
31.000009
 20
118.5
 30
0.0
 11
31.000009
 21
125.140048
 31
0.0
  0
LINE
  5
744
  8
0
  6
BYBLOCK
 62
     0
 10
94.068157
 20
123.140048
 30
0.0
 11
32.93186
 21
123.140048
 31
0.0
  0
SOLID
  5
745
  8
0
  6
BYBLOCK
 62
     0
 10
94.068157
 20
123.462024
 30
0.0
 11
94.068157
 21
122.818073
 31
0.0
 12
96.000009
 22
123.140048
 32
0.0
 13
96.000009
 23
123.140048
 33
0.0
  0
SOLID
  5
746
  8
0
  6
BYBLOCK
 62
     0
 10
32.93186
 20
123.462024
 30
0.0
 11
32.93186
 21
122.818073
 31
0.0
 12
31.000009
 22
123.140048
 32
0.0
 13
31.000009
 23
123.140048
 33
0.0
  0
TEXT
  5
747
  8
0
  6
BYBLOCK
 62
     0
 10
54.966675
 20
123.230048
 30
0.0
 40
3.2
  1
65.0000
  0
POINT
  5
748
  8
DEFPOINTS
  6
BYBLOCK
 62
     0
 10
96.000009
 20
25.0
 30
0.0
  0
POINT
  5
749
  8
DEFPOINTS
  6
BYBLOCK
 62
     0
 10
31.000009
 20
117.5
 30
0.0
  0
POINT
  5
74A
  8
DEFPOINTS
  6
BYBLOCK
 62
     0
 10
31.000009
 20
123.140048
 30
0.0
  0
ENDBLK
  5
74B
  8
0
  0
BLOCK
  8
0
  2
*D56
 70
     1
 10
0.0
 20
0.0
 30
0.0
  3
*D56
  1

  0
LINE
  5
74F
  8
0
  6
BYBLOCK
 62
     0
 10
31.000009
 20
-103.5
 30
0.0
 11
31.000009
 21
-218.015443
 31
0.0
  0
LINE
  5
750
  8
0
  6
BYBLOCK
 62
     0
 10
-10.500009
 20
-123.5
 30
0.0
 11
-10.500009
 21
-218.015443
 31
0.0
  0
LINE
  5
751
  8
0
  6
BYBLOCK
 62
     0
 10
29.068157
 20
-216.015443
 30
0.0
 11
-8.568157
 21
-216.015443
 31
0.0
  0
SOLID
  5
752
  8
0
  6
BYBLOCK
 62
     0
 10
29.068157
 20
-215.693468
 30
0.0
 11
29.068157
 21
-216.337419
 31
0.0
 12
31.000009
 22
-216.015443
 32
0.0
 13
31.000009
 23
-216.015443
 33
0.0
  0
SOLID
  5
753
  8
0
  6
BYBLOCK
 62
     0
 10
-8.568157
 20
-215.693468
 30
0.0
 11
-8.568157
 21
-216.337419
 31
0.0
 12
-10.500009
 22
-216.015443
 32
0.0
 13
-10.500009
 23
-216.015443
 33
0.0
  0
TEXT
  5
754
  8
0
  6
BYBLOCK
 62
     0
 10
1.983333
 20
-215.925443
 30
0.0
 40
3.2
  1
41.5000
  0
POINT
  5
755
  8
DEFPOINTS
  6
BYBLOCK
 62
     0
 10
31.000009
 20
-102.5
 30
0.0
  0
POINT
  5
756
  8
DEFPOINTS
  6
BYBLOCK
 62
     0
 10
-10.500009
 20
-122.5
 30
0.0
  0
POINT
  5
757
  8
DEFPOINTS
  6
BYBLOCK
 62
     0
 10
-10.500009
 20
-216.015443
 30
0.0
  0
ENDBLK
  5
758
  8
0
  0
BLOCK
  8
0
  2
*D57
 70
     1
 10
0.0
 20
0.0
 30
0.0
  3
*D57
  1

  0
LINE
  5
7C9
  8
0
  6
BYBLOCK
 62
     0
 10
-10.500009
 20
-166.0
 30
0.0
 11
-10.500009
 21
-212.828949
 31
0.0
  0
LINE
  5
7CA
  8
0
  6
BYBLOCK
 62
     0
 10
31.000009
 20
-103.5
 30
0.0
 11
31.000009
 21
-212.828949
 31
0.0
  0
LINE
  5
7CB
  8
0
  6
BYBLOCK
 62
     0
 10
-8.568157
 20
-210.828949
 30
0.0
 11
29.068157
 21
-210.828949
 31
0.0
  0
SOLID
  5
7CC
  8
0
  6
BYBLOCK
 62
     0
 10
-8.568157
 20
-210.506974
 30
0.0
 11
-8.568157
 21
-211.150925
 31
0.0
 12
-10.500009
 22
-210.828949
 32
0.0
 13
-10.500009
 23
-210.828949
 33
0.0
  0
SOLID
  5
7CD
  8
0
  6
BYBLOCK
 62
     0
 10
29.068157
 20
-210.506974
 30
0.0
 11
29.068157
 21
-211.150925
 31
0.0
 12
31.000009
 22
-210.828949
 32
0.0
 13
31.000009
 23
-210.828949
 33
0.0
  0
TEXT
  5
7CE
  8
0
  6
BYBLOCK
 62
     0
 10
1.183333
 20
-210.738949
 30
0.0
 40
3.2
  1
41.500
  7
STANDARD1
  0
POINT
  5
7CF
  8
DEFPOINTS
  6
BYBLOCK
 62
     0
 10
-10.500009
 20
-165.0
 30
0.0
  0
POINT
  5
7D0
  8
DEFPOINTS
  6
BYBLOCK
 62
     0
 10
31.000009
 20
-102.5
 30
0.0
  0
POINT
  5
7D1
  8
DEFPOINTS
  6
BYBLOCK
 62
     0
 10
31.000009
 20
-210.828949
 30
0.0
  0
ENDBLK
  5
7D2
  8
0
  0
BLOCK
  8
0
  2
*D58
 70
     1
 10
0.0
 20
0.0
 30
0.0
  3
*D58
  1

  0
LINE
  5
7D9
  8
0
  6
BYBLOCK
 62
     0
 10
-11.500009
 20
-123.5
 30
0.0
 11
-11.500009
 21
-176.960865
 31
0.0
  0
LINE
  5
7DA
  8
0
  6
BYBLOCK
 62
     0
 10
31.000009
 20
-103.5
 30
0.0
 11
31.000009
 21
-176.960865
 31
0.0
  0
LINE
  5
7DB
  8
0
  6
BYBLOCK
 62
     0
 10
-9.568157
 20
-174.960865
 30
0.0
 11
29.068157
 21
-174.960865
 31
0.0
  0
SOLID
  5
7DC
  8
0
  6
BYBLOCK
 62
     0
 10
-9.568157
 20
-174.63889
 30
0.0
 11
-9.568157
 21
-175.28284
 31
0.0
 12
-11.500009
 22
-174.960865
 32
0.0
 13
-11.500009
 23
-174.960865
 33
0.0
  0
SOLID
  5
7DD
  8
0
  6
BYBLOCK
 62
     0
 10
29.068157
 20
-174.63889
 30
0.0
 11
29.068157
 21
-175.28284
 31
0.0
 12
31.000009
 22
-174.960865
 32
0.0
 13
31.000009
 23
-174.960865
 33
0.0
  0
TEXT
  5
7DE
  8
0
  6
BYBLOCK
 62
     0
 10
0.683333
 20
-174.870865
 30
0.0
 40
3.2
  1
42.500
  7
STANDARD1
  0
POINT
  5
7DF
  8
DEFPOINTS
  6
BYBLOCK
 62
     0
 10
-11.500009
 20
-122.5
 30
0.0
  0
POINT
  5
7E0
  8
DEFPOINTS
  6
BYBLOCK
 62
     0
 10
31.000009
 20
-102.5
 30
0.0
  0
POINT
  5
7E1
  8
DEFPOINTS
  6
BYBLOCK
 62
     0
 10
31.000009
 20
-174.960865
 30
0.0
  0
ENDBLK
  5
7E2
  8
0
  0
BLOCK
  8
0
  2
*D59
 70
     1
 10
0.0
 20
0.0
 30
0.0
  3
*D59
  1

  0
LINE
  5
7E9
  8
0
  6
BYBLOCK
 62
     0
 10
-11.500009
 20
-123.5
 30
0.0
 11
-11.500009
 21
-171.079107
 31
0.0
  0
LINE
  5
7EA
  8
0
  6
BYBLOCK
 62
     0
 10
55.000009
 20
-103.5
 30
0.0
 11
55.000009
 21
-171.079107
 31
0.0
  0
LINE
  5
7EB
  8
0
  6
BYBLOCK
 62
     0
 10
-9.568157
 20
-169.079107
 30
0.0
 11
53.068157
 21
-169.079107
 31
0.0
  0
SOLID
  5
7EC
  8
0
  6
BYBLOCK
 62
     0
 10
-9.568157
 20
-168.757131
 30
0.0
 11
-9.568157
 21
-169.401082
 31
0.0
 12
-11.500009
 22
-169.079107
 32
0.0
 13
-11.500009
 23
-169.079107
 33
0.0
  0
SOLID
  5
7ED
  8
0
  6
BYBLOCK
 62
     0
 10
53.068157
 20
-168.757131
 30
0.0
 11
53.068157
 21
-169.401082
 31
0.0
 12
55.000009
 22
-169.079107
 32
0.0
 13
55.000009
 23
-169.079107
 33
0.0
  0
TEXT
  5
7EE
  8
0
  6
BYBLOCK
 62
     0
 10
12.683333
 20
-168.989107
 30
0.0
 40
3.2
  1
66.500
  7
STANDARD1
  0
POINT
  5
7EF
  8
DEFPOINTS
  6
BYBLOCK
 62
     0
 10
-11.500009
 20
-122.5
 30
0.0
  0
POINT
  5
7F0
  8
DEFPOINTS
  6
BYBLOCK
 62
     0
 10
55.000009
 20
-102.5
 30
0.0
  0
POINT
  5
7F1
  8
DEFPOINTS
  6
BYBLOCK
 62
     0
 10
55.000009
 20
-169.079107
 30
0.0
  0
ENDBLK
  5
7F2
  8
0
  0
BLOCK
  8
0
  2
*D60
 70
     1
 10
0.0
 20
0.0
 30
0.0
  3
*D60
  1

  0
LINE
  5
7F6
  8
0
  6
BYBLOCK
 62
     0
 10
-129.999991
 20
8.5
 30
0.0
 11
-129.999991
 21
132.715159
 31
0.0
  0
LINE
  5
7F7
  8
0
  6
BYBLOCK
 62
     0
 10
55.000009
 20
118.5
 30
0.0
 11
55.000009
 21
132.715159
 31
0.0
  0
LINE
  5
7F8
  8
0
  6
BYBLOCK
 62
     0
 10
-128.06814
 20
130.715159
 30
0.0
 11
53.068157
 21
130.715159
 31
0.0
  0
SOLID
  5
7F9
  8
0
  6
BYBLOCK
 62
     0
 10
-128.06814
 20
131.037134
 30
0.0
 11
-128.06814
 21
130.393184
 31
0.0
 12
-129.999991
 22
130.715159
 32
0.0
 13
-129.999991
 23
130.715159
 33
0.0
  0
SOLID
  5
7FA
  8
0
  6
BYBLOCK
 62
     0
 10
53.068157
 20
131.037134
 30
0.0
 11
53.068157
 21
130.393184
 31
0.0
 12
55.000009
 22
130.715159
 32
0.0
 13
55.000009
 23
130.715159
 33
0.0
  0
TEXT
  5
7FB
  8
0
  6
BYBLOCK
 62
     0
 10
-48.166658
 20
130.805159
 30
0.0
 40
3.2
  1
185.000
  7
STANDARD1
  0
POINT
  5
7FC
  8
DEFPOINTS
  6
BYBLOCK
 62
     0
 10
-129.999991
 20
7.5
 30
0.0
  0
POINT
  5
7FD
  8
DEFPOINTS
  6
BYBLOCK
 62
     0
 10
55.000009
 20
117.5
 30
0.0
  0
POINT
  5
7FE
  8
DEFPOINTS
  6
BYBLOCK
 62
     0
 10
55.000009
 20
130.715159
 30
0.0
  0
ENDBLK
  5
7FF
  8
0
  0
BLOCK
  8
0
  2
*D61
 70
     1
 10
0.0
 20
0.0
 30
0.0
  3
*D61
  1

  0
LINE
  5
805
  8
0
  6
BYBLOCK
 62
     0
 10
-129.999991
 20
8.5
 30
0.0
 11
-129.999991
 21
194.732224
 31
0.0
  0
LINE
  5
806
  8
0
  6
BYBLOCK
 62
     0
 10
144.000009
 20
8.5
 30
0.0
 11
144.000009
 21
194.732224
 31
0.0
  0
LINE
  5
807
  8
0
  6
BYBLOCK
 62
     0
 10
-128.06814
 20
192.732224
 30
0.0
 11
142.068157
 21
192.732224
 31
0.0
  0
SOLID
  5
808
  8
0
  6
BYBLOCK
 62
     0
 10
-128.06814
 20
193.054199
 30
0.0
 11
-128.06814
 21
192.410249
 31
0.0
 12
-129.999991
 22
192.732224
 32
0.0
 13
-129.999991
 23
192.732224
 33
0.0
  0
SOLID
  5
809
  8
0
  6
BYBLOCK
 62
     0
 10
142.068157
 20
193.054199
 30
0.0
 11
142.068157
 21
192.410249
 31
0.0
 12
144.000009
 22
192.732224
 32
0.0
 13
144.000009
 23
192.732224
 33
0.0
  0
TEXT
  5
80A
  8
0
  6
BYBLOCK
 62
     0
 10
-3.666658
 20
192.822224
 30
0.0
 40
3.2
  1
274.000
  7
STANDARD1
  0
POINT
  5
80B
  8
DEFPOINTS
  6
BYBLOCK
 62
     0
 10
-129.999991
 20
7.5
 30
0.0
  0
POINT
  5
80C
  8
DEFPOINTS
  6
BYBLOCK
 62
     0
 10
144.000009
 20
7.5
 30
0.0
  0
POINT
  5
80D
  8
DEFPOINTS
  6
BYBLOCK
 62
     0
 10
144.000009
 20
192.732224
 30
0.0
  0
ENDBLK
  5
80E
  8
0
  0
BLOCK
  8
0
  2
*D62
 70
     1
 10
0.0
 20
0.0
 30
0.0
  3
*D62
  1

  0
LINE
  5
812
  8
0
  6
BYBLOCK
 62
     0
 10
-129.999991
 20
8.5
 30
0.0
 11
-129.999991
 21
177.59991
 31
0.0
  0
LINE
  5
813
  8
0
  6
BYBLOCK
 62
     0
 10
79.000009
 20
118.5
 30
0.0
 11
79.000009
 21
177.59991
 31
0.0
  0
LINE
  5
814
  8
0
  6
BYBLOCK
 62
     0
 10
-128.06814
 20
175.59991
 30
0.0
 11
77.068157
 21
175.59991
 31
0.0
  0
SOLID
  5
815
  8
0
  6
BYBLOCK
 62
     0
 10
-128.06814
 20
175.921885
 30
0.0
 11
-128.06814
 21
175.277935
 31
0.0
 12
-129.999991
 22
175.59991
 32
0.0
 13
-129.999991
 23
175.59991
 33
0.0
  0
SOLID
  5
816
  8
0
  6
BYBLOCK
 62
     0
 10
77.068157
 20
175.921885
 30
0.0
 11
77.068157
 21
175.277935
 31
0.0
 12
79.000009
 22
175.59991
 32
0.0
 13
79.000009
 23
175.59991
 33
0.0
  0
TEXT
  5
817
  8
0
  6
BYBLOCK
 62
     0
 10
-36.166658
 20
175.68991
 30
0.0
 40
3.2
  1
209.000
  7
STANDARD1
  0
POINT
  5
818
  8
DEFPOINTS
  6
BYBLOCK
 62
     0
 10
-129.999991
 20
7.5
 30
0.0
  0
POINT
  5
819
  8
DEFPOINTS
  6
BYBLOCK
 62
     0
 10
79.000009
 20
117.5
 30
0.0
  0
POINT
  5
81A
  8
DEFPOINTS
  6
BYBLOCK
 62
     0
 10
79.000009
 20
175.59991
 30
0.0
  0
ENDBLK
  5
81B
  8
0
  0
BLOCK
  8
0
  2
*D63
 70
     1
 10
0.0
 20
0.0
 30
0.0
  3
*D63
  1

  0
LINE
  5
81F
  8
0
  6
BYBLOCK
 62
     0
 10
-11.500009
 20
-123.5
 30
0.0
 11
-11.500009
 21
-197.600226
 31
0.0
  0
LINE
  5
820
  8
0
  6
BYBLOCK
 62
     0
 10
79.000009
 20
-103.5
 30
0.0
 11
79.000009
 21
-197.600226
 31
0.0
  0
LINE
  5
821
  8
0
  6
BYBLOCK
 62
     0
 10
-9.568157
 20
-195.600226
 30
0.0
 11
77.068157
 21
-195.600226
 31
0.0
  0
SOLID
  5
822
  8
0
  6
BYBLOCK
 62
     0
 10
-9.568157
 20
-195.27825
 30
0.0
 11
-9.568157
 21
-195.922201
 31
0.0
 12
-11.500009
 22
-195.600226
 32
0.0
 13
-11.500009
 23
-195.600226
 33
0.0
  0
SOLID
  5
823
  8
0
  6
BYBLOCK
 62
     0
 10
77.068157
 20
-195.27825
 30
0.0
 11
77.068157
 21
-195.922201
 31
0.0
 12
79.000009
 22
-195.600226
 32
0.0
 13
79.000009
 23
-195.600226
 33
0.0
  0
TEXT
  5
824
  8
0
  6
BYBLOCK
 62
     0
 10
24.683333
 20
-195.510226
 30
0.0
 40
3.2
  1
90.500
  7
STANDARD1
  0
POINT
  5
825
  8
DEFPOINTS
  6
BYBLOCK
 62
     0
 10
-11.500009
 20
-122.5
 30
0.0
  0
POINT
  5
826
  8
DEFPOINTS
  6
BYBLOCK
 62
     0
 10
79.000009
 20
-102.5
 30
0.0
  0
POINT
  5
827
  8
DEFPOINTS
  6
BYBLOCK
 62
     0
 10
79.000009
 20
-195.600226
 30
0.0
  0
ENDBLK
  5
828
  8
0
  0
BLOCK
  8
0
  2
A$C18A6108F
 70
     0
 10
0.0
 20
0.0
 30
0.0
  3
A$C18A6108F
  1

  0
LINE
  5
89E
  8
0
  6
CENTER
 62
     6
 10
0.0
 20
0.0
 30
0.0
 11
201.57297
 21
0.0
 31
0.0
  0
ENDBLK
  5
8A0
  8
0
  0
ENDSEC
  0
SECTION
  2
ENTITIES
  0
CIRCLE
  5
200
  8
0
  6
CONTINUOUS
 62
     3
 10
-278.500009
 20
77.5
 30
0.0
 40
9.0
  0
INSERT
  5
201
  8
0
  2
SYM1
 10
-278.500009
 20
77.5
 30
0.0
 41
-1.0
 50
300.0
  0
LINE
  5
202
  8
0
  6
DASHDOT
 62
     4
 10
-278.500009
 20
67.846998
 30
0.0
 11
-278.500009
 21
88.670701
 31
0.0
  0
ARC
  5
203
  8
0
  6
CENTER
 62
     4
 10
-278.500009
 20
7.5
 30
0.0
 40
70.0
 50
78.041049
 51
100.607156
  0
LINE
  5
20D
  8
0
  6
CONTINUOUS
 62
     3
 10
-307.000009
 20
-114.5
 30
0.0
 11
-307.000009
 21
-102.5
 31
0.0
  0
LINE
  5
20E
  8
0
  6
CONTINUOUS
 62
     3
 10
343.999991
 20
-114.5
 30
0.0
 11
343.999991
 21
-102.5
 31
0.0
  0
LINE
  5
20F
  8
0
  6
CONTINUOUS
 62
     3
 10
365.437991
 20
-130.131651
 30
0.0
 11
364.799991
 21
-130.5
 31
0.0
  0
LINE
  5
210
  8
0
  6
CONTINUOUS
 62
     3
 10
350.199991
 20
-131.5
 30
0.0
 11
364.799991
 21
-131.5
 31
0.0
  0
LINE
  5
211
  8
0
  6
CONTINUOUS
 62
     3
 10
350.199991
 20
-130.5
 30
0.0
 11
364.799991
 21
-130.5
 31
0.0
  0
LINE
  5
212
  8
0
  6
CONTINUOUS
 62
     3
 10
349.561991
 20
-130.131651
 30
0.0
 11
350.199991
 21
-130.5
 31
0.0
  0
LINE
  5
213
  8
0
  6
CENTER
 62
     4
 10
357.499991
 20
-100.36239
 30
0.0
 11
357.499991
 21
-132.906799
 31
0.0
  0
LINE
  5
214
  8
0
  6
CONTINUOUS
 62
     3
 10
350.199991
 20
-131.5
 30
0.0
 11
350.199991
 21
-121.2
 31
0.0
  0
LINE
  5
215
  8
0
  6
CONTINUOUS
 62
     3
 10
349.561991
 20
-130.131651
 30
0.0
 11
349.561991
 21
-116.7
 31
0.0
  0
LINE
  5
216
  8
0
  6
CONTINUOUS
 62
     3
 10
349.561991
 20
-120.831651
 30
0.0
 11
350.199991
 21
-121.2
 31
0.0
  0
LINE
  5
217
  8
0
  6
CONTINUOUS
 62
     3
 10
344.899991
 20
-114.5
 30
0.0
 11
344.899991
 21
-116.7
 31
0.0
  0
LINE
  5
218
  8
0
  6
CONTINUOUS
 62
     3
 10
370.999991
 20
-114.5
 30
0.0
 11
370.999991
 21
-102.5
 31
0.0
  0
LINE
  5
219
  8
0
  6
CONTINUOUS
 62
     3
 10
344.899991
 20
-114.5
 30
0.0
 11
370.999991
 21
-114.5
 31
0.0
  0
LINE
  5
21A
  8
0
  6
CONTINUOUS
 62
     3
 10
370.099991
 20
-114.5
 30
0.0
 11
370.099991
 21
-116.7
 31
0.0
  0
LINE
  5
21B
  8
0
  6
CONTINUOUS
 62
     3
 10
344.899991
 20
-116.7
 30
0.0
 11
370.199991
 21
-116.7
 31
0.0
  0
LINE
  5
21C
  8
0
  6
CONTINUOUS
 62
     3
 10
343.999991
 20
-114.5
 30
0.0
 11
370.199991
 21
-114.5
 31
0.0
  0
LINE
  5
21D
  8
0
  6
CONTINUOUS
 62
     3
 10
350.199991
 20
-121.2
 30
0.0
 11
364.799991
 21
-121.2
 31
0.0
  0
LINE
  5
21E
  8
0
  6
CONTINUOUS
 62
     3
 10
364.799991
 20
-131.5
 30
0.0
 11
364.799991
 21
-121.2
 31
0.0
  0
LINE
  5
21F
  8
0
  6
CONTINUOUS
 62
     3
 10
365.437991
 20
-130.131651
 30
0.0
 11
365.437991
 21
-116.7
 31
0.0
  0
LINE
  5
220
  8
0
  6
CONTINUOUS
 62
     3
 10
365.437991
 20
-120.831651
 30
0.0
 11
364.799991
 21
-121.2
 31
0.0
  0
CIRCLE
  5
226
  8
0
  6
CONTINUOUS
 62
     3
 10
315.499991
 20
7.5
 30
0.0
 40
17.5
  0
LINE
  5
227
  8
0
  6
CONTINUOUS
 62
     3
 10
84.000009
 20
-10.0
 30
0.0
 11
144.000009
 21
-10.0
 31
0.0
  0
LINE
  5
228
  8
0
  6
CONTINUOUS
 62
     3
 10
84.000009
 20
25.0
 30
0.0
 11
144.000009
 21
25.0
 31
0.0
  0
LINE
  5
22E
  8
0
  6
CENTER
 62
     4
 10
-278.500009
 20
132.792394
 30
0.0
 11
-278.500009
 21
-165.0
 31
0.0
  0
LINE
  5
23A
  8
0
  6
CONTINUOUS
 62
     3
 10
-60.499991
 20
93.795
 30
0.0
 11
-47.499991
 21
93.795
 31
0.0
  0
INSERT
  5
23B
  8
0
  2
SYM10
 10
-47.499991
 20
104.591477
 30
0.0
  0
LINE
  5
23C
  8
0
  6
CONTINUOUS
 62
     3
 10
-60.499991
 20
93.795
 30
0.0
 11
-60.499991
 21
117.5
 31
0.0
  0
LINE
  5
23D
  8
0
  6
CONTINUOUS
 62
     3
 10
-90.499991
 20
-78.794845
 30
0.0
 11
-77.499991
 21
-78.794845
 31
0.0
  0
INSERT
  5
23E
  8
0
  2
SYM10
 10
-77.499991
 20
-89.58556
 30
0.0
  0
LINE
  5
23F
  8
0
  6
CONTINUOUS
 62
     3
 10
-77.499991
 20
52.8
 30
0.0
 11
-77.499991
 21
75.0
 31
0.0
  0
ARC
  5
240
  8
0
  6
CONTINUOUS
 62
     3
 10
-321.300009
 20
114.5
 30
0.0
 40
3.0
 50
90.0
 51
180.0
  0
ARC
  5
241
  8
0
  6
CONTINUOUS
 62
     3
 10
-235.700009
 20
-99.5
 30
0.0
 40
3.0
 50
270.0
 51
0.0
  0
LINE
  5
243
  8
0
  6
CONTINUOUS
 62
     3
 10
-90.499991
 20
52.8
 30
0.0
 11
-77.499991
 21
52.8
 31
0.0
  0
INSERT
  5
244
  8
0
  2
SYM10
 10
-77.499991
 20
63.5
 30
0.0
  0
LINE
  5
245
  8
0
  6
CONTINUOUS
 62
     3
 10
-77.499991
 20
-102.5
 30
0.0
 11
-77.499991
 21
-78.794845
 31
0.0
  0
ARC
  5
24C
  8
0
  6
CONTINUOUS
 62
     3
 10
-222.500009
 20
-89.494845
 30
0.0
 40
10.2
 50
90.0
 51
180.0
  0
LINE
  5
24D
  8
0
  6
CONTINUOUS
 62
     3
 10
-232.700009
 20
-89.494845
 30
0.0
 11
-232.700009
 21
-99.5
 31
0.0
  0
LINE
  5
24E
  8
0
  6
CONTINUOUS
 62
     3
 10
-222.500009
 20
-79.294845
 30
0.0
 11
-213.00169
 21
-79.294845
 31
0.0
  0
ARC
  5
24F
  8
0
  6
CONTINUOUS
 62
     3
 10
-214.000009
 20
-76.294845
 30
0.0
 40
3.0
 50
270.0
 51
0.0
  0
ARC
  5
250
  8
0
  6
CONTINUOUS
 62
     3
 10
-375.494854
 20
-48.5
 30
0.0
 40
10.2
 50
0.0
 51
90.0
  0
LINE
  5
251
  8
0
  6
CONTINUOUS
 62
     3
 10
-375.494854
 20
-38.3
 30
0.0
 11
-384.417948
 21
-38.3
 31
0.0
  0
ARC
  5
252
  8
0
  6
CONTINUOUS
 62
     3
 10
-384.417948
 20
-35.3
 30
0.0
 40
3.0
 50
182.896463
 51
270.0
  0
LINE
  5
253
  8
0
  6
CONTINUOUS
 62
     3
 10
-365.294854
 20
-48.5
 30
0.0
 11
-365.294854
 21
-57.998319
 31
0.0
  0
ARC
  5
254
  8
0
  6
CONTINUOUS
 62
     3
 10
-362.294854
 20
-57.0
 30
0.0
 40
3.0
 50
180.0
 51
270.0
  0
ARC
  5
255
  8
0
  6
CONTINUOUS
 62
     3
 10
-334.500009
 20
104.494845
 30
0.0
 40
10.2
 50
270.0
 51
0.0
  0
LINE
  5
256
  8
0
  6
CONTINUOUS
 62
     3
 10
-324.300009
 20
104.494845
 30
0.0
 11
-324.300009
 21
114.5
 31
0.0
  0
LINE
  5
257
  8
0
  6
CONTINUOUS
 62
     3
 10
-334.500009
 20
94.294845
 30
0.0
 11
-343.998327
 21
94.294845
 31
0.0
  0
ARC
  5
258
  8
0
  6
CONTINUOUS
 62
     3
 10
-343.000009
 20
91.294845
 30
0.0
 40
3.0
 50
90.0
 51
180.0
  0
ARC
  5
259
  8
0
  6
CONTINUOUS
 62
     3
 10
-194.705163
 20
72.0
 30
0.0
 40
3.0
 50
0.0
 51
90.0
  0
ARC
  5
25A
  8
0
  6
CENTER
 62
     4
 10
-278.500009
 20
7.5
 30
0.0
 40
70.0
 50
198.041049
 51
220.607156
  0
LINE
  5
25B
  8
0
  6
CENTER
 62
     4
 10
-330.762042
 20
-22.673499
 30
0.0
 11
-348.795898
 21
-33.085351
 31
0.0
  0
INSERT
  5
25C
  8
0
  2
SYM1
 10
-339.121787
 20
-27.5
 30
0.0
 41
-1.0
 50
60.0
  0
CIRCLE
  5
25D
  8
0
  6
CONTINUOUS
 62
     3
 10
-339.121787
 20
-27.5
 30
0.0
 40
9.0
  0
ARC
  5
25E
  8
0
  6
CONTINUOUS
 62
     3
 10
-181.505163
 20
63.5
 30
0.0
 40
10.2
 50
180.0
 51
270.0
  0
LINE
  5
25F
  8
0
  6
CONTINUOUS
 62
     3
 10
-191.705163
 20
63.5
 30
0.0
 11
-191.705163
 21
72.998319
 31
0.0
  0
LINE
  5
260
  8
0
  6
CONTINUOUS
 62
     3
 10
-181.505163
 20
53.3
 30
0.0
 11
-172.582069
 21
53.3
 31
0.0
  0
ARC
  5
261
  8
0
  6
CONTINUOUS
 62
     3
 10
-172.582069
 20
50.3
 30
0.0
 40
3.0
 50
2.896463
 51
90.0
  0
ARC
  5
262
  8
0
  6
CENTER
 62
     4
 10
-278.500009
 20
7.5
 30
0.0
 40
70.0
 50
318.041049
 51
340.607156
  0
LINE
  5
263
  8
0
  6
CENTER
 62
     4
 10
-226.237975
 20
-22.673499
 30
0.0
 11
-208.204119
 21
-33.085351
 31
0.0
  0
INSERT
  5
264
  8
0
  2
SYM1
 10
-217.87823
 20
-27.5
 30
0.0
 41
-1.0
 50
180.0
  0
CIRCLE
  5
265
  8
0
  6
CONTINUOUS
 62
     3
 10
-217.87823
 20
-27.5
 30
0.0
 40
9.0
  0
LINE
  5
26A
  8
0
  6
CONTINUOUS
 62
     3
 10
-307.900009
 20
-114.5
 30
0.0
 11
-307.900009
 21
-116.7
 31
0.0
  0
LINE
  5
26B
  8
0
  6
CONTINUOUS
 62
     3
 10
-328.438009
 20
-130.131651
 30
0.0
 11
-327.800009
 21
-130.5
 31
0.0
  0
LINE
  5
26C
  8
0
  6
CONTINUOUS
 62
     3
 10
-328.438009
 20
-120.831651
 30
0.0
 11
-327.800009
 21
-121.2
 31
0.0
  0
LINE
  5
26D
  8
0
  6
CONTINUOUS
 62
     3
 10
-328.438009
 20
-130.131651
 30
0.0
 11
-328.438009
 21
-116.7
 31
0.0
  0
LINE
  5
26E
  8
0
  6
CONTINUOUS
 62
     3
 10
-327.800009
 20
-131.5
 30
0.0
 11
-327.800009
 21
-121.2
 31
0.0
  0
LINE
  5
26F
  8
0
  6
CONTINUOUS
 62
     3
 10
-312.562009
 20
-120.831651
 30
0.0
 11
-313.200009
 21
-121.2
 31
0.0
  0
LINE
  5
270
  8
0
  6
CONTINUOUS
 62
     3
 10
-313.200009
 20
-121.2
 30
0.0
 11
-327.800009
 21
-121.2
 31
0.0
  0
LINE
  5
271
  8
0
  6
CONTINUOUS
 62
     3
 10
-312.562009
 20
-130.131651
 30
0.0
 11
-312.562009
 21
-116.7
 31
0.0
  0
LINE
  5
272
  8
0
  6
CONTINUOUS
 62
     3
 10
-313.200009
 20
-131.5
 30
0.0
 11
-313.200009
 21
-121.2
 31
0.0
  0
LINE
  5
273
  8
0
  6
CONTINUOUS
 62
     3
 10
-312.562009
 20
-130.131651
 30
0.0
 11
-313.200009
 21
-130.5
 31
0.0
  0
LINE
  5
274
  8
0
  6
CONTINUOUS
 62
     3
 10
-313.200009
 20
-130.5
 30
0.0
 11
-327.800009
 21
-130.5
 31
0.0
  0
LINE
  5
275
  8
0
  6
CONTINUOUS
 62
     3
 10
-307.000009
 20
-114.5
 30
0.0
 11
-333.200009
 21
-114.5
 31
0.0
  0
LINE
  5
276
  8
0
  6
CONTINUOUS
 62
     3
 10
-307.900009
 20
-116.7
 30
0.0
 11
-333.100009
 21
-116.7
 31
0.0
  0
LINE
  5
277
  8
0
  6
CONTINUOUS
 62
     3
 10
-313.200009
 20
-131.5
 30
0.0
 11
-327.800009
 21
-131.5
 31
0.0
  0
LINE
  5
278
  8
0
  6
CENTER
 62
     4
 10
-320.500009
 20
-100.36239
 30
0.0
 11
-320.500009
 21
-132.906799
 31
0.0
  0
LINE
  5
279
  8
0
  6
CONTINUOUS
 62
     3
 10
-333.100009
 20
-114.5
 30
0.0
 11
-333.100009
 21
-116.7
 31
0.0
  0
LINE
  5
27A
  8
0
  6
CONTINUOUS
 62
     3
 10
-307.900009
 20
-114.5
 30
0.0
 11
-334.000009
 21
-114.5
 31
0.0
  0
LINE
  5
27B
  8
0
  6
CONTINUOUS
 62
     3
 10
-334.000009
 20
-114.5
 30
0.0
 11
-334.000009
 21
-102.5
 31
0.0
  0
LINE
  5
27C
  8
0
  6
CONTINUOUS
 62
     3
 10
-90.499991
 20
-102.5
 30
0.0
 11
-90.499991
 21
117.5
 31
0.0
  0
LINE
  5
27E
  8
0
  6
CENTER
 62
     4
 10
-76.999991
 20
-100.36239
 30
0.0
 11
-76.999991
 21
-132.906799
 31
0.0
  0
LINE
  5
27F
  8
0
  6
CONTINUOUS
 62
     3
 10
-64.399991
 20
-102.5
 30
0.0
 11
-64.399991
 21
-116.7
 31
0.0
  0
LINE
  5
280
  8
0
  6
CONTINUOUS
 62
     3
 10
-89.599991
 20
-114.5
 30
0.0
 11
-89.599991
 21
-116.7
 31
0.0
  0
LINE
  5
281
  8
0
  6
CONTINUOUS
 62
     3
 10
-84.937991
 20
-130.131651
 30
0.0
 11
-84.299991
 21
-130.5
 31
0.0
  0
LINE
  5
282
  8
0
  6
CONTINUOUS
 62
     3
 10
-84.937991
 20
-120.831651
 30
0.0
 11
-84.299991
 21
-121.2
 31
0.0
  0
LINE
  5
283
  8
0
  6
CONTINUOUS
 62
     3
 10
-84.937991
 20
-130.131651
 30
0.0
 11
-84.937991
 21
-116.7
 31
0.0
  0
LINE
  5
284
  8
0
  6
CONTINUOUS
 62
     3
 10
-84.299991
 20
-131.5
 30
0.0
 11
-84.299991
 21
-121.2
 31
0.0
  0
LINE
  5
285
  8
0
  6
CONTINUOUS
 62
     3
 10
-69.061991
 20
-120.831651
 30
0.0
 11
-69.699991
 21
-121.2
 31
0.0
  0
LINE
  5
286
  8
0
  6
CONTINUOUS
 62
     3
 10
-69.699991
 20
-121.2
 30
0.0
 11
-84.299991
 21
-121.2
 31
0.0
  0
LINE
  5
287
  8
0
  6
CONTINUOUS
 62
     3
 10
-69.061991
 20
-130.131651
 30
0.0
 11
-69.061991
 21
-116.7
 31
0.0
  0
LINE
  5
288
  8
0
  6
CONTINUOUS
 62
     3
 10
-69.699991
 20
-131.5
 30
0.0
 11
-69.699991
 21
-121.2
 31
0.0
  0
LINE
  5
289
  8
0
  6
CONTINUOUS
 62
     3
 10
-69.061991
 20
-130.131651
 30
0.0
 11
-69.699991
 21
-130.5
 31
0.0
  0
LINE
  5
28A
  8
0
  6
CONTINUOUS
 62
     3
 10
-69.699991
 20
-130.5
 30
0.0
 11
-84.299991
 21
-130.5
 31
0.0
  0
LINE
  5
28B
  8
0
  6
CONTINUOUS
 62
     3
 10
-65.254991
 20
-114.5
 30
0.0
 11
-88.71567
 21
-114.5
 31
0.0
  0
LINE
  5
28C
  8
0
  6
CONTINUOUS
 62
     3
 10
-64.244991
 20
-114.5
 30
0.0
 11
-89.699991
 21
-114.5
 31
0.0
  0
LINE
  5
28D
  8
0
  6
CONTINUOUS
 62
     3
 10
-64.244991
 20
-116.7
 30
0.0
 11
-89.699991
 21
-116.7
 31
0.0
  0
LINE
  5
28E
  8
0
  6
CONTINUOUS
 62
     3
 10
-64.399991
 20
-114.5
 30
0.0
 11
-90.499991
 21
-114.5
 31
0.0
  0
LINE
  5
28F
  8
0
  6
CONTINUOUS
 62
     3
 10
-69.699991
 20
-131.5
 30
0.0
 11
-84.299991
 21
-131.5
 31
0.0
  0
LINE
  5
290
  8
0
  6
CONTINUOUS
 62
     3
 10
-47.499991
 20
-102.5
 30
0.0
 11
-47.499991
 21
117.5
 31
0.0
  0
CIRCLE
  5
291
  8
0
  6
CONTINUOUS
 62
     3
 10
315.499991
 20
7.5
 30
0.0
 40
96.0
  0
CIRCLE
  5
292
  8
0
  6
CONTINUOUS
 62
     3
 10
315.499991
 20
7.5
 30
0.0
 40
58.0
  0
LINE
  5
294
  8
0
  6
CONTINUOUS
 62
     3
 10
83.000009
 20
-92.5
 30
0.0
 11
83.000009
 21
107.5
 31
0.0
  0
ARC
  5
296
  8
0
  6
CENTER
 62
     4
 10
315.499991
 20
7.5
 30
0.0
 40
112.0
 50
54.225592
 51
65.79793
  0
CIRCLE
  5
297
  8
0
  6
CONTINUOUS
 62
     3
 10
371.499991
 20
104.494845
 30
0.0
 40
5.0
  0
CIRCLE
  5
298
  8
0
  6
CONTINUOUS
 62
     4
 10
371.499991
 20
104.494845
 30
0.0
 40
4.25
  0
LINE
  5
299
  8
0
  6
CENTER
 62
     4
 10
366.486261
 20
95.810809
 30
0.0
 11
376.41831
 21
113.013622
 31
0.0
  0
ARC
  5
29A
  8
0
  6
CENTER
 62
     4
 10
315.499991
 20
7.5
 30
0.0
 40
112.0
 50
324.225592
 51
335.79793
  0
CIRCLE
  5
29B
  8
0
  6
CONTINUOUS
 62
     3
 10
412.494837
 20
-48.5
 30
0.0
 40
5.0
  0
CIRCLE
  5
29C
  8
0
  6
CONTINUOUS
 62
     4
 10
412.494837
 20
-48.5
 30
0.0
 40
4.25
  0
LINE
  5
29D
  8
0
  6
CENTER
 62
     4
 10
403.810801
 20
-43.486269
 30
0.0
 11
421.013614
 21
-53.418318
 31
0.0
  0
ARC
  5
29E
  8
0
  6
CENTER
 62
     4
 10
315.499991
 20
7.5
 30
0.0
 40
112.0
 50
234.225592
 51
245.79793
  0
CIRCLE
  5
29F
  8
0
  6
CONTINUOUS
 62
     3
 10
259.499991
 20
-89.494845
 30
0.0
 40
5.0
  0
CIRCLE
  5
2A0
  8
0
  6
CONTINUOUS
 62
     4
 10
259.499991
 20
-89.494845
 30
0.0
 40
4.25
  0
LINE
  5
2A1
  8
0
  6
CENTER
 62
     4
 10
264.513722
 20
-80.810809
 30
0.0
 11
254.581673
 21
-98.013622
 31
0.0
  0
CIRCLE
  5
2A2
  8
0
  6
CONTINUOUS
 62
     4
 10
218.505146
 20
63.5
 30
0.0
 40
4.25
  0
CIRCLE
  5
2A3
  8
0
  6
CONTINUOUS
 62
     3
 10
218.505146
 20
63.5
 30
0.0
 40
5.0
  0
LINE
  5
2A4
  8
0
  6
CONTINUOUS
 62
     3
 10
-303.500009
 20
-78.999899
 30
0.0
 11
-303.500009
 21
-102.5
 31
0.0
  0
ARC
  5
2A5
  8
0
  6
CONTINUOUS
 62
     3
 10
-255.500009
 20
-78.999899
 30
0.0
 40
2.0
 50
0.0
 51
90.0
  0
LINE
  5
2A6
  8
0
  6
CONTINUOUS
 62
     3
 10
-253.500009
 20
-78.999899
 30
0.0
 11
-253.500009
 21
-102.5
 31
0.0
  0
LINE
  5
2A7
  8
0
  6
CONTINUOUS
 62
     3
 10
-278.500009
 20
-76.999899
 30
0.0
 11
-255.500009
 21
-76.999899
 31
0.0
  0
LINE
  5
2A8
  8
0
  6
CONTINUOUS
 62
     3
 10
-301.500009
 20
-76.999899
 30
0.0
 11
-278.500009
 21
-76.999899
 31
0.0
  0
ARC
  5
2A9
  8
0
  6
CONTINUOUS
 62
     3
 10
-301.500009
 20
-78.999899
 30
0.0
 40
2.0
 50
90.0
 51
180.0
  0
LINE
  5
2AA
  8
0
  6
CONTINUOUS
 62
     4
 10
-92.999991
 20
-57.7
 30
0.0
 11
-90.499991
 21
-57.7
 31
0.0
  0
LINE
  5
2AB
  8
0
  6
CONTINUOUS
 62
     4
 10
-92.999991
 20
-54.3
 30
0.0
 11
-92.999991
 21
-57.7
 31
0.0
  0
LINE
  5
2AC
  8
0
  6
CONTINUOUS
 62
     4
 10
-95.699991
 20
-56.5
 30
0.0
 11
-92.999991
 21
-56.5
 31
0.0
  0
ARC
  5
2AD
  8
0
  6
CENTER
 62
     4
 10
-277.000009
 20
4.901924
 30
0.0
 40
115.0
 50
114.537532
 51
125.088017
  0
LINE
  5
2AE
  8
0
  6
CONTINUOUS
 62
     3
 10
-331.035907
 20
104.494845
 30
0.0
 11
-332.767958
 21
107.494845
 31
0.0
  0
LINE
  5
2AF
  8
0
  6
CONTINUOUS
 62
     3
 10
-337.96411
 20
104.494845
 30
0.0
 11
-336.232059
 21
101.494845
 31
0.0
  0
LINE
  5
2B0
  8
0
  6
CONTINUOUS
 62
     3
 10
-332.767958
 20
107.494845
 30
0.0
 11
-336.232059
 21
107.494845
 31
0.0
  0
LINE
  5
2B1
  8
0
  6
CONTINUOUS
 62
     3
 10
-336.232059
 20
101.494845
 30
0.0
 11
-332.767958
 21
101.494845
 31
0.0
  0
LINE
  5
2B2
  8
0
  6
CONTINUOUS
 62
     3
 10
-336.232059
 20
107.494845
 30
0.0
 11
-337.96411
 21
104.494845
 31
0.0
  0
LINE
  5
2B3
  8
0
  6
CONTINUOUS
 62
     3
 10
-332.767958
 20
101.494845
 30
0.0
 11
-331.035907
 21
104.494845
 31
0.0
  0
LINE
  5
2B4
  8
0
  6
CENTER
 62
     4
 10
-329.486278
 20
95.810809
 30
0.0
 11
-339.418327
 21
113.013622
 31
0.0
  0
CIRCLE
  5
2B5
  8
0
  6
CONTINUOUS
 62
     3
 10
-334.452302
 20
104.412216
 30
0.0
 40
8.0
  0
CIRCLE
  5
2B6
  8
0
  6
CONTINUOUS
 62
     3
 10
-334.452302
 20
104.412216
 30
0.0
 40
9.2
  0
ARC
  5
2B7
  8
0
  6
CENTER
 62
     4
 10
-281.098085
 20
6.0
 30
0.0
 40
115.0
 50
24.537532
 51
35.088017
  0
LINE
  5
2B8
  8
0
  6
CONTINUOUS
 62
     3
 10
-181.505163
 20
60.035898
 30
0.0
 11
-178.505163
 21
61.767949
 31
0.0
  0
LINE
  5
2B9
  8
0
  6
CONTINUOUS
 62
     3
 10
-181.505163
 20
66.964102
 30
0.0
 11
-184.505163
 21
65.232051
 31
0.0
  0
LINE
  5
2BA
  8
0
  6
CONTINUOUS
 62
     3
 10
-178.505163
 20
61.767949
 30
0.0
 11
-178.505163
 21
65.232051
 31
0.0
  0
LINE
  5
2BB
  8
0
  6
CONTINUOUS
 62
     3
 10
-184.505163
 20
65.232051
 30
0.0
 11
-184.505163
 21
61.767949
 31
0.0
  0
LINE
  5
2BC
  8
0
  6
CONTINUOUS
 62
     3
 10
-178.505163
 20
65.232051
 30
0.0
 11
-181.505163
 21
66.964102
 31
0.0
  0
LINE
  5
2BD
  8
0
  6
CONTINUOUS
 62
     3
 10
-184.505163
 20
61.767949
 30
0.0
 11
-181.505163
 21
60.035898
 31
0.0
  0
LINE
  5
2BE
  8
0
  6
CENTER
 62
     4
 10
-190.189199
 20
58.486269
 30
0.0
 11
-172.986386
 21
68.418318
 31
0.0
  0
CIRCLE
  5
2BF
  8
0
  6
CONTINUOUS
 62
     3
 10
-181.587793
 20
63.452294
 30
0.0
 40
8.0
  0
CIRCLE
  5
2C0
  8
0
  6
CONTINUOUS
 62
     3
 10
-181.587793
 20
63.452294
 30
0.0
 40
9.2
  0
ARC
  5
2C1
  8
0
  6
CENTER
 62
     4
 10
-280.000009
 20
10.098076
 30
0.0
 40
115.0
 50
294.537532
 51
305.088017
  0
LINE
  5
2C2
  8
0
  6
CONTINUOUS
 62
     3
 10
-225.96411
 20
-89.494845
 30
0.0
 11
-224.232059
 21
-92.494845
 31
0.0
  0
LINE
  5
2C3
  8
0
  6
CONTINUOUS
 62
     3
 10
-219.035907
 20
-89.494845
 30
0.0
 11
-220.767958
 21
-86.494845
 31
0.0
  0
LINE
  5
2C4
  8
0
  6
CONTINUOUS
 62
     3
 10
-224.232059
 20
-92.494845
 30
0.0
 11
-220.767958
 21
-92.494845
 31
0.0
  0
LINE
  5
2C5
  8
0
  6
CONTINUOUS
 62
     3
 10
-220.767958
 20
-86.494845
 30
0.0
 11
-224.232059
 21
-86.494845
 31
0.0
  0
LINE
  5
2C6
  8
0
  6
CONTINUOUS
 62
     3
 10
-220.767958
 20
-92.494845
 30
0.0
 11
-219.035907
 21
-89.494845
 31
0.0
  0
LINE
  5
2C7
  8
0
  6
CONTINUOUS
 62
     3
 10
-224.232059
 20
-86.494845
 30
0.0
 11
-225.96411
 21
-89.494845
 31
0.0
  0
LINE
  5
2C8
  8
0
  6
CENTER
 62
     4
 10
-227.513739
 20
-80.810809
 30
0.0
 11
-217.58169
 21
-98.013622
 31
0.0
  0
CIRCLE
  5
2C9
  8
0
  6
CONTINUOUS
 62
     3
 10
-222.547715
 20
-89.412216
 30
0.0
 40
8.0
  0
CIRCLE
  5
2CA
  8
0
  6
CONTINUOUS
 62
     3
 10
-222.547715
 20
-89.412216
 30
0.0
 40
9.2
  0
ARC
  5
2CB
  8
0
  6
CENTER
 62
     4
 10
-275.901932
 20
9.0
 30
0.0
 40
115.0
 50
204.537532
 51
215.088017
  0
LINE
  5
2CC
  8
0
  6
CONTINUOUS
 62
     3
 10
-375.494854
 20
-45.035898
 30
0.0
 11
-378.494854
 21
-46.767949
 31
0.0
  0
LINE
  5
2CD
  8
0
  6
CONTINUOUS
 62
     3
 10
-375.494854
 20
-51.964102
 30
0.0
 11
-372.494854
 21
-50.232051
 31
0.0
  0
LINE
  5
2CE
  8
0
  6
CONTINUOUS
 62
     3
 10
-378.494854
 20
-46.767949
 30
0.0
 11
-378.494854
 21
-50.232051
 31
0.0
  0
LINE
  5
2CF
  8
0
  6
CONTINUOUS
 62
     3
 10
-372.494854
 20
-50.232051
 30
0.0
 11
-372.494854
 21
-46.767949
 31
0.0
  0
LINE
  5
2D0
  8
0
  6
CONTINUOUS
 62
     3
 10
-378.494854
 20
-50.232051
 30
0.0
 11
-375.494854
 21
-51.964102
 31
0.0
  0
LINE
  5
2D1
  8
0
  6
CONTINUOUS
 62
     3
 10
-372.494854
 20
-46.767949
 30
0.0
 11
-375.494854
 21
-45.035898
 31
0.0
  0
LINE
  5
2D2
  8
0
  6
CENTER
 62
     4
 10
-366.810818
 20
-43.486269
 30
0.0
 11
-384.013631
 21
-53.418318
 31
0.0
  0
CIRCLE
  5
2D3
  8
0
  6
CONTINUOUS
 62
     3
 10
-375.412224
 20
-48.452294
 30
0.0
 40
9.2
  0
CIRCLE
  5
2D4
  8
0
  6
CONTINUOUS
 62
     3
 10
-375.412224
 20
-48.452294
 30
0.0
 40
8.0
  0
ARC
  5
2D5
  8
0
  6
CENTER
 62
     4
 10
315.499991
 20
7.5
 30
0.0
 40
112.0
 50
144.225592
 51
155.79793
  0
LINE
  5
2D6
  8
0
  6
CENTER
 62
     4
 10
227.189182
 20
58.486269
 30
0.0
 11
209.986369
 21
68.418318
 31
0.0
  0
LINE
  5
2D7
  8
0
  6
CONTINUOUS
 62
     3
 10
79.000009
 20
-70.762379
 30
0.0
 11
63.000009
 21
-70.762379
 31
0.0
  0
LINE
  5
2D8
  8
0
  6
CONTINUOUS
 62
     3
 10
79.000009
 20
85.762379
 30
0.0
 11
63.000009
 21
85.762379
 31
0.0
  0
ARC
  5
2EC
  8
0
  6
CONTINUOUS
 62
     3
 10
292.999991
 20
-130.5
 30
0.0
 40
1.0
 50
180.0
 51
270.0
  0
ARC
  5
2ED
  8
0
  6
CONTINUOUS
 62
     3
 10
337.999991
 20
-130.5
 30
0.0
 40
1.0
 50
270.0
 51
0.0
  0
LINE
  5
2EE
  8
0
  6
CONTINUOUS
 62
     3
 10
291.999991
 20
-130.5
 30
0.0
 11
291.999991
 21
-102.5
 31
0.0
  0
LINE
  5
2EF
  8
0
  6
CONTINUOUS
 62
     3
 10
338.999991
 20
-130.5
 30
0.0
 11
338.999991
 21
-102.5
 31
0.0
  0
CIRCLE
  5
2F4
  8
0
  6
CONTINUOUS
 62
     4
 10
391.59517
 20
-91.669168
 30
0.0
 40
4.0
  0
CIRCLE
  5
2F5
  8
0
  6
CONTINUOUS
 62
     4
 10
391.59517
 20
-91.669168
 30
0.0
 40
3.35
  0
ARC
  5
2F6
  8
0
  6
CENTER
 62
     4
 10
315.499991
 20
7.5
 30
0.0
 40
125.0
 50
303.690068
 51
310.971736
  0
LINE
  5
2F7
  8
0
  6
CENTER
 62
     4
 10
386.115394
 20
-84.527785
 30
0.0
 11
395.858336
 21
-97.225033
 31
0.0
  0
CIRCLE
  5
2F8
  8
0
  6
CONTINUOUS
 62
     4
 10
239.404813
 20
106.669168
 30
0.0
 40
3.35
  0
CIRCLE
  5
2F9
  8
0
  6
CONTINUOUS
 62
     4
 10
239.404813
 20
106.669168
 30
0.0
 40
4.0
  0
ARC
  5
2FA
  8
0
  6
CENTER
 62
     4
 10
315.499991
 20
7.5
 30
0.0
 40
125.0
 50
123.690068
 51
130.971736
  0
LINE
  5
2FB
  8
0
  6
CENTER
 62
     4
 10
244.884589
 20
99.527785
 30
0.0
 11
235.141647
 21
112.225033
 31
0.0
  0
ARC
  5
2FC
  8
0
  6
CENTER
 62
     4
 10
-278.500009
 20
7.5
 30
0.0
 40
125.0
 50
49.028264
 51
56.309932
  0
LINE
  5
2FD
  8
0
  6
CENTER
 62
     4
 10
-207.884606
 20
99.527785
 30
0.0
 11
-198.141664
 21
112.225033
 31
0.0
  0
CIRCLE
  5
2FE
  8
0
  6
CONTINUOUS
 62
     4
 10
-354.595187
 20
-91.669168
 30
0.0
 40
3.35
  0
CIRCLE
  5
2FF
  8
0
  6
CONTINUOUS
 62
     4
 10
-354.595187
 20
-91.669168
 30
0.0
 40
4.0
  0
CIRCLE
  5
300
  8
0
  6
CONTINUOUS
 62
     4
 10
-202.40483
 20
106.669168
 30
0.0
 40
4.0
  0
CIRCLE
  5
301
  8
0
  6
CONTINUOUS
 62
     4
 10
-202.40483
 20
106.669168
 30
0.0
 40
3.35
  0
LINE
  5
302
  8
0
  6
CENTER
 62
     4
 10
-349.115411
 20
-84.527785
 30
0.0
 11
-358.858353
 21
-97.225033
 31
0.0
  0
ARC
  5
303
  8
0
  6
CENTER
 62
     4
 10
-278.500009
 20
7.5
 30
0.0
 40
125.0
 50
229.028264
 51
236.309932
  0
LINE
  5
305
  8
0
  6
CONTINUOUS
 62
     3
 10
-95.699991
 20
-73.0
 30
0.0
 11
-96.699991
 21
-74.0
 31
0.0
  0
LINE
  5
306
  8
0
  6
CONTINUOUS
 62
     3
 10
-124.299991
 20
-74.0
 30
0.0
 11
-96.699991
 21
-74.0
 31
0.0
  0
LINE
  5
307
  8
0
  6
CENTER
 62
     4
 10
-105.369958
 20
37.113352
 30
0.0
 11
-95.930572
 21
37.113352
 31
0.0
  0
LINE
  5
308
  8
0
  6
CENTER
 62
     4
 10
-104.299489
 20
-27.684427
 30
0.0
 11
-96.488565
 21
-27.684427
 31
0.0
  0
LINE
  5
309
  8
0
  6
CONTINUOUS
 62
     3
 10
-102.499991
 20
-30.934427
 30
0.0
 11
-102.499991
 21
-27.159225
 31
0.0
  0
LINE
  5
30A
  8
0
  6
CONTINUOUS
 62
     3
 10
-98.499991
 20
-31.534427
 30
0.0
 11
-98.499991
 21
-27.159225
 31
0.0
  0
LINE
  5
30B
  8
0
  6
CONTINUOUS
 62
     3
 10
-98.499991
 20
-30.934427
 30
0.0
 11
-102.499991
 21
-30.934427
 31
0.0
  0
LINE
  5
30C
  8
0
  6
CONTINUOUS
 62
     3
 10
-98.499991
 20
-31.534427
 30
0.0
 11
-97.499991
 21
-31.534427
 31
0.0
  0
LINE
  5
30D
  8
0
  6
CONTINUOUS
 62
     3
 10
-102.499991
 20
36.480386
 30
0.0
 11
-102.499991
 21
40.363352
 31
0.0
  0
LINE
  5
30E
  8
0
  6
CONTINUOUS
 62
     3
 10
-98.499991
 20
36.480386
 30
0.0
 11
-98.499991
 21
40.963352
 31
0.0
  0
LINE
  5
30F
  8
0
  6
CONTINUOUS
 62
     3
 10
-102.499991
 20
40.363352
 30
0.0
 11
-98.499991
 21
40.363352
 31
0.0
  0
LINE
  5
310
  8
0
  6
CONTINUOUS
 62
     3
 10
-97.499991
 20
40.963352
 30
0.0
 11
-98.499991
 21
40.963352
 31
0.0
  0
LINE
  5
311
  8
0
  6
CONTINUOUS
 62
     3
 10
-96.699991
 20
-74.0
 30
0.0
 11
-96.699991
 21
-57.7
 31
0.0
  0
LINE
  5
312
  8
0
  6
CONTINUOUS
 62
     3
 10
-95.699991
 20
-73.0
 30
0.0
 11
-95.699991
 21
-54.3
 31
0.0
  0
LINE
  5
313
  8
0
  6
CONTINUOUS
 62
     3
 10
-90.999991
 20
-51.5
 30
0.0
 11
-90.999991
 21
-35.0
 31
0.0
  0
LINE
  5
314
  8
0
  6
CONTINUOUS
 62
     3
 10
-97.499991
 20
-35.0
 30
0.0
 11
-90.499991
 21
-35.0
 31
0.0
  0
LINE
  5
315
  8
0
  6
CONTINUOUS
 62
     3
 10
-129.999991
 20
-50.5
 30
0.0
 11
-90.999991
 21
-50.5
 31
0.0
  0
LINE
  5
316
  8
0
  6
CONTINUOUS
 62
     3
 10
-125.299991
 20
-57.7
 30
0.0
 11
-95.699991
 21
-57.7
 31
0.0
  0
LINE
  5
317
  8
0
  6
CONTINUOUS
 62
     3
 10
-129.549991
 20
-54.3
 30
0.0
 11
-129.549991
 21
-50.5
 31
0.0
  0
LINE
  5
318
  8
0
  6
CONTINUOUS
 62
     3
 10
-91.449991
 20
-54.3
 30
0.0
 11
-91.449991
 21
-51.5
 31
0.0
  0
LINE
  5
319
  8
0
  6
CONTINUOUS
 62
     3
 10
-129.549991
 20
-51.5
 30
0.0
 11
-90.999991
 21
-51.5
 31
0.0
  0
LINE
  5
31A
  8
0
  6
CONTINUOUS
 62
     3
 10
-129.549991
 20
-54.3
 30
0.0
 11
-91.449991
 21
-54.3
 31
0.0
  0
LINE
  5
31B
  8
0
  6
CONTINUOUS
 62
     3
 10
-124.299991
 20
-74.0
 30
0.0
 11
-124.299991
 21
-57.7
 31
0.0
  0
LINE
  5
31C
  8
0
  6
CONTINUOUS
 62
     3
 10
-125.299991
 20
-73.0
 30
0.0
 11
-95.699991
 21
-73.0
 31
0.0
  0
LINE
  5
31D
  8
0
  6
CONTINUOUS
 62
     3
 10
-125.299991
 20
-73.0
 30
0.0
 11
-124.299991
 21
-74.0
 31
0.0
  0
LINE
  5
31E
  8
0
  6
CONTINUOUS
 62
     3
 10
-125.299991
 20
-73.0
 30
0.0
 11
-125.299991
 21
-54.3
 31
0.0
  0
LINE
  5
31F
  8
0
  6
CONTINUOUS
 62
     3
 10
-103.499991
 20
-35.0
 30
0.0
 11
-97.499991
 21
-35.0
 31
0.0
  0
LINE
  5
320
  8
0
  6
CENTER
 62
     4
 10
-110.499991
 20
-80.342752
 30
0.0
 11
-110.499991
 21
-47.04081
 31
0.0
  0
LINE
  5
321
  8
0
  6
CONTINUOUS
 62
     3
 10
-129.999991
 20
-25.98497
 30
0.0
 11
-128.499991
 21
-26.847388
 31
0.0
  0
LINE
  5
322
  8
0
  6
CONTINUOUS
 62
     3
 10
-128.499991
 20
-26.847388
 30
0.0
 11
-103.499991
 21
-26.847388
 31
0.0
  0
LINE
  5
323
  8
0
  6
CONTINUOUS
 62
     3
 10
-103.499991
 20
-20.00347
 30
0.0
 11
-90.499991
 21
-20.00347
 31
0.0
  0
LINE
  5
324
  8
0
  6
CONTINUOUS
 62
     3
 10
-103.499991
 20
-27.159225
 30
0.0
 11
-97.499991
 21
-27.159225
 31
0.0
  0
LINE
  5
325
  8
0
  6
CONTINUOUS
 62
     3
 10
-103.499991
 20
-33.523186
 30
0.0
 11
-97.499991
 21
-33.523186
 31
0.0
  0
LINE
  5
326
  8
0
  6
CONTINUOUS
 62
     3
 10
-97.499991
 20
-35.0
 30
0.0
 11
-97.499991
 21
50.0
 31
0.0
  0
LINE
  5
327
  8
0
  6
CONTINUOUS
 62
     3
 10
-129.999991
 20
-50.5
 30
0.0
 11
-129.999991
 21
37.5
 31
0.0
  0
LINE
  5
328
  8
0
  6
CONTINUOUS
 62
     3
 10
-103.499991
 20
47.5
 30
0.0
 11
-103.499991
 21
50.0
 31
0.0
  0
LINE
  5
329
  8
0
  6
CONTINUOUS
 62
     3
 10
-103.499991
 20
-35.0
 30
0.0
 11
-103.499991
 21
50.0
 31
0.0
  0
ARC
  5
32A
  8
0
  6
CONTINUOUS
 62
     3
 10
-99.999991
 20
37.5
 30
0.0
 40
30.0
 50
163.606197
 51
180.0
  0
LINE
  5
32B
  8
0
  6
CONTINUOUS
 62
     3
 10
-127.855882
 20
46.684284
 30
0.0
 11
-103.499991
 21
47.53481
 31
0.0
  0
ARC
  5
32C
  8
0
  6
CONTINUOUS
 62
     3
 10
-127.820982
 20
45.684893
 30
0.0
 40
1.0
 50
92.0
 51
163.606197
  0
LINE
  5
32D
  8
0
  6
CONTINUOUS
 62
     3
 10
-128.499991
 20
-50.5
 30
0.0
 11
-128.499991
 21
37.5
 31
0.0
  0
LINE
  5
32E
  8
0
  6
CONTINUOUS
 62
     3
 10
-128.499991
 20
-50.5
 30
0.0
 11
-128.499991
 21
46.419023
 31
0.0
  0
LINE
  5
32F
  8
0
  6
CONTINUOUS
 62
     3
 10
-103.499991
 20
35.003673
 30
0.0
 11
-90.499991
 21
35.003673
 31
0.0
  0
LINE
  5
330
  8
0
  6
CONTINUOUS
 62
     3
 10
-103.499991
 20
36.480386
 30
0.0
 11
-97.499991
 21
36.480386
 31
0.0
  0
LINE
  5
331
  8
0
  6
CONTINUOUS
 62
     3
 10
-103.499991
 20
42.844347
 30
0.0
 11
-97.499991
 21
42.844347
 31
0.0
  0
LINE
  5
332
  8
0
  6
CONTINUOUS
 62
     3
 10
-103.499991
 20
50.0
 30
0.0
 11
-90.499991
 21
50.0
 31
0.0
  0
LINE
  5
333
  8
0
  6
CONTINUOUS
 62
     3
 10
-90.499991
 20
-57.5
 30
0.0
 11
-90.499991
 21
72.5
 31
0.0
  0
LINE
  5
334
  8
0
  6
CONTINUOUS
 62
     3
 10
-90.499991
 20
-57.5
 30
0.0
 11
-90.499991
 21
72.5
 31
0.0
  0
LINE
  5
335
  8
0
  6
CONTINUOUS
 62
     3
 10
63.000009
 20
-102.5
 30
0.0
 11
63.000009
 21
117.5
 31
0.0
  0
LINE
  5
336
  8
0
  6
CONTINUOUS
 62
     3
 10
-35.999991
 20
-102.5
 30
0.0
 11
-35.999991
 21
117.5
 31
0.0
  0
ARC
  5
338
  8
0
  6
CONTINUOUS
 62
     3
 10
-34.000009
 20
-130.5
 30
0.0
 40
1.0
 50
180.0
 51
270.0
  0
ARC
  5
339
  8
0
  6
CONTINUOUS
 62
     3
 10
10.999991
 20
-130.5
 30
0.0
 40
1.0
 50
270.0
 51
0.0
  0
LINE
  5
33A
  8
0
  6
CONTINUOUS
 62
     3
 10
11.999991
 20
-130.5
 30
0.0
 11
11.999991
 21
-102.5
 31
0.0
  0
ARC
  5
33C
  8
0
  6
CENTER
 62
     4
 10
-278.500009
 20
7.597883
 30
0.0
 40
46.0
 50
35.51609
 51
44.041327
  0
LINE
  5
33D
  8
0
  6
CENTER
 62
     4
 10
-246.969915
 20
33.956991
 30
0.0
 11
-240.834045
 21
39.105598
 31
0.0
  0
LINE
  5
33E
  8
0
  6
CENTER
 62
     4
 10
-245.713316
 20
35.019332
 30
0.0
 11
-240.739763
 21
39.192639
 31
0.0
  0
LINE
  5
33F
  8
0
  6
CONTINUOUS
 62
     3
 10
-245.701677
 20
-24.61331
 30
0.0
 11
-243.155763
 21
-27.159225
 31
0.0
  0
LINE
  5
340
  8
0
  6
CONTINUOUS
 62
     3
 10
-246.386597
 20
40.298432
 30
0.0
 11
-243.840683
 21
42.844347
 31
0.0
  0
LINE
  5
341
  8
0
  6
CONTINUOUS
 62
     3
 10
-240.022636
 20
33.934471
 30
0.0
 11
-237.476722
 21
36.480386
 31
0.0
  0
ARC
  5
342
  8
0
  6
CONTINUOUS
 62
     3
 10
-243.204616
 20
37.116452
 30
0.0
 40
4.5
 50
135.0
 51
315.0
  0
LINE
  5
343
  8
0
  6
CONTINUOUS
 62
     3
 10
-236.000009
 20
-20.00347
 30
0.0
 11
-236.000009
 21
35.003673
 31
0.0
  0
LINE
  5
344
  8
0
  6
CONTINUOUS
 62
     3
 10
-247.759868
 20
-28.909172
 30
0.0
 11
-247.31158
 21
-27.236139
 31
0.0
  0
LINE
  5
345
  8
0
  6
CONTINUOUS
 62
     3
 10
-241.544727
 20
37.56164
 30
0.0
 11
-242.769472
 21
38.786385
 31
0.0
  0
LINE
  5
346
  8
0
  6
CONTINUOUS
 62
     3
 10
-242.769472
 20
38.786385
 30
0.0
 11
-244.442505
 21
38.338097
 31
0.0
  0
LINE
  5
347
  8
0
  6
CONTINUOUS
 62
     3
 10
-244.442505
 20
38.338097
 30
0.0
 11
-244.890792
 21
36.665065
 31
0.0
  0
LINE
  5
348
  8
0
  6
CONTINUOUS
 62
     3
 10
-244.890792
 20
36.665065
 30
0.0
 11
-243.666048
 21
35.44032
 31
0.0
  0
LINE
  5
349
  8
0
  6
CONTINUOUS
 62
     3
 10
-243.666048
 20
35.44032
 30
0.0
 11
-241.993015
 21
35.888607
 31
0.0
  0
CIRCLE
  5
34A
  8
0
  6
CONTINUOUS
 62
     3
 10
-243.21776
 20
37.113352
 30
0.0
 40
3.25
  0
CIRCLE
  5
34B
  8
0
  6
CONTINUOUS
 62
     3
 10
-243.21776
 20
37.113352
 30
0.0
 40
3.85
  0
LINE
  5
34C
  8
0
  6
CONTINUOUS
 62
     3
 10
-241.993015
 20
35.888607
 30
0.0
 11
-241.544727
 21
37.56164
 31
0.0
  0
LINE
  5
34D
  8
0
  6
CENTER
 62
     4
 10
-293.200009
 20
-40.293344
 30
0.0
 11
-293.200009
 21
-35.101341
 31
0.0
  0
LINE
  5
34E
  8
0
  6
CENTER
 62
     4
 10
-295.730854
 20
-38.009348
 30
0.0
 11
-291.018318
 21
-38.009348
 31
0.0
  0
LINE
  5
34F
  8
0
  6
CENTER
 62
     4
 10
-263.800009
 20
-40.293344
 30
0.0
 11
-263.800009
 21
-35.293128
 31
0.0
  0
LINE
  5
350
  8
0
  6
CENTER
 62
     4
 10
-266.387482
 20
-38.009348
 30
0.0
 11
-261.48316
 21
-38.009348
 31
0.0
  0
LINE
  5
351
  8
0
  6
CONTINUOUS
 62
     3
 10
-297.550009
 20
-54.309348
 30
0.0
 11
-297.550009
 21
-50.509348
 31
0.0
  0
LINE
  5
352
  8
0
  6
CONTINUOUS
 62
     3
 10
-259.450009
 20
-54.309348
 30
0.0
 11
-259.450009
 21
-50.509348
 31
0.0
  0
LINE
  5
353
  8
0
  6
CONTINUOUS
 62
     3
 10
-293.300009
 20
-72.609348
 30
0.0
 11
-293.300009
 21
-54.309348
 31
0.0
  0
LINE
  5
354
  8
0
  6
CONTINUOUS
 62
     3
 10
-263.700009
 20
-72.609348
 30
0.0
 11
-263.700009
 21
-54.309348
 31
0.0
  0
LINE
  5
355
  8
0
  6
CONTINUOUS
 62
     3
 10
-264.700009
 20
-73.609348
 30
0.0
 11
-264.700009
 21
-57.309348
 31
0.0
  0
LINE
  5
356
  8
0
  6
CONTINUOUS
 62
     3
 10
-292.300009
 20
-73.609348
 30
0.0
 11
-292.300009
 21
-57.309348
 31
0.0
  0
LINE
  5
357
  8
0
  6
CONTINUOUS
 62
     3
 10
-293.300009
 20
-57.309348
 30
0.0
 11
-263.700009
 21
-57.309348
 31
0.0
  0
LINE
  5
358
  8
0
  6
CONTINUOUS
 62
     3
 10
-292.300009
 20
-73.609348
 30
0.0
 11
-264.700009
 21
-73.609348
 31
0.0
  0
LINE
  5
359
  8
0
  6
CONTINUOUS
 62
     3
 10
-293.300009
 20
-72.609348
 30
0.0
 11
-292.300009
 21
-73.609348
 31
0.0
  0
LINE
  5
35A
  8
0
  6
CONTINUOUS
 62
     3
 10
-264.700009
 20
-73.609348
 30
0.0
 11
-263.700009
 21
-72.609348
 31
0.0
  0
LINE
  5
35B
  8
0
  6
CONTINUOUS
 62
     3
 10
-293.300009
 20
-72.609348
 30
0.0
 11
-292.300009
 21
-72.609348
 31
0.0
  0
LINE
  5
35C
  8
0
  6
CONTINUOUS
 62
     3
 10
-292.300009
 20
-72.609348
 30
0.0
 11
-263.700009
 21
-72.609348
 31
0.0
  0
LINE
  5
35D
  8
0
  6
CONTINUOUS
 62
     3
 10
-297.500009
 20
-54.309348
 30
0.0
 11
-259.500009
 21
-54.309348
 31
0.0
  0
LINE
  5
35E
  8
0
  6
CONTINUOUS
 62
     3
 10
-297.500009
 20
-51.509348
 30
0.0
 11
-259.500009
 21
-51.509348
 31
0.0
  0
LINE
  5
35F
  8
0
  6
DASHDOT
 62
     4
 10
-246.726006
 20
-30.37613
 30
0.0
 11
-250.815547
 21
-25.502405
 31
0.0
  0
LINE
  5
360
  8
0
  6
CENTER
 62
     4
 10
-311.250858
 20
-19.990574
 30
0.0
 11
-316.156708
 21
-24.107071
 31
0.0
  0
LINE
  5
361
  8
0
  6
DASHDOT
 62
     4
 10
-306.019239
 20
40.286794
 30
0.0
 11
-310.192546
 21
45.260347
 31
0.0
  0
ARC
  5
362
  8
0
  6
CENTER
 62
     4
 10
-278.500009
 20
7.597883
 30
0.0
 40
46.0
 50
125.462396
 51
134.054062
  0
LINE
  5
363
  8
0
  6
CENTER
 62
     4
 10
-304.956898
 20
39.030195
 30
0.0
 11
-310.105505
 21
45.166065
 31
0.0
  0
ARC
  5
364
  8
0
  6
CENTER
 62
     4
 10
-278.59779
 20
7.500101
 30
0.0
 40
46.0
 50
215.462396
 51
224.054062
  0
LINE
  5
365
  8
0
  6
CENTER
 62
     4
 10
-250.980778
 20
-25.286591
 30
0.0
 11
-246.807471
 21
-30.260144
 31
0.0
  0
LINE
  5
366
  8
0
  6
CONTINUOUS
 62
     3
 10
-251.690806
 20
50.009551
 30
0.0
 11
-251.671907
 21
49.990652
 31
0.0
  0
ARC
  5
367
  8
0
  6
CONTINUOUS
 62
     3
 10
-308.116359
 20
42.795493
 30
0.0
 40
4.5
 50
225.0
 51
45.0
  0
LINE
  5
368
  8
0
  6
CONTINUOUS
 62
     3
 10
-304.934379
 20
45.977474
 30
0.0
 11
-307.480293
 21
48.523388
 31
0.0
  0
LINE
  5
369
  8
0
  6
CONTINUOUS
 62
     3
 10
-311.29834
 20
39.613513
 30
0.0
 11
-313.844254
 21
42.159427
 31
0.0
  0
LINE
  5
36A
  8
0
  6
CONTINUOUS
 62
     3
 10
-310.61342
 20
-25.29823
 30
0.0
 11
-313.159334
 21
-27.844144
 31
0.0
  0
LINE
  5
36B
  8
0
  6
CONTINUOUS
 62
     3
 10
-316.977381
 20
-18.934269
 30
0.0
 11
-319.523296
 21
-21.480183
 31
0.0
  0
ARC
  5
36C
  8
0
  6
CONTINUOUS
 62
     3
 10
-313.795401
 20
-22.116249
 30
0.0
 40
4.5
 50
315.0
 51
135.0
  0
LINE
  5
36D
  8
0
  6
CONTINUOUS
 62
     3
 10
-252.065638
 20
-30.977271
 30
0.0
 11
-249.519724
 21
-33.523186
 31
0.0
  0
ARC
  5
36E
  8
0
  6
CONTINUOUS
 62
     3
 10
-248.883658
 20
-27.795291
 30
0.0
 40
4.5
 50
45.0
 51
225.0
  0
LINE
  5
36F
  8
0
  6
CONTINUOUS
 62
     3
 10
-306.013029
 20
49.990652
 30
0.0
 11
-250.986988
 21
49.990652
 31
0.0
  0
LINE
  5
370
  8
0
  6
CONTINUOUS
 62
     3
 10
-321.000009
 20
35.003673
 30
0.0
 11
-306.013029
 21
49.990652
 31
0.0
  0
LINE
  5
371
  8
0
  6
CONTINUOUS
 62
     3
 10
-251.005887
 20
-35.009348
 30
0.0
 11
-236.000009
 21
-20.00347
 31
0.0
  0
LINE
  5
372
  8
0
  6
CONTINUOUS
 62
     3
 10
-250.986988
 20
49.990652
 30
0.0
 11
-236.000009
 21
35.003673
 31
0.0
  0
LINE
  5
373
  8
0
  6
CONTINUOUS
 62
     3
 10
-321.000009
 20
-20.00347
 30
0.0
 11
-313.159334
 21
-27.844144
 31
0.0
  0
LINE
  5
374
  8
0
  6
CONTINUOUS
 62
     3
 10
-313.159334
 20
-27.844144
 30
0.0
 11
-305.99413
 21
-35.009348
 31
0.0
  0
LINE
  5
375
  8
0
  6
CONTINUOUS
 62
     3
 10
-321.000009
 20
-20.00347
 30
0.0
 11
-321.000009
 21
35.003673
 31
0.0
  0
LINE
  5
376
  8
0
  6
CONTINUOUS
 62
     3
 10
-299.000009
 20
-50.509348
 30
0.0
 11
-258.000009
 21
-50.509348
 31
0.0
  0
LINE
  5
377
  8
0
  6
CONTINUOUS
 62
     3
 10
-258.000009
 20
-50.509348
 30
0.0
 11
-258.000009
 21
-35.009348
 31
0.0
  0
LINE
  5
378
  8
0
  6
CONTINUOUS
 62
     3
 10
-259.500009
 20
-50.509348
 30
0.0
 11
-259.500009
 21
-35.009348
 31
0.0
  0
LINE
  5
379
  8
0
  6
CONTINUOUS
 62
     3
 10
-297.500009
 20
-50.509348
 30
0.0
 11
-297.500009
 21
-35.009348
 31
0.0
  0
LINE
  5
37A
  8
0
  6
CONTINUOUS
 62
     3
 10
-299.000009
 20
-50.509348
 30
0.0
 11
-299.000009
 21
-35.009348
 31
0.0
  0
LINE
  5
37B
  8
0
  6
CONTINUOUS
 62
     3
 10
-299.000009
 20
-35.009348
 30
0.0
 11
-299.000009
 21
-26.847388
 31
0.0
  0
LINE
  5
37C
  8
0
  6
CONTINUOUS
 62
     3
 10
-258.000009
 20
-35.009348
 30
0.0
 11
-258.000009
 21
-26.847388
 31
0.0
  0
ARC
  5
37D
  8
0
  6
CONTINUOUS
 62
     3
 10
-278.500009
 20
7.500101
 30
0.0
 40
40.0
 50
300.830497
 51
239.169503
  0
ARC
  5
37E
  8
0
  6
CONTINUOUS
 62
     3
 10
-278.500009
 20
7.500101
 30
0.0
 40
38.5
 50
299.571315
 51
240.428685
  0
LINE
  5
37F
  8
0
  6
CONTINUOUS
 62
     3
 10
-259.500009
 20
-35.009348
 30
0.0
 11
-259.500009
 21
-25.98497
 31
0.0
  0
LINE
  5
380
  8
0
  6
CONTINUOUS
 62
     3
 10
-297.500009
 20
-35.009348
 30
0.0
 11
-297.500009
 21
-25.98497
 31
0.0
  0
LINE
  5
381
  8
0
  6
CONTINUOUS
 62
     3
 10
-259.500009
 20
-50.509348
 30
0.0
 11
-259.500009
 21
-35.009348
 31
0.0
  0
LINE
  5
382
  8
0
  6
CONTINUOUS
 62
     3
 10
-297.500009
 20
-50.509348
 30
0.0
 11
-297.500009
 21
-35.009348
 31
0.0
  0
LINE
  5
383
  8
0
  6
CONTINUOUS
 62
     3
 10
-258.000009
 20
-35.009348
 30
0.0
 11
-251.005887
 21
-35.009348
 31
0.0
  0
LINE
  5
384
  8
0
  6
CONTINUOUS
 62
     3
 10
-305.99413
 20
-35.009348
 30
0.0
 11
-299.000009
 21
-35.009348
 31
0.0
  0
ARC
  5
385
  8
0
  6
CENTER
 62
     4
 10
-278.500009
 20
7.597883
 30
0.0
 40
46.0
 50
305.697212
 51
314.103517
  0
CIRCLE
  5
386
  8
0
  6
CONTINUOUS
 62
     3
 10
-293.200009
 20
-38.009348
 30
0.0
 40
2.0
  0
CIRCLE
  5
387
  8
0
  6
CONTINUOUS
 62
     3
 10
-263.800009
 20
-38.009348
 30
0.0
 40
2.0
  0
LINE
  5
389
  8
0
  6
CONTINUOUS
 62
     3
 10
-247.31158
 20
-27.236139
 30
0.0
 11
-248.536325
 21
-26.011395
 31
0.0
  0
LINE
  5
38A
  8
0
  6
CONTINUOUS
 62
     3
 10
-248.536325
 20
-26.011395
 30
0.0
 11
-250.209358
 21
-26.459682
 31
0.0
  0
LINE
  5
38B
  8
0
  6
CONTINUOUS
 62
     3
 10
-250.209358
 20
-26.459682
 30
0.0
 11
-250.657645
 21
-28.132715
 31
0.0
  0
LINE
  5
38C
  8
0
  6
CONTINUOUS
 62
     3
 10
-250.657645
 20
-28.132715
 30
0.0
 11
-249.4329
 21
-29.35746
 31
0.0
  0
LINE
  5
38D
  8
0
  6
CONTINUOUS
 62
     3
 10
-249.4329
 20
-29.35746
 30
0.0
 11
-247.759868
 21
-28.909172
 31
0.0
  0
CIRCLE
  5
38E
  8
0
  6
CONTINUOUS
 62
     3
 10
-248.984613
 20
-27.684427
 30
0.0
 40
3.25
  0
CIRCLE
  5
38F
  8
0
  6
CONTINUOUS
 62
     3
 10
-248.984613
 20
-27.684427
 30
0.0
 40
3.85
  0
LINE
  5
390
  8
0
  6
CONTINUOUS
 62
     3
 10
-312.117707
 20
-21.6735
 30
0.0
 11
-313.342452
 21
-20.448755
 31
0.0
  0
LINE
  5
391
  8
0
  6
CONTINUOUS
 62
     3
 10
-313.342452
 20
-20.448755
 30
0.0
 11
-315.015485
 21
-20.897043
 31
0.0
  0
LINE
  5
392
  8
0
  6
CONTINUOUS
 62
     3
 10
-315.015485
 20
-20.897043
 30
0.0
 11
-315.463772
 21
-22.570075
 31
0.0
  0
LINE
  5
393
  8
0
  6
CONTINUOUS
 62
     3
 10
-315.463772
 20
-22.570075
 30
0.0
 11
-314.239027
 21
-23.79482
 31
0.0
  0
LINE
  5
394
  8
0
  6
CONTINUOUS
 62
     3
 10
-314.239027
 20
-23.79482
 30
0.0
 11
-312.565995
 21
-23.346533
 31
0.0
  0
CIRCLE
  5
395
  8
0
  6
CONTINUOUS
 62
     3
 10
-313.79074
 20
-22.121788
 30
0.0
 40
3.25
  0
CIRCLE
  5
396
  8
0
  6
CONTINUOUS
 62
     3
 10
-313.79074
 20
-22.121788
 30
0.0
 40
3.85
  0
LINE
  5
397
  8
0
  6
CONTINUOUS
 62
     3
 10
-312.565995
 20
-23.346533
 30
0.0
 11
-312.117707
 21
-21.6735
 31
0.0
  0
LINE
  5
398
  8
0
  6
CONTINUOUS
 62
     3
 10
-306.447974
 20
43.23987
 30
0.0
 11
-307.672719
 21
44.464615
 31
0.0
  0
LINE
  5
399
  8
0
  6
CONTINUOUS
 62
     3
 10
-307.672719
 20
44.464615
 30
0.0
 11
-309.345751
 21
44.016327
 31
0.0
  0
LINE
  5
39A
  8
0
  6
CONTINUOUS
 62
     3
 10
-309.345751
 20
44.016327
 30
0.0
 11
-309.794039
 21
42.343295
 31
0.0
  0
LINE
  5
39B
  8
0
  6
CONTINUOUS
 62
     3
 10
-309.794039
 20
42.343295
 30
0.0
 11
-308.569294
 21
41.11855
 31
0.0
  0
LINE
  5
39C
  8
0
  6
CONTINUOUS
 62
     3
 10
-308.569294
 20
41.11855
 30
0.0
 11
-306.896262
 21
41.566838
 31
0.0
  0
CIRCLE
  5
39D
  8
0
  6
CONTINUOUS
 62
     3
 10
-308.121006
 20
42.791582
 30
0.0
 40
3.25
  0
CIRCLE
  5
39E
  8
0
  6
CONTINUOUS
 62
     3
 10
-308.121006
 20
42.791582
 30
0.0
 40
3.85
  0
LINE
  5
39F
  8
0
  6
CONTINUOUS
 62
     3
 10
-306.896262
 20
41.566838
 30
0.0
 11
-306.447974
 21
43.23987
 31
0.0
  0
LINE
  5
3A0
  8
0
  6
DASHDOT
 62
     4
 10
-278.500009
 20
-55.129647
 30
0.0
 11
-278.500009
 21
-69.487133
 31
0.0
  0
LINE
  5
3A8
  8
0
  6
CONTINUOUS
 62
     3
 10
337.699679
 20
-135.25
 30
0.0
 11
337.699679
 21
-131.5
 31
0.0
  0
LINE
  5
3A9
  8
0
  6
CONTINUOUS
 62
     3
 10
334.549679
 20
-153.88
 30
0.0
 11
334.549679
 21
-135.25
 31
0.0
  0
LINE
  5
3AA
  8
0
  6
CONTINUOUS
 62
     3
 10
333.699679
 20
-155.88
 30
0.0
 11
333.699679
 21
-140.0
 31
0.0
  0
LINE
  5
3AB
  8
0
  6
CONTINUOUS
 62
     3
 10
292.999991
 20
-131.5
 30
0.0
 11
337.999991
 21
-131.5
 31
0.0
  0
LINE
  5
3AC
  8
0
  6
CONTINUOUS
 62
     3
 10
293.299679
 20
-135.25
 30
0.0
 11
337.699679
 21
-135.25
 31
0.0
  0
LINE
  5
3AD
  8
0
  6
CONTINUOUS
 62
     3
 10
293.299679
 20
-135.25
 30
0.0
 11
293.299679
 21
-131.5
 31
0.0
  0
LINE
  5
3AE
  8
0
  6
CONTINUOUS
 62
     3
 10
293.299679
 20
-132.5
 30
0.0
 11
337.699679
 21
-132.5
 31
0.0
  0
LINE
  5
3AF
  8
0
  6
CONTINUOUS
 62
     3
 10
297.299679
 20
-155.88
 30
0.0
 11
333.699679
 21
-155.88
 31
0.0
  0
LINE
  5
3B0
  8
0
  6
CONTINUOUS
 62
     3
 10
297.299679
 20
-155.88
 30
0.0
 11
297.299679
 21
-140.0
 31
0.0
  0
LINE
  5
3B1
  8
0
  6
CONTINUOUS
 62
     3
 10
296.449679
 20
-140.0
 30
0.0
 11
334.549679
 21
-140.0
 31
0.0
  0
LINE
  5
3B2
  8
0
  6
CONTINUOUS
 62
     3
 10
296.449679
 20
-153.88
 30
0.0
 11
296.449679
 21
-135.25
 31
0.0
  0
LINE
  5
3B3
  8
0
  6
CONTINUOUS
 62
     3
 10
296.449679
 20
-153.88
 30
0.0
 11
334.549679
 21
-153.88
 31
0.0
  0
LINE
  5
3B4
  8
0
  6
CONTINUOUS
 62
     3
 10
-256.300389
 20
-135.25
 30
0.0
 11
-256.300389
 21
-131.5
 31
0.0
  0
LINE
  5
3B5
  8
0
  6
CONTINUOUS
 62
     3
 10
-259.450389
 20
-153.88
 30
0.0
 11
-259.450389
 21
-135.25
 31
0.0
  0
LINE
  5
3B6
  8
0
  6
CONTINUOUS
 62
     3
 10
-260.300389
 20
-155.88
 30
0.0
 11
-260.300389
 21
-140.0
 31
0.0
  0
LINE
  5
3B7
  8
0
  6
CONTINUOUS
 62
     3
 10
-300.700389
 20
-135.25
 30
0.0
 11
-256.300389
 21
-135.25
 31
0.0
  0
LINE
  5
3B8
  8
0
  6
CONTINUOUS
 62
     3
 10
-300.700389
 20
-135.25
 30
0.0
 11
-300.700389
 21
-131.5
 31
0.0
  0
LINE
  5
3B9
  8
0
  6
CONTINUOUS
 62
     3
 10
-300.700389
 20
-132.5
 30
0.0
 11
-256.300389
 21
-132.5
 31
0.0
  0
LINE
  5
3BA
  8
0
  6
CONTINUOUS
 62
     3
 10
-296.700389
 20
-155.88
 30
0.0
 11
-260.300389
 21
-155.88
 31
0.0
  0
LINE
  5
3BB
  8
0
  6
CONTINUOUS
 62
     3
 10
-296.700389
 20
-155.88
 30
0.0
 11
-296.700389
 21
-140.0
 31
0.0
  0
LINE
  5
3BC
  8
0
  6
CONTINUOUS
 62
     3
 10
-297.550389
 20
-140.0
 30
0.0
 11
-259.450389
 21
-140.0
 31
0.0
  0
LINE
  5
3BD
  8
0
  6
CONTINUOUS
 62
     3
 10
-297.550389
 20
-153.88
 30
0.0
 11
-297.550389
 21
-135.25
 31
0.0
  0
LINE
  5
3BE
  8
0
  6
CONTINUOUS
 62
     3
 10
-297.550389
 20
-153.88
 30
0.0
 11
-259.450389
 21
-153.88
 31
0.0
  0
LINE
  5
3BF
  8
0
  6
CONTINUOUS
 62
     3
 10
-30.550009
 20
-153.88
 30
0.0
 11
7.549991
 21
-153.88
 31
0.0
  0
LINE
  5
3C0
  8
0
  6
CONTINUOUS
 62
     3
 10
-30.550009
 20
-153.88
 30
0.0
 11
-30.550009
 21
-135.25
 31
0.0
  0
LINE
  5
3C1
  8
0
  6
CONTINUOUS
 62
     3
 10
7.549991
 20
-153.88
 30
0.0
 11
7.549991
 21
-135.25
 31
0.0
  0
LINE
  5
3C2
  8
0
  6
CONTINUOUS
 62
     3
 10
-29.700009
 20
-155.88
 30
0.0
 11
-29.700009
 21
-140.0
 31
0.0
  0
LINE
  5
3C3
  8
0
  6
CONTINUOUS
 62
     3
 10
6.699991
 20
-155.88
 30
0.0
 11
6.699991
 21
-140.0
 31
0.0
  0
LINE
  5
3C4
  8
0
  6
CONTINUOUS
 62
     3
 10
10.699991
 20
-135.25
 30
0.0
 11
10.699991
 21
-131.5
 31
0.0
  0
LINE
  5
3C5
  8
0
  6
CONTINUOUS
 62
     3
 10
-33.700009
 20
-135.25
 30
0.0
 11
-33.700009
 21
-131.5
 31
0.0
  0
LINE
  5
3C6
  8
0
  6
CONTINUOUS
 62
     3
 10
-30.550009
 20
-140.0
 30
0.0
 11
7.549991
 21
-140.0
 31
0.0
  0
LINE
  5
3C7
  8
0
  6
CONTINUOUS
 62
     3
 10
-29.700009
 20
-155.88
 30
0.0
 11
6.699991
 21
-155.88
 31
0.0
  0
LINE
  5
3C8
  8
0
  6
CONTINUOUS
 62
     3
 10
-33.700009
 20
-135.25
 30
0.0
 11
10.699991
 21
-135.25
 31
0.0
  0
LINE
  5
3C9
  8
0
  6
CONTINUOUS
 62
     3
 10
-33.700009
 20
-132.5
 30
0.0
 11
10.699991
 21
-132.5
 31
0.0
  0
ARC
  5
3CA
  8
0
  6
CONTINUOUS
 62
     3
 10
-300.500009
 20
-130.5
 30
0.0
 40
1.0
 50
180.0
 51
270.0
  0
ARC
  5
3CB
  8
0
  6
CONTINUOUS
 62
     3
 10
-256.500009
 20
-130.5
 30
0.0
 40
1.0
 50
270.0
 51
0.0
  0
LINE
  5
3CC
  8
0
  6
CONTINUOUS
 62
     3
 10
-301.500009
 20
-130.5
 30
0.0
 11
-301.500009
 21
-102.5
 31
0.0
  0
LINE
  5
3CD
  8
0
  6
CONTINUOUS
 62
     3
 10
-255.500009
 20
-130.5
 30
0.0
 11
-255.500009
 21
-102.5
 31
0.0
  0
LINE
  5
3CE
  8
0
  6
CONTINUOUS
 62
     3
 10
-300.500009
 20
-131.5
 30
0.0
 11
-256.500009
 21
-131.5
 31
0.0
  0
LINE
  5
3CF
  8
0
  6
CONTINUOUS
 62
     3
 10
-34.000009
 20
-131.5
 30
0.0
 11
10.999991
 21
-131.5
 31
0.0
  0
LINE
  5
3D0
  8
0
  6
CONTINUOUS
 62
     3
 10
-211.000009
 20
-75.0
 30
0.0
 11
-211.000009
 21
-99.5
 31
0.0
  0
ARC
  5
3D1
  8
0
  6
CONTINUOUS
 62
     3
 10
-214.000009
 20
-99.5
 30
0.0
 40
3.0
 50
270.0
 51
360.0
  0
ARC
  5
3D2
  8
0
  6
CONTINUOUS
 62
     3
 10
-278.500009
 20
7.5
 30
0.0
 40
135.0
 50
305.430945
 51
324.569055
  0
LINE
  5
3D3
  8
0
  6
CONTINUOUS
 62
     3
 10
-278.500009
 20
-102.5
 30
0.0
 11
-200.237629
 21
-102.5
 31
0.0
  0
LINE
  5
3D4
  8
0
  6
CONTINUOUS
 62
     3
 10
-196.000009
 20
-60.0
 30
0.0
 11
-173.959453
 21
-60.0
 31
0.0
  0
ARC
  5
3D5
  8
0
  6
CONTINUOUS
 62
     3
 10
-196.000009
 20
-75.0
 30
0.0
 40
15.0
 50
90.0
 51
180.0
  0
CIRCLE
  5
3D6
  8
0
  6
CONTINUOUS
 62
     3
 10
-195.414962
 20
-75.585047
 30
0.0
 40
6.75
  0
LINE
  5
3D7
  8
0
  6
CENTER
 62
     4
 10
-204.283071
 20
-66.716938
 30
0.0
 11
-186.827386
 21
-84.172623
 31
0.0
  0
ARC
  5
3D8
  8
0
  6
CENTER
 62
     4
 10
-278.500009
 20
7.5
 30
0.0
 40
117.5
 50
309.099851
 51
321.436128
  0
ARC
  5
3D9
  8
0
  6
CONTINUOUS
 62
     3
 10
-173.959453
 20
-57.0
 30
0.0
 40
3.0
 50
270.0
 51
355.632634
  0
LINE
  5
3DA
  8
0
  6
CONTINUOUS
 62
     3
 10
-168.500009
 20
7.5
 30
0.0
 11
-168.500009
 21
-70.762379
 31
0.0
  0
ARC
  5
3DB
  8
0
  6
CONTINUOUS
 62
     3
 10
-1018.500009
 20
7.5
 30
0.0
 40
850.0
 50
355.632634
 51
0.0
  0
LINE
  5
3DC
  8
0
  6
CONTINUOUS
 62
     3
 10
-211.000009
 20
90.0
 30
0.0
 11
-211.000009
 21
114.5
 31
0.0
  0
ARC
  5
3DD
  8
0
  6
CONTINUOUS
 62
     3
 10
-214.000009
 20
114.5
 30
0.0
 40
3.0
 50
360.0
 51
90.0
  0
LINE
  5
3DE
  8
0
  6
CONTINUOUS
 62
     3
 10
-168.500009
 20
7.5
 30
0.0
 11
-168.500009
 21
85.762379
 31
0.0
  0
ARC
  5
3DF
  8
0
  6
CONTINUOUS
 62
     3
 10
-1018.500009
 20
7.5
 30
0.0
 40
850.0
 50
0.0
 51
4.367366
  0
LINE
  5
3E0
  8
0
  6
CONTINUOUS
 62
     3
 10
-196.000009
 20
75.0
 30
0.0
 11
-173.959453
 21
75.0
 31
0.0
  0
ARC
  5
3E1
  8
0
  6
CONTINUOUS
 62
     3
 10
-173.959453
 20
72.0
 30
0.0
 40
3.0
 50
4.367366
 51
90.0
  0
ARC
  5
3E2
  8
0
  6
CONTINUOUS
 62
     3
 10
-278.500009
 20
7.5
 30
0.0
 40
135.0
 50
35.430945
 51
54.569055
  0
LINE
  5
3E3
  8
0
  6
CONTINUOUS
 62
     3
 10
-278.500009
 20
117.5
 30
0.0
 11
-200.237629
 21
117.5
 31
0.0
  0
ARC
  5
3E4
  8
0
  6
CONTINUOUS
 62
     3
 10
-196.000009
 20
90.0
 30
0.0
 40
15.0
 50
180.0
 51
270.0
  0
CIRCLE
  5
3E5
  8
0
  6
CONTINUOUS
 62
     3
 10
-195.414962
 20
90.585047
 30
0.0
 40
6.75
  0
LINE
  5
3E6
  8
0
  6
CENTER
 62
     4
 10
-204.283071
 20
81.716938
 30
0.0
 11
-186.827386
 21
99.172623
 31
0.0
  0
ARC
  5
3E7
  8
0
  6
CENTER
 62
     4
 10
-278.500009
 20
7.5
 30
0.0
 40
117.5
 50
38.563872
 51
50.900149
  0
CIRCLE
  5
3E8
  8
0
  6
CONTINUOUS
 62
     3
 10
315.499991
 20
7.5
 30
0.0
 40
100.0
  0
ARC
  5
3E9
  8
0
  6
CONTINUOUS
 62
     3
 10
315.499991
 20
7.5
 30
0.0
 40
135.0
 50
35.430945
 51
54.569055
  0
LINE
  5
3EA
  8
0
  6
CONTINUOUS
 62
     3
 10
425.499991
 20
85.762379
 30
0.0
 11
425.499991
 21
7.5
 31
0.0
  0
LINE
  5
3EB
  8
0
  6
CONTINUOUS
 62
     3
 10
315.499991
 20
117.5
 30
0.0
 11
393.762371
 21
117.5
 31
0.0
  0
CIRCLE
  5
3EC
  8
0
  6
CONTINUOUS
 62
     3
 10
398.585038
 20
90.585047
 30
0.0
 40
6.75
  0
ARC
  5
3ED
  8
0
  6
CENTER
 62
     4
 10
315.499991
 20
7.5
 30
0.0
 40
117.5
 50
35.587627
 51
50.961411
  0
LINE
  5
3EE
  8
0
  6
CENTER
 62
     4
 10
390.269703
 20
82.269712
 30
0.0
 11
406.135099
 21
98.135108
 31
0.0
  0
ARC
  5
3EF
  8
0
  6
CONTINUOUS
 62
     3
 10
315.499991
 20
7.5
 30
0.0
 40
135.0
 50
305.430945
 51
324.569055
  0
LINE
  5
3F0
  8
0
  6
CONTINUOUS
 62
     3
 10
393.762371
 20
-102.5
 30
0.0
 11
315.499991
 21
-102.5
 31
0.0
  0
LINE
  5
3F1
  8
0
  6
CONTINUOUS
 62
     3
 10
425.499991
 20
7.5
 30
0.0
 11
425.499991
 21
-70.762379
 31
0.0
  0
CIRCLE
  5
3F2
  8
0
  6
CONTINUOUS
 62
     3
 10
398.585038
 20
-75.585047
 30
0.0
 40
6.75
  0
ARC
  5
3F3
  8
0
  6
CENTER
 62
     4
 10
315.499991
 20
7.5
 30
0.0
 40
117.5
 50
308.950732
 51
320.961411
  0
LINE
  5
3F4
  8
0
  6
CENTER
 62
     4
 10
390.269703
 20
-67.269712
 30
0.0
 11
406.135099
 21
-83.135108
 31
0.0
  0
ARC
  5
3F5
  8
0
  6
CONTINUOUS
 62
     3
 10
315.499991
 20
7.5
 30
0.0
 40
135.0
 50
215.430945
 51
234.569055
  0
LINE
  5
3F6
  8
0
  6
CONTINUOUS
 62
     3
 10
205.499991
 20
-70.762379
 30
0.0
 11
205.499991
 21
7.5
 31
0.0
  0
LINE
  5
3F7
  8
0
  6
CONTINUOUS
 62
     3
 10
315.499991
 20
-102.5
 30
0.0
 11
237.237612
 21
-102.5
 31
0.0
  0
CIRCLE
  5
3F8
  8
0
  6
CONTINUOUS
 62
     3
 10
232.414945
 20
-75.585047
 30
0.0
 40
6.75
  0
ARC
  5
3F9
  8
0
  6
CENTER
 62
     4
 10
315.499991
 20
7.5
 30
0.0
 40
117.5
 50
216.074423
 51
230.961411
  0
LINE
  5
3FA
  8
0
  6
CENTER
 62
     4
 10
240.73028
 20
-67.269712
 30
0.0
 11
224.864884
 21
-83.135108
 31
0.0
  0
LINE
  5
3FB
  8
0
  6
CENTER
 62
     4
 10
240.73028
 20
82.269712
 30
0.0
 11
224.864884
 21
98.135108
 31
0.0
  0
CIRCLE
  5
3FC
  8
0
  6
CONTINUOUS
 62
     3
 10
232.414945
 20
90.585047
 30
0.0
 40
6.75
  0
ARC
  5
3FD
  8
0
  6
CENTER
 62
     4
 10
315.499991
 20
7.5
 30
0.0
 40
117.5
 50
128.950732
 51
140.961411
  0
ARC
  5
3FE
  8
0
  6
CONTINUOUS
 62
     3
 10
315.499991
 20
7.5
 30
0.0
 40
135.0
 50
125.430945
 51
144.569055
  0
LINE
  5
3FF
  8
0
  6
CONTINUOUS
 62
     3
 10
237.237612
 20
117.5
 30
0.0
 11
315.499991
 21
117.5
 31
0.0
  0
LINE
  5
400
  8
0
  6
CONTINUOUS
 62
     3
 10
205.499991
 20
7.5
 30
0.0
 11
205.499991
 21
85.762379
 31
0.0
  0
LINE
  5
401
  8
0
  6
CONTINUOUS
 62
     3
 10
79.000009
 20
-92.5
 30
0.0
 11
83.000009
 21
-92.5
 31
0.0
  0
LINE
  5
402
  8
0
  6
CONTINUOUS
 62
     3
 10
79.000009
 20
107.5
 30
0.0
 11
83.000009
 21
107.5
 31
0.0
  0
LINE
  5
403
  8
0
  6
CENTER
 62
     4
 10
-402.681477
 20
7.5
 30
0.0
 11
-160.130797
 21
7.5
 31
0.0
  0
LINE
  5
404
  8
0
  6
CONTINUOUS
 62
     3
 10
-35.999991
 20
52.5
 30
0.0
 11
61.000009
 21
52.5
 31
0.0
  0
LINE
  5
405
  8
0
  6
CONTINUOUS
 62
     3
 10
-35.999991
 20
47.5
 30
0.0
 11
61.000009
 21
47.5
 31
0.0
  0
LINE
  5
406
  8
0
  6
CONTINUOUS
 62
     3
 10
-35.999991
 20
42.5
 30
0.0
 11
61.000009
 21
42.5
 31
0.0
  0
LINE
  5
407
  8
0
  6
CONTINUOUS
 62
     3
 10
-35.999991
 20
37.5
 30
0.0
 11
61.000009
 21
37.5
 31
0.0
  0
LINE
  5
408
  8
0
  6
CONTINUOUS
 62
     3
 10
-35.999991
 20
-37.5
 30
0.0
 11
61.000009
 21
-37.5
 31
0.0
  0
LINE
  5
409
  8
0
  6
CONTINUOUS
 62
     3
 10
-35.999991
 20
-32.5
 30
0.0
 11
61.000009
 21
-32.5
 31
0.0
  0
LINE
  5
40A
  8
0
  6
CONTINUOUS
 62
     3
 10
-35.999991
 20
-27.5
 30
0.0
 11
61.000009
 21
-27.5
 31
0.0
  0
LINE
  5
40B
  8
0
  6
CONTINUOUS
 62
     3
 10
-90.499991
 20
-60.0
 30
0.0
 11
63.000009
 21
-60.0
 31
0.0
  0
LINE
  5
40C
  8
0
  6
CONTINUOUS
 62
     3
 10
-90.499991
 20
75.0
 30
0.0
 11
63.000009
 21
75.0
 31
0.0
  0
LINE
  5
40D
  8
0
  6
CONTINUOUS
 62
     3
 10
-90.499991
 20
-102.5
 30
0.0
 11
79.000009
 21
-102.5
 31
0.0
  0
LINE
  5
40E
  8
0
  6
CONTINUOUS
 62
     3
 10
-90.499991
 20
117.5
 30
0.0
 11
79.000009
 21
117.5
 31
0.0
  0
LINE
  5
40F
  8
0
  6
CONTINUOUS
 62
     3
 10
-389.200009
 20
19.5
 30
0.0
 11
-389.200009
 21
-4.5
 31
0.0
  0
LINE
  5
410
  8
0
  6
CONTINUOUS
 62
     3
 10
-388.500009
 20
-4.5
 30
0.0
 11
-389.200009
 21
-4.5
 31
0.0
  0
LINE
  5
411
  8
0
  6
CONTINUOUS
 62
     3
 10
-388.500009
 20
19.5
 30
0.0
 11
-389.200009
 21
19.5
 31
0.0
  0
LINE
  5
412
  8
0
  6
CONTINUOUS
 62
     3
 10
-346.000009
 20
-75.0
 30
0.0
 11
-346.000009
 21
-99.5
 31
0.0
  0
ARC
  5
413
  8
0
  6
CONTINUOUS
 62
     3
 10
-343.000009
 20
-99.5
 30
0.0
 40
3.0
 50
180.0
 51
270.0
  0
LINE
  5
414
  8
0
  6
CONTINUOUS
 62
     3
 10
-388.500009
 20
7.5
 30
0.0
 11
-388.500009
 21
-70.762379
 31
0.0
  0
ARC
  5
415
  8
0
  6
CONTINUOUS
 62
     3
 10
461.499991
 20
7.5
 30
0.0
 40
850.0
 50
180.0
 51
184.367366
  0
LINE
  5
416
  8
0
  6
CONTINUOUS
 62
     3
 10
-361.000009
 20
-60.0
 30
0.0
 11
-383.040564
 21
-60.0
 31
0.0
  0
ARC
  5
417
  8
0
  6
CONTINUOUS
 62
     3
 10
-383.040564
 20
-57.0
 30
0.0
 40
3.0
 50
184.367366
 51
270.0
  0
ARC
  5
418
  8
0
  6
CONTINUOUS
 62
     3
 10
-278.500009
 20
7.5
 30
0.0
 40
135.0
 50
215.430945
 51
234.569055
  0
LINE
  5
419
  8
0
  6
CONTINUOUS
 62
     3
 10
-278.500009
 20
-102.5
 30
0.0
 11
-356.762388
 21
-102.5
 31
0.0
  0
ARC
  5
41A
  8
0
  6
CONTINUOUS
 62
     3
 10
-361.000009
 20
-75.0
 30
0.0
 40
15.0
 50
0.0
 51
90.0
  0
CIRCLE
  5
41B
  8
0
  6
CONTINUOUS
 62
     3
 10
-361.585055
 20
-75.585047
 30
0.0
 40
6.75
  0
LINE
  5
41C
  8
0
  6
CENTER
 62
     4
 10
-352.716946
 20
-66.716938
 30
0.0
 11
-370.172631
 21
-84.172623
 31
0.0
  0
ARC
  5
41D
  8
0
  6
CENTER
 62
     4
 10
-278.500009
 20
7.5
 30
0.0
 40
117.5
 50
218.563872
 51
230.900149
  0
LINE
  5
41E
  8
0
  6
CONTINUOUS
 62
     3
 10
-388.500009
 20
7.5
 30
0.0
 11
-388.500009
 21
85.762379
 31
0.0
  0
ARC
  5
41F
  8
0
  6
CONTINUOUS
 62
     3
 10
461.499991
 20
7.5
 30
0.0
 40
850.0
 50
175.632634
 51
180.0
  0
LINE
  5
420
  8
0
  6
CONTINUOUS
 62
     3
 10
-361.000009
 20
75.0
 30
0.0
 11
-383.040564
 21
75.0
 31
0.0
  0
ARC
  5
421
  8
0
  6
CONTINUOUS
 62
     3
 10
-383.040564
 20
72.0
 30
0.0
 40
3.0
 50
90.0
 51
175.632634
  0
ARC
  5
422
  8
0
  6
CONTINUOUS
 62
     3
 10
-278.500009
 20
7.5
 30
0.0
 40
135.0
 50
125.430945
 51
144.569055
  0
LINE
  5
423
  8
0
  6
CONTINUOUS
 62
     3
 10
-278.500009
 20
117.5
 30
0.0
 11
-356.762388
 21
117.5
 31
0.0
  0
ARC
  5
424
  8
0
  6
CONTINUOUS
 62
     3
 10
-361.000009
 20
90.0
 30
0.0
 40
15.0
 50
270.0
 51
0.0
  0
LINE
  5
425
  8
0
  6
CONTINUOUS
 62
     3
 10
-346.000009
 20
90.0
 30
0.0
 11
-346.000009
 21
114.5
 31
0.0
  0
ARC
  5
426
  8
0
  6
CONTINUOUS
 62
     3
 10
-343.000009
 20
114.5
 30
0.0
 40
3.0
 50
90.0
 51
180.0
  0
CIRCLE
  5
427
  8
0
  6
CONTINUOUS
 62
     3
 10
-361.585055
 20
90.585047
 30
0.0
 40
6.75
  0
LINE
  5
428
  8
0
  6
CENTER
 62
     4
 10
-352.716946
 20
81.716938
 30
0.0
 11
-370.172631
 21
99.172623
 31
0.0
  0
ARC
  5
429
  8
0
  6
CENTER
 62
     4
 10
-278.500009
 20
7.5
 30
0.0
 40
117.5
 50
129.099851
 51
141.436128
  0
LINE
  5
42A
  8
0
  6
CENTER
 62
     4
 10
315.499991
 20
-163.112222
 30
0.0
 11
315.499991
 21
121.767587
 31
0.0
  0
LINE
  5
42B
  8
0
  6
CENTER
 62
     4
 10
-11.500009
 20
-165.0
 30
0.0
 11
-11.500009
 21
-122.5
 31
0.0
  0
LINE
  5
42C
  8
0
  6
CENTER
 62
     4
 10
-133.088694
 20
7.5
 30
0.0
 11
154.499991
 21
7.5
 31
0.0
  0
CIRCLE
  5
42D
  8
0
  6
CONTINUOUS
 62
     3
 10
347.319797
 20
-24.319805
 30
0.0
 40
7.5
  0
CIRCLE
  5
42E
  8
0
  6
CONTINUOUS
 62
     3
 10
347.319797
 20
-24.319805
 30
0.0
 40
4.25
  0
LINE
  5
42F
  8
0
  6
CONTINUOUS
 62
     3
 10
348.95279
 20
-25.952798
 30
0.0
 11
349.550507
 21
-23.722088
 31
0.0
  0
LINE
  5
430
  8
0
  6
CONTINUOUS
 62
     3
 10
346.72208
 20
-26.550515
 30
0.0
 11
348.95279
 21
-25.952798
 31
0.0
  0
LINE
  5
431
  8
0
  6
CONTINUOUS
 62
     3
 10
345.089086
 20
-24.917522
 30
0.0
 11
346.72208
 21
-26.550515
 31
0.0
  0
LINE
  5
432
  8
0
  6
CONTINUOUS
 62
     3
 10
345.686803
 20
-22.686812
 30
0.0
 11
345.089086
 21
-24.917522
 31
0.0
  0
LINE
  5
433
  8
0
  6
CONTINUOUS
 62
     3
 10
347.917514
 20
-22.089095
 30
0.0
 11
345.686803
 21
-22.686812
 31
0.0
  0
LINE
  5
434
  8
0
  6
CONTINUOUS
 62
     3
 10
349.550507
 20
-23.722088
 30
0.0
 11
347.917514
 21
-22.089095
 31
0.0
  0
ARC
  5
435
  8
0
  6
CENTER
 62
     4
 10
315.499991
 20
7.5
 30
0.0
 40
45.0
 50
302.582506
 51
326.994504
  0
LINE
  5
436
  8
0
  6
CENTER
 62
     4
 10
341.198477
 20
-18.198485
 30
0.0
 11
354.310522
 21
-31.310531
 31
0.0
  0
CIRCLE
  5
437
  8
0
  6
CONTINUOUS
 62
     3
 10
283.680186
 20
-24.319805
 30
0.0
 40
7.5
  0
CIRCLE
  5
438
  8
0
  6
CONTINUOUS
 62
     3
 10
283.680186
 20
-24.319805
 30
0.0
 40
4.25
  0
LINE
  5
439
  8
0
  6
CONTINUOUS
 62
     3
 10
282.047193
 20
-25.952798
 30
0.0
 11
284.277903
 21
-26.550515
 31
0.0
  0
LINE
  5
43A
  8
0
  6
CONTINUOUS
 62
     3
 10
281.449476
 20
-23.722088
 30
0.0
 11
282.047193
 21
-25.952798
 31
0.0
  0
LINE
  5
43B
  8
0
  6
CONTINUOUS
 62
     3
 10
283.082469
 20
-22.089095
 30
0.0
 11
281.449476
 21
-23.722088
 31
0.0
  0
LINE
  5
43C
  8
0
  6
CONTINUOUS
 62
     3
 10
285.313179
 20
-22.686812
 30
0.0
 11
283.082469
 21
-22.089095
 31
0.0
  0
LINE
  5
43D
  8
0
  6
CONTINUOUS
 62
     3
 10
285.910896
 20
-24.917522
 30
0.0
 11
285.313179
 21
-22.686812
 31
0.0
  0
LINE
  5
43E
  8
0
  6
CONTINUOUS
 62
     3
 10
284.277903
 20
-26.550515
 30
0.0
 11
285.910896
 21
-24.917522
 31
0.0
  0
ARC
  5
43F
  8
0
  6
CENTER
 62
     4
 10
315.499991
 20
7.5
 30
0.0
 40
45.0
 50
212.582506
 51
236.994504
  0
LINE
  5
440
  8
0
  6
CENTER
 62
     4
 10
289.801506
 20
-18.198485
 30
0.0
 11
276.689461
 21
-31.310531
 31
0.0
  0
CIRCLE
  5
441
  8
0
  6
CONTINUOUS
 62
     3
 10
283.680186
 20
39.319805
 30
0.0
 40
7.5
  0
CIRCLE
  5
442
  8
0
  6
CONTINUOUS
 62
     3
 10
283.680186
 20
39.319805
 30
0.0
 40
4.25
  0
LINE
  5
443
  8
0
  6
CONTINUOUS
 62
     3
 10
282.047193
 20
40.952798
 30
0.0
 11
281.449476
 21
38.722088
 31
0.0
  0
LINE
  5
444
  8
0
  6
CONTINUOUS
 62
     3
 10
284.277903
 20
41.550515
 30
0.0
 11
282.047193
 21
40.952798
 31
0.0
  0
LINE
  5
445
  8
0
  6
CONTINUOUS
 62
     3
 10
285.910896
 20
39.917522
 30
0.0
 11
284.277903
 21
41.550515
 31
0.0
  0
LINE
  5
446
  8
0
  6
CONTINUOUS
 62
     3
 10
285.313179
 20
37.686812
 30
0.0
 11
285.910896
 21
39.917522
 31
0.0
  0
LINE
  5
447
  8
0
  6
CONTINUOUS
 62
     3
 10
283.082469
 20
37.089095
 30
0.0
 11
285.313179
 21
37.686812
 31
0.0
  0
LINE
  5
448
  8
0
  6
CONTINUOUS
 62
     3
 10
281.449476
 20
38.722088
 30
0.0
 11
283.082469
 21
37.089095
 31
0.0
  0
ARC
  5
449
  8
0
  6
CENTER
 62
     4
 10
315.499991
 20
7.5
 30
0.0
 40
45.0
 50
122.582506
 51
146.994504
  0
LINE
  5
44A
  8
0
  6
CENTER
 62
     4
 10
289.801506
 20
33.198485
 30
0.0
 11
276.689461
 21
46.310531
 31
0.0
  0
LINE
  5
44B
  8
0
  6
CENTER
 62
     4
 10
341.198477
 20
33.198485
 30
0.0
 11
354.310522
 21
46.310531
 31
0.0
  0
ARC
  5
44C
  8
0
  6
CENTER
 62
     4
 10
315.499991
 20
7.5
 30
0.0
 40
45.0
 50
32.582506
 51
56.994504
  0
LINE
  5
44D
  8
0
  6
CONTINUOUS
 62
     3
 10
348.95279
 20
40.952798
 30
0.0
 11
346.72208
 21
41.550515
 31
0.0
  0
LINE
  5
44E
  8
0
  6
CONTINUOUS
 62
     3
 10
345.686803
 20
37.686812
 30
0.0
 11
347.917514
 21
37.089095
 31
0.0
  0
LINE
  5
44F
  8
0
  6
CONTINUOUS
 62
     3
 10
349.550507
 20
38.722088
 30
0.0
 11
348.95279
 21
40.952798
 31
0.0
  0
LINE
  5
450
  8
0
  6
CONTINUOUS
 62
     3
 10
345.089086
 20
39.917522
 30
0.0
 11
345.686803
 21
37.686812
 31
0.0
  0
LINE
  5
451
  8
0
  6
CONTINUOUS
 62
     3
 10
347.917514
 20
37.089095
 30
0.0
 11
349.550507
 21
38.722088
 31
0.0
  0
LINE
  5
452
  8
0
  6
CONTINUOUS
 62
     3
 10
346.72208
 20
41.550515
 30
0.0
 11
345.089086
 21
39.917522
 31
0.0
  0
CIRCLE
  5
453
  8
0
  6
CONTINUOUS
 62
     3
 10
347.319797
 20
39.319805
 30
0.0
 40
4.25
  0
CIRCLE
  5
454
  8
0
  6
CONTINUOUS
 62
     3
 10
347.319797
 20
39.319805
 30
0.0
 40
7.5
  0
CIRCLE
  5
455
  8
0
  6
CONTINUOUS
 62
     3
 10
315.499991
 20
7.5
 30
0.0
 40
54.0
  0
LINE
  5
456
  8
0
  6
CONTINUOUS
 62
     3
 10
-35.999991
 20
-22.5
 30
0.0
 11
61.000009
 21
-22.5
 31
0.0
  0
LINE
  5
457
  8
0
  6
CONTINUOUS
 62
     3
 10
83.000009
 20
-12.5
 30
0.0
 11
84.000009
 21
-12.5
 31
0.0
  0
LINE
  5
458
  8
0
  6
CENTER
 62
     4
 10
195.499991
 20
7.5
 30
0.0
 11
435.499991
 21
7.5
 31
0.0
  0
LINE
  5
459
  8
0
  6
CONTINUOUS
 62
     3
 10
84.000009
 20
-12.5
 30
0.0
 11
84.000009
 21
27.5
 31
0.0
  0
LINE
  5
45A
  8
0
  6
CONTINUOUS
 62
     3
 10
83.000009
 20
27.5
 30
0.0
 11
84.000009
 21
27.5
 31
0.0
  0
CIRCLE
  5
45C
  8
0
  6
CONTINUOUS
 62
     3
 10
315.499991
 20
7.5
 30
0.0
 40
30.0
  0
LINE
  5
45D
  8
0
  6
CONTINUOUS
 62
     3
 10
61.000009
 20
-102.5
 30
0.0
 11
61.000009
 21
117.5
 31
0.0
  0
LINE
  5
45E
  8
0
  6
CONTINUOUS
 62
     3
 10
79.000009
 20
-102.5
 30
0.0
 11
79.000009
 21
117.5
 31
0.0
  0
LINE
  5
45F
  8
0
  6
CONTINUOUS
 62
     3
 10
-90.499991
 20
-114.5
 30
0.0
 11
-90.499991
 21
-102.5
 31
0.0
  0
LINE
  5
460
  8
0
  6
CONTINUOUS
 62
     3
 10
79.000009
 20
30.5
 30
0.0
 11
79.000009
 21
95.5
 31
0.0
  0
LINE
  5
46E
  8
0
  6
CENTER
 62
     4
 10
-95.547372
 20
-7.607231
 30
0.0
 11
143.423424
 21
-7.607231
 31
0.0
  0
LINE
  5
46F
  8
0
  6
CONTINUOUS
 62
     3
 10
79.000009
 20
-80.5
 30
0.0
 11
79.000009
 21
-15.5
 31
0.0
  0
TEXT
  5
488
  8
1
  6
CONTINUOUS
 62
     4
 10
-111.558563
 20
-100.251633
 30
0.0
 40
2.8
  1
 
 50
0.000003
 41
0.598571
  7
STANDARD1
  0
TEXT
  5
4CA
  8
1
  6
CONTINUOUS
 62
     4
 10
48.461361
 20
131.513916
 30
0.0
 40
3.2
  1
Ѓ@
 50
0.000003
 41
0.713542
  7
STANDARD1
  0
POINT
  5
5D1
  8
1
  6
CONTINUOUS
 62
     3
 10
-15.686185
 20
-7.392769
 30
0.0
  0
TEXT
  5
5E2
  8
1
  6
CONTINUOUS
 62
     4
 10
82.850807
 20
-102.259972
 30
0.0
 40
2.8
  1
 
 50
0.000003
 41
0.598571
  7
STANDARD1
  0
TEXT
  5
75B
  8
0
  6
CONTINUOUS
 62
     0
 10
-422.79289
 20
197.960948
 30
0.0
 40
10.0
  1
HC-UF502B
  7
STANDARD1
  0
LINE
  5
7D6
  8
0
  6
CONTINUOUS
 62
     3
 10
-35.000009
 20
-130.5
 30
0.0
 11
-35.000009
 21
-102.5
 31
0.0
  0
LINE
  5
7E6
  8
0
  6
CONTINUOUS
 62
     3
 10
144.000009
 20
-10.0
 30
0.0
 11
144.000009
 21
25.0
 31
0.0
  0
LINE
  5
802
  8
0
  6
CONTINUOUS
 62
     3
 10
144.000009
 20
-10.0
 30
0.0
 11
144.000009
 21
25.0
 31
0.0
  0
LINE
  5
8A2
  8
0
  6
CENTER
 62
     4
 10
-93.56886
 20
-89.58556
 30
0.0
 11
-72.739279
 21
-89.58556
 31
0.0
  0
LINE
  5
8A3
  8
0
  6
CENTER
 62
     4
 10
-62.220284
 20
104.591477
 30
0.0
 11
-43.782576
 21
104.591477
 31
0.0
  0
LINE
  5
8A4
  8
0
  6
CENTER
 62
     4
 10
-92.434335
 20
63.5
 30
0.0
 11
-72.450239
 21
63.5
 31
0.0
  0
ENDSEC
  0
EOF
