  0
SECTION
  2
HEADER
  9
$ACADVER
  1
AC1012
  9
$DWGCODEPAGE
  3
dos932
  9
$INSBASE
 10
-964.871309
 20
575.338724
 30
0.0
  9
$EXTMIN
 10
0.0
 20
0.0
 30
0.0
  9
$EXTMAX
 10
442.831803
 20
248.0
 30
0.0
  9
$LIMMIN
 10
0.0
 20
0.0
  9
$LIMMAX
 10
420.0
 20
297.0
  9
$ORTHOMODE
 70
     1
  9
$REGENMODE
 70
     1
  9
$FILLMODE
 70
     1
  9
$QTEXTMODE
 70
     0
  9
$MIRRTEXT
 70
     1
  9
$DRAGMODE
 70
     2
  9
$LTSCALE
 40
1.0
  9
$OSMODE
 70
    39
  9
$ATTMODE
 70
     1
  9
$TEXTSIZE
 40
2.5
  9
$TRACEWID
 40
1.0
  9
$TEXTSTYLE
  7
STANDARD
  9
$CLAYER
  8
16
  9
$CELTYPE
  6
BYLAYER
  9
$CECOLOR
 62
   256
  9
$CELTSCALE
 40
1.0
  9
$DELOBJ
 70
     1
  9
$DISPSILH
 70
     0
  9
$DIMSCALE
 40
1.0
  9
$DIMASZ
 40
2.5
  9
$DIMEXO
 40
0.625
  9
$DIMDLI
 40
3.75
  9
$DIMRND
 40
0.0
  9
$DIMDLE
 40
0.0
  9
$DIMEXE
 40
1.25
  9
$DIMTP
 40
0.0
  9
$DIMTM
 40
0.0
  9
$DIMTXT
 40
2.5
  9
$DIMCEN
 40
2.5
  9
$DIMTSZ
 40
0.0
  9
$DIMTOL
 70
     0
  9
$DIMLIM
 70
     0
  9
$DIMTIH
 70
     0
  9
$DIMTOH
 70
     0
  9
$DIMSE1
 70
     0
  9
$DIMSE2
 70
     0
  9
$DIMTAD
 70
     1
  9
$DIMZIN
 70
     8
  9
$DIMBLK
  1

  9
$DIMASO
 70
     1
  9
$DIMSHO
 70
     1
  9
$DIMPOST
  1

  9
$DIMAPOST
  1

  9
$DIMALT
 70
     0
  9
$DIMALTD
 70
     4
  9
$DIMALTF
 40
0.0394
  9
$DIMLFAC
 40
1.0
  9
$DIMTOFL
 70
     1
  9
$DIMTVP
 40
0.0
  9
$DIMTIX
 70
     0
  9
$DIMSOXD
 70
     0
  9
$DIMSAH
 70
     0
  9
$DIMBLK1
  1

  9
$DIMBLK2
  1

  9
$DIMSTYLE
  2
STANDARD
  9
$DIMCLRD
 70
   256
  9
$DIMCLRE
 70
   256
  9
$DIMCLRT
 70
   256
  9
$DIMTFAC
 40
1.0
  9
$DIMGAP
 40
0.625
  9
$DIMJUST
 70
     0
  9
$DIMSD1
 70
     0
  9
$DIMSD2
 70
     0
  9
$DIMTOLJ
 70
     1
  9
$DIMTZIN
 70
     0
  9
$DIMALTZ
 70
     0
  9
$DIMALTTZ
 70
     0
  9
$DIMFIT
 70
     0
  9
$DIMUPT
 70
     0
  9
$DIMUNIT
 70
     8
  9
$DIMDEC
 70
     4
  9
$DIMTDEC
 70
     4
  9
$DIMALTU
 70
     8
  9
$DIMALTTD
 70
     4
  9
$DIMTXSTY
  7
STANDARD
  9
$DIMAUNIT
 70
     1
  9
$LUNITS
 70
     2
  9
$LUPREC
 70
     4
  9
$SKETCHINC
 40
1.0
  9
$FILLETRAD
 40
10.0
  9
$AUNITS
 70
     0
  9
$AUPREC
 70
     0
  9
$MENU
  1
acad
  9
$ELEVATION
 40
0.0
  9
$PELEVATION
 40
0.0
  9
$THICKNESS
 40
0.0
  9
$LIMCHECK
 70
     0
  9
$BLIPMODE
 70
     0
  9
$CHAMFERA
 40
0.0
  9
$CHAMFERB
 40
0.0
  9
$CHAMFERC
 40
20.0
  9
$CHAMFERD
 40
0.0
  9
$SKPOLY
 70
     0
  9
$TDCREATE
 40
2451661.477957870
  9
$TDUPDATE
 40
2451663.646784491
  9
$TDINDWG
 40
0.6013469907
  9
$TDUSRTIMER
 40
0.6013469907
  9
$USRTIMER
 70
     1
  9
$ANGBASE
 50
0.0
  9
$ANGDIR
 70
     0
  9
$PDMODE
 70
     0
  9
$PDSIZE
 40
0.0
  9
$PLINEWID
 40
0.0
  9
$COORDS
 70
     2
  9
$SPLFRAME
 70
     0
  9
$SPLINETYPE
 70
     6
  9
$SPLINESEGS
 70
     8
  9
$ATTDIA
 70
     0
  9
$ATTREQ
 70
     1
  9
$HANDLING
 70
     1
  9
$HANDSEED
  5
2B7
  9
$SURFTAB1
 70
     6
  9
$SURFTAB2
 70
     6
  9
$SURFTYPE
 70
     6
  9
$SURFU
 70
     6
  9
$SURFV
 70
     6
  9
$UCSNAME
  2

  9
$UCSORG
 10
0.0
 20
0.0
 30
0.0
  9
$UCSXDIR
 10
1.0
 20
0.0
 30
0.0
  9
$UCSYDIR
 10
0.0
 20
1.0
 30
0.0
  9
$PUCSNAME
  2

  9
$PUCSORG
 10
0.0
 20
0.0
 30
0.0
  9
$PUCSXDIR
 10
1.0
 20
0.0
 30
0.0
  9
$PUCSYDIR
 10
0.0
 20
1.0
 30
0.0
  9
$USERI1
 70
     0
  9
$USERI2
 70
     0
  9
$USERI3
 70
     0
  9
$USERI4
 70
     0
  9
$USERI5
 70
     0
  9
$USERR1
 40
0.0
  9
$USERR2
 40
0.0
  9
$USERR3
 40
0.0
  9
$USERR4
 40
0.0
  9
$USERR5
 40
0.0
  9
$WORLDVIEW
 70
     1
  9
$SHADEDGE
 70
     3
  9
$SHADEDIF
 70
    70
  9
$TILEMODE
 70
     1
  9
$MAXACTVP
 70
    48
  9
$PINSBASE
 10
0.0
 20
0.0
 30
0.0
  9
$PLIMCHECK
 70
     0
  9
$PEXTMIN
 10
1.000000E+20
 20
1.000000E+20
 30
1.000000E+20
  9
$PEXTMAX
 10
-1.000000E+20
 20
-1.000000E+20
 30
-1.000000E+20
  9
$PLIMMIN
 10
0.0
 20
0.0
  9
$PLIMMAX
 10
420.0
 20
297.0
  9
$UNITMODE
 70
     0
  9
$VISRETAIN
 70
     1
  9
$PLINEGEN
 70
     0
  9
$PSLTSCALE
 70
     1
  9
$TREEDEPTH
 70
  3020
  9
$PICKSTYLE
 70
     1
  9
$CMLSTYLE
  2
STANDARD
  9
$CMLJUST
 70
     0
  9
$CMLSCALE
 40
20.0
  9
$SAVEIMAGES
 70
     1
  0
ENDSEC
  0
SECTION
  2
CLASSES
  0
ENDSEC
  0
SECTION
  2
TABLES
  0
TABLE
  2
VPORT
  5
12
100
AcDbSymbolTable
 70
     2
  0
VPORT
  5
2B6
100
AcDbSymbolTableRecord
100
AcDbViewportTableRecord
  2
*ACTIVE
 70
     0
 10
0.0
 20
0.0
 11
1.0
 21
1.0
 12
221.415901
 22
148.5
 13
0.0
 23
0.0
 14
10.0
 24
10.0
 15
10.0
 25
10.0
 16
0.0
 26
0.0
 36
1.0
 17
0.0
 27
0.0
 37
0.0
 40
299.267176
 41
1.556688
 42
50.0
 43
0.0
 44
0.0
 50
0.0
 51
0.0
 71
     0
 72
   100
 73
     1
 74
     0
 75
     0
 76
     0
 77
     0
 78
     0
  0
ENDTAB
  0
TABLE
  2
LTYPE
  5
D
100
AcDbSymbolTable
 70
     3
  0
LTYPE
  5
E
100
AcDbSymbolTableRecord
100
AcDbLinetypeTableRecord
  2
BYBLOCK
 70
     0
  3

 72
    65
 73
     0
 40
0.0
  0
LTYPE
  5
F
100
AcDbSymbolTableRecord
100
AcDbLinetypeTableRecord
  2
BYLAYER
 70
     0
  3

 72
    65
 73
     0
 40
0.0
  0
LTYPE
  5
5
100
AcDbSymbolTableRecord
100
AcDbLinetypeTableRecord
  2
CONTINUOUS
 70
     0
  3
Solid line
 72
    65
 73
     0
 40
0.0
  0
LTYPE
  5
1C
100
AcDbSymbolTableRecord
100
AcDbLinetypeTableRecord
  2
CENTER
 70
     0
  3
Center ____ _ ____ _ ____ _ ____ _ ____ _ ____
 72
    65
 73
     4
 40
50.8
 49
31.75
 74
     0
 49
-6.35
 74
     0
 49
6.35
 74
     0
 49
-6.35
 74
     0
  0
LTYPE
  5
22
100
AcDbSymbolTableRecord
100
AcDbLinetypeTableRecord
  2
PHANTOM
 70
     0
  3
Phantom ______  __  __  ______  __  __  ______
 72
    65
 73
     6
 40
63.5
 49
31.75
 74
     0
 49
-6.35
 74
     0
 49
6.35
 74
     0
 49
-6.35
 74
     0
 49
6.35
 74
     0
 49
-6.35
 74
     0
  0
ENDTAB
  0
TABLE
  2
LAYER
  5
A
100
AcDbSymbolTable
 70
     8
  0
LAYER
  5
4
100
AcDbSymbolTableRecord
100
AcDbLayerTableRecord
  2
0
 70
     0
 62
     7
  6
CONTINUOUS
  0
LAYER
  5
28
100
AcDbSymbolTableRecord
100
AcDbLayerTableRecord
  2
10
 70
     0
 62
     3
  6
CONTINUOUS
  0
LAYER
  5
1FA
100
AcDbSymbolTableRecord
100
AcDbLayerTableRecord
  2
11
 70
     0
 62
     2
  6
CONTINUOUS
  0
LAYER
  5
7B
100
AcDbSymbolTableRecord
100
AcDbLayerTableRecord
  2
12
 70
     0
 62
     7
  6
CONTINUOUS
  0
LAYER
  5
1B
100
AcDbSymbolTableRecord
100
AcDbLayerTableRecord
  2
16
 70
     0
 62
     7
  6
CENTER
  0
LAYER
  5
5B
100
AcDbSymbolTableRecord
100
AcDbLayerTableRecord
  2
17
 70
     0
 62
     6
  6
CENTER
  0
LAYER
  5
21
100
AcDbSymbolTableRecord
100
AcDbLayerTableRecord
  2
18
 70
     0
 62
     1
  6
PHANTOM
  0
LAYER
  5
E2
100
AcDbSymbolTableRecord
100
AcDbLayerTableRecord
  2
19
 70
     0
 62
     2
  6
CONTINUOUS
  0
ENDTAB
  0
TABLE
  2
STYLE
  5
B
100
AcDbSymbolTable
 70
     2
  0
STYLE
  5
C
100
AcDbSymbolTableRecord
100
AcDbTextStyleTableRecord
  2
STANDARD
 70
     0
 40
0.0
 41
1.0
 50
0.0
 71
     0
 42
2.5
  3
txt
  4

  0
STYLE
  5
E3
100
AcDbSymbolTableRecord
100
AcDbTextStyleTableRecord
  2
STANDARD1
 70
     0
 40
0.0
 41
1.0
 50
0.0
 71
     0
 42
3.0
  3
MONOTXT
  4
BIGFONT
  0
ENDTAB
  0
TABLE
  2
VIEW
  5
10
100
AcDbSymbolTable
 70
     0
  0
ENDTAB
  0
TABLE
  2
UCS
  5
11
100
AcDbSymbolTable
 70
     0
  0
ENDTAB
  0
TABLE
  2
APPID
  5
14
100
AcDbSymbolTable
 70
     1
  0
APPID
  5
15
100
AcDbSymbolTableRecord
100
AcDbRegAppTableRecord
  2
ACAD
 70
     0
  0
ENDTAB
  0
TABLE
  2
DIMSTYLE
  5
16
100
AcDbSymbolTable
 70
     1
  0
DIMSTYLE
105
1E
100
AcDbSymbolTableRecord
100
AcDbDimStyleTableRecord
  2
STANDARD
 70
     0
  3

  4

  5

  6

  7

 40
1.0
 41
2.5
 42
0.625
 43
3.75
 44
1.25
 45
0.0
 46
0.0
 47
0.0
 48
0.0
140
2.5
141
2.5
142
0.0
143
0.0394
144
1.0
145
0.0
146
1.0
147
0.625
 71
     0
 72
     0
 73
     0
 74
     0
 75
     0
 76
     0
 77
     1
 78
     8
170
     0
171
     4
172
     1
173
     0
174
     0
175
     0
176
   256
177
   256
178
   256
270
     8
271
     4
272
     4
273
     8
274
     4
340
C
275
     1
280
     0
281
     0
282
     0
283
     1
284
     0
285
     0
286
     0
287
     0
288
     0
  0
ENDTAB
  0
TABLE
  2
BLOCK_RECORD
  5
1
100
AcDbSymbolTable
 70
     0
  0
BLOCK_RECORD
  5
2
100
AcDbSymbolTableRecord
100
AcDbBlockTableRecord
  2
*MODEL_SPACE
  0
BLOCK_RECORD
  5
7
100
AcDbSymbolTableRecord
100
AcDbBlockTableRecord
  2
*PAPER_SPACE
  0
ENDTAB
  0
ENDSEC
  0
SECTION
  2
BLOCKS
  0
BLOCK
  5
3
100
AcDbEntity
  8
0
100
AcDbBlockBegin
  2
*MODEL_SPACE
 70
     0
 10
0.0
 20
0.0
 30
0.0
  3
*MODEL_SPACE
  1

  0
ENDBLK
  5
6
100
AcDbEntity
  8
0
100
AcDbBlockEnd
  0
BLOCK
  5
8
100
AcDbEntity
 67
     1
  8
0
100
AcDbBlockBegin
  2
*PAPER_SPACE
 70
     0
 10
0.0
 20
0.0
 30
0.0
  3
*PAPER_SPACE
  1

  0
ENDBLK
  5
9
100
AcDbEntity
 67
     1
  8
0
100
AcDbBlockEnd
  0
ENDSEC
  0
SECTION
  2
ENTITIES
  0
LINE
  5
1F
100
AcDbEntity
  8
16
100
AcDbLine
 10
45.0
 20
228.351934
 30
0.0
 11
45.0
 21
14.981042
 31
0.0
  0
LINE
  5
20
100
AcDbEntity
  8
18
100
AcDbLine
 10
90.0
 20
248.0
 30
0.0
 11
90.0
 21
0.0
 31
0.0
  0
LINE
  5
23
100
AcDbEntity
  8
18
100
AcDbLine
 10
0.0
 20
248.0
 30
0.0
 11
0.0
 21
0.0
 31
0.0
  0
LINE
  5
24
100
AcDbEntity
  8
18
100
AcDbLine
 10
120.0
 20
248.0
 30
0.0
 11
120.0
 21
0.0
 31
0.0
  0
LINE
  5
25
100
AcDbEntity
  8
18
100
AcDbLine
 10
325.0
 20
248.0
 30
0.0
 11
325.0
 21
0.0
 31
0.0
  0
LINE
  5
26
100
AcDbEntity
  8
18
100
AcDbLine
 10
0.0
 20
0.0
 30
0.0
 11
90.0
 21
0.0
 31
0.0
  0
LINE
  5
27
100
AcDbEntity
  8
10
100
AcDbLine
 10
10.8
 20
208.0
 30
0.0
 11
30.8
 21
208.0
 31
0.0
  0
LINE
  5
29
100
AcDbEntity
  8
10
100
AcDbLine
 10
10.8
 20
40.0
 30
0.0
 11
27.0
 21
40.0
 31
0.0
  0
LINE
  5
2A
100
AcDbEntity
  8
10
100
AcDbLine
 10
10.8
 20
49.0
 30
0.0
 11
79.2
 21
49.0
 31
0.0
  0
LINE
  5
2B
100
AcDbEntity
  8
10
100
AcDbLine
 10
10.0
 20
207.2
 30
0.0
 11
10.0
 21
40.8
 31
0.0
  0
ARC
  5
2C
100
AcDbEntity
  8
10
100
AcDbCircle
 10
10.8
 20
40.8
 30
0.0
 40
0.8
100
AcDbArc
 50
180.0
 51
270.0
  0
ARC
  5
2D
100
AcDbEntity
  8
10
100
AcDbCircle
 10
10.8
 20
49.8
 30
0.0
 40
0.8
100
AcDbArc
 50
180.0
 51
270.0
  0
ARC
  5
2E
100
AcDbEntity
  8
10
100
AcDbCircle
 10
10.8
 20
207.2
 30
0.0
 40
0.8
100
AcDbArc
 50
90.0
 51
180.0
  0
LINE
  5
2F
100
AcDbEntity
  8
10
100
AcDbLine
 10
80.0
 20
167.5
 30
0.0
 11
80.0
 21
40.8
 31
0.0
  0
LINE
  5
30
100
AcDbEntity
  8
10
100
AcDbLine
 10
30.0
 20
85.0
 30
0.0
 11
30.0
 21
49.8
 31
0.0
  0
LINE
  5
31
100
AcDbEntity
  8
10
100
AcDbLine
 10
29.5
 20
208.0
 30
0.0
 11
29.5
 21
49.0
 31
0.0
  0
LINE
  5
32
100
AcDbEntity
  8
10
100
AcDbLine
 10
195.5
 20
82.0
 30
0.0
 11
195.5
 21
49.0
 31
0.0
  0
LINE
  5
33
100
AcDbEntity
  8
10
100
AcDbLine
 10
205.25
 20
196.75
 30
0.0
 11
205.25
 21
60.25
 31
0.0
  0
LINE
  5
34
100
AcDbEntity
  8
10
100
AcDbLine
 10
202.75
 20
196.75
 30
0.0
 11
202.75
 21
60.25
 31
0.0
  0
LINE
  5
35
100
AcDbEntity
  8
10
100
AcDbLine
 10
210.25
 20
196.75
 30
0.0
 11
210.25
 21
60.25
 31
0.0
  0
LINE
  5
36
100
AcDbEntity
  8
10
100
AcDbLine
 10
207.75
 20
196.75
 30
0.0
 11
207.75
 21
60.25
 31
0.0
  0
LINE
  5
37
100
AcDbEntity
  8
10
100
AcDbLine
 10
215.25
 20
196.75
 30
0.0
 11
215.25
 21
60.25
 31
0.0
  0
LINE
  5
38
100
AcDbEntity
  8
10
100
AcDbLine
 10
212.75
 20
196.75
 30
0.0
 11
212.75
 21
60.25
 31
0.0
  0
LINE
  5
39
100
AcDbEntity
  8
10
100
AcDbLine
 10
220.25
 20
196.75
 30
0.0
 11
220.25
 21
60.25
 31
0.0
  0
LINE
  5
3A
100
AcDbEntity
  8
10
100
AcDbLine
 10
217.75
 20
196.75
 30
0.0
 11
217.75
 21
60.25
 31
0.0
  0
LINE
  5
3B
100
AcDbEntity
  8
10
100
AcDbLine
 10
225.25
 20
196.75
 30
0.0
 11
225.25
 21
60.25
 31
0.0
  0
LINE
  5
3C
100
AcDbEntity
  8
10
100
AcDbLine
 10
222.75
 20
196.75
 30
0.0
 11
222.75
 21
60.25
 31
0.0
  0
LINE
  5
3D
100
AcDbEntity
  8
10
100
AcDbLine
 10
271.25
 20
102.75
 30
0.0
 11
271.25
 21
60.25
 31
0.0
  0
LINE
  5
3E
100
AcDbEntity
  8
10
100
AcDbLine
 10
273.75
 20
102.75
 30
0.0
 11
273.75
 21
60.25
 31
0.0
  0
LINE
  5
3F
100
AcDbEntity
  8
10
100
AcDbLine
 10
266.25
 20
102.75
 30
0.0
 11
266.25
 21
60.25
 31
0.0
  0
LINE
  5
40
100
AcDbEntity
  8
10
100
AcDbLine
 10
268.75
 20
102.75
 30
0.0
 11
268.75
 21
60.25
 31
0.0
  0
LINE
  5
41
100
AcDbEntity
  8
10
100
AcDbLine
 10
261.25
 20
102.75
 30
0.0
 11
261.25
 21
60.25
 31
0.0
  0
LINE
  5
42
100
AcDbEntity
  8
10
100
AcDbLine
 10
263.75
 20
102.75
 30
0.0
 11
263.75
 21
60.25
 31
0.0
  0
LINE
  5
43
100
AcDbEntity
  8
10
100
AcDbLine
 10
256.25
 20
102.75
 30
0.0
 11
256.25
 21
60.25
 31
0.0
  0
LINE
  5
44
100
AcDbEntity
  8
10
100
AcDbLine
 10
258.75
 20
102.75
 30
0.0
 11
258.75
 21
60.25
 31
0.0
  0
LINE
  5
45
100
AcDbEntity
  8
10
100
AcDbLine
 10
251.25
 20
102.75
 30
0.0
 11
251.25
 21
60.25
 31
0.0
  0
LINE
  5
46
100
AcDbEntity
  8
10
100
AcDbLine
 10
253.75
 20
102.75
 30
0.0
 11
253.75
 21
60.25
 31
0.0
  0
LINE
  5
47
100
AcDbEntity
  8
10
100
AcDbLine
 10
246.25
 20
102.75
 30
0.0
 11
246.25
 21
60.25
 31
0.0
  0
LINE
  5
48
100
AcDbEntity
  8
10
100
AcDbLine
 10
248.75
 20
102.75
 30
0.0
 11
248.75
 21
60.25
 31
0.0
  0
LINE
  5
49
100
AcDbEntity
  8
10
100
AcDbLine
 10
243.75
 20
102.75
 30
0.0
 11
243.75
 21
60.25
 31
0.0
  0
LINE
  5
4A
100
AcDbEntity
  8
10
100
AcDbLine
 10
241.25
 20
102.75
 30
0.0
 11
241.25
 21
60.25
 31
0.0
  0
LINE
  5
4B
100
AcDbEntity
  8
10
100
AcDbLine
 10
322.2
 20
180.5
 30
0.0
 11
322.2
 21
76.5
 31
0.0
  0
LINE
  5
4C
100
AcDbEntity
  8
10
100
AcDbLine
 10
229.5
 20
208.0
 30
0.0
 11
229.5
 21
49.0
 31
0.0
  0
LINE
  5
4D
100
AcDbEntity
  8
10
100
AcDbLine
 10
230.0
 20
208.0
 30
0.0
 11
230.0
 21
49.0
 31
0.0
  0
LINE
  5
4E
100
AcDbEntity
  8
10
100
AcDbLine
 10
325.0
 20
208.0
 30
0.0
 11
325.0
 21
40.0
 31
0.0
  0
LINE
  5
4F
100
AcDbEntity
  8
10
100
AcDbLine
 10
190.0
 20
207.2
 30
0.0
 11
190.0
 21
49.8
 31
0.0
  0
LINE
  5
50
100
AcDbEntity
  8
18
100
AcDbLine
 10
120.0
 20
0.0
 30
0.0
 11
325.0
 21
0.0
 31
0.0
  0
LINE
  5
51
100
AcDbEntity
  8
10
100
AcDbLine
 10
230.0
 20
49.0
 30
0.0
 11
322.2
 21
49.0
 31
0.0
  0
CIRCLE
  5
52
100
AcDbEntity
  8
10
100
AcDbCircle
 10
53.0
 20
44.0
 30
0.0
 40
3.5
  0
CIRCLE
  5
53
100
AcDbEntity
  8
10
100
AcDbCircle
 10
53.0
 20
44.0
 30
0.0
 40
4.0
  0
LINE
  5
54
100
AcDbEntity
  8
10
100
AcDbLine
 10
51.585786
 20
45.414214
 30
0.0
 11
54.414214
 21
42.585786
 31
0.0
  0
LINE
  5
55
100
AcDbEntity
  8
10
100
AcDbLine
 10
54.414214
 20
45.414214
 30
0.0
 11
51.585786
 21
42.585786
 31
0.0
  0
CIRCLE
  5
56
100
AcDbEntity
  8
10
100
AcDbCircle
 10
75.0
 20
44.0
 30
0.0
 40
3.5
  0
CIRCLE
  5
57
100
AcDbEntity
  8
10
100
AcDbCircle
 10
75.0
 20
44.0
 30
0.0
 40
4.0
  0
LINE
  5
58
100
AcDbEntity
  8
10
100
AcDbLine
 10
73.585786
 20
45.414214
 30
0.0
 11
76.414214
 21
42.585786
 31
0.0
  0
LINE
  5
59
100
AcDbEntity
  8
10
100
AcDbLine
 10
76.414214
 20
45.414214
 30
0.0
 11
73.585786
 21
42.585786
 31
0.0
  0
LINE
  5
5A
100
AcDbEntity
  8
17
100
AcDbLine
 10
65.5
 20
80.0
 30
0.0
 11
65.5
 21
70.0
 31
0.0
  0
LINE
  5
5C
100
AcDbEntity
  8
17
100
AcDbLine
 10
70.5
 20
61.0
 30
0.0
 11
60.5
 21
61.0
 31
0.0
  0
LINE
  5
5D
100
AcDbEntity
  8
17
100
AcDbLine
 10
70.5
 20
75.0
 30
0.0
 11
60.5
 21
75.0
 31
0.0
  0
LINE
  5
5E
100
AcDbEntity
  8
17
100
AcDbLine
 10
65.5
 20
66.0
 30
0.0
 11
65.5
 21
56.0
 31
0.0
  0
LINE
  5
5F
100
AcDbEntity
  8
17
100
AcDbLine
 10
54.5
 20
80.0
 30
0.0
 11
54.5
 21
70.0
 31
0.0
  0
LINE
  5
60
100
AcDbEntity
  8
17
100
AcDbLine
 10
43.5
 20
80.0
 30
0.0
 11
43.5
 21
70.0
 31
0.0
  0
LINE
  5
61
100
AcDbEntity
  8
17
100
AcDbLine
 10
48.5
 20
61.0
 30
0.0
 11
38.5
 21
61.0
 31
0.0
  0
LINE
  5
62
100
AcDbEntity
  8
17
100
AcDbLine
 10
48.5
 20
75.0
 30
0.0
 11
38.5
 21
75.0
 31
0.0
  0
LINE
  5
63
100
AcDbEntity
  8
17
100
AcDbLine
 10
54.5
 20
66.0
 30
0.0
 11
54.5
 21
56.0
 31
0.0
  0
LINE
  5
64
100
AcDbEntity
  8
17
100
AcDbLine
 10
43.5
 20
66.0
 30
0.0
 11
43.5
 21
56.0
 31
0.0
  0
LINE
  5
65
100
AcDbEntity
  8
17
100
AcDbLine
 10
59.5
 20
61.0
 30
0.0
 11
49.5
 21
61.0
 31
0.0
  0
LINE
  5
66
100
AcDbEntity
  8
17
100
AcDbLine
 10
59.5
 20
75.0
 30
0.0
 11
49.5
 21
75.0
 31
0.0
  0
LINE
  5
67
100
AcDbEntity
  8
10
100
AcDbLine
 10
68.2
 20
33.0
 30
0.0
 11
70.7
 21
33.0
 31
0.0
  0
LINE
  5
68
100
AcDbEntity
  8
10
100
AcDbLine
 10
68.2
 20
39.0
 30
0.0
 11
68.2
 21
33.0
 31
0.0
  0
LINE
  5
69
100
AcDbEntity
  8
10
100
AcDbLine
 10
70.7
 20
39.0
 30
0.0
 11
70.7
 21
33.0
 31
0.0
  0
LINE
  5
6A
100
AcDbEntity
  8
10
100
AcDbLine
 10
65.2
 20
39.0
 30
0.0
 11
61.735898
 21
33.0
 31
0.0
  0
LINE
  5
6B
100
AcDbEntity
  8
10
100
AcDbLine
 10
56.0
 20
49.0
 30
0.0
 11
56.0
 21
33.0
 31
0.0
  0
LINE
  5
6C
100
AcDbEntity
  8
10
100
AcDbLine
 10
72.2
 20
49.0
 30
0.0
 11
72.2
 21
39.0
 31
0.0
  0
LINE
  5
6D
100
AcDbEntity
  8
10
100
AcDbLine
 10
65.2
 20
39.0
 30
0.0
 11
72.2
 21
39.0
 31
0.0
  0
LINE
  5
6E
100
AcDbEntity
  8
10
100
AcDbLine
 10
56.0
 20
33.0
 30
0.0
 11
61.735898
 21
33.0
 31
0.0
  0
LINE
  5
6F
100
AcDbEntity
  8
10
100
AcDbLine
 10
37.0
 20
40.0
 30
0.0
 11
79.2
 21
40.0
 31
0.0
  0
ARC
  5
70
100
AcDbEntity
  8
10
100
AcDbCircle
 10
27.0
 20
42.0
 30
0.0
 40
2.0
100
AcDbArc
 50
270.0
 51
0.0
  0
LINE
  5
71
100
AcDbEntity
  8
10
100
AcDbLine
 10
65.414214
 20
45.414214
 30
0.0
 11
62.585786
 21
42.585786
 31
0.0
  0
LINE
  5
72
100
AcDbEntity
  8
10
100
AcDbLine
 10
62.585786
 20
45.414214
 30
0.0
 11
65.414214
 21
42.585786
 31
0.0
  0
CIRCLE
  5
73
100
AcDbEntity
  8
10
100
AcDbCircle
 10
64.0
 20
44.0
 30
0.0
 40
4.0
  0
CIRCLE
  5
74
100
AcDbEntity
  8
10
100
AcDbCircle
 10
64.0
 20
44.0
 30
0.0
 40
3.5
  0
ARC
  5
75
100
AcDbEntity
  8
10
100
AcDbCircle
 10
79.0
 20
47.0
 30
0.0
 40
1.0
100
AcDbArc
 50
0.0
 51
90.0
  0
ARC
  5
76
100
AcDbEntity
  8
10
100
AcDbCircle
 10
50.0
 20
41.0
 30
0.0
 40
1.0
100
AcDbArc
 50
180.0
 51
270.0
  0
ARC
  5
77
100
AcDbEntity
  8
10
100
AcDbCircle
 10
50.0
 20
47.0
 30
0.0
 40
1.0
100
AcDbArc
 50
90.0
 51
180.0
  0
LINE
  5
78
100
AcDbEntity
  8
10
100
AcDbLine
 10
49.0
 20
47.0
 30
0.0
 11
49.0
 21
41.0
 31
0.0
  0
LINE
  5
79
100
AcDbEntity
  8
10
100
AcDbLine
 10
50.0
 20
48.0
 30
0.0
 11
79.0
 21
48.0
 31
0.0
  0
LINE
  5
7A
100
AcDbEntity
  8
12
100
AcDbLine
 10
36.666667
 20
46.0
 30
0.0
 11
27.333333
 21
46.0
 31
0.0
  0
LINE
  5
7C
100
AcDbEntity
  8
12
100
AcDbLine
 10
32.0
 20
50.666667
 30
0.0
 11
32.0
 21
41.333333
 31
0.0
  0
ARC
  5
7D
100
AcDbEntity
  8
10
100
AcDbCircle
 10
37.0
 20
42.0
 30
0.0
 40
2.0
100
AcDbArc
 50
180.0
 51
270.0
  0
LINE
  5
7E
100
AcDbEntity
  8
12
100
AcDbLine
 10
29.0
 20
46.0
 30
0.0
 11
29.0
 21
42.0
 31
0.0
  0
LINE
  5
7F
100
AcDbEntity
  8
12
100
AcDbLine
 10
35.0
 20
46.0
 30
0.0
 11
35.0
 21
42.0
 31
0.0
  0
ARC
  5
80
100
AcDbEntity
  8
12
100
AcDbCircle
 10
32.0
 20
46.0
 30
0.0
 40
3.0
100
AcDbArc
 50
0.0
 51
180.0
  0
ARC
  5
81
100
AcDbEntity
  8
10
100
AcDbCircle
 10
79.2
 20
40.8
 30
0.0
 40
0.8
100
AcDbArc
 50
270.0
 51
0.0
  0
ARC
  5
82
100
AcDbEntity
  8
10
100
AcDbCircle
 10
30.8
 20
49.8
 30
0.0
 40
0.8
100
AcDbArc
 50
180.0
 51
270.0
  0
ARC
  5
83
100
AcDbEntity
  8
10
100
AcDbCircle
 10
79.2
 20
49.8
 30
0.0
 40
0.8
100
AcDbArc
 50
270.0
 51
0.0
  0
LINE
  5
84
100
AcDbEntity
  8
17
100
AcDbLine
 10
218.0
 20
61.0
 30
0.0
 11
228.0
 21
61.0
 31
0.0
  0
LINE
  5
85
100
AcDbEntity
  8
17
100
AcDbLine
 10
206.0
 20
70.0
 30
0.0
 11
206.0
 21
80.0
 31
0.0
  0
LINE
  5
86
100
AcDbEntity
  8
17
100
AcDbLine
 10
201.0
 20
75.0
 30
0.0
 11
211.0
 21
75.0
 31
0.0
  0
LINE
  5
87
100
AcDbEntity
  8
17
100
AcDbLine
 10
223.0
 20
56.0
 30
0.0
 11
223.0
 21
66.0
 31
0.0
  0
ARC
  5
88
100
AcDbEntity
  8
10
100
AcDbCircle
 10
204.0
 20
60.25
 30
0.0
 40
1.25
100
AcDbArc
 50
180.0
 51
0.0
  0
ARC
  5
89
100
AcDbEntity
  8
10
100
AcDbCircle
 10
209.0
 20
60.25
 30
0.0
 40
1.25
100
AcDbArc
 50
180.0
 51
0.0
  0
ARC
  5
8A
100
AcDbEntity
  8
10
100
AcDbCircle
 10
214.0
 20
60.25
 30
0.0
 40
1.25
100
AcDbArc
 50
180.0
 51
0.0
  0
ARC
  5
8B
100
AcDbEntity
  8
10
100
AcDbCircle
 10
219.0
 20
60.25
 30
0.0
 40
1.25
100
AcDbArc
 50
180.0
 51
0.0
  0
ARC
  5
8C
100
AcDbEntity
  8
10
100
AcDbCircle
 10
224.0
 20
60.25
 30
0.0
 40
1.25
100
AcDbArc
 50
180.0
 51
0.0
  0
LINE
  5
8D
100
AcDbEntity
  8
10
100
AcDbLine
 10
229.5
 20
49.5
 30
0.0
 11
230.0
 21
49.5
 31
0.0
  0
ARC
  5
8E
100
AcDbEntity
  8
10
100
AcDbCircle
 10
190.8
 20
49.8
 30
0.0
 40
0.8
100
AcDbArc
 50
180.0
 51
270.0
  0
LINE
  5
8F
100
AcDbEntity
  8
10
100
AcDbLine
 10
190.8
 20
49.0
 30
0.0
 11
229.5
 21
49.0
 31
0.0
  0
LINE
  5
90
100
AcDbEntity
  8
12
100
AcDbLine
 10
328.769799
 20
46.0
 30
0.0
 11
319.436466
 21
46.0
 31
0.0
  0
LINE
  5
91
100
AcDbEntity
  8
10
100
AcDbLine
 10
306.5
 20
49.0
 30
0.0
 11
306.5
 21
33.0
 31
0.0
  0
LINE
  5
92
100
AcDbEntity
  8
10
100
AcDbLine
 10
316.0
 20
45.53146
 30
0.0
 11
317.0
 21
44.53146
 31
0.0
  0
LINE
  5
93
100
AcDbEntity
  8
10
100
AcDbLine
 10
316.0
 20
44.182341
 30
0.0
 11
317.0
 21
43.182341
 31
0.0
  0
ARC
  5
94
100
AcDbEntity
  8
10
100
AcDbCircle
 10
314.9
 20
44.0
 30
0.0
 40
1.5
100
AcDbArc
 50
90.0
 51
180.0
  0
LINE
  5
95
100
AcDbEntity
  8
10
100
AcDbLine
 10
313.4
 20
44.0
 30
0.0
 11
313.4
 21
44.0
 31
0.0
  0
ARC
  5
96
100
AcDbEntity
  8
10
100
AcDbCircle
 10
314.9
 20
44.0
 30
0.0
 40
1.5
100
AcDbArc
 50
180.0
 51
270.0
  0
ARC
  5
97
100
AcDbEntity
  8
10
100
AcDbCircle
 10
314.9
 20
45.670329
 30
0.0
 40
1.5
100
AcDbArc
 50
123.367013
 51
180.0
  0
ARC
  5
98
100
AcDbEntity
  8
10
100
AcDbCircle
 10
314.9
 20
42.329671
 30
0.0
 40
1.5
100
AcDbArc
 50
180.0
 51
236.632987
  0
LINE
  5
99
100
AcDbEntity
  8
10
100
AcDbLine
 10
313.4
 20
42.329671
 30
0.0
 11
313.4
 21
45.670329
 31
0.0
  0
ARC
  5
9A
100
AcDbEntity
  8
10
100
AcDbCircle
 10
316.0
 20
44.0
 30
0.0
 40
3.5
100
AcDbArc
 50
236.632987
 51
270.0
  0
ARC
  5
9B
100
AcDbEntity
  8
10
100
AcDbCircle
 10
316.0
 20
44.0
 30
0.0
 40
3.5
100
AcDbArc
 50
90.0
 51
123.367013
  0
LINE
  5
9C
100
AcDbEntity
  8
10
100
AcDbLine
 10
316.0
 20
40.5
 30
0.0
 11
316.0
 21
40.2
 31
0.0
  0
LINE
  5
9D
100
AcDbEntity
  8
10
100
AcDbLine
 10
316.0
 20
47.5
 30
0.0
 11
316.0
 21
40.5
 31
0.0
  0
LINE
  5
9E
100
AcDbEntity
  8
10
100
AcDbLine
 10
316.0
 20
40.2
 30
0.0
 11
317.0
 21
40.2
 31
0.0
  0
LINE
  5
9F
100
AcDbEntity
  8
10
100
AcDbLine
 10
316.0
 20
47.8
 30
0.0
 11
316.0
 21
47.5
 31
0.0
  0
LINE
  5
A0
100
AcDbEntity
  8
10
100
AcDbLine
 10
317.0
 20
47.8
 30
0.0
 11
316.0
 21
47.8
 31
0.0
  0
LINE
  5
A1
100
AcDbEntity
  8
10
100
AcDbLine
 10
317.0
 20
48.0
 30
0.0
 11
317.0
 21
40.0
 31
0.0
  0
LINE
  5
A2
100
AcDbEntity
  8
10
100
AcDbLine
 10
317.5
 20
48.0
 30
0.0
 11
317.0
 21
48.0
 31
0.0
  0
LINE
  5
A3
100
AcDbEntity
  8
10
100
AcDbLine
 10
317.5
 20
40.0
 30
0.0
 11
317.5
 21
48.0
 31
0.0
  0
LINE
  5
A4
100
AcDbEntity
  8
10
100
AcDbLine
 10
317.0
 20
40.0
 30
0.0
 11
317.5
 21
40.0
 31
0.0
  0
ARC
  5
A5
100
AcDbEntity
  8
10
100
AcDbCircle
 10
312.5
 20
79.75
 30
0.0
 40
1.25
100
AcDbArc
 50
0.0
 51
180.0
  0
ARC
  5
A6
100
AcDbEntity
  8
10
100
AcDbCircle
 10
312.5
 20
60.25
 30
0.0
 40
1.25
100
AcDbArc
 50
180.0
 51
0.0
  0
LINE
  5
A7
100
AcDbEntity
  8
10
100
AcDbLine
 10
311.25
 20
79.75
 30
0.0
 11
311.25
 21
60.25
 31
0.0
  0
LINE
  5
A8
100
AcDbEntity
  8
10
100
AcDbLine
 10
313.75
 20
79.75
 30
0.0
 11
313.75
 21
60.25
 31
0.0
  0
ARC
  5
A9
100
AcDbEntity
  8
10
100
AcDbCircle
 10
307.5
 20
79.75
 30
0.0
 40
1.25
100
AcDbArc
 50
0.0
 51
180.0
  0
ARC
  5
AA
100
AcDbEntity
  8
10
100
AcDbCircle
 10
307.5
 20
60.25
 30
0.0
 40
1.25
100
AcDbArc
 50
180.0
 51
0.0
  0
LINE
  5
AB
100
AcDbEntity
  8
10
100
AcDbLine
 10
306.25
 20
79.75
 30
0.0
 11
306.25
 21
60.25
 31
0.0
  0
LINE
  5
AC
100
AcDbEntity
  8
10
100
AcDbLine
 10
308.75
 20
79.75
 30
0.0
 11
308.75
 21
60.25
 31
0.0
  0
LINE
  5
AD
100
AcDbEntity
  8
10
100
AcDbLine
 10
303.75
 20
79.75
 30
0.0
 11
303.75
 21
60.25
 31
0.0
  0
LINE
  5
AE
100
AcDbEntity
  8
10
100
AcDbLine
 10
322.2
 20
61.5
 30
0.0
 11
322.2
 21
48.0
 31
0.0
  0
LINE
  5
AF
100
AcDbEntity
  8
10
100
AcDbLine
 10
318.0
 20
60.5
 30
0.0
 11
322.2
 21
60.5
 31
0.0
  0
LINE
  5
B0
100
AcDbEntity
  8
10
100
AcDbLine
 10
318.0
 20
61.5
 30
0.0
 11
325.0
 21
61.5
 31
0.0
  0
LINE
  5
B1
100
AcDbEntity
  8
10
100
AcDbLine
 10
318.0
 20
61.5
 30
0.0
 11
318.0
 21
60.5
 31
0.0
  0
LINE
  5
B2
100
AcDbEntity
  8
10
100
AcDbLine
 10
323.5
 20
73.5
 30
0.0
 11
323.5
 21
64.5
 31
0.0
  0
LINE
  5
B3
100
AcDbEntity
  8
10
100
AcDbLine
 10
321.5
 20
64.5
 30
0.0
 11
323.5
 21
64.5
 31
0.0
  0
LINE
  5
B4
100
AcDbEntity
  8
10
100
AcDbLine
 10
321.5
 20
73.5
 30
0.0
 11
323.5
 21
73.5
 31
0.0
  0
LINE
  5
B5
100
AcDbEntity
  8
10
100
AcDbLine
 10
321.5
 20
73.5
 30
0.0
 11
321.5
 21
64.5
 31
0.0
  0
LINE
  5
B6
100
AcDbEntity
  8
10
100
AcDbLine
 10
318.0
 20
77.5
 30
0.0
 11
322.2
 21
77.5
 31
0.0
  0
LINE
  5
B7
100
AcDbEntity
  8
10
100
AcDbLine
 10
318.0
 20
76.5
 30
0.0
 11
325.0
 21
76.5
 31
0.0
  0
LINE
  5
B8
100
AcDbEntity
  8
10
100
AcDbLine
 10
318.0
 20
77.5
 30
0.0
 11
318.0
 21
76.5
 31
0.0
  0
LINE
  5
B9
100
AcDbEntity
  8
10
100
AcDbLine
 10
317.5
 20
48.0
 30
0.0
 11
325.0
 21
48.0
 31
0.0
  0
LINE
  5
BA
100
AcDbEntity
  8
10
100
AcDbLine
 10
317.5
 20
48.0
 30
0.0
 11
317.5
 21
40.0
 31
0.0
  0
LINE
  5
BB
100
AcDbEntity
  8
10
100
AcDbLine
 10
317.5
 20
40.0
 30
0.0
 11
325.0
 21
40.0
 31
0.0
  0
LINE
  5
BC
100
AcDbEntity
  8
10
100
AcDbLine
 10
281.75
 20
33.0
 30
0.0
 11
294.25
 21
33.0
 31
0.0
  0
LINE
  5
BD
100
AcDbEntity
  8
10
100
AcDbLine
 10
294.25
 20
39.0
 30
0.0
 11
294.25
 21
33.0
 31
0.0
  0
LINE
  5
BE
100
AcDbEntity
  8
10
100
AcDbLine
 10
281.75
 20
39.0
 30
0.0
 11
281.75
 21
33.0
 31
0.0
  0
LINE
  5
BF
100
AcDbEntity
  8
10
100
AcDbLine
 10
279.5
 20
49.0
 30
0.0
 11
279.5
 21
33.0
 31
0.0
  0
LINE
  5
C0
100
AcDbEntity
  8
10
100
AcDbLine
 10
279.5
 20
33.0
 30
0.0
 11
281.75
 21
33.0
 31
0.0
  0
ARC
  5
C1
100
AcDbEntity
  8
10
100
AcDbCircle
 10
292.5
 20
79.75
 30
0.0
 40
1.25
100
AcDbArc
 50
0.0
 51
180.0
  0
ARC
  5
C2
100
AcDbEntity
  8
10
100
AcDbCircle
 10
292.5
 20
60.25
 30
0.0
 40
1.25
100
AcDbArc
 50
180.0
 51
0.0
  0
LINE
  5
C3
100
AcDbEntity
  8
10
100
AcDbLine
 10
291.25
 20
79.75
 30
0.0
 11
291.25
 21
60.25
 31
0.0
  0
LINE
  5
C4
100
AcDbEntity
  8
10
100
AcDbLine
 10
293.75
 20
79.75
 30
0.0
 11
293.75
 21
60.25
 31
0.0
  0
ARC
  5
C5
100
AcDbEntity
  8
10
100
AcDbCircle
 10
287.5
 20
79.75
 30
0.0
 40
1.25
100
AcDbArc
 50
0.0
 51
180.0
  0
ARC
  5
C6
100
AcDbEntity
  8
10
100
AcDbCircle
 10
287.5
 20
60.25
 30
0.0
 40
1.25
100
AcDbArc
 50
180.0
 51
0.0
  0
LINE
  5
C7
100
AcDbEntity
  8
10
100
AcDbLine
 10
286.25
 20
79.75
 30
0.0
 11
286.25
 21
60.25
 31
0.0
  0
LINE
  5
C8
100
AcDbEntity
  8
10
100
AcDbLine
 10
288.75
 20
79.75
 30
0.0
 11
288.75
 21
60.25
 31
0.0
  0
ARC
  5
C9
100
AcDbEntity
  8
10
100
AcDbCircle
 10
282.5
 20
79.75
 30
0.0
 40
1.25
100
AcDbArc
 50
0.0
 51
180.0
  0
ARC
  5
CA
100
AcDbEntity
  8
10
100
AcDbCircle
 10
282.5
 20
60.25
 30
0.0
 40
1.25
100
AcDbArc
 50
180.0
 51
0.0
  0
LINE
  5
CB
100
AcDbEntity
  8
10
100
AcDbLine
 10
281.25
 20
79.75
 30
0.0
 11
281.25
 21
60.25
 31
0.0
  0
LINE
  5
CC
100
AcDbEntity
  8
10
100
AcDbLine
 10
283.75
 20
79.75
 30
0.0
 11
283.75
 21
60.25
 31
0.0
  0
ARC
  5
CD
100
AcDbEntity
  8
10
100
AcDbCircle
 10
277.5
 20
79.75
 30
0.0
 40
1.25
100
AcDbArc
 50
0.0
 51
180.0
  0
ARC
  5
CE
100
AcDbEntity
  8
10
100
AcDbCircle
 10
277.5
 20
60.25
 30
0.0
 40
1.25
100
AcDbArc
 50
180.0
 51
0.0
  0
LINE
  5
CF
100
AcDbEntity
  8
10
100
AcDbLine
 10
276.25
 20
79.75
 30
0.0
 11
276.25
 21
60.25
 31
0.0
  0
LINE
  5
D0
100
AcDbEntity
  8
10
100
AcDbLine
 10
278.75
 20
79.75
 30
0.0
 11
278.75
 21
60.25
 31
0.0
  0
ARC
  5
D1
100
AcDbEntity
  8
10
100
AcDbCircle
 10
272.5
 20
60.25
 30
0.0
 40
1.25
100
AcDbArc
 50
180.0
 51
0.0
  0
ARC
  5
D2
100
AcDbEntity
  8
10
100
AcDbCircle
 10
267.5
 20
60.25
 30
0.0
 40
1.25
100
AcDbArc
 50
180.0
 51
0.0
  0
ARC
  5
D3
100
AcDbEntity
  8
10
100
AcDbCircle
 10
262.5
 20
60.25
 30
0.0
 40
1.25
100
AcDbArc
 50
180.0
 51
0.0
  0
ARC
  5
D4
100
AcDbEntity
  8
10
100
AcDbCircle
 10
257.5
 20
60.25
 30
0.0
 40
1.25
100
AcDbArc
 50
180.0
 51
0.0
  0
ARC
  5
D5
100
AcDbEntity
  8
10
100
AcDbCircle
 10
252.5
 20
60.25
 30
0.0
 40
1.25
100
AcDbArc
 50
180.0
 51
0.0
  0
ARC
  5
D6
100
AcDbEntity
  8
10
100
AcDbCircle
 10
247.5
 20
60.25
 30
0.0
 40
1.25
100
AcDbArc
 50
180.0
 51
0.0
  0
ARC
  5
D7
100
AcDbEntity
  8
10
100
AcDbCircle
 10
242.5
 20
60.25
 30
0.0
 40
1.25
100
AcDbArc
 50
180.0
 51
0.0
  0
LINE
  5
D8
100
AcDbEntity
  8
10
100
AcDbLine
 10
301.25
 20
79.75
 30
0.0
 11
301.25
 21
60.25
 31
0.0
  0
ARC
  5
D9
100
AcDbEntity
  8
10
100
AcDbCircle
 10
297.5
 20
79.75
 30
0.0
 40
1.25
100
AcDbArc
 50
0.0
 51
180.0
  0
ARC
  5
DA
100
AcDbEntity
  8
10
100
AcDbCircle
 10
297.5
 20
60.25
 30
0.0
 40
1.25
100
AcDbArc
 50
180.0
 51
0.0
  0
LINE
  5
DB
100
AcDbEntity
  8
10
100
AcDbLine
 10
296.25
 20
79.75
 30
0.0
 11
296.25
 21
60.25
 31
0.0
  0
LINE
  5
DC
100
AcDbEntity
  8
10
100
AcDbLine
 10
298.75
 20
79.75
 30
0.0
 11
298.75
 21
60.25
 31
0.0
  0
LINE
  5
DD
100
AcDbEntity
  8
10
100
AcDbLine
 10
294.25
 20
33.0
 30
0.0
 11
306.5
 21
33.0
 31
0.0
  0
LINE
  5
DE
100
AcDbEntity
  8
10
100
AcDbLine
 10
279.5
 20
39.0
 30
0.0
 11
306.5
 21
39.0
 31
0.0
  0
ARC
  5
DF
100
AcDbEntity
  8
10
100
AcDbCircle
 10
302.5
 20
79.75
 30
0.0
 40
1.25
100
AcDbArc
 50
0.0
 51
180.0
  0
ARC
  5
E0
100
AcDbEntity
  8
10
100
AcDbCircle
 10
302.5
 20
60.25
 30
0.0
 40
1.25
100
AcDbArc
 50
180.0
 51
0.0
  0
TEXT
  5
E1
100
AcDbEntity
  8
19
100
AcDbText
 10
347.827356
 20
20.925424
 30
0.0
 40
6.666667
  1
j2_040a
 50
0.000003
 41
0.835
  7
STANDARD1
100
AcDbText
  0
TEXT
  5
E4
100
AcDbEntity
  8
19
100
AcDbText
 10
347.827356
 20
36.717803
 30
0.0
 40
6.666667
  1
MR-J2/J2S-40□/60□
 50
0.000003
 41
0.835
  7
STANDARD1
100
AcDbText
  0
LINE
  5
E5
100
AcDbEntity
  8
10
100
AcDbLine
 10
230.0
 20
208.0
 30
0.0
 11
325.0
 21
208.0
 31
0.0
  0
ARC
  5
E6
100
AcDbEntity
  8
10
100
AcDbCircle
 10
53.0
 20
153.828637
 30
0.0
 40
1.5
100
AcDbArc
 50
0.0
 51
75.0
  0
ARC
  5
E7
100
AcDbEntity
  8
10
100
AcDbCircle
 10
49.7
 20
154.712869
 30
0.0
 40
1.5
100
AcDbArc
 50
75.0
 51
180.0
  0
LINE
  5
E8
100
AcDbEntity
  8
10
100
AcDbLine
 10
55.9
 20
164.212869
 30
0.0
 11
55.9
 21
131.812869
 31
0.0
  0
LINE
  5
E9
100
AcDbEntity
  8
10
100
AcDbLine
 10
46.8
 20
164.212869
 30
0.0
 11
46.8
 21
131.812869
 31
0.0
  0
LINE
  5
EA
100
AcDbEntity
  8
10
100
AcDbLine
 10
62.6
 20
164.212869
 30
0.0
 11
62.6
 21
131.812869
 31
0.0
  0
LINE
  5
EB
100
AcDbEntity
  8
10
100
AcDbLine
 10
71.7
 20
164.212869
 30
0.0
 11
71.7
 21
131.812869
 31
0.0
  0
ARC
  5
EC
100
AcDbEntity
  8
10
100
AcDbCircle
 10
65.5
 20
154.712869
 30
0.0
 40
1.5
100
AcDbArc
 50
75.0
 51
180.0
  0
ARC
  5
ED
100
AcDbEntity
  8
10
100
AcDbCircle
 10
68.8
 20
153.828637
 30
0.0
 40
1.5
100
AcDbArc
 50
0.0
 51
75.0
  0
LINE
  5
EE
100
AcDbEntity
  8
10
100
AcDbLine
 10
30.0
 20
163.5
 30
0.0
 11
30.0
 21
86.5
 31
0.0
  0
LINE
  5
EF
100
AcDbEntity
  8
10
100
AcDbLine
 10
57.1
 20
165.5
 30
0.0
 11
57.1
 21
130.5
 31
0.0
  0
LINE
  5
F0
100
AcDbEntity
  8
10
100
AcDbLine
 10
45.6
 20
165.5
 30
0.0
 11
45.6
 21
130.5
 31
0.0
  0
LINE
  5
F1
100
AcDbEntity
  8
10
100
AcDbLine
 10
43.6
 20
164.5
 30
0.0
 11
43.6
 21
131.5
 31
0.0
  0
LINE
  5
F2
100
AcDbEntity
  8
10
100
AcDbLine
 10
61.4
 20
165.5
 30
0.0
 11
61.4
 21
130.5
 31
0.0
  0
LINE
  5
F3
100
AcDbEntity
  8
10
100
AcDbLine
 10
72.9
 20
165.5
 30
0.0
 11
72.9
 21
130.5
 31
0.0
  0
LINE
  5
F4
100
AcDbEntity
  8
10
100
AcDbLine
 10
74.9
 20
164.5
 30
0.0
 11
74.9
 21
131.5
 31
0.0
  0
LINE
  5
F5
100
AcDbEntity
  8
10
100
AcDbLine
 10
46.8
 20
127.212869
 30
0.0
 11
46.8
 21
94.812869
 31
0.0
  0
LINE
  5
F6
100
AcDbEntity
  8
10
100
AcDbLine
 10
55.9
 20
94.812869
 30
0.0
 11
46.8
 21
94.812869
 31
0.0
  0
LINE
  5
F7
100
AcDbEntity
  8
10
100
AcDbLine
 10
55.9
 20
127.212869
 30
0.0
 11
55.9
 21
94.812869
 31
0.0
  0
LINE
  5
F8
100
AcDbEntity
  8
10
100
AcDbLine
 10
55.9
 20
127.212869
 30
0.0
 11
46.8
 21
127.212869
 31
0.0
  0
ARC
  5
F9
100
AcDbEntity
  8
10
100
AcDbCircle
 10
55.3
 20
127.412869
 30
0.0
 40
0.3
100
AcDbArc
 50
0.0
 51
90.0
  0
LINE
  5
FA
100
AcDbEntity
  8
10
100
AcDbLine
 10
55.3
 20
127.712869
 30
0.0
 11
47.4
 21
127.712869
 31
0.0
  0
ARC
  5
FB
100
AcDbEntity
  8
10
100
AcDbCircle
 10
47.4
 20
127.412869
 30
0.0
 40
0.3
100
AcDbArc
 50
90.0
 51
180.0
  0
ARC
  5
FC
100
AcDbEntity
  8
10
100
AcDbCircle
 10
47.4
 20
94.612869
 30
0.0
 40
0.3
100
AcDbArc
 50
180.0
 51
270.0
  0
LINE
  5
FD
100
AcDbEntity
  8
10
100
AcDbLine
 10
55.3
 20
94.312869
 30
0.0
 11
47.4
 21
94.312869
 31
0.0
  0
ARC
  5
FE
100
AcDbEntity
  8
10
100
AcDbCircle
 10
55.3
 20
94.612869
 30
0.0
 40
0.3
100
AcDbArc
 50
270.0
 51
0.0
  0
LINE
  5
FF
100
AcDbEntity
  8
10
100
AcDbLine
 10
47.1
 20
127.412869
 30
0.0
 11
47.1
 21
127.212869
 31
0.0
  0
LINE
  5
100
100
AcDbEntity
  8
10
100
AcDbLine
 10
55.6
 20
127.412869
 30
0.0
 11
55.6
 21
127.212869
 31
0.0
  0
LINE
  5
101
100
AcDbEntity
  8
10
100
AcDbLine
 10
55.6
 20
94.812869
 30
0.0
 11
55.6
 21
94.612869
 31
0.0
  0
LINE
  5
102
100
AcDbEntity
  8
10
100
AcDbLine
 10
47.1
 20
94.812869
 30
0.0
 11
47.1
 21
94.612869
 31
0.0
  0
CIRCLE
  5
103
100
AcDbEntity
  8
10
100
AcDbCircle
 10
51.35
 20
97.287869
 30
0.0
 40
1.3
  0
CIRCLE
  5
104
100
AcDbEntity
  8
10
100
AcDbCircle
 10
51.35
 20
124.737869
 30
0.0
 40
1.3
  0
CIRCLE
  5
105
100
AcDbEntity
  8
10
100
AcDbCircle
 10
51.35
 20
124.737869
 30
0.0
 40
1.0
  0
CIRCLE
  5
106
100
AcDbEntity
  8
10
100
AcDbCircle
 10
51.35
 20
97.287869
 30
0.0
 40
1.0
  0
ARC
  5
107
100
AcDbEntity
  8
10
100
AcDbCircle
 10
53.0
 20
105.197101
 30
0.0
 40
1.5
100
AcDbArc
 50
285.0
 51
0.0
  0
ARC
  5
108
100
AcDbEntity
  8
10
100
AcDbCircle
 10
49.7
 20
104.312869
 30
0.0
 40
1.5
100
AcDbArc
 50
180.0
 51
285.0
  0
LINE
  5
109
100
AcDbEntity
  8
10
100
AcDbLine
 10
50.088229
 20
102.86398
 30
0.0
 11
53.388229
 21
103.748212
 31
0.0
  0
LINE
  5
10A
100
AcDbEntity
  8
10
100
AcDbLine
 10
54.5
 20
116.828637
 30
0.0
 11
54.5
 21
105.197101
 31
0.0
  0
LINE
  5
10B
100
AcDbEntity
  8
10
100
AcDbLine
 10
48.2
 20
117.712869
 30
0.0
 11
48.2
 21
104.312869
 31
0.0
  0
ARC
  5
10C
100
AcDbEntity
  8
10
100
AcDbCircle
 10
49.7
 20
117.712869
 30
0.0
 40
1.5
100
AcDbArc
 50
75.0
 51
180.0
  0
ARC
  5
10D
100
AcDbEntity
  8
10
100
AcDbCircle
 10
53.0
 20
116.828637
 30
0.0
 40
1.5
100
AcDbArc
 50
0.0
 51
75.0
  0
LINE
  5
10E
100
AcDbEntity
  8
10
100
AcDbLine
 10
50.088229
 20
119.161758
 30
0.0
 11
53.388229
 21
118.277525
 31
0.0
  0
ARC
  5
10F
100
AcDbEntity
  8
10
100
AcDbCircle
 10
48.15
 20
122.362869
 30
0.0
 40
0.3
100
AcDbArc
 50
90.0
 51
180.0
  0
LINE
  5
110
100
AcDbEntity
  8
10
100
AcDbLine
 10
47.85
 20
122.362869
 30
0.0
 11
47.85
 21
120.462869
 31
0.0
  0
ARC
  5
111
100
AcDbEntity
  8
10
100
AcDbCircle
 10
48.15
 20
120.462869
 30
0.0
 40
0.3
100
AcDbArc
 50
180.0
 51
270.0
  0
LINE
  5
112
100
AcDbEntity
  8
10
100
AcDbLine
 10
54.55
 20
120.162869
 30
0.0
 11
48.15
 21
120.162869
 31
0.0
  0
ARC
  5
113
100
AcDbEntity
  8
10
100
AcDbCircle
 10
54.55
 20
120.462869
 30
0.0
 40
0.3
100
AcDbArc
 50
270.0
 51
0.0
  0
LINE
  5
114
100
AcDbEntity
  8
10
100
AcDbLine
 10
54.85
 20
122.362869
 30
0.0
 11
54.85
 21
120.462869
 31
0.0
  0
ARC
  5
115
100
AcDbEntity
  8
10
100
AcDbCircle
 10
54.55
 20
122.362869
 30
0.0
 40
0.3
100
AcDbArc
 50
0.0
 51
90.0
  0
LINE
  5
116
100
AcDbEntity
  8
10
100
AcDbLine
 10
54.55
 20
122.662869
 30
0.0
 11
53.25
 21
122.662869
 31
0.0
  0
ARC
  5
117
100
AcDbEntity
  8
10
100
AcDbCircle
 10
53.25
 20
122.362869
 30
0.0
 40
0.3
100
AcDbArc
 50
90.0
 51
180.0
  0
LINE
  5
118
100
AcDbEntity
  8
10
100
AcDbLine
 10
49.45
 20
122.662869
 30
0.0
 11
48.15
 21
122.662869
 31
0.0
  0
ARC
  5
119
100
AcDbEntity
  8
10
100
AcDbCircle
 10
49.45
 20
122.362869
 30
0.0
 40
0.3
100
AcDbArc
 50
0.0
 51
90.0
  0
LINE
  5
11A
100
AcDbEntity
  8
10
100
AcDbLine
 10
49.75
 20
122.362869
 30
0.0
 11
49.75
 21
121.462869
 31
0.0
  0
LINE
  5
11B
100
AcDbEntity
  8
10
100
AcDbLine
 10
52.95
 20
121.462869
 30
0.0
 11
49.75
 21
121.462869
 31
0.0
  0
LINE
  5
11C
100
AcDbEntity
  8
10
100
AcDbLine
 10
52.95
 20
122.362869
 30
0.0
 11
52.95
 21
121.462869
 31
0.0
  0
LINE
  5
11D
100
AcDbEntity
  8
10
100
AcDbLine
 10
54.55
 20
122.162869
 30
0.0
 11
53.25
 21
122.162869
 31
0.0
  0
LINE
  5
11E
100
AcDbEntity
  8
10
100
AcDbLine
 10
49.45
 20
122.162869
 30
0.0
 11
48.15
 21
122.162869
 31
0.0
  0
ARC
  5
11F
100
AcDbEntity
  8
10
100
AcDbCircle
 10
48.15
 20
121.862869
 30
0.0
 40
0.3
100
AcDbArc
 50
90.0
 51
180.0
  0
ARC
  5
120
100
AcDbEntity
  8
10
100
AcDbCircle
 10
49.45
 20
121.862869
 30
0.0
 40
0.3
100
AcDbArc
 50
0.0
 51
90.0
  0
ARC
  5
121
100
AcDbEntity
  8
10
100
AcDbCircle
 10
53.25
 20
121.862869
 30
0.0
 40
0.3
100
AcDbArc
 50
90.0
 51
180.0
  0
ARC
  5
122
100
AcDbEntity
  8
10
100
AcDbCircle
 10
54.55
 20
121.862869
 30
0.0
 40
0.3
100
AcDbArc
 50
0.0
 51
90.0
  0
ARC
  5
123
100
AcDbEntity
  8
10
100
AcDbCircle
 10
54.55
 20
99.662869
 30
0.0
 40
0.3
100
AcDbArc
 50
270.0
 51
0.0
  0
LINE
  5
124
100
AcDbEntity
  8
10
100
AcDbLine
 10
54.85
 20
101.562869
 30
0.0
 11
54.85
 21
99.662869
 31
0.0
  0
ARC
  5
125
100
AcDbEntity
  8
10
100
AcDbCircle
 10
54.55
 20
101.562869
 30
0.0
 40
0.3
100
AcDbArc
 50
0.0
 51
90.0
  0
LINE
  5
126
100
AcDbEntity
  8
10
100
AcDbLine
 10
54.55
 20
101.862869
 30
0.0
 11
48.15
 21
101.862869
 31
0.0
  0
ARC
  5
127
100
AcDbEntity
  8
10
100
AcDbCircle
 10
48.15
 20
101.562869
 30
0.0
 40
0.3
100
AcDbArc
 50
90.0
 51
180.0
  0
LINE
  5
128
100
AcDbEntity
  8
10
100
AcDbLine
 10
47.85
 20
101.562869
 30
0.0
 11
47.85
 21
99.662869
 31
0.0
  0
ARC
  5
129
100
AcDbEntity
  8
10
100
AcDbCircle
 10
48.15
 20
99.662869
 30
0.0
 40
0.3
100
AcDbArc
 50
180.0
 51
270.0
  0
LINE
  5
12A
100
AcDbEntity
  8
10
100
AcDbLine
 10
49.45
 20
99.362869
 30
0.0
 11
48.15
 21
99.362869
 31
0.0
  0
ARC
  5
12B
100
AcDbEntity
  8
10
100
AcDbCircle
 10
49.45
 20
99.662869
 30
0.0
 40
0.3
100
AcDbArc
 50
270.0
 51
0.0
  0
LINE
  5
12C
100
AcDbEntity
  8
10
100
AcDbLine
 10
54.55
 20
99.362869
 30
0.0
 11
53.25
 21
99.362869
 31
0.0
  0
ARC
  5
12D
100
AcDbEntity
  8
10
100
AcDbCircle
 10
53.25
 20
99.662869
 30
0.0
 40
0.3
100
AcDbArc
 50
180.0
 51
270.0
  0
LINE
  5
12E
100
AcDbEntity
  8
10
100
AcDbLine
 10
49.75
 20
100.562869
 30
0.0
 11
49.75
 21
99.662869
 31
0.0
  0
LINE
  5
12F
100
AcDbEntity
  8
10
100
AcDbLine
 10
52.95
 20
100.562869
 30
0.0
 11
49.75
 21
100.562869
 31
0.0
  0
LINE
  5
130
100
AcDbEntity
  8
10
100
AcDbLine
 10
52.95
 20
100.562869
 30
0.0
 11
52.95
 21
99.662869
 31
0.0
  0
LINE
  5
131
100
AcDbEntity
  8
10
100
AcDbLine
 10
49.45
 20
99.862869
 30
0.0
 11
48.15
 21
99.862869
 31
0.0
  0
LINE
  5
132
100
AcDbEntity
  8
10
100
AcDbLine
 10
54.55
 20
99.862869
 30
0.0
 11
53.25
 21
99.862869
 31
0.0
  0
ARC
  5
133
100
AcDbEntity
  8
10
100
AcDbCircle
 10
48.15
 20
100.162869
 30
0.0
 40
0.3
100
AcDbArc
 50
180.0
 51
270.0
  0
ARC
  5
134
100
AcDbEntity
  8
10
100
AcDbCircle
 10
49.45
 20
100.162869
 30
0.0
 40
0.3
100
AcDbArc
 50
270.0
 51
0.0
  0
ARC
  5
135
100
AcDbEntity
  8
10
100
AcDbCircle
 10
53.25
 20
100.162869
 30
0.0
 40
0.3
100
AcDbArc
 50
180.0
 51
270.0
  0
ARC
  5
136
100
AcDbEntity
  8
10
100
AcDbCircle
 10
54.55
 20
100.162869
 30
0.0
 40
0.3
100
AcDbArc
 50
270.0
 51
0.0
  0
LINE
  5
137
100
AcDbEntity
  8
10
100
AcDbLine
 10
53.25
 20
122.662869
 30
0.0
 11
49.45
 21
122.662869
 31
0.0
  0
LINE
  5
138
100
AcDbEntity
  8
10
100
AcDbLine
 10
53.25
 20
99.362869
 30
0.0
 11
49.45
 21
99.362869
 31
0.0
  0
LINE
  5
139
100
AcDbEntity
  8
10
100
AcDbLine
 10
52.7
 20
117.712869
 30
0.0
 11
52.7
 21
104.312869
 31
0.0
  0
LINE
  5
13A
100
AcDbEntity
  8
10
100
AcDbLine
 10
52.7
 20
117.712869
 30
0.0
 11
50.0
 21
117.712869
 31
0.0
  0
LINE
  5
13B
100
AcDbEntity
  8
10
100
AcDbLine
 10
50.0
 20
117.712869
 30
0.0
 11
50.0
 21
104.312869
 31
0.0
  0
LINE
  5
13C
100
AcDbEntity
  8
10
100
AcDbLine
 10
52.7
 20
104.312869
 30
0.0
 11
50.0
 21
104.312869
 31
0.0
  0
LINE
  5
13D
100
AcDbEntity
  8
10
100
AcDbLine
 10
68.5
 20
104.312869
 30
0.0
 11
65.8
 21
104.312869
 31
0.0
  0
LINE
  5
13E
100
AcDbEntity
  8
10
100
AcDbLine
 10
65.8
 20
117.712869
 30
0.0
 11
65.8
 21
104.312869
 31
0.0
  0
LINE
  5
13F
100
AcDbEntity
  8
10
100
AcDbLine
 10
68.5
 20
117.712869
 30
0.0
 11
65.8
 21
117.712869
 31
0.0
  0
LINE
  5
140
100
AcDbEntity
  8
10
100
AcDbLine
 10
68.5
 20
117.712869
 30
0.0
 11
68.5
 21
104.312869
 31
0.0
  0
LINE
  5
141
100
AcDbEntity
  8
10
100
AcDbLine
 10
69.05
 20
99.362869
 30
0.0
 11
65.25
 21
99.362869
 31
0.0
  0
LINE
  5
142
100
AcDbEntity
  8
10
100
AcDbLine
 10
69.05
 20
122.662869
 30
0.0
 11
65.25
 21
122.662869
 31
0.0
  0
ARC
  5
143
100
AcDbEntity
  8
10
100
AcDbCircle
 10
70.35
 20
100.162869
 30
0.0
 40
0.3
100
AcDbArc
 50
270.0
 51
0.0
  0
ARC
  5
144
100
AcDbEntity
  8
10
100
AcDbCircle
 10
69.05
 20
100.162869
 30
0.0
 40
0.3
100
AcDbArc
 50
180.0
 51
270.0
  0
ARC
  5
145
100
AcDbEntity
  8
10
100
AcDbCircle
 10
65.25
 20
100.162869
 30
0.0
 40
0.3
100
AcDbArc
 50
270.0
 51
0.0
  0
ARC
  5
146
100
AcDbEntity
  8
10
100
AcDbCircle
 10
63.95
 20
100.162869
 30
0.0
 40
0.3
100
AcDbArc
 50
180.0
 51
270.0
  0
LINE
  5
147
100
AcDbEntity
  8
10
100
AcDbLine
 10
70.35
 20
99.862869
 30
0.0
 11
69.05
 21
99.862869
 31
0.0
  0
LINE
  5
148
100
AcDbEntity
  8
10
100
AcDbLine
 10
65.25
 20
99.862869
 30
0.0
 11
63.95
 21
99.862869
 31
0.0
  0
LINE
  5
149
100
AcDbEntity
  8
10
100
AcDbLine
 10
68.75
 20
100.562869
 30
0.0
 11
68.75
 21
99.662869
 31
0.0
  0
LINE
  5
14A
100
AcDbEntity
  8
10
100
AcDbLine
 10
68.75
 20
100.562869
 30
0.0
 11
65.55
 21
100.562869
 31
0.0
  0
LINE
  5
14B
100
AcDbEntity
  8
10
100
AcDbLine
 10
65.55
 20
100.562869
 30
0.0
 11
65.55
 21
99.662869
 31
0.0
  0
ARC
  5
14C
100
AcDbEntity
  8
10
100
AcDbCircle
 10
69.05
 20
99.662869
 30
0.0
 40
0.3
100
AcDbArc
 50
180.0
 51
270.0
  0
LINE
  5
14D
100
AcDbEntity
  8
10
100
AcDbLine
 10
70.35
 20
99.362869
 30
0.0
 11
69.05
 21
99.362869
 31
0.0
  0
ARC
  5
14E
100
AcDbEntity
  8
10
100
AcDbCircle
 10
65.25
 20
99.662869
 30
0.0
 40
0.3
100
AcDbArc
 50
270.0
 51
0.0
  0
LINE
  5
14F
100
AcDbEntity
  8
10
100
AcDbLine
 10
65.25
 20
99.362869
 30
0.0
 11
63.95
 21
99.362869
 31
0.0
  0
ARC
  5
150
100
AcDbEntity
  8
10
100
AcDbCircle
 10
63.95
 20
99.662869
 30
0.0
 40
0.3
100
AcDbArc
 50
180.0
 51
270.0
  0
LINE
  5
151
100
AcDbEntity
  8
10
100
AcDbLine
 10
63.65
 20
101.562869
 30
0.0
 11
63.65
 21
99.662869
 31
0.0
  0
ARC
  5
152
100
AcDbEntity
  8
10
100
AcDbCircle
 10
63.95
 20
101.562869
 30
0.0
 40
0.3
100
AcDbArc
 50
90.0
 51
180.0
  0
LINE
  5
153
100
AcDbEntity
  8
10
100
AcDbLine
 10
70.35
 20
101.862869
 30
0.0
 11
63.95
 21
101.862869
 31
0.0
  0
ARC
  5
154
100
AcDbEntity
  8
10
100
AcDbCircle
 10
70.35
 20
101.562869
 30
0.0
 40
0.3
100
AcDbArc
 50
0.0
 51
90.0
  0
LINE
  5
155
100
AcDbEntity
  8
10
100
AcDbLine
 10
70.65
 20
101.562869
 30
0.0
 11
70.65
 21
99.662869
 31
0.0
  0
ARC
  5
156
100
AcDbEntity
  8
10
100
AcDbCircle
 10
70.35
 20
99.662869
 30
0.0
 40
0.3
100
AcDbArc
 50
270.0
 51
0.0
  0
ARC
  5
157
100
AcDbEntity
  8
10
100
AcDbCircle
 10
70.35
 20
121.862869
 30
0.0
 40
0.3
100
AcDbArc
 50
0.0
 51
90.0
  0
ARC
  5
158
100
AcDbEntity
  8
10
100
AcDbCircle
 10
69.05
 20
121.862869
 30
0.0
 40
0.3
100
AcDbArc
 50
90.0
 51
180.0
  0
ARC
  5
159
100
AcDbEntity
  8
10
100
AcDbCircle
 10
65.25
 20
121.862869
 30
0.0
 40
0.3
100
AcDbArc
 50
0.0
 51
90.0
  0
ARC
  5
15A
100
AcDbEntity
  8
10
100
AcDbCircle
 10
63.95
 20
121.862869
 30
0.0
 40
0.3
100
AcDbArc
 50
90.0
 51
180.0
  0
LINE
  5
15B
100
AcDbEntity
  8
10
100
AcDbLine
 10
65.25
 20
122.162869
 30
0.0
 11
63.95
 21
122.162869
 31
0.0
  0
LINE
  5
15C
100
AcDbEntity
  8
10
100
AcDbLine
 10
70.35
 20
122.162869
 30
0.0
 11
69.05
 21
122.162869
 31
0.0
  0
LINE
  5
15D
100
AcDbEntity
  8
10
100
AcDbLine
 10
68.75
 20
122.362869
 30
0.0
 11
68.75
 21
121.462869
 31
0.0
  0
LINE
  5
15E
100
AcDbEntity
  8
10
100
AcDbLine
 10
68.75
 20
121.462869
 30
0.0
 11
65.55
 21
121.462869
 31
0.0
  0
LINE
  5
15F
100
AcDbEntity
  8
10
100
AcDbLine
 10
65.55
 20
122.362869
 30
0.0
 11
65.55
 21
121.462869
 31
0.0
  0
ARC
  5
160
100
AcDbEntity
  8
10
100
AcDbCircle
 10
65.25
 20
122.362869
 30
0.0
 40
0.3
100
AcDbArc
 50
0.0
 51
90.0
  0
LINE
  5
161
100
AcDbEntity
  8
10
100
AcDbLine
 10
65.25
 20
122.662869
 30
0.0
 11
63.95
 21
122.662869
 31
0.0
  0
ARC
  5
162
100
AcDbEntity
  8
10
100
AcDbCircle
 10
69.05
 20
122.362869
 30
0.0
 40
0.3
100
AcDbArc
 50
90.0
 51
180.0
  0
LINE
  5
163
100
AcDbEntity
  8
10
100
AcDbLine
 10
70.35
 20
122.662869
 30
0.0
 11
69.05
 21
122.662869
 31
0.0
  0
ARC
  5
164
100
AcDbEntity
  8
10
100
AcDbCircle
 10
70.35
 20
122.362869
 30
0.0
 40
0.3
100
AcDbArc
 50
0.0
 51
90.0
  0
LINE
  5
165
100
AcDbEntity
  8
10
100
AcDbLine
 10
70.65
 20
122.362869
 30
0.0
 11
70.65
 21
120.462869
 31
0.0
  0
ARC
  5
166
100
AcDbEntity
  8
10
100
AcDbCircle
 10
70.35
 20
120.462869
 30
0.0
 40
0.3
100
AcDbArc
 50
270.0
 51
0.0
  0
LINE
  5
167
100
AcDbEntity
  8
10
100
AcDbLine
 10
70.35
 20
120.162869
 30
0.0
 11
63.95
 21
120.162869
 31
0.0
  0
ARC
  5
168
100
AcDbEntity
  8
10
100
AcDbCircle
 10
63.95
 20
120.462869
 30
0.0
 40
0.3
100
AcDbArc
 50
180.0
 51
270.0
  0
LINE
  5
169
100
AcDbEntity
  8
10
100
AcDbLine
 10
63.65
 20
122.362869
 30
0.0
 11
63.65
 21
120.462869
 31
0.0
  0
ARC
  5
16A
100
AcDbEntity
  8
10
100
AcDbCircle
 10
63.95
 20
122.362869
 30
0.0
 40
0.3
100
AcDbArc
 50
90.0
 51
180.0
  0
LINE
  5
16B
100
AcDbEntity
  8
10
100
AcDbLine
 10
65.888229
 20
119.161758
 30
0.0
 11
69.188229
 21
118.277525
 31
0.0
  0
ARC
  5
16C
100
AcDbEntity
  8
10
100
AcDbCircle
 10
68.8
 20
116.828637
 30
0.0
 40
1.5
100
AcDbArc
 50
0.0
 51
75.0
  0
ARC
  5
16D
100
AcDbEntity
  8
10
100
AcDbCircle
 10
65.5
 20
117.712869
 30
0.0
 40
1.5
100
AcDbArc
 50
75.0
 51
180.0
  0
LINE
  5
16E
100
AcDbEntity
  8
10
100
AcDbLine
 10
64.0
 20
117.712869
 30
0.0
 11
64.0
 21
104.312869
 31
0.0
  0
LINE
  5
16F
100
AcDbEntity
  8
10
100
AcDbLine
 10
70.3
 20
116.828637
 30
0.0
 11
70.3
 21
105.197101
 31
0.0
  0
LINE
  5
170
100
AcDbEntity
  8
10
100
AcDbLine
 10
65.888229
 20
102.86398
 30
0.0
 11
69.188229
 21
103.748212
 31
0.0
  0
ARC
  5
171
100
AcDbEntity
  8
10
100
AcDbCircle
 10
65.5
 20
104.312869
 30
0.0
 40
1.5
100
AcDbArc
 50
180.0
 51
285.0
  0
ARC
  5
172
100
AcDbEntity
  8
10
100
AcDbCircle
 10
68.8
 20
105.197101
 30
0.0
 40
1.5
100
AcDbArc
 50
285.0
 51
0.0
  0
CIRCLE
  5
173
100
AcDbEntity
  8
10
100
AcDbCircle
 10
67.15
 20
97.287869
 30
0.0
 40
1.0
  0
CIRCLE
  5
174
100
AcDbEntity
  8
10
100
AcDbCircle
 10
67.15
 20
124.737869
 30
0.0
 40
1.0
  0
CIRCLE
  5
175
100
AcDbEntity
  8
10
100
AcDbCircle
 10
67.15
 20
124.737869
 30
0.0
 40
1.3
  0
CIRCLE
  5
176
100
AcDbEntity
  8
10
100
AcDbCircle
 10
67.15
 20
97.287869
 30
0.0
 40
1.3
  0
LINE
  5
177
100
AcDbEntity
  8
10
100
AcDbLine
 10
62.9
 20
94.812869
 30
0.0
 11
62.9
 21
94.612869
 31
0.0
  0
LINE
  5
178
100
AcDbEntity
  8
10
100
AcDbLine
 10
71.4
 20
94.812869
 30
0.0
 11
71.4
 21
94.612869
 31
0.0
  0
LINE
  5
179
100
AcDbEntity
  8
10
100
AcDbLine
 10
71.4
 20
127.412869
 30
0.0
 11
71.4
 21
127.212869
 31
0.0
  0
LINE
  5
17A
100
AcDbEntity
  8
10
100
AcDbLine
 10
62.9
 20
127.412869
 30
0.0
 11
62.9
 21
127.212869
 31
0.0
  0
ARC
  5
17B
100
AcDbEntity
  8
10
100
AcDbCircle
 10
71.1
 20
94.612869
 30
0.0
 40
0.3
100
AcDbArc
 50
270.0
 51
0.0
  0
LINE
  5
17C
100
AcDbEntity
  8
10
100
AcDbLine
 10
71.1
 20
94.312869
 30
0.0
 11
63.2
 21
94.312869
 31
0.0
  0
ARC
  5
17D
100
AcDbEntity
  8
10
100
AcDbCircle
 10
63.2
 20
94.612869
 30
0.0
 40
0.3
100
AcDbArc
 50
180.0
 51
270.0
  0
ARC
  5
17E
100
AcDbEntity
  8
10
100
AcDbCircle
 10
63.2
 20
127.412869
 30
0.0
 40
0.3
100
AcDbArc
 50
90.0
 51
180.0
  0
LINE
  5
17F
100
AcDbEntity
  8
10
100
AcDbLine
 10
71.1
 20
127.712869
 30
0.0
 11
63.2
 21
127.712869
 31
0.0
  0
ARC
  5
180
100
AcDbEntity
  8
10
100
AcDbCircle
 10
71.1
 20
127.412869
 30
0.0
 40
0.3
100
AcDbArc
 50
0.0
 51
90.0
  0
LINE
  5
181
100
AcDbEntity
  8
10
100
AcDbLine
 10
71.7
 20
127.212869
 30
0.0
 11
62.6
 21
127.212869
 31
0.0
  0
LINE
  5
182
100
AcDbEntity
  8
10
100
AcDbLine
 10
71.7
 20
127.212869
 30
0.0
 11
71.7
 21
94.812869
 31
0.0
  0
LINE
  5
183
100
AcDbEntity
  8
10
100
AcDbLine
 10
71.7
 20
94.812869
 30
0.0
 11
62.6
 21
94.812869
 31
0.0
  0
LINE
  5
184
100
AcDbEntity
  8
10
100
AcDbLine
 10
62.6
 20
127.212869
 30
0.0
 11
62.6
 21
94.812869
 31
0.0
  0
LINE
  5
185
100
AcDbEntity
  8
10
100
AcDbLine
 10
52.7
 20
141.312869
 30
0.0
 11
50.0
 21
141.312869
 31
0.0
  0
LINE
  5
186
100
AcDbEntity
  8
10
100
AcDbLine
 10
50.0
 20
154.712869
 30
0.0
 11
50.0
 21
141.312869
 31
0.0
  0
LINE
  5
187
100
AcDbEntity
  8
10
100
AcDbLine
 10
52.7
 20
154.712869
 30
0.0
 11
50.0
 21
154.712869
 31
0.0
  0
LINE
  5
188
100
AcDbEntity
  8
10
100
AcDbLine
 10
52.7
 20
154.712869
 30
0.0
 11
52.7
 21
141.312869
 31
0.0
  0
LINE
  5
189
100
AcDbEntity
  8
10
100
AcDbLine
 10
53.25
 20
136.362869
 30
0.0
 11
49.45
 21
136.362869
 31
0.0
  0
ARC
  5
18A
100
AcDbEntity
  8
10
100
AcDbCircle
 10
54.55
 20
137.162869
 30
0.0
 40
0.3
100
AcDbArc
 50
270.0
 51
0.0
  0
ARC
  5
18B
100
AcDbEntity
  8
10
100
AcDbCircle
 10
53.25
 20
137.162869
 30
0.0
 40
0.3
100
AcDbArc
 50
180.0
 51
270.0
  0
ARC
  5
18C
100
AcDbEntity
  8
10
100
AcDbCircle
 10
49.45
 20
137.162869
 30
0.0
 40
0.3
100
AcDbArc
 50
270.0
 51
0.0
  0
ARC
  5
18D
100
AcDbEntity
  8
10
100
AcDbCircle
 10
48.15
 20
137.162869
 30
0.0
 40
0.3
100
AcDbArc
 50
180.0
 51
270.0
  0
LINE
  5
18E
100
AcDbEntity
  8
10
100
AcDbLine
 10
54.55
 20
136.862869
 30
0.0
 11
53.25
 21
136.862869
 31
0.0
  0
LINE
  5
18F
100
AcDbEntity
  8
10
100
AcDbLine
 10
49.45
 20
136.862869
 30
0.0
 11
48.15
 21
136.862869
 31
0.0
  0
LINE
  5
190
100
AcDbEntity
  8
10
100
AcDbLine
 10
52.95
 20
137.562869
 30
0.0
 11
52.95
 21
136.662869
 31
0.0
  0
LINE
  5
191
100
AcDbEntity
  8
10
100
AcDbLine
 10
52.95
 20
137.562869
 30
0.0
 11
49.75
 21
137.562869
 31
0.0
  0
LINE
  5
192
100
AcDbEntity
  8
10
100
AcDbLine
 10
49.75
 20
137.562869
 30
0.0
 11
49.75
 21
136.662869
 31
0.0
  0
ARC
  5
193
100
AcDbEntity
  8
10
100
AcDbCircle
 10
53.25
 20
136.662869
 30
0.0
 40
0.3
100
AcDbArc
 50
180.0
 51
270.0
  0
LINE
  5
194
100
AcDbEntity
  8
10
100
AcDbLine
 10
54.55
 20
136.362869
 30
0.0
 11
53.25
 21
136.362869
 31
0.0
  0
ARC
  5
195
100
AcDbEntity
  8
10
100
AcDbCircle
 10
49.45
 20
136.662869
 30
0.0
 40
0.3
100
AcDbArc
 50
270.0
 51
0.0
  0
LINE
  5
196
100
AcDbEntity
  8
10
100
AcDbLine
 10
49.45
 20
136.362869
 30
0.0
 11
48.15
 21
136.362869
 31
0.0
  0
ARC
  5
197
100
AcDbEntity
  8
10
100
AcDbCircle
 10
48.15
 20
136.662869
 30
0.0
 40
0.3
100
AcDbArc
 50
180.0
 51
270.0
  0
LINE
  5
198
100
AcDbEntity
  8
10
100
AcDbLine
 10
47.85
 20
138.562869
 30
0.0
 11
47.85
 21
136.662869
 31
0.0
  0
ARC
  5
199
100
AcDbEntity
  8
10
100
AcDbCircle
 10
48.15
 20
138.562869
 30
0.0
 40
0.3
100
AcDbArc
 50
90.0
 51
180.0
  0
LINE
  5
19A
100
AcDbEntity
  8
10
100
AcDbLine
 10
54.55
 20
138.862869
 30
0.0
 11
48.15
 21
138.862869
 31
0.0
  0
ARC
  5
19B
100
AcDbEntity
  8
10
100
AcDbCircle
 10
54.55
 20
138.562869
 30
0.0
 40
0.3
100
AcDbArc
 50
0.0
 51
90.0
  0
LINE
  5
19C
100
AcDbEntity
  8
10
100
AcDbLine
 10
54.85
 20
138.562869
 30
0.0
 11
54.85
 21
136.662869
 31
0.0
  0
ARC
  5
19D
100
AcDbEntity
  8
10
100
AcDbCircle
 10
54.55
 20
136.662869
 30
0.0
 40
0.3
100
AcDbArc
 50
270.0
 51
0.0
  0
LINE
  5
19E
100
AcDbEntity
  8
10
100
AcDbLine
 10
48.2
 20
154.712869
 30
0.0
 11
48.2
 21
141.312869
 31
0.0
  0
LINE
  5
19F
100
AcDbEntity
  8
10
100
AcDbLine
 10
54.5
 20
153.828637
 30
0.0
 11
54.5
 21
142.197101
 31
0.0
  0
LINE
  5
1A0
100
AcDbEntity
  8
10
100
AcDbLine
 10
50.088229
 20
139.86398
 30
0.0
 11
53.388229
 21
140.748212
 31
0.0
  0
ARC
  5
1A1
100
AcDbEntity
  8
10
100
AcDbCircle
 10
49.7
 20
141.312869
 30
0.0
 40
1.5
100
AcDbArc
 50
180.0
 51
285.0
  0
ARC
  5
1A2
100
AcDbEntity
  8
10
100
AcDbCircle
 10
53.0
 20
142.197101
 30
0.0
 40
1.5
100
AcDbArc
 50
285.0
 51
0.0
  0
CIRCLE
  5
1A3
100
AcDbEntity
  8
10
100
AcDbCircle
 10
51.35
 20
134.287869
 30
0.0
 40
1.0
  0
CIRCLE
  5
1A4
100
AcDbEntity
  8
10
100
AcDbCircle
 10
51.35
 20
134.287869
 30
0.0
 40
1.3
  0
LINE
  5
1A5
100
AcDbEntity
  8
10
100
AcDbLine
 10
47.1
 20
131.812869
 30
0.0
 11
47.1
 21
131.612869
 31
0.0
  0
LINE
  5
1A6
100
AcDbEntity
  8
10
100
AcDbLine
 10
55.6
 20
131.812869
 30
0.0
 11
55.6
 21
131.612869
 31
0.0
  0
ARC
  5
1A7
100
AcDbEntity
  8
10
100
AcDbCircle
 10
55.3
 20
131.612869
 30
0.0
 40
0.3
100
AcDbArc
 50
270.0
 51
0.0
  0
LINE
  5
1A8
100
AcDbEntity
  8
10
100
AcDbLine
 10
55.3
 20
131.312869
 30
0.0
 11
47.4
 21
131.312869
 31
0.0
  0
ARC
  5
1A9
100
AcDbEntity
  8
10
100
AcDbCircle
 10
47.4
 20
131.612869
 30
0.0
 40
0.3
100
AcDbArc
 50
180.0
 51
270.0
  0
LINE
  5
1AA
100
AcDbEntity
  8
10
100
AcDbLine
 10
55.9
 20
131.812869
 30
0.0
 11
46.8
 21
131.812869
 31
0.0
  0
LINE
  5
1AB
100
AcDbEntity
  8
10
100
AcDbLine
 10
71.7
 20
131.812869
 30
0.0
 11
62.6
 21
131.812869
 31
0.0
  0
ARC
  5
1AC
100
AcDbEntity
  8
10
100
AcDbCircle
 10
63.2
 20
131.612869
 30
0.0
 40
0.3
100
AcDbArc
 50
180.0
 51
270.0
  0
LINE
  5
1AD
100
AcDbEntity
  8
10
100
AcDbLine
 10
71.1
 20
131.312869
 30
0.0
 11
63.2
 21
131.312869
 31
0.0
  0
ARC
  5
1AE
100
AcDbEntity
  8
10
100
AcDbCircle
 10
71.1
 20
131.612869
 30
0.0
 40
0.3
100
AcDbArc
 50
270.0
 51
0.0
  0
LINE
  5
1AF
100
AcDbEntity
  8
10
100
AcDbLine
 10
71.4
 20
131.812869
 30
0.0
 11
71.4
 21
131.612869
 31
0.0
  0
LINE
  5
1B0
100
AcDbEntity
  8
10
100
AcDbLine
 10
62.9
 20
131.812869
 30
0.0
 11
62.9
 21
131.612869
 31
0.0
  0
CIRCLE
  5
1B1
100
AcDbEntity
  8
10
100
AcDbCircle
 10
67.15
 20
134.287869
 30
0.0
 40
1.3
  0
CIRCLE
  5
1B2
100
AcDbEntity
  8
10
100
AcDbCircle
 10
67.15
 20
134.287869
 30
0.0
 40
1.0
  0
ARC
  5
1B3
100
AcDbEntity
  8
10
100
AcDbCircle
 10
68.8
 20
142.197101
 30
0.0
 40
1.5
100
AcDbArc
 50
285.0
 51
0.0
  0
ARC
  5
1B4
100
AcDbEntity
  8
10
100
AcDbCircle
 10
65.5
 20
141.312869
 30
0.0
 40
1.5
100
AcDbArc
 50
180.0
 51
285.0
  0
LINE
  5
1B5
100
AcDbEntity
  8
10
100
AcDbLine
 10
65.888229
 20
139.86398
 30
0.0
 11
69.188229
 21
140.748212
 31
0.0
  0
LINE
  5
1B6
100
AcDbEntity
  8
10
100
AcDbLine
 10
70.3
 20
153.828637
 30
0.0
 11
70.3
 21
142.197101
 31
0.0
  0
LINE
  5
1B7
100
AcDbEntity
  8
10
100
AcDbLine
 10
64.0
 20
154.712869
 30
0.0
 11
64.0
 21
141.312869
 31
0.0
  0
ARC
  5
1B8
100
AcDbEntity
  8
10
100
AcDbCircle
 10
70.35
 20
136.662869
 30
0.0
 40
0.3
100
AcDbArc
 50
270.0
 51
0.0
  0
LINE
  5
1B9
100
AcDbEntity
  8
10
100
AcDbLine
 10
70.65
 20
138.562869
 30
0.0
 11
70.65
 21
136.662869
 31
0.0
  0
ARC
  5
1BA
100
AcDbEntity
  8
10
100
AcDbCircle
 10
70.35
 20
138.562869
 30
0.0
 40
0.3
100
AcDbArc
 50
0.0
 51
90.0
  0
LINE
  5
1BB
100
AcDbEntity
  8
10
100
AcDbLine
 10
70.35
 20
138.862869
 30
0.0
 11
63.95
 21
138.862869
 31
0.0
  0
ARC
  5
1BC
100
AcDbEntity
  8
10
100
AcDbCircle
 10
63.95
 20
138.562869
 30
0.0
 40
0.3
100
AcDbArc
 50
90.0
 51
180.0
  0
LINE
  5
1BD
100
AcDbEntity
  8
10
100
AcDbLine
 10
63.65
 20
138.562869
 30
0.0
 11
63.65
 21
136.662869
 31
0.0
  0
ARC
  5
1BE
100
AcDbEntity
  8
10
100
AcDbCircle
 10
63.95
 20
136.662869
 30
0.0
 40
0.3
100
AcDbArc
 50
180.0
 51
270.0
  0
LINE
  5
1BF
100
AcDbEntity
  8
10
100
AcDbLine
 10
65.25
 20
136.362869
 30
0.0
 11
63.95
 21
136.362869
 31
0.0
  0
ARC
  5
1C0
100
AcDbEntity
  8
10
100
AcDbCircle
 10
65.25
 20
136.662869
 30
0.0
 40
0.3
100
AcDbArc
 50
270.0
 51
0.0
  0
LINE
  5
1C1
100
AcDbEntity
  8
10
100
AcDbLine
 10
70.35
 20
136.362869
 30
0.0
 11
69.05
 21
136.362869
 31
0.0
  0
ARC
  5
1C2
100
AcDbEntity
  8
10
100
AcDbCircle
 10
69.05
 20
136.662869
 30
0.0
 40
0.3
100
AcDbArc
 50
180.0
 51
270.0
  0
LINE
  5
1C3
100
AcDbEntity
  8
10
100
AcDbLine
 10
65.55
 20
137.562869
 30
0.0
 11
65.55
 21
136.662869
 31
0.0
  0
LINE
  5
1C4
100
AcDbEntity
  8
10
100
AcDbLine
 10
68.75
 20
137.562869
 30
0.0
 11
65.55
 21
137.562869
 31
0.0
  0
LINE
  5
1C5
100
AcDbEntity
  8
10
100
AcDbLine
 10
68.75
 20
137.562869
 30
0.0
 11
68.75
 21
136.662869
 31
0.0
  0
LINE
  5
1C6
100
AcDbEntity
  8
10
100
AcDbLine
 10
65.25
 20
136.862869
 30
0.0
 11
63.95
 21
136.862869
 31
0.0
  0
LINE
  5
1C7
100
AcDbEntity
  8
10
100
AcDbLine
 10
70.35
 20
136.862869
 30
0.0
 11
69.05
 21
136.862869
 31
0.0
  0
ARC
  5
1C8
100
AcDbEntity
  8
10
100
AcDbCircle
 10
63.95
 20
137.162869
 30
0.0
 40
0.3
100
AcDbArc
 50
180.0
 51
270.0
  0
ARC
  5
1C9
100
AcDbEntity
  8
10
100
AcDbCircle
 10
65.25
 20
137.162869
 30
0.0
 40
0.3
100
AcDbArc
 50
270.0
 51
0.0
  0
ARC
  5
1CA
100
AcDbEntity
  8
10
100
AcDbCircle
 10
69.05
 20
137.162869
 30
0.0
 40
0.3
100
AcDbArc
 50
180.0
 51
270.0
  0
ARC
  5
1CB
100
AcDbEntity
  8
10
100
AcDbCircle
 10
70.35
 20
137.162869
 30
0.0
 40
0.3
100
AcDbArc
 50
270.0
 51
0.0
  0
LINE
  5
1CC
100
AcDbEntity
  8
10
100
AcDbLine
 10
69.05
 20
136.362869
 30
0.0
 11
65.25
 21
136.362869
 31
0.0
  0
LINE
  5
1CD
100
AcDbEntity
  8
10
100
AcDbLine
 10
68.5
 20
154.712869
 30
0.0
 11
68.5
 21
141.312869
 31
0.0
  0
LINE
  5
1CE
100
AcDbEntity
  8
10
100
AcDbLine
 10
68.5
 20
154.712869
 30
0.0
 11
65.8
 21
154.712869
 31
0.0
  0
LINE
  5
1CF
100
AcDbEntity
  8
10
100
AcDbLine
 10
65.8
 20
154.712869
 30
0.0
 11
65.8
 21
141.312869
 31
0.0
  0
LINE
  5
1D0
100
AcDbEntity
  8
10
100
AcDbLine
 10
68.5
 20
141.312869
 30
0.0
 11
65.8
 21
141.312869
 31
0.0
  0
LINE
  5
1D1
100
AcDbEntity
  8
10
100
AcDbLine
 10
30.0
 20
85.0
 30
0.0
 11
80.0
 21
85.0
 31
0.0
  0
LINE
  5
1D2
100
AcDbEntity
  8
10
100
AcDbLine
 10
29.5
 20
86.5
 30
0.0
 11
80.0
 21
86.5
 31
0.0
  0
CIRCLE
  5
1D3
100
AcDbEntity
  8
10
100
AcDbCircle
 10
67.15
 20
90.0
 30
0.0
 40
2.25
  0
LINE
  5
1D4
100
AcDbEntity
  8
10
100
AcDbLine
 10
61.4
 20
128.5
 30
0.0
 11
61.4
 21
93.5
 31
0.0
  0
LINE
  5
1D5
100
AcDbEntity
  8
10
100
AcDbLine
 10
57.1
 20
128.5
 30
0.0
 11
57.1
 21
93.5
 31
0.0
  0
LINE
  5
1D6
100
AcDbEntity
  8
10
100
AcDbLine
 10
45.6
 20
128.5
 30
0.0
 11
45.6
 21
93.5
 31
0.0
  0
LINE
  5
1D7
100
AcDbEntity
  8
10
100
AcDbLine
 10
72.9
 20
128.5
 30
0.0
 11
72.9
 21
93.5
 31
0.0
  0
ARC
  5
1D8
100
AcDbEntity
  8
10
100
AcDbCircle
 10
44.6
 20
94.5
 30
0.0
 40
1.0
100
AcDbArc
 50
180.0
 51
270.0
  0
LINE
  5
1D9
100
AcDbEntity
  8
10
100
AcDbLine
 10
43.6
 20
127.5
 30
0.0
 11
43.6
 21
94.5
 31
0.0
  0
LINE
  5
1DA
100
AcDbEntity
  8
10
100
AcDbLine
 10
44.6
 20
93.5
 30
0.0
 11
73.9
 21
93.5
 31
0.0
  0
ARC
  5
1DB
100
AcDbEntity
  8
10
100
AcDbCircle
 10
73.9
 20
94.5
 30
0.0
 40
1.0
100
AcDbArc
 50
270.0
 51
0.0
  0
LINE
  5
1DC
100
AcDbEntity
  8
10
100
AcDbLine
 10
74.9
 20
127.5
 30
0.0
 11
74.9
 21
94.5
 31
0.0
  0
ARC
  5
1DD
100
AcDbEntity
  8
10
100
AcDbCircle
 10
44.6
 20
127.5
 30
0.0
 40
1.0
100
AcDbArc
 50
90.0
 51
180.0
  0
LINE
  5
1DE
100
AcDbEntity
  8
10
100
AcDbLine
 10
44.6
 20
128.5
 30
0.0
 11
73.9
 21
128.5
 31
0.0
  0
ARC
  5
1DF
100
AcDbEntity
  8
10
100
AcDbCircle
 10
73.9
 20
127.5
 30
0.0
 40
1.0
100
AcDbArc
 50
360.0
 51
90.0
  0
ARC
  5
1E0
100
AcDbEntity
  8
10
100
AcDbCircle
 10
44.6
 20
131.5
 30
0.0
 40
1.0
100
AcDbArc
 50
180.0
 51
270.0
  0
ARC
  5
1E1
100
AcDbEntity
  8
10
100
AcDbCircle
 10
73.9
 20
131.5
 30
0.0
 40
1.0
100
AcDbArc
 50
270.0
 51
0.0
  0
LINE
  5
1E2
100
AcDbEntity
  8
10
100
AcDbLine
 10
44.6
 20
130.5
 30
0.0
 11
73.9
 21
130.5
 31
0.0
  0
LINE
  5
1E3
100
AcDbEntity
  8
10
100
AcDbLine
 10
222.75
 20
84.0
 30
0.0
 11
225.25
 21
84.0
 31
0.0
  0
LINE
  5
1E4
100
AcDbEntity
  8
10
100
AcDbLine
 10
217.75
 20
84.0
 30
0.0
 11
220.25
 21
84.0
 31
0.0
  0
LINE
  5
1E5
100
AcDbEntity
  8
10
100
AcDbLine
 10
212.75
 20
84.0
 30
0.0
 11
215.25
 21
84.0
 31
0.0
  0
LINE
  5
1E6
100
AcDbEntity
  8
10
100
AcDbLine
 10
207.75
 20
84.0
 30
0.0
 11
210.25
 21
84.0
 31
0.0
  0
LINE
  5
1E7
100
AcDbEntity
  8
10
100
AcDbLine
 10
202.75
 20
84.0
 30
0.0
 11
205.25
 21
84.0
 31
0.0
  0
LINE
  5
1E8
100
AcDbEntity
  8
10
100
AcDbLine
 10
222.75
 20
89.0
 30
0.0
 11
225.25
 21
89.0
 31
0.0
  0
LINE
  5
1E9
100
AcDbEntity
  8
10
100
AcDbLine
 10
217.75
 20
89.0
 30
0.0
 11
220.25
 21
89.0
 31
0.0
  0
LINE
  5
1EA
100
AcDbEntity
  8
10
100
AcDbLine
 10
212.75
 20
89.0
 30
0.0
 11
215.25
 21
89.0
 31
0.0
  0
LINE
  5
1EB
100
AcDbEntity
  8
10
100
AcDbLine
 10
207.75
 20
89.0
 30
0.0
 11
210.25
 21
89.0
 31
0.0
  0
LINE
  5
1EC
100
AcDbEntity
  8
10
100
AcDbLine
 10
202.75
 20
89.0
 30
0.0
 11
205.25
 21
89.0
 31
0.0
  0
LINE
  5
1ED
100
AcDbEntity
  8
10
100
AcDbLine
 10
222.75
 20
126.0
 30
0.0
 11
225.25
 21
126.0
 31
0.0
  0
LINE
  5
1EE
100
AcDbEntity
  8
10
100
AcDbLine
 10
217.75
 20
126.0
 30
0.0
 11
220.25
 21
126.0
 31
0.0
  0
LINE
  5
1EF
100
AcDbEntity
  8
10
100
AcDbLine
 10
212.75
 20
126.0
 30
0.0
 11
215.25
 21
126.0
 31
0.0
  0
LINE
  5
1F0
100
AcDbEntity
  8
10
100
AcDbLine
 10
207.75
 20
126.0
 30
0.0
 11
210.25
 21
126.0
 31
0.0
  0
LINE
  5
1F1
100
AcDbEntity
  8
10
100
AcDbLine
 10
202.75
 20
126.0
 30
0.0
 11
205.25
 21
126.0
 31
0.0
  0
LINE
  5
1F2
100
AcDbEntity
  8
10
100
AcDbLine
 10
222.75
 20
131.0
 30
0.0
 11
225.25
 21
131.0
 31
0.0
  0
LINE
  5
1F3
100
AcDbEntity
  8
10
100
AcDbLine
 10
217.75
 20
131.0
 30
0.0
 11
220.25
 21
131.0
 31
0.0
  0
LINE
  5
1F4
100
AcDbEntity
  8
10
100
AcDbLine
 10
212.75
 20
131.0
 30
0.0
 11
215.25
 21
131.0
 31
0.0
  0
LINE
  5
1F5
100
AcDbEntity
  8
10
100
AcDbLine
 10
207.75
 20
131.0
 30
0.0
 11
210.25
 21
131.0
 31
0.0
  0
LINE
  5
1F6
100
AcDbEntity
  8
10
100
AcDbLine
 10
202.75
 20
131.0
 30
0.0
 11
205.25
 21
131.0
 31
0.0
  0
ARC
  5
1F7
100
AcDbEntity
  8
10
100
AcDbCircle
 10
192.5
 20
82.0
 30
0.0
 40
3.0
100
AcDbArc
 50
0.0
 51
90.0
  0
LINE
  5
1F8
100
AcDbEntity
  8
10
100
AcDbLine
 10
190.0
 20
85.0
 30
0.0
 11
192.5
 21
85.0
 31
0.0
  0
LINE
  5
1F9
100
AcDbEntity
  8
11
100
AcDbLine
 10
30.0
 20
167.5
 30
0.0
 11
80.0
 21
167.5
 31
0.0
  0
LINE
  5
1FB
100
AcDbEntity
  8
11
100
AcDbLine
 10
30.8
 20
208.0
 30
0.0
 11
79.2
 21
208.0
 31
0.0
  0
LINE
  5
1FC
100
AcDbEntity
  8
10
100
AcDbLine
 10
53.25
 20
159.662869
 30
0.0
 11
49.45
 21
159.662869
 31
0.0
  0
ARC
  5
1FD
100
AcDbEntity
  8
10
100
AcDbCircle
 10
54.55
 20
158.862869
 30
0.0
 40
0.3
100
AcDbArc
 50
0.0
 51
90.0
  0
ARC
  5
1FE
100
AcDbEntity
  8
10
100
AcDbCircle
 10
53.25
 20
158.862869
 30
0.0
 40
0.3
100
AcDbArc
 50
90.0
 51
180.0
  0
ARC
  5
1FF
100
AcDbEntity
  8
10
100
AcDbCircle
 10
49.45
 20
158.862869
 30
0.0
 40
0.3
100
AcDbArc
 50
0.0
 51
90.0
  0
ARC
  5
200
100
AcDbEntity
  8
10
100
AcDbCircle
 10
48.15
 20
158.862869
 30
0.0
 40
0.3
100
AcDbArc
 50
90.0
 51
180.0
  0
LINE
  5
201
100
AcDbEntity
  8
10
100
AcDbLine
 10
49.45
 20
159.162869
 30
0.0
 11
48.15
 21
159.162869
 31
0.0
  0
LINE
  5
202
100
AcDbEntity
  8
10
100
AcDbLine
 10
54.55
 20
159.162869
 30
0.0
 11
53.25
 21
159.162869
 31
0.0
  0
LINE
  5
203
100
AcDbEntity
  8
10
100
AcDbLine
 10
52.95
 20
159.362869
 30
0.0
 11
52.95
 21
158.462869
 31
0.0
  0
LINE
  5
204
100
AcDbEntity
  8
10
100
AcDbLine
 10
52.95
 20
158.462869
 30
0.0
 11
49.75
 21
158.462869
 31
0.0
  0
LINE
  5
205
100
AcDbEntity
  8
10
100
AcDbLine
 10
49.75
 20
159.362869
 30
0.0
 11
49.75
 21
158.462869
 31
0.0
  0
ARC
  5
206
100
AcDbEntity
  8
10
100
AcDbCircle
 10
49.45
 20
159.362869
 30
0.0
 40
0.3
100
AcDbArc
 50
0.0
 51
90.0
  0
LINE
  5
207
100
AcDbEntity
  8
10
100
AcDbLine
 10
49.45
 20
159.662869
 30
0.0
 11
48.15
 21
159.662869
 31
0.0
  0
ARC
  5
208
100
AcDbEntity
  8
10
100
AcDbCircle
 10
53.25
 20
159.362869
 30
0.0
 40
0.3
100
AcDbArc
 50
90.0
 51
180.0
  0
LINE
  5
209
100
AcDbEntity
  8
10
100
AcDbLine
 10
54.55
 20
159.662869
 30
0.0
 11
53.25
 21
159.662869
 31
0.0
  0
ARC
  5
20A
100
AcDbEntity
  8
10
100
AcDbCircle
 10
54.55
 20
159.362869
 30
0.0
 40
0.3
100
AcDbArc
 50
0.0
 51
90.0
  0
LINE
  5
20B
100
AcDbEntity
  8
10
100
AcDbLine
 10
54.85
 20
159.362869
 30
0.0
 11
54.85
 21
157.462869
 31
0.0
  0
ARC
  5
20C
100
AcDbEntity
  8
10
100
AcDbCircle
 10
54.55
 20
157.462869
 30
0.0
 40
0.3
100
AcDbArc
 50
270.0
 51
0.0
  0
LINE
  5
20D
100
AcDbEntity
  8
10
100
AcDbLine
 10
54.55
 20
157.162869
 30
0.0
 11
48.15
 21
157.162869
 31
0.0
  0
ARC
  5
20E
100
AcDbEntity
  8
10
100
AcDbCircle
 10
48.15
 20
157.462869
 30
0.0
 40
0.3
100
AcDbArc
 50
180.0
 51
270.0
  0
LINE
  5
20F
100
AcDbEntity
  8
10
100
AcDbLine
 10
47.85
 20
159.362869
 30
0.0
 11
47.85
 21
157.462869
 31
0.0
  0
ARC
  5
210
100
AcDbEntity
  8
10
100
AcDbCircle
 10
48.15
 20
159.362869
 30
0.0
 40
0.3
100
AcDbArc
 50
90.0
 51
180.0
  0
LINE
  5
211
100
AcDbEntity
  8
10
100
AcDbLine
 10
50.088229
 20
156.161758
 30
0.0
 11
53.388229
 21
155.277525
 31
0.0
  0
CIRCLE
  5
212
100
AcDbEntity
  8
10
100
AcDbCircle
 10
51.35
 20
161.737869
 30
0.0
 40
1.0
  0
CIRCLE
  5
213
100
AcDbEntity
  8
10
100
AcDbCircle
 10
51.35
 20
161.737869
 30
0.0
 40
1.3
  0
LINE
  5
214
100
AcDbEntity
  8
10
100
AcDbLine
 10
55.6
 20
164.412869
 30
0.0
 11
55.6
 21
164.212869
 31
0.0
  0
LINE
  5
215
100
AcDbEntity
  8
10
100
AcDbLine
 10
47.1
 20
164.412869
 30
0.0
 11
47.1
 21
164.212869
 31
0.0
  0
ARC
  5
216
100
AcDbEntity
  8
10
100
AcDbCircle
 10
47.4
 20
164.412869
 30
0.0
 40
0.3
100
AcDbArc
 50
90.0
 51
180.0
  0
LINE
  5
217
100
AcDbEntity
  8
10
100
AcDbLine
 10
55.3
 20
164.712869
 30
0.0
 11
47.4
 21
164.712869
 31
0.0
  0
ARC
  5
218
100
AcDbEntity
  8
10
100
AcDbCircle
 10
55.3
 20
164.412869
 30
0.0
 40
0.3
100
AcDbArc
 50
0.0
 51
90.0
  0
LINE
  5
219
100
AcDbEntity
  8
10
100
AcDbLine
 10
55.9
 20
164.212869
 30
0.0
 11
46.8
 21
164.212869
 31
0.0
  0
LINE
  5
21A
100
AcDbEntity
  8
12
100
AcDbLine
 10
38.333333
 20
202.0
 30
0.0
 11
25.666667
 21
202.0
 31
0.0
  0
LINE
  5
21B
100
AcDbEntity
  8
12
100
AcDbLine
 10
32.0
 20
208.333333
 30
0.0
 11
32.0
 21
195.666667
 31
0.0
  0
CIRCLE
  5
21C
100
AcDbEntity
  8
12
100
AcDbCircle
 10
32.0
 20
202.0
 30
0.0
 40
3.0
  0
LINE
  5
21D
100
AcDbEntity
  8
10
100
AcDbLine
 10
71.7
 20
164.212869
 30
0.0
 11
62.6
 21
164.212869
 31
0.0
  0
ARC
  5
21E
100
AcDbEntity
  8
10
100
AcDbCircle
 10
71.1
 20
164.412869
 30
0.0
 40
0.3
100
AcDbArc
 50
0.0
 51
90.0
  0
LINE
  5
21F
100
AcDbEntity
  8
10
100
AcDbLine
 10
71.1
 20
164.712869
 30
0.0
 11
63.2
 21
164.712869
 31
0.0
  0
ARC
  5
220
100
AcDbEntity
  8
10
100
AcDbCircle
 10
63.2
 20
164.412869
 30
0.0
 40
0.3
100
AcDbArc
 50
90.0
 51
180.0
  0
LINE
  5
221
100
AcDbEntity
  8
10
100
AcDbLine
 10
62.9
 20
164.412869
 30
0.0
 11
62.9
 21
164.212869
 31
0.0
  0
LINE
  5
222
100
AcDbEntity
  8
10
100
AcDbLine
 10
71.4
 20
164.412869
 30
0.0
 11
71.4
 21
164.212869
 31
0.0
  0
CIRCLE
  5
223
100
AcDbEntity
  8
10
100
AcDbCircle
 10
67.15
 20
161.737869
 30
0.0
 40
1.3
  0
CIRCLE
  5
224
100
AcDbEntity
  8
10
100
AcDbCircle
 10
67.15
 20
161.737869
 30
0.0
 40
1.0
  0
LINE
  5
225
100
AcDbEntity
  8
10
100
AcDbLine
 10
65.888229
 20
156.161758
 30
0.0
 11
69.188229
 21
155.277525
 31
0.0
  0
ARC
  5
226
100
AcDbEntity
  8
10
100
AcDbCircle
 10
63.95
 20
159.362869
 30
0.0
 40
0.3
100
AcDbArc
 50
90.0
 51
180.0
  0
LINE
  5
227
100
AcDbEntity
  8
10
100
AcDbLine
 10
63.65
 20
159.362869
 30
0.0
 11
63.65
 21
157.462869
 31
0.0
  0
ARC
  5
228
100
AcDbEntity
  8
10
100
AcDbCircle
 10
63.95
 20
157.462869
 30
0.0
 40
0.3
100
AcDbArc
 50
180.0
 51
270.0
  0
LINE
  5
229
100
AcDbEntity
  8
10
100
AcDbLine
 10
70.35
 20
157.162869
 30
0.0
 11
63.95
 21
157.162869
 31
0.0
  0
ARC
  5
22A
100
AcDbEntity
  8
10
100
AcDbCircle
 10
70.35
 20
157.462869
 30
0.0
 40
0.3
100
AcDbArc
 50
270.0
 51
0.0
  0
LINE
  5
22B
100
AcDbEntity
  8
10
100
AcDbLine
 10
70.65
 20
159.362869
 30
0.0
 11
70.65
 21
157.462869
 31
0.0
  0
ARC
  5
22C
100
AcDbEntity
  8
10
100
AcDbCircle
 10
70.35
 20
159.362869
 30
0.0
 40
0.3
100
AcDbArc
 50
0.0
 51
90.0
  0
LINE
  5
22D
100
AcDbEntity
  8
10
100
AcDbLine
 10
70.35
 20
159.662869
 30
0.0
 11
69.05
 21
159.662869
 31
0.0
  0
ARC
  5
22E
100
AcDbEntity
  8
10
100
AcDbCircle
 10
69.05
 20
159.362869
 30
0.0
 40
0.3
100
AcDbArc
 50
90.0
 51
180.0
  0
LINE
  5
22F
100
AcDbEntity
  8
10
100
AcDbLine
 10
65.25
 20
159.662869
 30
0.0
 11
63.95
 21
159.662869
 31
0.0
  0
ARC
  5
230
100
AcDbEntity
  8
10
100
AcDbCircle
 10
65.25
 20
159.362869
 30
0.0
 40
0.3
100
AcDbArc
 50
0.0
 51
90.0
  0
LINE
  5
231
100
AcDbEntity
  8
10
100
AcDbLine
 10
65.55
 20
159.362869
 30
0.0
 11
65.55
 21
158.462869
 31
0.0
  0
LINE
  5
232
100
AcDbEntity
  8
10
100
AcDbLine
 10
68.75
 20
158.462869
 30
0.0
 11
65.55
 21
158.462869
 31
0.0
  0
LINE
  5
233
100
AcDbEntity
  8
10
100
AcDbLine
 10
68.75
 20
159.362869
 30
0.0
 11
68.75
 21
158.462869
 31
0.0
  0
LINE
  5
234
100
AcDbEntity
  8
10
100
AcDbLine
 10
70.35
 20
159.162869
 30
0.0
 11
69.05
 21
159.162869
 31
0.0
  0
LINE
  5
235
100
AcDbEntity
  8
10
100
AcDbLine
 10
65.25
 20
159.162869
 30
0.0
 11
63.95
 21
159.162869
 31
0.0
  0
ARC
  5
236
100
AcDbEntity
  8
10
100
AcDbCircle
 10
63.95
 20
158.862869
 30
0.0
 40
0.3
100
AcDbArc
 50
90.0
 51
180.0
  0
ARC
  5
237
100
AcDbEntity
  8
10
100
AcDbCircle
 10
65.25
 20
158.862869
 30
0.0
 40
0.3
100
AcDbArc
 50
0.0
 51
90.0
  0
ARC
  5
238
100
AcDbEntity
  8
10
100
AcDbCircle
 10
69.05
 20
158.862869
 30
0.0
 40
0.3
100
AcDbArc
 50
90.0
 51
180.0
  0
ARC
  5
239
100
AcDbEntity
  8
10
100
AcDbCircle
 10
70.35
 20
158.862869
 30
0.0
 40
0.3
100
AcDbArc
 50
0.0
 51
90.0
  0
LINE
  5
23A
100
AcDbEntity
  8
10
100
AcDbLine
 10
69.05
 20
159.662869
 30
0.0
 11
65.25
 21
159.662869
 31
0.0
  0
ARC
  5
23B
100
AcDbEntity
  8
10
100
AcDbCircle
 10
40.0
 20
164.5
 30
0.0
 40
1.0
100
AcDbArc
 50
270.0
 51
0.0
  0
LINE
  5
23C
100
AcDbEntity
  8
10
100
AcDbLine
 10
41.0
 20
167.5
 30
0.0
 11
41.0
 21
164.5
 31
0.0
  0
LINE
  5
23D
100
AcDbEntity
  8
10
100
AcDbLine
 10
29.5
 20
163.5
 30
0.0
 11
40.0
 21
163.5
 31
0.0
  0
ARC
  5
23E
100
AcDbEntity
  8
10
100
AcDbCircle
 10
44.6
 20
164.5
 30
0.0
 40
1.0
100
AcDbArc
 50
90.0
 51
180.0
  0
ARC
  5
23F
100
AcDbEntity
  8
10
100
AcDbCircle
 10
73.9
 20
164.5
 30
0.0
 40
1.0
100
AcDbArc
 50
0.0
 51
90.0
  0
LINE
  5
240
100
AcDbEntity
  8
10
100
AcDbLine
 10
44.6
 20
165.5
 30
0.0
 11
73.9
 21
165.5
 31
0.0
  0
LINE
  5
241
100
AcDbEntity
  8
10
100
AcDbLine
 10
29.5
 20
167.5
 30
0.0
 11
30.0
 21
167.5
 31
0.0
  0
ARC
  5
242
100
AcDbEntity
  8
11
100
AcDbCircle
 10
30.8
 20
207.2
 30
0.0
 40
0.8
100
AcDbArc
 50
90.0
 51
180.0
  0
ARC
  5
243
100
AcDbEntity
  8
11
100
AcDbCircle
 10
79.2
 20
207.2
 30
0.0
 40
0.8
100
AcDbArc
 50
0.0
 51
90.0
  0
LINE
  5
244
100
AcDbEntity
  8
11
100
AcDbLine
 10
80.0
 20
207.2
 30
0.0
 11
80.0
 21
167.5
 31
0.0
  0
LINE
  5
245
100
AcDbEntity
  8
11
100
AcDbLine
 10
30.0
 20
207.2
 30
0.0
 11
30.0
 21
167.5
 31
0.0
  0
LINE
  5
246
100
AcDbEntity
  8
10
100
AcDbLine
 10
222.75
 20
168.0
 30
0.0
 11
225.25
 21
168.0
 31
0.0
  0
LINE
  5
247
100
AcDbEntity
  8
10
100
AcDbLine
 10
217.75
 20
168.0
 30
0.0
 11
220.25
 21
168.0
 31
0.0
  0
LINE
  5
248
100
AcDbEntity
  8
10
100
AcDbLine
 10
212.75
 20
168.0
 30
0.0
 11
215.25
 21
168.0
 31
0.0
  0
LINE
  5
249
100
AcDbEntity
  8
10
100
AcDbLine
 10
207.75
 20
168.0
 30
0.0
 11
210.25
 21
168.0
 31
0.0
  0
LINE
  5
24A
100
AcDbEntity
  8
10
100
AcDbLine
 10
222.75
 20
173.0
 30
0.0
 11
225.25
 21
173.0
 31
0.0
  0
LINE
  5
24B
100
AcDbEntity
  8
10
100
AcDbLine
 10
217.75
 20
173.0
 30
0.0
 11
220.25
 21
173.0
 31
0.0
  0
LINE
  5
24C
100
AcDbEntity
  8
10
100
AcDbLine
 10
212.75
 20
173.0
 30
0.0
 11
215.25
 21
173.0
 31
0.0
  0
LINE
  5
24D
100
AcDbEntity
  8
10
100
AcDbLine
 10
207.75
 20
173.0
 30
0.0
 11
210.25
 21
173.0
 31
0.0
  0
LINE
  5
24E
100
AcDbEntity
  8
10
100
AcDbLine
 10
202.75
 20
173.0
 30
0.0
 11
205.25
 21
173.0
 31
0.0
  0
LINE
  5
24F
100
AcDbEntity
  8
10
100
AcDbLine
 10
202.75
 20
168.0
 30
0.0
 11
205.25
 21
168.0
 31
0.0
  0
ARC
  5
250
100
AcDbEntity
  8
10
100
AcDbCircle
 10
204.0
 20
196.75
 30
0.0
 40
1.25
100
AcDbArc
 50
0.0
 51
180.0
  0
ARC
  5
251
100
AcDbEntity
  8
10
100
AcDbCircle
 10
209.0
 20
196.75
 30
0.0
 40
1.25
100
AcDbArc
 50
0.0
 51
180.0
  0
ARC
  5
252
100
AcDbEntity
  8
10
100
AcDbCircle
 10
214.0
 20
196.75
 30
0.0
 40
1.25
100
AcDbArc
 50
0.0
 51
180.0
  0
ARC
  5
253
100
AcDbEntity
  8
10
100
AcDbCircle
 10
219.0
 20
196.75
 30
0.0
 40
1.25
100
AcDbArc
 50
0.0
 51
180.0
  0
ARC
  5
254
100
AcDbEntity
  8
10
100
AcDbCircle
 10
224.0
 20
196.75
 30
0.0
 40
1.25
100
AcDbArc
 50
0.0
 51
180.0
  0
LINE
  5
255
100
AcDbEntity
  8
10
100
AcDbLine
 10
201.9
 20
208.0
 30
0.0
 11
201.9
 21
203.0
 31
0.0
  0
LINE
  5
256
100
AcDbEntity
  8
10
100
AcDbLine
 10
198.0
 20
203.0
 30
0.0
 11
201.9
 21
203.0
 31
0.0
  0
ARC
  5
257
100
AcDbEntity
  8
10
100
AcDbCircle
 10
192.47339
 20
171.5
 30
0.0
 40
4.0
100
AcDbArc
 50
270.0
 51
285.0
  0
ARC
  5
258
100
AcDbEntity
  8
10
100
AcDbCircle
 10
197.0
 20
169.607073
 30
0.0
 40
1.0
100
AcDbArc
 50
285.0
 51
0.0
  0
LINE
  5
259
100
AcDbEntity
  8
10
100
AcDbLine
 10
198.0
 20
203.0
 30
0.0
 11
198.0
 21
169.607073
 31
0.0
  0
LINE
  5
25A
100
AcDbEntity
  8
10
100
AcDbLine
 10
193.508666
 20
167.636297
 30
0.0
 11
197.258819
 21
168.641147
 31
0.0
  0
LINE
  5
25B
100
AcDbEntity
  8
10
100
AcDbLine
 10
229.5
 20
207.5
 30
0.0
 11
230.0
 21
207.5
 31
0.0
  0
ARC
  5
25C
100
AcDbEntity
  8
10
100
AcDbCircle
 10
190.8
 20
207.2
 30
0.0
 40
0.8
100
AcDbArc
 50
90.0
 51
180.0
  0
LINE
  5
25D
100
AcDbEntity
  8
10
100
AcDbLine
 10
190.0
 20
167.5
 30
0.0
 11
192.47339
 21
167.5
 31
0.0
  0
LINE
  5
25E
100
AcDbEntity
  8
10
100
AcDbLine
 10
190.8
 20
208.0
 30
0.0
 11
229.5
 21
208.0
 31
0.0
  0
LINE
  5
25F
100
AcDbEntity
  8
10
100
AcDbLine
 10
313.75
 20
196.75
 30
0.0
 11
313.75
 21
154.25
 31
0.0
  0
LINE
  5
260
100
AcDbEntity
  8
10
100
AcDbLine
 10
311.25
 20
196.75
 30
0.0
 11
311.25
 21
154.25
 31
0.0
  0
LINE
  5
261
100
AcDbEntity
  8
10
100
AcDbLine
 10
308.75
 20
196.75
 30
0.0
 11
308.75
 21
154.25
 31
0.0
  0
LINE
  5
262
100
AcDbEntity
  8
10
100
AcDbLine
 10
306.25
 20
196.75
 30
0.0
 11
306.25
 21
154.25
 31
0.0
  0
LINE
  5
263
100
AcDbEntity
  8
10
100
AcDbLine
 10
303.75
 20
196.75
 30
0.0
 11
303.75
 21
154.25
 31
0.0
  0
LINE
  5
264
100
AcDbEntity
  8
10
100
AcDbLine
 10
301.25
 20
196.75
 30
0.0
 11
301.25
 21
154.25
 31
0.0
  0
LINE
  5
265
100
AcDbEntity
  8
10
100
AcDbLine
 10
298.75
 20
196.75
 30
0.0
 11
298.75
 21
154.25
 31
0.0
  0
LINE
  5
266
100
AcDbEntity
  8
10
100
AcDbLine
 10
296.25
 20
196.75
 30
0.0
 11
296.25
 21
154.25
 31
0.0
  0
LINE
  5
267
100
AcDbEntity
  8
10
100
AcDbLine
 10
293.75
 20
196.75
 30
0.0
 11
293.75
 21
154.25
 31
0.0
  0
LINE
  5
268
100
AcDbEntity
  8
10
100
AcDbLine
 10
291.25
 20
196.75
 30
0.0
 11
291.25
 21
154.25
 31
0.0
  0
LINE
  5
269
100
AcDbEntity
  8
10
100
AcDbLine
 10
288.75
 20
196.75
 30
0.0
 11
288.75
 21
154.25
 31
0.0
  0
LINE
  5
26A
100
AcDbEntity
  8
10
100
AcDbLine
 10
286.25
 20
196.75
 30
0.0
 11
286.25
 21
154.25
 31
0.0
  0
LINE
  5
26B
100
AcDbEntity
  8
10
100
AcDbLine
 10
283.75
 20
196.75
 30
0.0
 11
283.75
 21
154.25
 31
0.0
  0
LINE
  5
26C
100
AcDbEntity
  8
10
100
AcDbLine
 10
281.25
 20
196.75
 30
0.0
 11
281.25
 21
154.25
 31
0.0
  0
LINE
  5
26D
100
AcDbEntity
  8
10
100
AcDbLine
 10
278.75
 20
196.75
 30
0.0
 11
278.75
 21
154.25
 31
0.0
  0
LINE
  5
26E
100
AcDbEntity
  8
10
100
AcDbLine
 10
276.25
 20
196.75
 30
0.0
 11
276.25
 21
154.25
 31
0.0
  0
LINE
  5
26F
100
AcDbEntity
  8
10
100
AcDbLine
 10
273.75
 20
196.75
 30
0.0
 11
273.75
 21
154.25
 31
0.0
  0
LINE
  5
270
100
AcDbEntity
  8
10
100
AcDbLine
 10
271.25
 20
196.75
 30
0.0
 11
271.25
 21
154.25
 31
0.0
  0
LINE
  5
271
100
AcDbEntity
  8
10
100
AcDbLine
 10
268.75
 20
196.75
 30
0.0
 11
268.75
 21
154.25
 31
0.0
  0
LINE
  5
272
100
AcDbEntity
  8
10
100
AcDbLine
 10
266.25
 20
196.75
 30
0.0
 11
266.25
 21
154.25
 31
0.0
  0
LINE
  5
273
100
AcDbEntity
  8
10
100
AcDbLine
 10
263.75
 20
196.75
 30
0.0
 11
263.75
 21
154.25
 31
0.0
  0
LINE
  5
274
100
AcDbEntity
  8
10
100
AcDbLine
 10
261.25
 20
196.75
 30
0.0
 11
261.25
 21
154.25
 31
0.0
  0
LINE
  5
275
100
AcDbEntity
  8
10
100
AcDbLine
 10
258.75
 20
196.75
 30
0.0
 11
258.75
 21
154.25
 31
0.0
  0
LINE
  5
276
100
AcDbEntity
  8
10
100
AcDbLine
 10
256.25
 20
196.75
 30
0.0
 11
256.25
 21
154.25
 31
0.0
  0
LINE
  5
277
100
AcDbEntity
  8
10
100
AcDbLine
 10
253.75
 20
196.75
 30
0.0
 11
253.75
 21
154.25
 31
0.0
  0
LINE
  5
278
100
AcDbEntity
  8
10
100
AcDbLine
 10
251.25
 20
196.75
 30
0.0
 11
251.25
 21
154.25
 31
0.0
  0
LINE
  5
279
100
AcDbEntity
  8
10
100
AcDbLine
 10
248.75
 20
196.75
 30
0.0
 11
248.75
 21
154.25
 31
0.0
  0
LINE
  5
27A
100
AcDbEntity
  8
10
100
AcDbLine
 10
246.25
 20
196.75
 30
0.0
 11
246.25
 21
154.25
 31
0.0
  0
LINE
  5
27B
100
AcDbEntity
  8
10
100
AcDbLine
 10
243.75
 20
196.75
 30
0.0
 11
243.75
 21
154.25
 31
0.0
  0
LINE
  5
27C
100
AcDbEntity
  8
10
100
AcDbLine
 10
241.25
 20
196.75
 30
0.0
 11
241.25
 21
154.25
 31
0.0
  0
ARC
  5
27D
100
AcDbEntity
  8
10
100
AcDbCircle
 10
312.5
 20
154.25
 30
0.0
 40
1.25
100
AcDbArc
 50
180.0
 51
0.0
  0
ARC
  5
27E
100
AcDbEntity
  8
10
100
AcDbCircle
 10
307.5
 20
154.25
 30
0.0
 40
1.25
100
AcDbArc
 50
180.0
 51
0.0
  0
ARC
  5
27F
100
AcDbEntity
  8
10
100
AcDbCircle
 10
272.5
 20
102.75
 30
0.0
 40
1.25
100
AcDbArc
 50
0.0
 51
180.0
  0
ARC
  5
280
100
AcDbEntity
  8
10
100
AcDbCircle
 10
267.5
 20
102.75
 30
0.0
 40
1.25
100
AcDbArc
 50
0.0
 51
180.0
  0
ARC
  5
281
100
AcDbEntity
  8
10
100
AcDbCircle
 10
262.5
 20
102.75
 30
0.0
 40
1.25
100
AcDbArc
 50
0.0
 51
180.0
  0
ARC
  5
282
100
AcDbEntity
  8
10
100
AcDbCircle
 10
257.5
 20
102.75
 30
0.0
 40
1.25
100
AcDbArc
 50
0.0
 51
180.0
  0
ARC
  5
283
100
AcDbEntity
  8
10
100
AcDbCircle
 10
252.5
 20
102.75
 30
0.0
 40
1.25
100
AcDbArc
 50
0.0
 51
180.0
  0
ARC
  5
284
100
AcDbEntity
  8
10
100
AcDbCircle
 10
247.5
 20
102.75
 30
0.0
 40
1.25
100
AcDbArc
 50
0.0
 51
180.0
  0
ARC
  5
285
100
AcDbEntity
  8
10
100
AcDbCircle
 10
242.5
 20
102.75
 30
0.0
 40
1.25
100
AcDbArc
 50
0.0
 51
180.0
  0
ARC
  5
286
100
AcDbEntity
  8
10
100
AcDbCircle
 10
292.5
 20
154.25
 30
0.0
 40
1.25
100
AcDbArc
 50
180.0
 51
0.0
  0
ARC
  5
287
100
AcDbEntity
  8
10
100
AcDbCircle
 10
287.5
 20
154.25
 30
0.0
 40
1.25
100
AcDbArc
 50
180.0
 51
0.0
  0
ARC
  5
288
100
AcDbEntity
  8
10
100
AcDbCircle
 10
282.5
 20
154.25
 30
0.0
 40
1.25
100
AcDbArc
 50
180.0
 51
0.0
  0
ARC
  5
289
100
AcDbEntity
  8
10
100
AcDbCircle
 10
277.5
 20
154.25
 30
0.0
 40
1.25
100
AcDbArc
 50
180.0
 51
0.0
  0
ARC
  5
28A
100
AcDbEntity
  8
10
100
AcDbCircle
 10
272.5
 20
154.25
 30
0.0
 40
1.25
100
AcDbArc
 50
180.0
 51
0.0
  0
ARC
  5
28B
100
AcDbEntity
  8
10
100
AcDbCircle
 10
267.5
 20
154.25
 30
0.0
 40
1.25
100
AcDbArc
 50
180.0
 51
0.0
  0
ARC
  5
28C
100
AcDbEntity
  8
10
100
AcDbCircle
 10
262.5
 20
154.25
 30
0.0
 40
1.25
100
AcDbArc
 50
180.0
 51
0.0
  0
ARC
  5
28D
100
AcDbEntity
  8
10
100
AcDbCircle
 10
257.5
 20
154.25
 30
0.0
 40
1.25
100
AcDbArc
 50
180.0
 51
0.0
  0
ARC
  5
28E
100
AcDbEntity
  8
10
100
AcDbCircle
 10
252.5
 20
154.25
 30
0.0
 40
1.25
100
AcDbArc
 50
180.0
 51
0.0
  0
ARC
  5
28F
100
AcDbEntity
  8
10
100
AcDbCircle
 10
247.5
 20
154.25
 30
0.0
 40
1.25
100
AcDbArc
 50
180.0
 51
0.0
  0
ARC
  5
290
100
AcDbEntity
  8
10
100
AcDbCircle
 10
242.5
 20
154.25
 30
0.0
 40
1.25
100
AcDbArc
 50
180.0
 51
0.0
  0
ARC
  5
291
100
AcDbEntity
  8
10
100
AcDbCircle
 10
297.5
 20
154.25
 30
0.0
 40
1.25
100
AcDbArc
 50
180.0
 51
0.0
  0
ARC
  5
292
100
AcDbEntity
  8
10
100
AcDbCircle
 10
302.5
 20
154.25
 30
0.0
 40
1.25
100
AcDbArc
 50
180.0
 51
0.0
  0
LINE
  5
293
100
AcDbEntity
  8
12
100
AcDbLine
 10
330.436466
 20
202.0
 30
0.0
 11
317.769799
 21
202.0
 31
0.0
  0
ARC
  5
294
100
AcDbEntity
  8
10
100
AcDbCircle
 10
312.5
 20
196.75
 30
0.0
 40
1.25
100
AcDbArc
 50
0.0
 51
180.0
  0
ARC
  5
295
100
AcDbEntity
  8
10
100
AcDbCircle
 10
307.5
 20
196.75
 30
0.0
 40
1.25
100
AcDbArc
 50
0.0
 51
180.0
  0
LINE
  5
296
100
AcDbEntity
  8
10
100
AcDbLine
 10
318.0
 20
180.5
 30
0.0
 11
318.0
 21
179.5
 31
0.0
  0
LINE
  5
297
100
AcDbEntity
  8
10
100
AcDbLine
 10
318.0
 20
196.5
 30
0.0
 11
318.0
 21
195.5
 31
0.0
  0
LINE
  5
298
100
AcDbEntity
  8
10
100
AcDbLine
 10
321.5
 20
192.5
 30
0.0
 11
321.5
 21
183.5
 31
0.0
  0
LINE
  5
299
100
AcDbEntity
  8
10
100
AcDbLine
 10
323.5
 20
192.5
 30
0.0
 11
323.5
 21
183.5
 31
0.0
  0
LINE
  5
29A
100
AcDbEntity
  8
10
100
AcDbLine
 10
318.0
 20
179.5
 30
0.0
 11
322.2
 21
179.5
 31
0.0
  0
LINE
  5
29B
100
AcDbEntity
  8
10
100
AcDbLine
 10
318.0
 20
196.5
 30
0.0
 11
322.2
 21
196.5
 31
0.0
  0
LINE
  5
29C
100
AcDbEntity
  8
10
100
AcDbLine
 10
318.0
 20
180.5
 30
0.0
 11
325.0
 21
180.5
 31
0.0
  0
LINE
  5
29D
100
AcDbEntity
  8
10
100
AcDbLine
 10
318.0
 20
195.5
 30
0.0
 11
325.0
 21
195.5
 31
0.0
  0
LINE
  5
29E
100
AcDbEntity
  8
10
100
AcDbLine
 10
321.5
 20
183.5
 30
0.0
 11
323.5
 21
183.5
 31
0.0
  0
LINE
  5
29F
100
AcDbEntity
  8
10
100
AcDbLine
 10
321.5
 20
192.5
 30
0.0
 11
323.5
 21
192.5
 31
0.0
  0
LINE
  5
2A0
100
AcDbEntity
  8
10
100
AcDbLine
 10
322.2
 20
208.0
 30
0.0
 11
322.2
 21
195.5
 31
0.0
  0
ARC
  5
2A1
100
AcDbEntity
  8
10
100
AcDbCircle
 10
292.5
 20
196.75
 30
0.0
 40
1.25
100
AcDbArc
 50
0.0
 51
180.0
  0
ARC
  5
2A2
100
AcDbEntity
  8
10
100
AcDbCircle
 10
287.5
 20
196.75
 30
0.0
 40
1.25
100
AcDbArc
 50
0.0
 51
180.0
  0
ARC
  5
2A3
100
AcDbEntity
  8
10
100
AcDbCircle
 10
282.5
 20
196.75
 30
0.0
 40
1.25
100
AcDbArc
 50
0.0
 51
180.0
  0
ARC
  5
2A4
100
AcDbEntity
  8
10
100
AcDbCircle
 10
277.5
 20
196.75
 30
0.0
 40
1.25
100
AcDbArc
 50
0.0
 51
180.0
  0
ARC
  5
2A5
100
AcDbEntity
  8
10
100
AcDbCircle
 10
272.5
 20
196.75
 30
0.0
 40
1.25
100
AcDbArc
 50
0.0
 51
180.0
  0
ARC
  5
2A6
100
AcDbEntity
  8
10
100
AcDbCircle
 10
267.5
 20
196.75
 30
0.0
 40
1.25
100
AcDbArc
 50
0.0
 51
180.0
  0
ARC
  5
2A7
100
AcDbEntity
  8
10
100
AcDbCircle
 10
262.5
 20
196.75
 30
0.0
 40
1.25
100
AcDbArc
 50
0.0
 51
180.0
  0
ARC
  5
2A8
100
AcDbEntity
  8
10
100
AcDbCircle
 10
257.5
 20
196.75
 30
0.0
 40
1.25
100
AcDbArc
 50
0.0
 51
180.0
  0
ARC
  5
2A9
100
AcDbEntity
  8
10
100
AcDbCircle
 10
252.5
 20
196.75
 30
0.0
 40
1.25
100
AcDbArc
 50
0.0
 51
180.0
  0
ARC
  5
2AA
100
AcDbEntity
  8
10
100
AcDbCircle
 10
247.5
 20
196.75
 30
0.0
 40
1.25
100
AcDbArc
 50
0.0
 51
180.0
  0
ARC
  5
2AB
100
AcDbEntity
  8
10
100
AcDbCircle
 10
242.5
 20
196.75
 30
0.0
 40
1.25
100
AcDbArc
 50
0.0
 51
180.0
  0
ARC
  5
2AC
100
AcDbEntity
  8
10
100
AcDbCircle
 10
297.5
 20
196.75
 30
0.0
 40
1.25
100
AcDbArc
 50
0.0
 51
180.0
  0
ARC
  5
2AD
100
AcDbEntity
  8
10
100
AcDbCircle
 10
302.5
 20
196.75
 30
0.0
 40
1.25
100
AcDbArc
 50
0.0
 51
180.0
  0
LINE
  5
2AE
100
AcDbEntity
  8
18
100
AcDbLine
 10
0.0
 20
248.0
 30
0.0
 11
90.0
 21
248.0
 31
0.0
  0
LINE
  5
2AF
100
AcDbEntity
  8
18
100
AcDbLine
 10
120.0
 20
248.0
 30
0.0
 11
325.0
 21
248.0
 31
0.0
  0
ENDSEC
  0
SECTION
  2
OBJECTS
  0
DICTIONARY
  5
1A
100
AcDbDictionary
  3
ACAD_GROUP
350
18
  3
ACAD_MLINESTYLE
350
19
  0
DICTIONARY
  5
18
102
{ACAD_REACTORS
330
1A
102
}
100
AcDbDictionary
  0
DICTIONARY
  5
19
102
{ACAD_REACTORS
330
1A
102
}
100
AcDbDictionary
  3
STANDARD
350
1D
  0
MLINESTYLE
  5
1D
102
{ACAD_REACTORS
330
19
102
}
100
AcDbMlineStyle
  2
STANDARD
 70
     0
  3

 62
   256
 51
90.0
 52
90.0
 71
     2
 49
0.5
 62
   256
  6
BYLAYER
 49
-0.5
 62
   256
  6
BYLAYER
  0
ENDSEC
  0
EOF
