  0
SECTION
  2
HEADER
  9
$ACADVER
  1
AC1009
  9
$INSBASE
 10
0.0
 20
0.0
 30
0.0
  9
$EXTMIN
 10
117.59727
 20
185.37726
 30
0.0
  9
$EXTMAX
 10
739.52728
 20
470.5264
 30
0.0
  9
$LIMMIN
 10
0.0
 20
0.0
  9
$LIMMAX
 10
12.0
 20
9.0
  9
$ORTHOMODE
 70
     0
  9
$REGENMODE
 70
     1
  9
$FILLMODE
 70
     1
  9
$QTEXTMODE
 70
     0
  9
$MIRRTEXT
 70
     1
  9
$DRAGMODE
 70
     2
  9
$LTSCALE
 40
1.0
  9
$OSMODE
 70
     1
  9
$ATTMODE
 70
     1
  9
$TEXTSIZE
 40
0.2
  9
$TRACEWID
 40
0.05
  9
$TEXTSTYLE
  7
STANDARD
  9
$CLAYER
  8
0
  9
$CELTYPE
  6
CONTINUOUS
  9
$CECOLOR
 62
   256
  9
$DIMSCALE
 40
1.0
  9
$DIMASZ
 40
0.18
  9
$DIMEXO
 40
0.0625
  9
$DIMDLI
 40
0.38
  9
$DIMRND
 40
0.0
  9
$DIMDLE
 40
0.0
  9
$DIMEXE
 40
0.18
  9
$DIMTP
 40
0.0
  9
$DIMTM
 40
0.0
  9
$DIMTXT
 40
6.0
  9
$DIMCEN
 40
0.09
  9
$DIMTSZ
 40
0.0
  9
$DIMTOL
 70
     0
  9
$DIMLIM
 70
     0
  9
$DIMTIH
 70
     1
  9
$DIMTOH
 70
     1
  9
$DIMSE1
 70
     0
  9
$DIMSE2
 70
     0
  9
$DIMTAD
 70
     0
  9
$DIMZIN
 70
     0
  9
$DIMBLK
  1

  9
$DIMASO
 70
     1
  9
$DIMSHO
 70
     1
  9
$DIMPOST
  1

  9
$DIMAPOST
  1

  9
$DIMALT
 70
     0
  9
$DIMALTD
 70
     2
  9
$DIMALTF
 40
25.4
  9
$DIMLFAC
 40
1.0
  9
$DIMTOFL
 70
     0
  9
$DIMTVP
 40
0.0
  9
$DIMTIX
 70
     0
  9
$DIMSOXD
 70
     0
  9
$DIMSAH
 70
     0
  9
$DIMBLK1
  1

  9
$DIMBLK2
  1

  9
$DIMSTYLE
  2
STANDARD
  9
$DIMCLRD
 70
     0
  9
$DIMCLRE
 70
     0
  9
$DIMCLRT
 70
     0
  9
$DIMTFAC
 40
1.0
  9
$DIMGAP
 40
6.0
  9
$LUNITS
 70
     2
  9
$LUPREC
 70
     4
  9
$SKETCHINC
 40
0.1
  9
$FILLETRAD
 40
0.0
  9
$AUNITS
 70
     0
  9
$AUPREC
 70
     0
  9
$MENU
  1
.
  9
$ELEVATION
 40
0.0
  9
$PELEVATION
 40
0.0
  9
$THICKNESS
 40
0.0
  9
$LIMCHECK
 70
     0
  9
$BLIPMODE
 70
     0
  9
$CHAMFERA
 40
0.0
  9
$CHAMFERB
 40
0.0
  9
$SKPOLY
 70
     0
  9
$TDCREATE
 40
2450795.564603
  9
$TDUPDATE
 40
2450795.564603
  9
$TDINDWG
 40
0.0
  9
$TDUSRTIMER
 40
0.0
  9
$USRTIMER
 70
     1
  9
$ANGBASE
 50
0.0
  9
$ANGDIR
 70
     0
  9
$PDMODE
 70
     0
  9
$PDSIZE
 40
0.0
  9
$PLINEWID
 40
0.0
  9
$COORDS
 70
     1
  9
$SPLFRAME
 70
     0
  9
$SPLINETYPE
 70
     6
  9
$SPLINESEGS
 70
     8
  9
$ATTDIA
 70
     0
  9
$ATTREQ
 70
     1
  9
$HANDLING
 70
     1
  9
$HANDSEED
  5
204
  9
$SURFTAB1
 70
     6
  9
$SURFTAB2
 70
     6
  9
$SURFTYPE
 70
     6
  9
$SURFU
 70
     6
  9
$SURFV
 70
     6
  9
$UCSNAME
  2

  9
$UCSORG
 10
0.0
 20
0.0
 30
0.0
  9
$UCSXDIR
 10
1.0
 20
0.0
 30
0.0
  9
$UCSYDIR
 10
0.0
 20
1.0
 30
0.0
  9
$PUCSNAME
  2

  9
$PUCSORG
 10
0.0
 20
0.0
 30
0.0
  9
$PUCSXDIR
 10
1.0
 20
0.0
 30
0.0
  9
$PUCSYDIR
 10
0.0
 20
1.0
 30
0.0
  9
$USERI1
 70
     0
  9
$USERI2
 70
     0
  9
$USERI3
 70
     0
  9
$USERI4
 70
     0
  9
$USERI5
 70
     0
  9
$USERR1
 40
0.0
  9
$USERR2
 40
0.0
  9
$USERR3
 40
0.0
  9
$USERR4
 40
0.0
  9
$USERR5
 40
0.0
  9
$WORLDVIEW
 70
     1
  9
$SHADEDGE
 70
     3
  9
$SHADEDIF
 70
    70
  9
$TILEMODE
 70
     1
  9
$MAXACTVP
 70
    48
  9
$PLIMCHECK
 70
     0
  9
$PEXTMIN
 10
1.000000E+020
 20
1.000000E+020
 30
1.000000E+020
  9
$PEXTMAX
 10
-1.000000E+020
 20
-1.000000E+020
 30
-1.000000E+020
  9
$PLIMMIN
 10
0.0
 20
0.0
  9
$PLIMMAX
 10
12.0
 20
9.0
  9
$UNITMODE
 70
     0
  9
$VISRETAIN
 70
     1
  9
$PLINEGEN
 70
     0
  9
$PSLTSCALE
 70
     1
  0
ENDSEC
  0
SECTION
  2
TABLES
  0
TABLE
  2
VPORT
 70
     2
  0
VPORT
  2
*ACTIVE
 70
     0
 10
0.0
 20
0.0
 11
1.0
 21
1.0
 12
369.76364
 22
249.684334
 13
0.0
 23
0.0
 14
1.0
 24
1.0
 15
0.0
 25
0.0
 16
0.0
 26
0.0
 36
1.0
 17
0.0
 27
0.0
 37
0.0
 40
504.587075
 41
1.602828
 42
50.0
 43
0.0
 44
0.0
 50
0.0
 51
0.0
 71
     0
 72
   100
 73
     1
 74
     1
 75
     0
 76
     0
 77
     0
 78
     0
  0
ENDTAB
  0
TABLE
  2
LTYPE
 70
     5
  0
LTYPE
  2
CONTINUOUS
 70
     0
  3
Solid line
 72
    65
 73
     0
 40
0.0
  0
LTYPE
  2
DASHED
 70
     0
  3
__ __ __ __ __ __ __ __ __ __ __ __ __ __ __
 72
    65
 73
     2
 40
3.5
 49
2.0
 49
-1.5
  0
LTYPE
  2
CENTER
 70
     0
  3
____ _ ____ _ ____ _ ____ _ ____ _ ____ _ ____
 72
    65
 73
     4
 40
17.5
 49
13.0
 49
-1.5
 49
1.5
 49
-1.5
  0
LTYPE
  2
PHANTOM
 70
     0
  3
_____ _ _ _____ _ _ _____ _ _ _____ _ _ ____  
 72
    65
 73
     6
 40
15.5
 49
8.0
 49
-1.5
 49
1.5
 49
-1.5
 49
1.5
 49
-1.5
  0
LTYPE
  2
DOT
 70
     0
  3
. . . . . . . . . . . . . . . . . . . . . . . .
 72
    65
 73
     2
 40
0.25
 49
0.0
 49
-0.25
  0
ENDTAB
  0
TABLE
  2
LAYER
 70
     2
  0
LAYER
  2
0
 70
     0
 62
     7
  6
CONTINUOUS
  0
LAYER
  2
DEFPOINTS
 70
     0
 62
     7
  6
CONTINUOUS
  0
ENDTAB
  0
TABLE
  2
STYLE
 70
     1
  0
STYLE
  2
STANDARD
 70
     0
 40
0.0
 41
1.0
 50
0.0
 71
     0
 42
0.2
  3
txt
  4

  0
ENDTAB
  0
TABLE
  2
VIEW
 70
     0
  0
ENDTAB
  0
TABLE
  2
UCS
 70
     0
  0
ENDTAB
  0
TABLE
  2
APPID
 70
     1
  0
APPID
  2
ACAD
 70
     0
  0
ENDTAB
  0
TABLE
  2
DIMSTYLE
 70
     1
  0
DIMSTYLE
  2
STANDARD
 70
     0
  3

  4

  5

  6

  7

 40
1.0
 41
0.18
 42
0.0625
 43
0.38
 44
0.18
 45
0.0
 46
0.0
 47
0.0
 48
0.0
140
0.18
141
0.09
142
0.0
143
25.4
144
1.0
145
0.0
146
1.0
147
0.09
 71
     0
 72
     0
 73
     1
 74
     1
 75
     0
 76
     0
 77
     0
 78
     0
170
     0
171
     2
172
     0
173
     0
174
     0
175
     0
176
     0
177
     0
178
     0
  0
ENDTAB
  0
ENDSEC
  0
SECTION
  2
BLOCKS
  0
BLOCK
  8
0
  2
$MODEL_SPACE
 70
     0
 10
0.0
 20
0.0
 30
0.0
  3
$MODEL_SPACE
  1

  0
ENDBLK
  5
1FD
  8
0
  0
BLOCK
 67
     1
  8
0
  2
$PAPER_SPACE
 70
     0
 10
0.0
 20
0.0
 30
0.0
  3
$PAPER_SPACE
  1

  0
ENDBLK
  5
1FB
 67
     1
  8
0
  0
BLOCK
  8
0
  2
*D2
 70
     1
 10
0.0
 20
0.0
 30
0.0
  3
*D2
  1

  0
LINE
  5
17E
  8
0
  6
BYBLOCK
 62
     0
 10
597.320479
 20
362.288112
 30
0.0
 11
597.321289
 21
464.253955
 31
0.0
  0
LINE
  5
17F
  8
0
  6
BYBLOCK
 62
     0
 10
727.31696
 20
362.28708
 30
0.0
 11
727.31777
 21
464.252922
 31
0.0
  0
LINE
  5
180
  8
0
  6
BYBLOCK
 62
     0
 10
597.501287
 20
464.073953
 30
0.0
 11
661.629528
 21
464.073444
 31
0.0
  0
LINE
  5
181
  8
0
  6
BYBLOCK
 62
     0
 10
727.137769
 20
464.072924
 30
0.0
 11
663.009528
 21
464.073433
 31
0.0
  0
SOLID
  5
182
  8
0
  6
BYBLOCK
 62
     0
 10
597.501288
 20
464.103953
 30
0.0
 11
597.501287
 21
464.043953
 31
0.0
 12
597.321287
 22
464.073955
 32
0.0
 13
597.321287
 23
464.073955
 33
0.0
  0
SOLID
  5
183
  8
0
  6
BYBLOCK
 62
     0
 10
727.137769
 20
464.102924
 30
0.0
 11
727.137769
 21
464.042924
 31
0.0
 12
727.317769
 22
464.072922
 32
0.0
 13
727.317769
 23
464.072922
 33
0.0
  0
TEXT
  5
18C
  8
0
 62
     0
 10
661.96
 20
463.755
 30
0.0
 40
0.18
  1
129.9965
  0
POINT
  5
186
  8
DEFPOINTS
  6
BYBLOCK
 62
     0
 10
597.320479
 20
362.225612
 30
0.0
  0
POINT
  5
187
  8
DEFPOINTS
  6
BYBLOCK
 62
     0
 10
727.31696
 20
362.22458
 30
0.0
  0
POINT
  5
188
  8
DEFPOINTS
  6
BYBLOCK
 62
     0
 10
727.317769
 20
464.072922
 30
0.0
  0
ENDBLK
  5
189
  8
0
  0
BLOCK
  8
0
  2
*D3
 70
     1
 10
0.0
 20
0.0
 30
0.0
  3
*D3
  1

  0
LINE
  5
1B9
  8
0
  6
BYBLOCK
 62
     0
 10
537.41406
 20
323.41888
 30
0.0
 11
564.434744
 21
323.41888
 31
0.0
  0
LINE
  5
1BA
  8
0
  6
BYBLOCK
 62
     0
 10
537.41406
 20
299.41888
 30
0.0
 11
564.434744
 21
299.41888
 31
0.0
  0
LINE
  5
1BB
  8
0
  6
BYBLOCK
 62
     0
 10
564.254744
 20
323.59888
 30
0.0
 11
564.254744
 21
323.77888
 31
0.0
  0
LINE
  5
1BC
  8
0
  6
BYBLOCK
 62
     0
 10
564.254744
 20
299.23888
 30
0.0
 11
564.254744
 21
299.05888
 31
0.0
  0
SOLID
  5
1BD
  8
0
  6
BYBLOCK
 62
     0
 10
564.224744
 20
323.59888
 30
0.0
 11
564.284744
 21
323.59888
 31
0.0
 12
564.254744
 22
323.41888
 32
0.0
 13
564.254744
 23
323.41888
 33
0.0
  0
SOLID
  5
1BE
  8
0
  6
BYBLOCK
 62
     0
 10
564.224744
 20
299.23888
 30
0.0
 11
564.284744
 21
299.23888
 31
0.0
 12
564.254744
 22
299.41888
 32
0.0
 13
564.254744
 23
299.41888
 33
0.0
  0
TEXT
  5
1BF
  8
0
  6
BYBLOCK
 62
     0
 10
548.254744
 20
308.41888
 30
0.0
 40
6.0
  1
24.0000
  0
POINT
  5
1C0
  8
DEFPOINTS
  6
BYBLOCK
 62
     0
 10
537.35156
 20
323.41888
 30
0.0
  0
POINT
  5
1C1
  8
DEFPOINTS
  6
BYBLOCK
 62
     0
 10
537.35156
 20
299.41888
 30
0.0
  0
POINT
  5
1C2
  8
DEFPOINTS
  6
BYBLOCK
 62
     0
 10
564.254744
 20
299.41888
 30
0.0
  0
ENDBLK
  5
1C3
  8
0
  0
BLOCK
  8
0
  2
*D4
 70
     1
 10
0.0
 20
0.0
 30
0.0
  3
*D4
  1

  0
LINE
  5
1C7
  8
0
  6
BYBLOCK
 62
     0
 10
485.41406
 20
366.41888
 30
0.0
 11
563.554693
 21
366.41888
 31
0.0
  0
LINE
  5
1C8
  8
0
  6
BYBLOCK
 62
     0
 10
485.41406
 20
256.41888
 30
0.0
 11
563.554693
 21
256.41888
 31
0.0
  0
LINE
  5
1C9
  8
0
  6
BYBLOCK
 62
     0
 10
563.374693
 20
366.23888
 30
0.0
 11
563.374693
 21
320.41888
 31
0.0
  0
LINE
  5
1CA
  8
0
  6
BYBLOCK
 62
     0
 10
563.374693
 20
256.59888
 30
0.0
 11
563.374693
 21
302.41888
 31
0.0
  0
SOLID
  5
1CB
  8
0
  6
BYBLOCK
 62
     0
 10
563.344693
 20
366.23888
 30
0.0
 11
563.404693
 21
366.23888
 31
0.0
 12
563.374693
 22
366.41888
 32
0.0
 13
563.374693
 23
366.41888
 33
0.0
  0
SOLID
  5
1CC
  8
0
  6
BYBLOCK
 62
     0
 10
563.344693
 20
256.59888
 30
0.0
 11
563.404693
 21
256.59888
 31
0.0
 12
563.374693
 22
256.41888
 32
0.0
 13
563.374693
 23
256.41888
 33
0.0
  0
TEXT
  5
1CD
  8
0
  6
BYBLOCK
 62
     0
 10
546.874693
 20
308.41888
 30
0.0
 40
6.0
  1
110.0000
  0
POINT
  5
1CE
  8
DEFPOINTS
  6
BYBLOCK
 62
     0
 10
485.35156
 20
366.41888
 30
0.0
  0
POINT
  5
1CF
  8
DEFPOINTS
  6
BYBLOCK
 62
     0
 10
485.35156
 20
256.41888
 30
0.0
  0
POINT
  5
1D0
  8
DEFPOINTS
  6
BYBLOCK
 62
     0
 10
563.374693
 20
256.41888
 30
0.0
  0
ENDBLK
  5
1D1
  8
0
  0
ENDSEC
  0
SECTION
  2
ENTITIES
  0
LINE
  5
23
  8
0
  6
CENTER
 62
     6
 10
117.59727
 20
311.41901
 30
0.0
 11
271.52063
 21
311.41901
 31
0.0
  0
LINE
  5
24
  8
0
  6
CENTER
 62
     6
 10
196.30693
 20
185.37726
 30
0.0
 11
196.30693
 21
386.79187
 31
0.0
  0
LINE
  5
25
  8
0
  6
CONTINUOUS
 62
     5
 10
145.50093
 20
246.41904
 30
0.0
 11
181.50691
 21
246.41904
 31
0.0
  0
LINE
  5
26
  8
0
  6
CONTINUOUS
 62
     5
 10
211.10692
 20
246.41904
 30
0.0
 11
247.11293
 21
246.41904
 31
0.0
  0
LINE
  5
27
  8
0
  6
CONTINUOUS
 62
     5
 10
261.30692
 20
260.61304
 30
0.0
 11
261.30692
 21
362.22504
 31
0.0
  0
LINE
  5
28
  8
0
  6
CONTINUOUS
 62
     5
 10
131.30693
 20
260.61304
 30
0.0
 11
131.30693
 21
362.22504
 31
0.0
  0
LINE
  5
29
  8
0
  6
CONTINUOUS
 62
     5
 10
145.50101
 20
376.41904
 30
0.0
 11
247.11285
 21
376.41904
 31
0.0
  0
LINE
  5
2A
  8
0
  6
CONTINUOUS
 62
     5
 10
175.80693
 20
253.01898
 30
0.0
 11
216.80693
 21
253.01898
 31
0.0
  0
LINE
  5
2B
  8
0
  6
CONTINUOUS
 62
     5
 10
175.80693
 20
253.01898
 30
0.0
 11
175.80693
 21
277.07169
 31
0.0
  0
LINE
  5
2C
  8
0
  6
CONTINUOUS
 62
     5
 10
177.30693
 20
253.01898
 30
0.0
 11
177.30693
 21
277.93417
 31
0.0
  0
LINE
  5
2D
  8
0
  6
CONTINUOUS
 62
     5
 10
153.80693
 20
283.91547
 30
0.0
 11
153.80693
 21
338.92261
 31
0.0
  0
LINE
  5
2E
  8
0
  6
CONTINUOUS
 62
     5
 10
168.7939
 20
353.90958
 30
0.0
 11
223.81993
 21
353.90958
 31
0.0
  0
LINE
  5
2F
  8
0
  6
CONTINUOUS
 62
     5
 10
238.80692
 20
283.91547
 30
0.0
 11
238.80692
 21
338.92261
 31
0.0
  0
LINE
  5
30
  8
0
  6
CONTINUOUS
 62
     5
 10
212.70689
 20
200.41859
 30
0.0
 11
213.70692
 21
201.41862
 31
0.0
  0
LINE
  5
31
  8
0
  6
CONTINUOUS
 62
     5
 10
179.90692
 20
200.41858
 30
0.0
 11
212.70692
 21
200.41858
 31
0.0
  0
LINE
  5
32
  8
0
  6
CONTINUOUS
 62
     5
 10
179.90689
 20
200.41855
 30
0.0
 11
178.90689
 21
201.41855
 31
0.0
  0
LINE
  5
33
  8
0
  6
CONTINUOUS
 62
     5
 10
178.90691
 20
201.41858
 30
0.0
 11
178.90691
 21
219.41858
 31
0.0
  0
LINE
  5
34
  8
0
  6
CONTINUOUS
 62
     5
 10
179.90691
 20
200.41858
 30
0.0
 11
179.90691
 21
216.41858
 31
0.0
  0
LINE
  5
35
  8
0
  6
CONTINUOUS
 62
     5
 10
178.90691
 20
201.41858
 30
0.0
 11
213.70692
 21
201.41858
 31
0.0
  0
LINE
  5
36
  8
0
  6
CONTINUOUS
 62
     5
 10
212.70692
 20
200.41858
 30
0.0
 11
212.70692
 21
216.41858
 31
0.0
  0
LINE
  5
37
  8
0
  6
CONTINUOUS
 62
     5
 10
213.70692
 20
201.41858
 30
0.0
 11
213.70692
 21
219.41858
 31
0.0
  0
LINE
  5
38
  8
0
  6
CONTINUOUS
 62
     5
 10
178.90691
 20
216.41858
 30
0.0
 11
213.70692
 21
216.41858
 31
0.0
  0
LINE
  5
39
  8
0
  6
CONTINUOUS
 62
     5
 10
175.80693
 20
219.41858
 30
0.0
 11
216.80693
 21
219.41858
 31
0.0
  0
LINE
  5
3A
  8
0
  6
CONTINUOUS
 62
     5
 10
216.80693
 20
219.41858
 30
0.0
 11
216.80693
 21
223.21857
 31
0.0
  0
LINE
  5
3B
  8
0
  6
CONTINUOUS
 62
     5
 10
175.80693
 20
219.41858
 30
0.0
 11
175.80693
 21
223.21857
 31
0.0
  0
LINE
  5
3C
  8
0
  6
CONTINUOUS
 62
     5
 10
175.80693
 20
222.21858
 30
0.0
 11
216.80693
 21
222.21858
 31
0.0
  0
LINE
  5
3D
  8
0
  6
CONTINUOUS
 62
     5
 10
175.80693
 20
223.21858
 30
0.0
 11
216.80693
 21
223.21858
 31
0.0
  0
LINE
  5
3E
  8
0
  6
CONTINUOUS
 62
     5
 10
216.80693
 20
223.21857
 30
0.0
 11
216.80693
 21
246.40958
 31
0.0
  0
LINE
  5
3F
  8
0
  6
CONTINUOUS
 62
     5
 10
175.80693
 20
223.21857
 30
0.0
 11
175.80693
 21
246.40958
 31
0.0
  0
LINE
  5
40
  8
0
  6
CONTINUOUS
 62
     5
 10
181.5069
 20
230.91896
 30
0.0
 11
182.5069
 21
229.91896
 31
0.0
  0
LINE
  5
41
  8
0
  6
CONTINUOUS
 62
     5
 10
181.50691
 20
230.91898
 30
0.0
 11
181.50691
 21
249.21896
 31
0.0
  0
LINE
  5
42
  8
0
  6
CONTINUOUS
 62
     5
 10
182.50691
 20
229.91898
 30
0.0
 11
182.50691
 21
246.21899
 31
0.0
  0
LINE
  5
43
  8
0
  6
CONTINUOUS
 62
     5
 10
182.50691
 20
229.91898
 30
0.0
 11
210.10692
 21
229.91898
 31
0.0
  0
LINE
  5
44
  8
0
  6
CONTINUOUS
 62
     5
 10
181.50693
 20
230.91898
 30
0.0
 11
211.10692
 21
230.91898
 31
0.0
  0
LINE
  5
45
  8
0
  6
CONTINUOUS
 62
     5
 10
210.10692
 20
229.91898
 30
0.0
 11
210.10692
 21
246.21899
 31
0.0
  0
LINE
  5
46
  8
0
  6
CONTINUOUS
 62
     5
 10
210.1069
 20
229.91895
 30
0.0
 11
211.10693
 21
230.91898
 31
0.0
  0
LINE
  5
47
  8
0
  6
CONTINUOUS
 62
     5
 10
211.10692
 20
230.91898
 30
0.0
 11
211.10692
 21
249.21896
 31
0.0
  0
LINE
  5
48
  8
0
  6
CONTINUOUS
 62
     5
 10
181.50691
 20
246.21899
 30
0.0
 11
211.10692
 21
246.21899
 31
0.0
  0
LINE
  5
49
  8
0
  6
CONTINUOUS
 62
     5
 10
177.30693
 20
249.21896
 30
0.0
 11
215.30693
 21
249.21896
 31
0.0
  0
LINE
  5
4A
  8
0
  6
CONTINUOUS
 62
     5
 10
177.30693
 20
252.01898
 30
0.0
 11
215.30693
 21
252.01898
 31
0.0
  0
LINE
  5
4B
  8
0
  6
CONTINUOUS
 62
     5
 10
215.35692
 20
249.21896
 30
0.0
 11
215.35692
 21
253.01898
 31
0.0
  0
LINE
  5
4C
  8
0
  6
CONTINUOUS
 62
     5
 10
177.25691
 20
249.21896
 30
0.0
 11
177.25691
 21
253.01898
 31
0.0
  0
LINE
  5
4D
  8
0
  6
CONTINUOUS
 62
     5
 10
215.30693
 20
253.01898
 30
0.0
 11
215.30693
 21
277.93384
 31
0.0
  0
LINE
  5
4E
  8
0
  6
CONTINUOUS
 62
     5
 10
216.80693
 20
253.01898
 30
0.0
 11
216.80693
 21
277.0715
 31
0.0
  0
LINE
  5
4F
  8
0
  6
CONTINUOUS
 62
     5
 10
168.81279
 20
268.90958
 30
0.0
 11
175.80693
 21
268.90958
 31
0.0
  0
LINE
  5
50
  8
0
  6
CONTINUOUS
 62
     5
 10
413.45154
 20
219.41876
 30
0.0
 11
413.45154
 21
201.41876
 31
0.0
  0
LINE
  5
51
  8
0
  6
CONTINUOUS
 62
     5
 10
413.45148
 20
201.41869
 30
0.0
 11
414.45148
 21
200.41872
 31
0.0
  0
LINE
  5
52
  8
0
  6
CONTINUOUS
 62
     5
 10
414.45154
 20
200.41878
 30
0.0
 11
447.25153
 21
200.41878
 31
0.0
  0
LINE
  5
53
  8
0
  6
CONTINUOUS
 62
     5
 10
447.25143
 20
200.41885
 30
0.0
 11
448.25143
 21
201.41887
 31
0.0
  0
LINE
  5
54
  8
0
  6
CONTINUOUS
 62
     5
 10
448.25153
 20
201.41876
 30
0.0
 11
448.25153
 21
219.41876
 31
0.0
  0
LINE
  5
55
  8
0
  6
CONTINUOUS
 62
     5
 10
448.25153
 20
219.41876
 30
0.0
 11
448.25153
 21
216.41876
 31
0.0
  0
LINE
  5
56
  8
0
  6
CONTINUOUS
 62
     5
 10
448.25153
 20
216.41878
 30
0.0
 11
413.45154
 21
216.41878
 31
0.0
  0
LINE
  5
57
  8
0
  6
CONTINUOUS
 62
     5
 10
414.45154
 20
216.41876
 30
0.0
 11
414.45154
 21
200.41876
 31
0.0
  0
LINE
  5
58
  8
0
  6
CONTINUOUS
 62
     5
 10
413.45154
 20
201.41878
 30
0.0
 11
448.25153
 21
201.41878
 31
0.0
  0
LINE
  5
59
  8
0
  6
CONTINUOUS
 62
     5
 10
447.25153
 20
200.41876
 30
0.0
 11
447.25153
 21
216.41876
 31
0.0
  0
LINE
  5
5A
  8
0
  6
CONTINUOUS
 62
     5
 10
451.35156
 20
223.21875
 30
0.0
 11
451.35156
 21
219.41876
 31
0.0
  0
LINE
  5
5B
  8
0
  6
CONTINUOUS
 62
     5
 10
451.35156
 20
219.41878
 30
0.0
 11
410.35156
 21
219.41878
 31
0.0
  0
LINE
  5
5C
  8
0
  6
CONTINUOUS
 62
     5
 10
410.35156
 20
219.41876
 30
0.0
 11
410.35156
 21
223.21875
 31
0.0
  0
LINE
  5
5D
  8
0
  6
CONTINUOUS
 62
     5
 10
410.35156
 20
222.21877
 30
0.0
 11
451.35156
 21
222.21877
 31
0.0
  0
LINE
  5
5E
  8
0
  6
CONTINUOUS
 62
     5
 10
453.35144
 20
223.2197
 30
0.0
 11
408.35156
 21
223.2197
 31
0.0
  0
LINE
  5
5F
  8
0
  6
CONTINUOUS
 62
     5
 10
408.35156
 20
246.39673
 30
0.0
 11
408.35156
 21
223.21875
 31
0.0
  0
LINE
  5
60
  8
0
  6
CONTINUOUS
 62
     5
 10
463.35156
 20
245.4189
 30
0.0
 11
463.35156
 21
246.4189
 31
0.0
  0
LINE
  5
61
  8
0
  6
CENTER
 62
     6
 10
430.85156
 20
193.47867
 30
0.0
 11
430.85156
 21
230.35321
 31
0.0
  0
LINE
  5
62
  8
0
  6
CONTINUOUS
 62
     5
 10
597.31732
 20
362.22571
 30
0.0
 11
597.31732
 21
260.61322
 31
0.0
  0
LINE
  5
63
  8
0
  6
CENTER
 62
     6
 10
605.41547
 20
254.51416
 30
0.0
 11
616.53351
 21
265.63217
 31
0.0
  0
LINE
  5
64
  8
0
  6
CENTER
 62
     6
 10
605.55914
 20
368.18015
 30
0.0
 11
617.37274
 21
356.36658
 31
0.0
  0
LINE
  5
65
  8
0
  6
CENTER
 62
     6
 10
707.81152
 20
265.92783
 30
0.0
 11
719.39319
 21
254.34613
 31
0.0
  0
LINE
  5
66
  8
0
  6
CENTER
 62
     6
 10
707.31995
 20
356.41861
 30
0.0
 11
719.24951
 21
368.34821
 31
0.0
  0
LINE
  5
67
  8
0
  6
CONTINUOUS
 62
     5
 10
611.51312
 20
246.42505
 30
0.0
 11
713.12555
 21
246.42505
 31
0.0
  0
LINE
  5
68
  8
0
  6
CONTINUOUS
 62
     5
 10
727.31696
 20
260.61206
 30
0.0
 11
727.31696
 21
362.22458
 31
0.0
  0
LINE
  5
69
  8
0
  6
CONTINUOUS
 62
     5
 10
713.12677
 20
376.42465
 30
0.0
 11
611.51422
 21
376.42465
 31
0.0
  0
LINE
  5
6A
  8
0
  6
CENTER
 62
     6
 10
587.36932
 20
311.41888
 30
0.0
 11
739.52728
 21
311.41888
 31
0.0
  0
LINE
  5
6B
  8
0
  6
CENTER
 62
     6
 10
662.31989
 20
189.75778
 30
0.0
 11
662.31989
 21
392.05334
 31
0.0
  0
LINE
  5
6C
  8
0
  6
CONTINUOUS
 62
     5
 10
641.81989
 20
245.41888
 30
0.0
 11
682.81989
 21
245.41888
 31
0.0
  0
LINE
  5
6D
  8
0
  6
CONTINUOUS
 62
     5
 10
641.81989
 20
223.21889
 30
0.0
 11
682.81989
 21
223.21889
 31
0.0
  0
LINE
  5
6E
  8
0
  6
CONTINUOUS
 62
     5
 10
641.81989
 20
222.21889
 30
0.0
 11
682.81989
 21
222.21889
 31
0.0
  0
LINE
  5
6F
  8
0
  6
CONTINUOUS
 62
     5
 10
641.81989
 20
219.4189
 30
0.0
 11
682.81989
 21
219.4189
 31
0.0
  0
LINE
  5
70
  8
0
  6
CONTINUOUS
 62
     5
 10
682.81989
 20
219.41888
 30
0.0
 11
682.81989
 21
246.41888
 31
0.0
  0
LINE
  5
71
  8
0
  6
CONTINUOUS
 62
     5
 10
641.81989
 20
246.41888
 30
0.0
 11
641.81989
 21
219.41888
 31
0.0
  0
LINE
  5
72
  8
0
  6
CONTINUOUS
 62
     5
 10
644.91986
 20
219.41888
 30
0.0
 11
644.91986
 21
201.41888
 31
0.0
  0
LINE
  5
73
  8
0
  6
CONTINUOUS
 62
     5
 10
644.91974
 20
201.41879
 30
0.0
 11
645.91974
 21
200.41881
 31
0.0
  0
LINE
  5
74
  8
0
  6
CONTINUOUS
 62
     5
 10
645.91986
 20
200.4189
 30
0.0
 11
678.71991
 21
200.4189
 31
0.0
  0
LINE
  5
75
  8
0
  6
CONTINUOUS
 62
     5
 10
678.71973
 20
200.41901
 30
0.0
 11
679.71973
 21
201.41902
 31
0.0
  0
LINE
  5
76
  8
0
  6
CONTINUOUS
 62
     5
 10
679.71991
 20
201.41888
 30
0.0
 11
679.71991
 21
219.41888
 31
0.0
  0
LINE
  5
77
  8
0
  6
CONTINUOUS
 62
     5
 10
679.71991
 20
216.4189
 30
0.0
 11
644.91986
 21
216.4189
 31
0.0
  0
LINE
  5
78
  8
0
  6
CONTINUOUS
 62
     5
 10
645.91986
 20
216.41888
 30
0.0
 11
645.91986
 21
200.41888
 31
0.0
  0
LINE
  5
79
  8
0
  6
CONTINUOUS
 62
     5
 10
644.91986
 20
201.4189
 30
0.0
 11
679.71991
 21
201.4189
 31
0.0
  0
LINE
  5
7A
  8
0
  6
CONTINUOUS
 62
     5
 10
678.71991
 20
200.41888
 30
0.0
 11
678.71991
 21
216.41888
 31
0.0
  0
LINE
  5
7B
  8
0
  6
CENTER
 62
     6
 10
627.27362
 20
250.71596
 30
0.0
 11
630.32074
 21
255.99385
 31
0.0
  0
LINE
  5
7C
  8
0
  6
CENTER
 62
     6
 10
723.02264
 20
276.37216
 30
0.0
 11
717.74469
 21
279.41934
 31
0.0
  0
LINE
  5
7D
  8
0
  6
CENTER
 62
     6
 10
694.31964
 20
366.84366
 30
0.0
 11
697.36688
 21
372.12152
 31
0.0
  0
LINE
  5
7E
  8
0
  6
CONTINUOUS
 62
     5
 10
632.47467
 20
327.18021
 30
0.0
 11
631.54297
 21
330.65756
 31
0.0
  0
LINE
  5
7F
  8
0
  6
CONTINUOUS
 62
     5
 10
630.27026
 20
328.45303
 30
0.0
 11
633.74756
 21
329.38477
 31
0.0
  0
LINE
  5
80
  8
0
  6
CONTINUOUS
 62
     5
 10
690.89197
 20
329.38477
 30
0.0
 11
694.36938
 21
328.453
 31
0.0
  0
LINE
  5
81
  8
0
  6
CONTINUOUS
 62
     5
 10
692.16528
 20
327.18018
 30
0.0
 11
693.09705
 21
330.65753
 31
0.0
  0
LINE
  5
82
  8
0
  6
CONTINUOUS
 62
     5
 10
661.047
 20
275.14627
 30
0.0
 11
663.59253
 21
277.69186
 31
0.0
  0
LINE
  5
83
  8
0
  6
CONTINUOUS
 62
     5
 10
661.0473
 20
277.69186
 30
0.0
 11
663.59283
 21
275.14621
 31
0.0
  0
LINE
  5
84
  8
0
  6
CENTER
 62
     6
 10
627.61273
 20
331.45688
 30
0.0
 11
636.15887
 21
326.52283
 31
0.0
  0
LINE
  5
85
  8
0
  6
CENTER
 62
     6
 10
688.25824
 20
326.39453
 30
0.0
 11
697.27948
 21
331.60291
 31
0.0
  0
LINE
  5
86
  8
0
  6
CONTINUOUS
 62
     5
 10
153.8069
 20
283.91537
 30
0.0
 11
168.81276
 21
268.90948
 31
0.0
  0
LINE
  5
87
  8
0
  6
CONTINUOUS
 62
     5
 10
223.80104
 20
268.90961
 30
0.0
 11
238.80693
 21
283.91553
 31
0.0
  0
LINE
  5
88
  8
0
  6
CENTER
 62
     6
 10
213.32378
 20
265.90958
 30
0.0
 11
208.41945
 21
265.90958
 31
0.0
  0
LINE
  5
89
  8
0
  6
CENTER
 62
     6
 10
211.00691
 20
263.62579
 30
0.0
 11
211.00691
 21
268.62579
 31
0.0
  0
LINE
  5
8A
  8
0
  6
CENTER
 62
     6
 10
179.07607
 20
265.90958
 30
0.0
 11
183.78862
 21
265.90958
 31
0.0
  0
LINE
  5
8B
  8
0
  6
CENTER
 62
     6
 10
181.60692
 20
263.81757
 30
0.0
 11
181.60692
 21
268.81757
 31
0.0
  0
LINE
  5
8C
  8
0
  6
CENTER
 62
     6
 10
227.03152
 20
258.20291
 30
0.0
 11
232.00368
 21
249.59091
 31
0.0
  0
LINE
  5
8D
  8
0
  6
CENTER
 62
     6
 10
139.27394
 20
254.38609
 30
0.0
 11
151.63994
 21
266.75208
 31
0.0
  0
LINE
  5
8E
  8
0
  6
CENTER
 62
     6
 10
134.4787
 20
275.72266
 30
0.0
 11
143.0907
 21
280.69482
 31
0.0
  0
LINE
  5
8F
  8
0
  6
CONTINUOUS
 62
     5
 10
134.95651
 20
268.91901
 30
0.0
 11
141.80693
 21
268.91901
 31
0.0
  0
LINE
  5
90
  8
0
  6
CONTINUOUS
 62
     5
 10
153.80693
 20
256.91901
 30
0.0
 11
153.80693
 21
248.41904
 31
0.0
  0
LINE
  5
91
  8
0
  6
CONTINUOUS
 62
     5
 10
137.61024
 20
275.40759
 30
0.0
 11
138.95612
 21
280.43042
 31
0.0
  0
LINE
  5
92
  8
0
  6
CONTINUOUS
 62
     5
 10
135.77182
 20
278.59204
 30
0.0
 11
140.79465
 21
277.24619
 31
0.0
  0
LINE
  5
93
  8
0
  6
CONTINUOUS
 62
     5
 10
162.13399
 20
366.93137
 30
0.0
 11
163.47984
 21
371.95419
 31
0.0
  0
LINE
  5
94
  8
0
  6
CONTINUOUS
 62
     5
 10
160.29552
 20
370.11578
 30
0.0
 11
165.31833
 21
368.76993
 31
0.0
  0
LINE
  5
95
  8
0
  6
CENTER
 62
     6
 10
165.58257
 20
364.63516
 30
0.0
 11
160.6104
 21
373.24722
 31
0.0
  0
LINE
  5
96
  8
0
  6
CENTER
 62
     6
 10
139.88573
 20
367.84021
 30
0.0
 11
150.42059
 21
357.30539
 31
0.0
  0
LINE
  5
97
  8
0
  6
CONTINUOUS
 62
     5
 10
160.89455
 20
279.85837
 30
0.0
 11
161.24318
 21
283.84314
 31
0.0
  0
LINE
  5
98
  8
0
  6
CENTER
 62
     6
 10
164.19858
 20
284.46902
 30
0.0
 11
158.54663
 21
279.7265
 31
0.0
  0
LINE
  5
99
  8
0
  6
CONTINUOUS
 62
     5
 10
168.79391
 20
353.90948
 30
0.0
 11
153.80695
 21
338.92255
 31
0.0
  0
LINE
  5
9A
  8
0
  6
CONTINUOUS
 62
     5
 10
223.81987
 20
353.90952
 30
0.0
 11
238.80688
 21
338.92255
 31
0.0
  0
LINE
  5
9B
  8
0
  6
CENTER
 62
     6
 10
249.52316
 20
342.14349
 30
0.0
 11
258.13519
 21
347.1156
 31
0.0
  0
LINE
  5
9C
  8
0
  6
CONTINUOUS
 62
     5
 10
255.00359
 20
347.43042
 30
0.0
 11
253.65771
 21
342.40759
 31
0.0
  0
LINE
  5
9D
  8
0
  6
CONTINUOUS
 62
     5
 10
256.84201
 20
344.24597
 30
0.0
 11
251.8192
 21
345.59183
 31
0.0
  0
LINE
  5
9E
  8
0
  6
CENTER
 62
     6
 10
241.47194
 20
356.58405
 30
0.0
 11
253.21739
 21
368.32953
 31
0.0
  0
LINE
  5
9F
  8
0
  6
CENTER
 62
     6
 10
252.77022
 20
254.95567
 30
0.0
 11
242.49304
 21
265.23282
 31
0.0
  0
LINE
  5
A0
  8
0
  6
CONTINUOUS
 62
     5
 10
227.29549
 20
254.06833
 30
0.0
 11
232.31833
 21
252.7225
 31
0.0
  0
LINE
  5
A1
  8
0
  6
CONTINUOUS
 62
     5
 10
229.13403
 20
250.88388
 30
0.0
 11
230.47989
 21
255.90671
 31
0.0
  0
LINE
  5
A2
  8
0
  6
CONTINUOUS
 62
     5
 10
223.80104
 20
268.90958
 30
0.0
 11
216.80693
 21
268.90958
 31
0.0
  0
LINE
  5
A3
  8
0
  6
CONTINUOUS
 62
     5
 10
250.80692
 20
268.91901
 30
0.0
 11
257.65558
 21
268.91901
 31
0.0
  0
LINE
  5
A4
  8
0
  6
CONTINUOUS
 62
     5
 10
238.80692
 20
256.91901
 30
0.0
 11
238.80692
 21
248.41904
 31
0.0
  0
LINE
  5
A5
  8
0
  6
CONTINUOUS
 62
     5
 10
238.80692
 20
374.41904
 30
0.0
 11
238.80692
 21
365.91901
 31
0.0
  0
LINE
  5
A6
  8
0
  6
CONTINUOUS
 62
     5
 10
250.80692
 20
353.91901
 30
0.0
 11
257.65594
 21
353.91901
 31
0.0
  0
LINE
  5
A7
  8
0
  6
CONTINUOUS
 62
     5
 10
134.95651
 20
353.91901
 30
0.0
 11
141.80693
 21
353.91901
 31
0.0
  0
LINE
  5
A8
  8
0
  6
CONTINUOUS
 62
     5
 10
153.80693
 20
365.91901
 30
0.0
 11
153.80693
 21
374.41904
 31
0.0
  0
LINE
  5
A9
  8
0
  6
CONTINUOUS
 62
     5
 10
163.06128
 20
281.67651
 30
0.0
 11
159.07657
 21
282.02515
 31
0.0
  0
LINE
  5
AA
  8
0
  6
CONTINUOUS
 62
     5
 10
163.96533
 20
278.39896
 30
0.0
 11
161.44131
 21
276.28107
 31
0.0
  0
LINE
  5
AB
  8
0
  6
CONTINUOUS
 62
     5
 10
158.18027
 20
285.29333
 30
0.0
 11
155.05305
 21
282.66931
 31
0.0
  0
LINE
  5
AC
  8
0
  6
CONTINUOUS
 62
     5
 10
231.71928
 20
342.97968
 30
0.0
 11
231.37064
 21
338.99484
 31
0.0
  0
LINE
  5
AD
  8
0
  6
CENTER
 62
     6
 10
228.41528
 20
338.36905
 30
0.0
 11
234.06721
 21
343.11154
 31
0.0
  0
LINE
  5
AE
  8
0
  6
CONTINUOUS
 62
     5
 10
229.55258
 20
341.16165
 30
0.0
 11
233.53734
 21
340.81302
 31
0.0
  0
LINE
  5
AF
  8
0
  6
CONTINUOUS
 62
     5
 10
228.64851
 20
344.43903
 30
0.0
 11
231.17253
 21
346.55695
 31
0.0
  0
LINE
  5
B0
  8
0
  6
CONTINUOUS
 62
     5
 10
234.43364
 20
337.54468
 30
0.0
 11
237.56079
 21
340.16867
 31
0.0
  0
LINE
  5
B1
  8
0
  6
CENTER
 62
     6
 10
601.61755
 20
346.46649
 30
0.0
 11
606.89539
 21
343.41925
 31
0.0
  0
LINE
  5
B2
  8
0
  6
CONTINUOUS
 62
     5
 10
227.8676
 20
276.00665
 30
0.0
 11
223.88275
 21
276.35532
 31
0.0
  0
LINE
  5
B3
  8
0
  6
CENTER
 62
     6
 10
223.25694
 20
279.31067
 30
0.0
 11
227.99948
 21
273.65875
 31
0.0
  0
LINE
  5
B4
  8
0
  6
CONTINUOUS
 62
     5
 10
226.04947
 20
278.17334
 30
0.0
 11
225.70084
 21
274.1886
 31
0.0
  0
LINE
  5
B5
  8
0
  6
CONTINUOUS
 62
     5
 10
229.32698
 20
279.07745
 30
0.0
 11
231.44487
 21
276.55344
 31
0.0
  0
LINE
  5
B6
  8
0
  6
CONTINUOUS
 62
     5
 10
222.4326
 20
273.29233
 30
0.0
 11
225.05663
 21
270.16513
 31
0.0
  0
LINE
  5
B7
  8
0
  6
CONTINUOUS
 62
     5
 10
164.74632
 20
346.83136
 30
0.0
 11
168.73112
 21
346.48273
 31
0.0
  0
LINE
  5
B8
  8
0
  6
CENTER
 62
     6
 10
169.35693
 20
343.52734
 30
0.0
 11
164.6144
 21
349.17929
 31
0.0
  0
LINE
  5
B9
  8
0
  6
CONTINUOUS
 62
     5
 10
166.56439
 20
344.66467
 30
0.0
 11
166.91302
 21
348.64938
 31
0.0
  0
LINE
  5
BA
  8
0
  6
CONTINUOUS
 62
     5
 10
163.28685
 20
343.76068
 30
0.0
 11
161.16896
 21
346.2847
 31
0.0
  0
LINE
  5
BB
  8
0
  6
CONTINUOUS
 62
     5
 10
170.18126
 20
349.54565
 30
0.0
 11
167.55722
 21
352.67285
 31
0.0
  0
LINE
  5
BC
  8
0
  6
CONTINUOUS
 62
     5
 10
463.35156
 20
245.4189
 30
0.0
 11
408.35156
 21
245.4189
 31
0.0
  0
LINE
  5
BD
  8
0
  6
CONTINUOUS
 62
     5
 10
485.35156
 20
326.41888
 30
0.0
 11
487.35156
 21
326.41888
 31
0.0
  0
LINE
  5
BE
  8
0
  6
CONTINUOUS
 62
     5
 10
487.35156
 20
326.41888
 30
0.0
 11
487.35156
 21
296.41888
 31
0.0
  0
LINE
  5
BF
  8
0
  6
CONTINUOUS
 62
     5
 10
487.35156
 20
296.41888
 30
0.0
 11
485.35156
 21
296.41888
 31
0.0
  0
LINE
  5
C0
  8
0
  6
CONTINUOUS
 62
     5
 10
487.35156
 20
323.41888
 30
0.0
 11
537.35156
 21
323.41888
 31
0.0
  0
LINE
  5
C1
  8
0
  6
CONTINUOUS
 62
     5
 10
537.35156
 20
323.41888
 30
0.0
 11
537.35156
 21
299.41888
 31
0.0
  0
LINE
  5
C2
  8
0
  6
CONTINUOUS
 62
     5
 10
537.35156
 20
299.41888
 30
0.0
 11
487.35156
 21
299.41888
 31
0.0
  0
LINE
  5
C3
  8
0
  6
CENTER
 62
     6
 10
545.37354
 20
311.41888
 30
0.0
 11
317.10834
 21
311.41888
 31
0.0
  0
LINE
  5
C4
  8
0
  6
CONTINUOUS
 62
     5
 10
406.55154
 20
376.41888
 30
0.0
 11
406.55154
 21
246.4189
 31
0.0
  0
LINE
  5
C5
  8
0
  6
CONTINUOUS
 62
     5
 10
402.05154
 20
246.4189
 30
0.0
 11
402.05154
 21
376.41888
 31
0.0
  0
LINE
  5
C6
  8
0
  6
CONTINUOUS
 62
     5
 10
466.35156
 20
376.41888
 30
0.0
 11
466.35156
 21
246.4189
 31
0.0
  0
LINE
  5
C7
  8
0
  6
CONTINUOUS
 62
     5
 10
470.35156
 20
246.4189
 30
0.0
 11
470.35156
 21
376.41888
 31
0.0
  0
LINE
  5
C8
  8
0
  6
CONTINUOUS
 62
     5
 10
482.35156
 20
376.41888
 30
0.0
 11
482.35156
 21
246.4189
 31
0.0
  0
LINE
  5
C9
  8
0
  6
CONTINUOUS
 62
     5
 10
482.35156
 20
260.61292
 30
0.0
 11
470.35156
 21
260.61292
 31
0.0
  0
LINE
  5
CA
  8
0
  6
CONTINUOUS
 62
     5
 10
466.35156
 20
283.41888
 30
0.0
 11
406.55154
 21
283.41888
 31
0.0
  0
LINE
  5
CB
  8
0
  6
CONTINUOUS
 62
     5
 10
466.35156
 20
286.41888
 30
0.0
 11
406.55154
 21
286.41888
 31
0.0
  0
LINE
  5
CC
  8
0
  6
CONTINUOUS
 62
     5
 10
466.35156
 20
289.41888
 30
0.0
 11
406.55154
 21
289.41888
 31
0.0
  0
LINE
  5
CD
  8
0
  6
CONTINUOUS
 62
     5
 10
466.35156
 20
292.41888
 30
0.0
 11
406.55154
 21
292.41888
 31
0.0
  0
LINE
  5
CE
  8
0
  6
CONTINUOUS
 62
     5
 10
466.35156
 20
330.41888
 30
0.0
 11
406.55154
 21
330.41888
 31
0.0
  0
LINE
  5
CF
  8
0
  6
CONTINUOUS
 62
     5
 10
466.35156
 20
333.41888
 30
0.0
 11
406.55154
 21
333.41888
 31
0.0
  0
LINE
  5
D0
  8
0
  6
CONTINUOUS
 62
     5
 10
466.35156
 20
336.41888
 30
0.0
 11
406.55154
 21
336.41888
 31
0.0
  0
LINE
  5
D1
  8
0
  6
CONTINUOUS
 62
     5
 10
466.35156
 20
339.41888
 30
0.0
 11
406.55154
 21
339.41888
 31
0.0
  0
LINE
  5
D2
  8
0
  6
CONTINUOUS
 62
     5
 10
482.35156
 20
366.41888
 30
0.0
 11
485.35156
 21
366.41888
 31
0.0
  0
LINE
  5
D3
  8
0
  6
CONTINUOUS
 62
     5
 10
485.35156
 20
366.41888
 30
0.0
 11
485.35156
 21
256.41888
 31
0.0
  0
LINE
  5
D4
  8
0
  6
CONTINUOUS
 62
     5
 10
485.35156
 20
256.41888
 30
0.0
 11
482.35156
 21
256.41888
 31
0.0
  0
LINE
  5
D5
  8
0
  6
CONTINUOUS
 62
     5
 10
482.35156
 20
362.22491
 30
0.0
 11
470.35156
 21
362.22491
 31
0.0
  0
LINE
  5
D6
  8
0
  6
CONTINUOUS
 62
     5
 10
334.05154
 20
249.2189
 30
0.0
 11
334.05154
 21
230.91891
 31
0.0
  0
LINE
  5
D7
  8
0
  6
CONTINUOUS
 62
     5
 10
334.05151
 20
230.91887
 30
0.0
 11
335.05151
 21
229.91888
 31
0.0
  0
LINE
  5
D8
  8
0
  6
CONTINUOUS
 62
     5
 10
335.05154
 20
229.91891
 30
0.0
 11
362.65155
 21
229.91891
 31
0.0
  0
LINE
  5
D9
  8
0
  6
CONTINUOUS
 62
     5
 10
362.65155
 20
229.91891
 30
0.0
 11
363.65155
 21
230.91891
 31
0.0
  0
LINE
  5
DA
  8
0
  6
CONTINUOUS
 62
     5
 10
363.65155
 20
230.91891
 30
0.0
 11
363.65155
 21
249.2189
 31
0.0
  0
LINE
  5
DB
  8
0
  6
CENTER
 62
     6
 10
348.85156
 20
256.47809
 30
0.0
 11
348.85156
 21
223.17615
 31
0.0
  0
LINE
  5
DC
  8
0
  6
CONTINUOUS
 62
     5
 10
363.65155
 20
230.91891
 30
0.0
 11
334.05154
 21
230.91891
 31
0.0
  0
LINE
  5
DD
  8
0
  6
CONTINUOUS
 62
     5
 10
335.05154
 20
229.91891
 30
0.0
 11
335.05154
 21
246.2189
 31
0.0
  0
LINE
  5
DE
  8
0
  6
CONTINUOUS
 62
     5
 10
334.05154
 20
246.2189
 30
0.0
 11
363.65155
 21
246.2189
 31
0.0
  0
LINE
  5
DF
  8
0
  6
CONTINUOUS
 62
     5
 10
362.65155
 20
246.2189
 30
0.0
 11
362.65155
 21
229.91891
 31
0.0
  0
LINE
  5
E0
  8
0
  6
CONTINUOUS
 62
     5
 10
367.90155
 20
253.01891
 30
0.0
 11
367.90155
 21
249.2189
 31
0.0
  0
LINE
  5
E1
  8
0
  6
CONTINUOUS
 62
     5
 10
367.90155
 20
249.2189
 30
0.0
 11
329.80154
 21
249.2189
 31
0.0
  0
LINE
  5
E2
  8
0
  6
CONTINUOUS
 62
     5
 10
329.80154
 20
249.2189
 30
0.0
 11
329.80154
 21
253.01891
 31
0.0
  0
LINE
  5
E3
  8
0
  6
CONTINUOUS
 62
     5
 10
482.35156
 20
246.4189
 30
0.0
 11
375.05154
 21
246.4189
 31
0.0
  0
LINE
  5
E4
  8
0
  6
CONTINUOUS
 62
     5
 10
372.85156
 20
247.40285
 30
0.0
 11
374.05154
 21
247.40285
 31
0.0
  0
LINE
  5
E5
  8
0
  6
CONTINUOUS
 62
     5
 10
374.05154
 20
375.41888
 30
0.0
 11
374.05154
 21
247.4189
 31
0.0
  0
LINE
  5
E6
  8
0
  6
CONTINUOUS
 62
     5
 10
375.05154
 20
376.41888
 30
0.0
 11
482.35156
 21
376.41888
 31
0.0
  0
LINE
  5
E7
  8
0
  6
CONTINUOUS
 62
     5
 10
372.85156
 20
375.45087
 30
0.0
 11
374.05206
 21
375.45087
 31
0.0
  0
LINE
  5
E8
  8
0
  6
CONTINUOUS
 62
     5
 10
372.85156
 20
373.95087
 30
0.0
 11
371.15155
 21
373.95087
 31
0.0
  0
LINE
  5
E9
  8
0
  6
CENTER
 62
     6
 10
376.24231
 20
369.45026
 30
0.0
 11
370.37027
 21
369.45026
 31
0.0
  0
LINE
  5
EA
  8
0
  6
CONTINUOUS
 62
     5
 10
369.55154
 20
372.35086
 30
0.0
 11
369.55154
 21
366.55084
 31
0.0
  0
LINE
  5
EB
  8
0
  6
CONTINUOUS
 62
     5
 10
371.15158
 20
364.95084
 30
0.0
 11
372.85156
 21
364.95087
 31
0.0
  0
LINE
  5
EC
  8
0
  6
CONTINUOUS
 62
     5
 10
372.85156
 20
363.45087
 30
0.0
 11
372.85156
 21
375.45087
 31
0.0
  0
LINE
  5
ED
  8
0
  6
CONTINUOUS
 62
     5
 10
374.05154
 20
363.45087
 30
0.0
 11
372.85156
 21
363.45087
 31
0.0
  0
LINE
  5
EE
  8
0
  6
CONTINUOUS
 62
     5
 10
371.15155
 20
340.38184
 30
0.0
 11
372.85156
 21
340.38184
 31
0.0
  0
LINE
  5
EF
  8
0
  6
CONTINUOUS
 62
     5
 10
372.85156
 20
338.88184
 30
0.0
 11
372.85156
 21
350.88184
 31
0.0
  0
LINE
  5
F0
  8
0
  6
CONTINUOUS
 62
     5
 10
372.85156
 20
350.88184
 30
0.0
 11
374.05154
 21
350.88184
 31
0.0
  0
LINE
  5
F1
  8
0
  6
CONTINUOUS
 62
     5
 10
372.85156
 20
338.88184
 30
0.0
 11
374.05154
 21
338.88184
 31
0.0
  0
LINE
  5
F2
  8
0
  6
CONTINUOUS
 62
     5
 10
374.05154
 20
338.92258
 30
0.0
 11
355.85156
 21
338.92258
 31
0.0
  0
LINE
  5
F3
  8
0
  6
CONTINUOUS
 62
     5
 10
369.55154
 20
341.98184
 30
0.0
 11
369.55154
 21
347.78186
 31
0.0
  0
LINE
  5
F4
  8
0
  6
CENTER
 62
     6
 10
370.13123
 20
344.88144
 30
0.0
 11
376.24231
 21
344.88144
 31
0.0
  0
LINE
  5
F5
  8
0
  6
CONTINUOUS
 62
     5
 10
371.15158
 20
349.38187
 30
0.0
 11
372.85156
 21
349.38184
 31
0.0
  0
LINE
  5
F6
  8
0
  6
CONTINUOUS
 62
     5
 10
359.85156
 20
340.39929
 30
0.0
 11
359.85156
 21
342.53137
 31
0.0
  0
LINE
  5
F7
  8
0
  6
CONTINUOUS
 62
     5
 10
360.85156
 20
343.53137
 30
0.0
 11
361.85156
 21
343.53137
 31
0.0
  0
LINE
  5
F8
  8
0
  6
CENTER
 62
     6
 10
357.52237
 20
341.03137
 30
0.0
 11
364.34366
 21
341.03137
 31
0.0
  0
LINE
  5
F9
  8
0
  6
CONTINUOUS
 62
     5
 10
361.85156
 20
340.39929
 30
0.0
 11
355.85156
 21
340.39929
 31
0.0
  0
LINE
  5
FA
  8
0
  6
CONTINUOUS
 62
     5
 10
361.85156
 20
346.76324
 30
0.0
 11
355.85156
 21
346.76324
 31
0.0
  0
LINE
  5
FB
  8
0
  6
CONTINUOUS
 62
     5
 10
355.85153
 20
351.4537
 30
0.0
 11
331.49567
 21
350.60318
 31
0.0
  0
LINE
  5
FC
  8
0
  6
CONTINUOUS
 62
     5
 10
355.85156
 20
353.91888
 30
0.0
 11
470.35156
 21
353.91888
 31
0.0
  0
LINE
  5
FD
  8
0
  6
CONTINUOUS
 62
     5
 10
355.85156
 20
353.91888
 30
0.0
 11
355.85156
 21
268.91888
 31
0.0
  0
LINE
  5
FE
  8
0
  6
CONTINUOUS
 62
     5
 10
355.85156
 20
270.39572
 30
0.0
 11
361.85156
 21
270.39572
 31
0.0
  0
LINE
  5
FF
  8
0
  6
CONTINUOUS
 62
     5
 10
355.85156
 20
283.91544
 30
0.0
 11
374.05154
 21
283.91544
 31
0.0
  0
LINE
  5
100
  8
0
  6
CENTER
 62
     6
 10
364.34366
 20
276.24384
 30
0.0
 11
357.52237
 21
276.24384
 31
0.0
  0
LINE
  5
101
  8
0
  6
CONTINUOUS
 62
     5
 10
355.85156
 20
276.75967
 30
0.0
 11
361.85156
 21
276.75967
 31
0.0
  0
LINE
  5
102
  8
0
  6
CONTINUOUS
 62
     5
 10
359.85156
 20
274.74384
 30
0.0
 11
359.85156
 21
276.75967
 31
0.0
  0
LINE
  5
103
  8
0
  6
CONTINUOUS
 62
     5
 10
360.85156
 20
273.74384
 30
0.0
 11
361.85156
 21
273.74384
 31
0.0
  0
LINE
  5
104
  8
0
  6
CONTINUOUS
 62
     5
 10
374.05154
 20
259.40283
 30
0.0
 11
372.85156
 21
259.40283
 31
0.0
  0
LINE
  5
105
  8
0
  6
CONTINUOUS
 62
     5
 10
372.85156
 20
259.40283
 30
0.0
 11
372.85156
 21
247.40285
 31
0.0
  0
LINE
  5
106
  8
0
  6
CENTER
 62
     6
 10
368.77124
 20
253.40285
 30
0.0
 11
375.11398
 21
253.40285
 31
0.0
  0
LINE
  5
107
  8
0
  6
CONTINUOUS
 62
     5
 10
371.15158
 20
257.90286
 30
0.0
 11
372.85156
 21
257.90283
 31
0.0
  0
LINE
  5
108
  8
0
  6
CONTINUOUS
 62
     5
 10
369.55154
 20
256.30286
 30
0.0
 11
369.55154
 21
250.50285
 31
0.0
  0
LINE
  5
109
  8
0
  6
CONTINUOUS
 62
     5
 10
371.15155
 20
248.90285
 30
0.0
 11
372.85156
 21
248.90285
 31
0.0
  0
LINE
  5
10A
  8
0
  6
CONTINUOUS
 62
     5
 10
367.90155
 20
252.01891
 30
0.0
 11
329.80154
 21
252.01891
 31
0.0
  0
LINE
  5
10B
  8
0
  6
CONTINUOUS
 62
     5
 10
329.35156
 20
253.01891
 30
0.0
 11
368.35156
 21
253.01891
 31
0.0
  0
LINE
  5
10C
  8
0
  6
CONTINUOUS
 62
     5
 10
368.35156
 20
253.01891
 30
0.0
 11
368.35156
 21
268.91888
 31
0.0
  0
LINE
  5
10D
  8
0
  6
CONTINUOUS
 62
     5
 10
329.35156
 20
253.01891
 30
0.0
 11
329.35156
 21
341.41888
 31
0.0
  0
LINE
  5
10E
  8
0
  6
CONTINUOUS
 62
     5
 10
330.85156
 20
350.33792
 30
0.0
 11
330.85156
 21
253.01891
 31
0.0
  0
LINE
  5
10F
  8
0
  6
CONTINUOUS
 62
     5
 10
329.35156
 20
277.93393
 30
0.0
 11
330.85156
 21
277.0715
 31
0.0
  0
LINE
  5
110
  8
0
  6
CONTINUOUS
 62
     5
 10
355.85156
 20
277.0715
 30
0.0
 11
330.85156
 21
277.0715
 31
0.0
  0
LINE
  5
111
  8
0
  6
CONTINUOUS
 62
     5
 10
355.85156
 20
268.91888
 30
0.0
 11
470.35156
 21
268.91888
 31
0.0
  0
LINE
  5
112
  8
0
  6
CONTINUOUS
 62
     5
 10
361.85156
 20
353.91888
 30
0.0
 11
361.85156
 21
268.91888
 31
0.0
  0
LINE
  5
113
  8
0
  6
CONTINUOUS
 62
     5
 10
368.85156
 20
353.91888
 30
0.0
 11
368.85156
 21
268.91888
 31
0.0
  0
CIRCLE
  5
114
  8
0
  6
CONTINUOUS
 62
     5
 10
662.31989
 20
311.41888
 30
0.0
 40
55.0
  0
CIRCLE
  5
115
  8
0
  6
CONTINUOUS
 62
     5
 10
662.31989
 20
311.41888
 30
0.0
 40
44.0
  0
ARC
  5
116
  8
0
  6
CENTER
 62
     6
 10
662.31989
 20
311.41888
 30
0.0
 40
72.5
 50
217.9236
 51
231.96879
  0
ARC
  5
117
  8
0
  6
CENTER
 62
     6
 10
662.31989
 20
311.41888
 30
0.0
 40
72.5
 50
308.05982
 51
321.96997
  0
ARC
  5
118
  8
0
  6
CENTER
 62
     6
 10
662.31989
 20
311.41888
 30
0.0
 40
72.5
 50
38.077478
 51
52.031654
  0
ARC
  5
119
  8
0
  6
CENTER
 62
     6
 10
662.31989
 20
311.41888
 30
0.0
 40
72.5
 50
127.94029
 51
142.02883
  0
ARC
  5
11A
  8
0
  6
CONTINUOUS
 62
     5
 10
662.31989
 20
311.41888
 30
0.0
 40
82.499985
 50
218.01196
 51
231.98697
  0
ARC
  5
11B
  8
0
  6
CONTINUOUS
 62
     5
 10
662.31989
 20
311.41888
 30
0.0
 40
82.499985
 50
308.01199
 51
321.98704
  0
ARC
  5
11C
  8
0
  6
CONTINUOUS
 62
     5
 10
662.31989
 20
311.41888
 30
0.0
 40
82.499985
 50
38.011997
 51
51.987046
  0
ARC
  5
11D
  8
0
  6
CONTINUOUS
 62
     5
 10
662.31989
 20
311.41888
 30
0.0
 40
82.499985
 50
128.01201
 51
141.98707
  0
CIRCLE
  5
11E
  8
0
  6
CONTINUOUS
 62
     5
 10
662.31989
 20
311.41888
 30
0.0
 40
22.5
  0
CIRCLE
  5
11F
  8
0
  6
CONTINUOUS
 62
     5
 10
662.31989
 20
311.41888
 30
0.0
 40
15.0
  0
CIRCLE
  5
120
  8
0
  6
CONTINUOUS
 62
     5
 10
662.31989
 20
311.41888
 30
0.0
 40
12.0
  0
ARC
  5
121
  8
0
  6
CENTER
 62
     6
 10
662.31989
 20
311.41888
 30
0.0
 40
67.0
 50
327.71599
 51
332.40398
  0
CIRCLE
  5
122
  8
0
  6
CONTINUOUS
 62
     5
 10
628.81989
 20
253.3952
 30
0.0
 40
2.5
  0
CIRCLE
  5
123
  8
0
  6
CONTINUOUS
 62
     5
 10
628.81989
 20
253.3952
 30
0.0
 40
1.5
  0
CIRCLE
  5
124
  8
0
  6
CONTINUOUS
 62
     5
 10
720.34186
 20
277.91888
 30
0.0
 40
2.5
  0
CIRCLE
  5
125
  8
0
  6
CONTINUOUS
 62
     5
 10
720.34186
 20
277.91888
 30
0.0
 40
1.5
  0
CIRCLE
  5
126
  8
0
  6
CONTINUOUS
 62
     5
 10
604.29791
 20
344.91888
 30
0.0
 40
2.5
  0
CIRCLE
  5
127
  8
0
  6
CONTINUOUS
 62
     5
 10
604.29791
 20
344.91888
 30
0.0
 40
1.5
  0
CIRCLE
  5
128
  8
0
  6
CONTINUOUS
 62
     5
 10
695.81989
 20
369.44089
 30
0.0
 40
2.5
  0
CIRCLE
  5
129
  8
0
  6
CONTINUOUS
 62
     5
 10
695.81989
 20
369.44089
 30
0.0
 40
1.5
  0
ARC
  5
12A
  8
0
  6
CENTER
 62
     6
 10
662.31989
 20
311.41888
 30
0.0
 40
67.0
 50
237.71601
 51
242.40398
  0
ARC
  5
12B
  8
0
  6
CENTER
 62
     6
 10
662.31989
 20
311.41888
 30
0.0
 40
67.0
 50
147.71598
 51
152.40402
  0
ARC
  5
12C
  8
0
  6
CENTER
 62
     6
 10
662.31989
 20
311.41888
 30
0.0
 40
67.0
 50
57.716021
 51
62.404003
  0
ARC
  5
12D
  8
0
  6
CENTER
 62
     6
 10
662.31989
 20
311.41888
 30
0.0
 40
35.000034
 50
261.22792
 51
278.70201
  0
CIRCLE
  5
12E
  8
0
  6
CONTINUOUS
 62
     5
 10
662.31989
 20
276.41885
 30
0.0
 40
2.5
  0
ARC
  5
12F
  8
0
  6
CENTER
 62
     6
 10
662.31989
 20
311.41888
 30
0.0
 40
35.000034
 50
141.00307
 51
158.88207
  0
ARC
  5
130
  8
0
  6
CENTER
 62
     6
 10
662.31989
 20
311.41888
 30
0.0
 40
35.000034
 50
21.79151
 51
38.7194
  0
CIRCLE
  5
131
  8
0
  6
CONTINUOUS
 62
     5
 10
632.00909
 20
328.91891
 30
0.0
 40
2.5
  0
CIRCLE
  5
132
  8
0
  6
CONTINUOUS
 62
     5
 10
692.6308
 20
328.91888
 30
0.0
 40
2.5
  0
CIRCLE
  5
133
  8
0
  6
CONTINUOUS
 62
     5
 10
611.05463
 20
260.15363
 30
0.0
 40
4.5
  0
CIRCLE
  5
134
  8
0
  6
CONTINUOUS
 62
     5
 10
611.05475
 20
362.68414
 30
0.0
 40
4.5
  0
CIRCLE
  5
135
  8
0
  6
CONTINUOUS
 62
     5
 10
713.58514
 20
362.68411
 30
0.0
 40
4.5
  0
CIRCLE
  5
136
  8
0
  6
CONTINUOUS
 62
     5
 10
713.58514
 20
260.15366
 30
0.0
 40
4.5
  0
ARC
  5
137
  8
0
  6
CONTINUOUS
 62
     5
 10
196.30693
 20
311.41901
 30
0.0
 40
82.499977
 50
218.01224
 51
231.98769
  0
ARC
  5
138
  8
0
  6
CONTINUOUS
 62
     5
 10
196.30693
 20
311.41901
 30
0.0
 40
82.499977
 50
128.01224
 51
141.98776
  0
ARC
  5
139
  8
0
  6
CONTINUOUS
 62
     5
 10
196.30693
 20
311.41901
 30
0.0
 40
82.499977
 50
38.012284
 51
51.987777
  0
ARC
  5
13A
  8
0
  6
CONTINUOUS
 62
     5
 10
196.30693
 20
311.41901
 30
0.0
 40
82.499977
 50
308.01229
 51
321.98772
  0
CIRCLE
  5
13B
  8
0
  6
CONTINUOUS
 62
     5
 10
181.60692
 20
265.90958
 30
0.0
 40
2.0
  0
CIRCLE
  5
13C
  8
0
  6
CONTINUOUS
 62
     5
 10
211.00691
 20
265.90958
 30
0.0
 40
2.0
  0
ARC
  5
13D
  8
0
  6
CONTINUOUS
 62
     5
 10
196.30693
 20
311.41901
 30
0.0
 40
38.5
 50
299.57129
 51
240.42867
  0
ARC
  5
13E
  8
0
  6
CONTINUOUS
 62
     5
 10
196.30693
 20
311.41901
 30
0.0
 40
40.0
 50
300.83048
 51
239.16948
  0
ARC
  5
13F
  8
0
  6
CONTINUOUS
 62
     5
 10
141.80693
 20
256.91901
 30
0.0
 40
12.0
 50
0.0
 51
89.999982
  0
ARC
  5
140
  8
0
  6
CONTINUOUS
 62
     5
 10
250.80692
 20
256.91901
 30
0.0
 40
12.0
 50
89.999982
 51
179.99996
  0
ARC
  5
141
  8
0
  6
CONTINUOUS
 62
     5
 10
250.80692
 20
365.91901
 30
0.0
 40
12.0
 50
179.99998
 51
270.00003
  0
ARC
  5
142
  8
0
  6
CONTINUOUS
 62
     5
 10
141.80693
 20
365.91901
 30
0.0
 40
12.0
 50
270.00002
 51
0.0
  0
ARC
  5
143
  8
0
  6
CENTER
 62
     6
 10
196.30693
 20
311.41901
 30
0.0
 40
72.5
 50
309.18399
 51
320.44141
  0
ARC
  5
144
  8
0
  6
CENTER
 62
     6
 10
196.30693
 20
311.41901
 30
0.0
 40
72.5
 50
38.808011
 51
51.292409
  0
ARC
  5
145
  8
0
  6
CENTER
 62
     6
 10
196.30693
 20
311.41901
 30
0.0
 40
72.5
 50
129.12303
 51
141.07644
  0
ARC
  5
146
  8
0
  6
CENTER
 62
     6
 10
196.30693
 20
311.41901
 30
0.0
 40
72.5
 50
218.56098
 51
231.88942
  0
ARC
  5
147
  8
0
  6
CONTINUOUS
 62
     5
 10
257.65558
 20
270.91901
 30
0.0
 40
2.0
 50
270.00002
 51
357.66769
  0
ARC
  5
148
  8
0
  6
CONTINUOUS
 62
     5
 10
155.80693
 20
248.41904
 30
0.0
 40
2.0
 50
179.99998
 51
270.00003
  0
ARC
  5
149
  8
0
  6
CONTINUOUS
 62
     5
 10
236.80692
 20
248.41904
 30
0.0
 40
2.0
 50
270.00002
 51
0.0
  0
ARC
  5
14A
  8
0
  6
CONTINUOUS
 62
     5
 10
-238.69099
 20
311.41904
 30
0.0
 40
499.99789
 50
355.33498
 51
4.66402
  0
ARC
  5
14B
  8
0
  6
CONTINUOUS
 62
     5
 10
631.30804
 20
311.41913
 30
0.0
 40
500.00101
 50
175.33529
 51
184.66472
  0
ARC
  5
14C
  8
0
  6
CONTINUOUS
 62
     5
 10
134.95651
 20
270.91901
 30
0.0
 40
2.0
 50
184.66497
 51
270.00002
  0
ARC
  5
14D
  8
0
  6
CONTINUOUS
 62
     5
 10
134.95651
 20
351.91901
 30
0.0
 40
2.0
 50
89.999982
 51
175.33503
  0
ARC
  5
14E
  8
0
  6
CONTINUOUS
 62
     5
 10
257.65594
 20
351.91901
 30
0.0
 40
2.0
 50
2.332314
 51
89.999982
  0
ARC
  5
14F
  8
0
  6
CONTINUOUS
 62
     5
 10
236.80692
 20
374.41904
 30
0.0
 40
2.0
 50
0.0
 51
89.999982
  0
ARC
  5
150
  8
0
  6
CONTINUOUS
 62
     5
 10
155.80693
 20
374.41904
 30
0.0
 40
2.0
 50
89.999982
 51
179.99996
  0
ARC
  5
151
  8
0
  6
CENTER
 62
     6
 10
196.30693
 20
311.41901
 30
0.0
 40
66.999985
 50
294.99922
 51
305.162
  0
ARC
  5
152
  8
0
  6
CENTER
 62
     6
 10
196.30693
 20
311.41901
 30
0.0
 40
66.999985
 50
24.999239
 51
35.162015
  0
ARC
  5
153
  8
0
  6
CENTER
 62
     6
 10
196.30693
 20
311.41901
 30
0.0
 40
66.999985
 50
114.99925
 51
125.16201
  0
ARC
  5
154
  8
0
  6
CENTER
 62
     6
 10
196.30693
 20
311.41901
 30
0.0
 40
66.999985
 50
204.99923
 51
215.162
  0
ARC
  5
155
  8
0
  6
CENTER
 62
     6
 10
196.30693
 20
311.41901
 30
0.0
 40
46.0
 50
215.39151
 51
223.96947
  0
ARC
  5
156
  8
0
  6
CONTINUOUS
 62
     5
 10
161.0728
 20
281.84613
 30
0.0
 40
4.5
 50
310.00009
 51
129.99999
  0
ARC
  5
157
  8
0
  6
CENTER
 62
     6
 10
196.30693
 20
311.41901
 30
0.0
 40
46.0
 50
35.391581
 51
43.969548
  0
ARC
  5
158
  8
0
  6
CONTINUOUS
 62
     5
 10
231.54106
 20
340.99188
 30
0.0
 40
4.5
 50
130.00015
 51
310.00005
  0
ARC
  5
159
  8
0
  6
CENTER
 62
     6
 10
196.30693
 20
311.41901
 30
0.0
 40
46.0
 50
305.39159
 51
313.96955
  0
ARC
  5
15A
  8
0
  6
CONTINUOUS
 62
     5
 10
225.87982
 20
276.18488
 30
0.0
 40
4.5
 50
40.000156
 51
220.00005
  0
ARC
  5
15B
  8
0
  6
CENTER
 62
     6
 10
196.30693
 20
311.41901
 30
0.0
 40
46.0
 50
125.3915
 51
133.96946
  0
ARC
  5
15C
  8
0
  6
CONTINUOUS
 62
     5
 10
166.73404
 20
346.65314
 30
0.0
 40
4.5
 50
220.0001
 51
39.999995
  0
CIRCLE
  5
15D
  8
0
  6
CONTINUOUS
 62
     5
 10
229.80704
 20
253.39539
 30
0.0
 40
4.5
  0
CIRCLE
  5
15E
  8
0
  6
CONTINUOUS
 62
     5
 10
229.80704
 20
253.39539
 30
0.0
 40
6.0
  0
CIRCLE
  5
15F
  8
0
  6
CONTINUOUS
 62
     5
 10
247.57214
 20
260.15375
 30
0.0
 40
4.750061
  0
CIRCLE
  5
160
  8
0
  6
CONTINUOUS
 62
     5
 10
145.04166
 20
260.15381
 30
0.0
 40
4.750061
  0
CIRCLE
  5
161
  8
0
  6
CONTINUOUS
 62
     5
 10
247.57216
 20
362.68427
 30
0.0
 40
4.750061
  0
CIRCLE
  5
162
  8
0
  6
CONTINUOUS
 62
     5
 10
145.0417
 20
362.68427
 30
0.0
 40
4.750061
  0
CIRCLE
  5
163
  8
0
  6
CONTINUOUS
 62
     5
 10
254.33063
 20
344.91891
 30
0.0
 40
4.5
  0
CIRCLE
  5
164
  8
0
  6
CONTINUOUS
 62
     5
 10
254.33063
 20
344.91891
 30
0.0
 40
6.0
  0
CIRCLE
  5
165
  8
0
  6
CONTINUOUS
 62
     5
 10
162.80688
 20
369.44266
 30
0.0
 40
6.0
  0
CIRCLE
  5
166
  8
0
  6
CONTINUOUS
 62
     5
 10
162.80688
 20
369.44266
 30
0.0
 40
4.5
  0
CIRCLE
  5
167
  8
0
  6
CONTINUOUS
 62
     5
 10
138.2832
 20
277.9191
 30
0.0
 40
4.5
  0
CIRCLE
  5
168
  8
0
  6
CONTINUOUS
 62
     5
 10
138.2832
 20
277.9191
 30
0.0
 40
6.0
  0
CIRCLE
  5
169
  8
0
  6
CONTINUOUS
 62
     5
 10
225.87515
 20
276.181
 30
0.0
 40
3.5
  0
CIRCLE
  5
16A
  8
0
  6
CONTINUOUS
 62
     5
 10
231.54108
 20
340.99188
 30
0.0
 40
3.5
  0
CIRCLE
  5
16B
  8
0
  6
CONTINUOUS
 62
     5
 10
161.07744
 20
281.8501
 30
0.0
 40
3.5
  0
CIRCLE
  5
16C
  8
0
  6
CONTINUOUS
 62
     5
 10
166.73872
 20
346.65707
 30
0.0
 40
3.5
  0
ARC
  5
16D
  8
0
  6
CONTINUOUS
 62
     5
 10
375.05154
 20
247.4189
 30
0.0
 40
1.0
 50
179.99998
 51
270.00003
  0
ARC
  5
16E
  8
0
  6
CONTINUOUS
 62
     5
 10
375.05154
 20
375.41888
 30
0.0
 40
1.0
 50
89.999982
 51
179.99996
  0
ARC
  5
16F
  8
0
  6
CONTINUOUS
 62
     5
 10
371.15155
 20
366.55084
 30
0.0
 40
1.6
 50
179.99998
 51
270.00109
  0
ARC
  5
170
  8
0
  6
CONTINUOUS
 62
     5
 10
371.15155
 20
372.35086
 30
0.0
 40
1.6
 50
89.999982
 51
179.99996
  0
ARC
  5
171
  8
0
  6
CONTINUOUS
 62
     5
 10
371.15155
 20
341.98184
 30
0.0
 40
1.6
 50
179.99998
 51
270.00003
  0
ARC
  5
172
  8
0
  6
CONTINUOUS
 62
     5
 10
371.15155
 20
347.78186
 30
0.0
 40
1.6
 50
89.99891
 51
179.99996
  0
ARC
  5
173
  8
0
  6
CONTINUOUS
 62
     5
 10
360.85156
 20
342.53137
 30
0.0
 40
1.0
 50
89.999982
 51
179.99996
  0
ARC
  5
174
  8
0
  6
CONTINUOUS
 62
     5
 10
360.85156
 20
274.74384
 30
0.0
 40
1.0
 50
179.99998
 51
270.00003
  0
ARC
  5
175
  8
0
  6
CONTINUOUS
 62
     5
 10
371.15155
 20
250.50285
 30
0.0
 40
1.6
 50
179.99998
 51
270.00003
  0
ARC
  5
176
  8
0
  6
CONTINUOUS
 62
     5
 10
371.15155
 20
256.30286
 30
0.0
 40
1.6
 50
89.99891
 51
179.99996
  0
ARC
  5
177
  8
0
  6
CONTINUOUS
 62
     5
 10
359.39972
 20
341.41196
 30
0.0
 40
30.048155
 50
163.61989
 51
179.9868
  0
ARC
  5
178
  8
0
  6
CONTINUOUS
 62
     5
 10
331.53058
 20
349.60379
 30
0.0
 40
1.0
 50
92.000742
 51
163.61965
  0
ARC
  5
179
  8
0
  6
CONTINUOUS
 62
     5
 10
404.78375
 20
258.45007
 30
0.0
 40
60.0
 50
324.04333
 51
347.45615
  0
TEXT
  5
17A
  8
0
  6
CONTINUOUS
 62
     7
 10
127.74506
 20
457.8264
 30
0.0
 40
12.7
  1
HC-SF53B
  0
ENDSEC
  0
EOF
