  0
SECTION
  2
HEADER
  9
$ACADVER
  1
AC1009
  9
$INSBASE
 10
0.0
 20
0.0
 30
0.0
  9
$EXTMIN
 10
27.253967
 20
154.88863
 30
0.0
  9
$EXTMAX
 10
817.61346
 20
489.6167
 30
0.0
  9
$LIMMIN
 10
0.0
 20
0.0
  9
$LIMMAX
 10
12.0
 20
9.0
  9
$ORTHOMODE
 70
     0
  9
$REGENMODE
 70
     1
  9
$FILLMODE
 70
     1
  9
$QTEXTMODE
 70
     0
  9
$MIRRTEXT
 70
     1
  9
$DRAGMODE
 70
     2
  9
$LTSCALE
 40
1.0
  9
$OSMODE
 70
     1
  9
$ATTMODE
 70
     1
  9
$TEXTSIZE
 40
0.2
  9
$TRACEWID
 40
0.05
  9
$TEXTSTYLE
  7
STANDARD
  9
$CLAYER
  8
0
  9
$CELTYPE
  6
CONTINUOUS
  9
$CECOLOR
 62
   256
  9
$DIMSCALE
 40
1.0
  9
$DIMASZ
 40
0.18
  9
$DIMEXO
 40
0.0625
  9
$DIMDLI
 40
0.38
  9
$DIMRND
 40
0.0
  9
$DIMDLE
 40
0.0
  9
$DIMEXE
 40
0.18
  9
$DIMTP
 40
0.0
  9
$DIMTM
 40
0.0
  9
$DIMTXT
 40
7.0
  9
$DIMCEN
 40
0.09
  9
$DIMTSZ
 40
0.0
  9
$DIMTOL
 70
     0
  9
$DIMLIM
 70
     0
  9
$DIMTIH
 70
     1
  9
$DIMTOH
 70
     1
  9
$DIMSE1
 70
     0
  9
$DIMSE2
 70
     0
  9
$DIMTAD
 70
     0
  9
$DIMZIN
 70
     0
  9
$DIMBLK
  1

  9
$DIMASO
 70
     1
  9
$DIMSHO
 70
     1
  9
$DIMPOST
  1

  9
$DIMAPOST
  1

  9
$DIMALT
 70
     0
  9
$DIMALTD
 70
     2
  9
$DIMALTF
 40
25.4
  9
$DIMLFAC
 40
1.0
  9
$DIMTOFL
 70
     0
  9
$DIMTVP
 40
0.0
  9
$DIMTIX
 70
     0
  9
$DIMSOXD
 70
     0
  9
$DIMSAH
 70
     0
  9
$DIMBLK1
  1

  9
$DIMBLK2
  1

  9
$DIMSTYLE
  2
STANDARD
  9
$DIMCLRD
 70
     0
  9
$DIMCLRE
 70
     0
  9
$DIMCLRT
 70
     0
  9
$DIMTFAC
 40
1.0
  9
$DIMGAP
 40
7.0
  9
$LUNITS
 70
     2
  9
$LUPREC
 70
     4
  9
$SKETCHINC
 40
0.1
  9
$FILLETRAD
 40
0.0
  9
$AUNITS
 70
     0
  9
$AUPREC
 70
     0
  9
$MENU
  1
.
  9
$ELEVATION
 40
0.0
  9
$PELEVATION
 40
0.0
  9
$THICKNESS
 40
0.0
  9
$LIMCHECK
 70
     0
  9
$BLIPMODE
 70
     0
  9
$CHAMFERA
 40
0.0
  9
$CHAMFERB
 40
0.0
  9
$SKPOLY
 70
     0
  9
$TDCREATE
 40
2450795.574753
  9
$TDUPDATE
 40
2450795.574753
  9
$TDINDWG
 40
0.0
  9
$TDUSRTIMER
 40
0.0
  9
$USRTIMER
 70
     1
  9
$ANGBASE
 50
0.0
  9
$ANGDIR
 70
     0
  9
$PDMODE
 70
     0
  9
$PDSIZE
 40
0.0
  9
$PLINEWID
 40
0.0
  9
$COORDS
 70
     1
  9
$SPLFRAME
 70
     0
  9
$SPLINETYPE
 70
     6
  9
$SPLINESEGS
 70
     8
  9
$ATTDIA
 70
     0
  9
$ATTREQ
 70
     1
  9
$HANDLING
 70
     1
  9
$HANDSEED
  5
285
  9
$SURFTAB1
 70
     6
  9
$SURFTAB2
 70
     6
  9
$SURFTYPE
 70
     6
  9
$SURFU
 70
     6
  9
$SURFV
 70
     6
  9
$UCSNAME
  2

  9
$UCSORG
 10
0.0
 20
0.0
 30
0.0
  9
$UCSXDIR
 10
1.0
 20
0.0
 30
0.0
  9
$UCSYDIR
 10
0.0
 20
1.0
 30
0.0
  9
$PUCSNAME
  2

  9
$PUCSORG
 10
0.0
 20
0.0
 30
0.0
  9
$PUCSXDIR
 10
1.0
 20
0.0
 30
0.0
  9
$PUCSYDIR
 10
0.0
 20
1.0
 30
0.0
  9
$USERI1
 70
     0
  9
$USERI2
 70
     0
  9
$USERI3
 70
     0
  9
$USERI4
 70
     0
  9
$USERI5
 70
     0
  9
$USERR1
 40
0.0
  9
$USERR2
 40
0.0
  9
$USERR3
 40
0.0
  9
$USERR4
 40
0.0
  9
$USERR5
 40
0.0
  9
$WORLDVIEW
 70
     1
  9
$SHADEDGE
 70
     3
  9
$SHADEDIF
 70
    70
  9
$TILEMODE
 70
     1
  9
$MAXACTVP
 70
    48
  9
$PLIMCHECK
 70
     0
  9
$PEXTMIN
 10
1.000000E+020
 20
1.000000E+020
 30
1.000000E+020
  9
$PEXTMAX
 10
-1.000000E+020
 20
-1.000000E+020
 30
-1.000000E+020
  9
$PLIMMIN
 10
0.0
 20
0.0
  9
$PLIMMAX
 10
12.0
 20
9.0
  9
$UNITMODE
 70
     0
  9
$VISRETAIN
 70
     1
  9
$PLINEGEN
 70
     0
  9
$PSLTSCALE
 70
     1
  0
ENDSEC
  0
SECTION
  2
TABLES
  0
TABLE
  2
VPORT
 70
     2
  0
VPORT
  2
*ACTIVE
 70
     0
 10
0.0
 20
0.0
 11
1.0
 21
1.0
 12
408.806729
 22
259.81458
 13
0.0
 23
0.0
 14
1.0
 24
1.0
 15
0.0
 25
0.0
 16
0.0
 26
0.0
 36
1.0
 17
0.0
 27
0.0
 37
0.0
 40
661.574707
 41
1.602828
 42
50.0
 43
0.0
 44
0.0
 50
0.0
 51
0.0
 71
     0
 72
   100
 73
     1
 74
     1
 75
     0
 76
     0
 77
     0
 78
     0
  0
ENDTAB
  0
TABLE
  2
LTYPE
 70
     5
  0
LTYPE
  2
CONTINUOUS
 70
     0
  3
Solid line
 72
    65
 73
     0
 40
0.0
  0
LTYPE
  2
DASHED
 70
     0
  3
__ __ __ __ __ __ __ __ __ __ __ __ __ __ __
 72
    65
 73
     2
 40
3.5
 49
2.0
 49
-1.5
  0
LTYPE
  2
CENTER
 70
     0
  3
____ _ ____ _ ____ _ ____ _ ____ _ ____ _ ____
 72
    65
 73
     4
 40
17.5
 49
13.0
 49
-1.5
 49
1.5
 49
-1.5
  0
LTYPE
  2
PHANTOM
 70
     0
  3
_____ _ _ _____ _ _ _____ _ _ _____ _ _ ____  
 72
    65
 73
     6
 40
15.5
 49
8.0
 49
-1.5
 49
1.5
 49
-1.5
 49
1.5
 49
-1.5
  0
LTYPE
  2
DOT
 70
     0
  3
. . . . . . . . . . . . . . . . . . . . . . . .
 72
    65
 73
     2
 40
0.25
 49
0.0
 49
-0.25
  0
ENDTAB
  0
TABLE
  2
LAYER
 70
     2
  0
LAYER
  2
0
 70
     0
 62
     7
  6
CONTINUOUS
  0
LAYER
  2
DEFPOINTS
 70
     0
 62
     7
  6
CONTINUOUS
  0
ENDTAB
  0
TABLE
  2
STYLE
 70
     1
  0
STYLE
  2
STANDARD
 70
     0
 40
0.0
 41
1.0
 50
0.0
 71
     0
 42
0.2
  3
txt
  4

  0
ENDTAB
  0
TABLE
  2
VIEW
 70
     0
  0
ENDTAB
  0
TABLE
  2
UCS
 70
     0
  0
ENDTAB
  0
TABLE
  2
APPID
 70
     1
  0
APPID
  2
ACAD
 70
     0
  0
ENDTAB
  0
TABLE
  2
DIMSTYLE
 70
     1
  0
DIMSTYLE
  2
STANDARD
 70
     0
  3

  4

  5

  6

  7

 40
1.0
 41
0.18
 42
0.0625
 43
0.38
 44
0.18
 45
0.0
 46
0.0
 47
0.0
 48
0.0
140
0.18
141
0.09
142
0.0
143
25.4
144
1.0
145
0.0
146
1.0
147
0.09
 71
     0
 72
     0
 73
     1
 74
     1
 75
     0
 76
     0
 77
     0
 78
     0
170
     0
171
     2
172
     0
173
     0
174
     0
175
     0
176
     0
177
     0
178
     0
  0
ENDTAB
  0
ENDSEC
  0
SECTION
  2
BLOCKS
  0
BLOCK
  8
0
  2
$MODEL_SPACE
 70
     0
 10
0.0
 20
0.0
 30
0.0
  3
$MODEL_SPACE
  1

  0
ENDBLK
  5
27F
  8
0
  0
BLOCK
 67
     1
  8
0
  2
$PAPER_SPACE
 70
     0
 10
0.0
 20
0.0
 30
0.0
  3
$PAPER_SPACE
  1

  0
ENDBLK
  5
27D
 67
     1
  8
0
  0
BLOCK
  8
0
  2
*D2
 70
     1
 10
0.0
 20
0.0
 30
0.0
  3
*D2
  1

  0
LINE
  5
1F3
  8
0
  6
BYBLOCK
 62
     0
 10
630.623409
 20
375.31024
 30
0.0
 11
630.62271
 21
455.450509
 31
0.0
  0
LINE
  5
1F4
  8
0
  6
BYBLOCK
 62
     0
 10
806.620668
 20
375.311777
 30
0.0
 11
806.619968
 21
455.452046
 31
0.0
  0
LINE
  5
1F5
  8
0
  6
BYBLOCK
 62
     0
 10
630.802711
 20
455.270511
 30
0.0
 11
717.931341
 21
455.271271
 31
0.0
  0
LINE
  5
1F6
  8
0
  6
BYBLOCK
 62
     0
 10
806.43997
 20
455.272044
 30
0.0
 11
719.311341
 21
455.271284
 31
0.0
  0
SOLID
  5
1F7
  8
0
  6
BYBLOCK
 62
     0
 10
630.802711
 20
455.300511
 30
0.0
 11
630.802712
 21
455.240511
 31
0.0
 12
630.622711
 22
455.270509
 32
0.0
 13
630.622711
 23
455.270509
 33
0.0
  0
SOLID
  5
1F8
  8
0
  6
BYBLOCK
 62
     0
 10
806.43997
 20
455.302044
 30
0.0
 11
806.43997
 21
455.242044
 31
0.0
 12
806.61997
 22
455.272046
 32
0.0
 13
806.61997
 23
455.272046
 33
0.0
  0
TEXT
  5
201
  8
0
 62
     0
 10
718.261
 20
454.953
 30
0.0
 40
0.18
  1
175.9973
  0
POINT
  5
1FB
  8
DEFPOINTS
  6
BYBLOCK
 62
     0
 10
630.62341
 20
375.24774
 30
0.0
  0
POINT
  5
1FC
  8
DEFPOINTS
  6
BYBLOCK
 62
     0
 10
806.620669
 20
375.249277
 30
0.0
  0
POINT
  5
1FD
  8
DEFPOINTS
  6
BYBLOCK
 62
     0
 10
806.61997
 20
455.272046
 30
0.0
  0
ENDBLK
  5
1FE
  8
0
  0
BLOCK
  8
0
  2
*D3
 70
     1
 10
0.0
 20
0.0
 30
0.0
  3
*D3
  1

  0
LINE
  5
22E
  8
0
  6
BYBLOCK
 62
     0
 10
568.71533
 20
318.715
 30
0.0
 11
599.463943
 21
318.715
 31
0.0
  0
LINE
  5
22F
  8
0
  6
BYBLOCK
 62
     0
 10
568.71533
 20
283.715
 30
0.0
 11
599.463943
 21
283.715
 31
0.0
  0
LINE
  5
230
  8
0
  6
BYBLOCK
 62
     0
 10
599.283943
 20
318.895
 30
0.0
 11
599.283943
 21
319.075
 31
0.0
  0
LINE
  5
231
  8
0
  6
BYBLOCK
 62
     0
 10
599.283943
 20
283.535
 30
0.0
 11
599.283943
 21
283.355
 31
0.0
  0
SOLID
  5
232
  8
0
  6
BYBLOCK
 62
     0
 10
599.253943
 20
318.895
 30
0.0
 11
599.313943
 21
318.895
 31
0.0
 12
599.283943
 22
318.715
 32
0.0
 13
599.283943
 23
318.715
 33
0.0
  0
SOLID
  5
233
  8
0
  6
BYBLOCK
 62
     0
 10
599.253943
 20
283.535
 30
0.0
 11
599.313943
 21
283.535
 31
0.0
 12
599.283943
 22
283.715
 32
0.0
 13
599.283943
 23
283.715
 33
0.0
  0
TEXT
  5
234
  8
0
  6
BYBLOCK
 62
     0
 10
580.617276
 20
297.715
 30
0.0
 40
7.0
  1
35.0000
  0
POINT
  5
235
  8
DEFPOINTS
  6
BYBLOCK
 62
     0
 10
568.65283
 20
318.715
 30
0.0
  0
POINT
  5
236
  8
DEFPOINTS
  6
BYBLOCK
 62
     0
 10
568.65283
 20
283.715
 30
0.0
  0
POINT
  5
237
  8
DEFPOINTS
  6
BYBLOCK
 62
     0
 10
599.283943
 20
283.715
 30
0.0
  0
ENDBLK
  5
238
  8
0
  0
BLOCK
  8
0
  2
*D4
 70
     1
 10
0.0
 20
0.0
 30
0.0
  3
*D4
  1

  0
LINE
  5
23C
  8
0
  6
BYBLOCK
 62
     0
 10
492.71533
 20
244.065
 30
0.0
 11
585.727605
 21
244.065
 31
0.0
  0
LINE
  5
23D
  8
0
  6
BYBLOCK
 62
     0
 10
492.71533
 20
358.36502
 30
0.0
 11
585.727605
 21
358.36502
 31
0.0
  0
LINE
  5
23E
  8
0
  6
BYBLOCK
 62
     0
 10
585.547605
 20
244.245
 30
0.0
 11
585.547605
 21
290.71501
 31
0.0
  0
LINE
  5
23F
  8
0
  6
BYBLOCK
 62
     0
 10
585.547605
 20
358.18502
 30
0.0
 11
585.547605
 21
311.71501
 31
0.0
  0
SOLID
  5
240
  8
0
  6
BYBLOCK
 62
     0
 10
585.517605
 20
244.245
 30
0.0
 11
585.577605
 21
244.245
 31
0.0
 12
585.547605
 22
244.065
 32
0.0
 13
585.547605
 23
244.065
 33
0.0
  0
SOLID
  5
241
  8
0
  6
BYBLOCK
 62
     0
 10
585.517605
 20
358.18502
 30
0.0
 11
585.577605
 21
358.18502
 31
0.0
 12
585.547605
 22
358.36502
 32
0.0
 13
585.547605
 23
358.36502
 33
0.0
  0
TEXT
  5
242
  8
0
  6
BYBLOCK
 62
     0
 10
565.130939
 20
297.71501
 30
0.0
 40
7.0
  1
114.3000
  0
POINT
  5
243
  8
DEFPOINTS
  6
BYBLOCK
 62
     0
 10
492.65283
 20
244.065
 30
0.0
  0
POINT
  5
244
  8
DEFPOINTS
  6
BYBLOCK
 62
     0
 10
492.65283
 20
358.36502
 30
0.0
  0
POINT
  5
245
  8
DEFPOINTS
  6
BYBLOCK
 62
     0
 10
585.547605
 20
358.36502
 30
0.0
  0
ENDBLK
  5
246
  8
0
  0
BLOCK
  8
0
  2
*D5
 70
     1
 10
0.0
 20
0.0
 30
0.0
  3
*D5
  1

  0
LINE
  5
24A
  8
0
  6
BYBLOCK
 62
     0
 10
497.455046
 20
74.607406
 30
0.0
 11
497.635046
 21
74.607406
 31
0.0
  0
LINE
  5
24B
  8
0
  6
BYBLOCK
 62
     0
 10
497.635046
 20
74.607406
 30
0.0
 11
678.59494
 21
260.170646
 31
0.0
  0
TEXT
  5
24C
  8
0
  6
BYBLOCK
 62
     0
 10
443.788379
 20
71.107406
 30
0.0
 40
7.0
  1
%%c114.3001
  0
SOLID
  5
24D
  8
0
  6
BYBLOCK
 62
     0
 10
678.573463
 20
260.191591
 30
0.0
 11
678.616418
 21
260.149701
 31
0.0
 12
678.720611
 22
260.299514
 32
0.0
 13
678.720611
 23
260.299514
 33
0.0
  0
LINE
  5
24E
  8
0
  6
BYBLOCK
 62
     0
 10
718.53109
 20
301.215
 30
0.0
 11
718.71109
 21
301.215
 31
0.0
  0
LINE
  5
24F
  8
0
  6
BYBLOCK
 62
     0
 10
718.62109
 20
301.125
 30
0.0
 11
718.62109
 21
301.305
 31
0.0
  0
POINT
  5
250
  8
DEFPOINTS
  6
BYBLOCK
 62
     0
 10
678.720611
 20
260.299514
 30
0.0
  0
POINT
  5
251
  8
DEFPOINTS
  6
BYBLOCK
 62
     0
 10
758.521569
 20
342.130486
 30
0.0
  0
ENDBLK
  5
252
  8
0
  0
ENDSEC
  0
SECTION
  2
ENTITIES
  0
LINE
  5
23
  8
0
  6
CONTINUOUS
 62
     5
 10
135.608
 20
159.21487
 30
0.0
 11
99.608002
 21
159.21487
 31
0.0
  0
LINE
  5
24
  8
0
  6
CONTINUOUS
 62
     5
 10
99.608002
 20
159.21487
 30
0.0
 11
99.608002
 21
175.21487
 31
0.0
  0
LINE
  5
25
  8
0
  6
CONTINUOUS
 62
     5
 10
98.60807
 20
179.84486
 30
0.0
 11
98.60807
 21
161.21487
 31
0.0
  0
LINE
  5
26
  8
0
  6
CONTINUOUS
 62
     5
 10
136.608
 20
161.21487
 30
0.0
 11
136.608
 21
179.84486
 31
0.0
  0
LINE
  5
27
  8
0
  6
CONTINUOUS
 62
     5
 10
136.608
 20
175.21487
 30
0.0
 11
98.608002
 21
175.21487
 31
0.0
  0
LINE
  5
28
  8
0
  6
CONTINUOUS
 62
     5
 10
98.608002
 20
161.21487
 30
0.0
 11
136.608
 21
161.21487
 31
0.0
  0
LINE
  5
29
  8
0
  6
CONTINUOUS
 62
     5
 10
135.608
 20
175.21487
 30
0.0
 11
135.608
 21
159.21487
 31
0.0
  0
LINE
  5
2A
  8
0
  6
CENTER
 62
     6
 10
117.60822
 20
154.88863
 30
0.0
 11
117.60822
 21
394.07037
 31
0.0
  0
LINE
  5
2B
  8
0
  6
CONTINUOUS
 62
     5
 10
75.108215
 20
273.71152
 30
0.0
 11
75.108215
 21
328.71869
 31
0.0
  0
LINE
  5
2C
  8
0
  6
CONTINUOUS
 62
     5
 10
75.108238
 20
328.71869
 30
0.0
 11
90.0952
 21
343.70566
 31
0.0
  0
LINE
  5
2D
  8
0
  6
CONTINUOUS
 62
     5
 10
90.095184
 20
343.70566
 30
0.0
 11
145.12122
 21
343.70566
 31
0.0
  0
LINE
  5
2E
  8
0
  6
CONTINUOUS
 62
     5
 10
145.12119
 20
343.70563
 30
0.0
 11
160.10817
 21
328.71866
 31
0.0
  0
LINE
  5
2F
  8
0
  6
CONTINUOUS
 62
     5
 10
160.1082
 20
273.71152
 30
0.0
 11
160.1082
 21
328.71869
 31
0.0
  0
LINE
  5
30
  8
0
  6
CONTINUOUS
 62
     5
 10
145.10233
 20
258.70569
 30
0.0
 11
160.1082
 21
273.71155
 31
0.0
  0
LINE
  5
31
  8
0
  6
CONTINUOUS
 62
     5
 10
138.10822
 20
258.70566
 30
0.0
 11
145.10233
 21
258.70566
 31
0.0
  0
LINE
  5
32
  8
0
  6
CONTINUOUS
 62
     5
 10
75.108208
 20
273.71155
 30
0.0
 11
90.114059
 21
258.70563
 31
0.0
  0
LINE
  5
33
  8
0
  6
CONTINUOUS
 62
     5
 10
98.558197
 20
239.01466
 30
0.0
 11
136.6582
 21
239.01466
 31
0.0
  0
LINE
  5
34
  8
0
  6
CONTINUOUS
 62
     5
 10
138.10822
 20
241.80566
 30
0.0
 11
97.108215
 21
241.80566
 31
0.0
  0
LINE
  5
35
  8
0
  6
CONTINUOUS
 62
     5
 10
97.108215
 20
241.80566
 30
0.0
 11
97.108215
 21
266.86749
 31
0.0
  0
LINE
  5
36
  8
0
  6
CONTINUOUS
 62
     5
 10
136.6582
 20
239.01466
 30
0.0
 11
136.6582
 21
267.75833
 31
0.0
  0
LINE
  5
37
  8
0
  6
CONTINUOUS
 62
     5
 10
138.10822
 20
241.80566
 30
0.0
 11
138.10822
 21
266.86749
 31
0.0
  0
LINE
  5
38
  8
0
  6
CENTER
 62
     6
 10
100.37735
 20
255.70566
 30
0.0
 11
105.0899
 21
255.70566
 31
0.0
  0
LINE
  5
39
  8
0
  6
CENTER
 62
     6
 10
102.9082
 20
253.61366
 30
0.0
 11
102.9082
 21
258.61368
 31
0.0
  0
LINE
  5
3A
  8
0
  6
CENTER
 62
     6
 10
132.3082
 20
253.42188
 30
0.0
 11
132.3082
 21
258.42187
 31
0.0
  0
LINE
  5
3B
  8
0
  6
CENTER
 62
     6
 10
134.62506
 20
255.70566
 30
0.0
 11
129.72073
 21
255.70566
 31
0.0
  0
LINE
  5
3C
  8
0
  6
CONTINUOUS
 62
     5
 10
132.4082
 20
239.01466
 30
0.0
 11
132.4082
 21
220.71466
 31
0.0
  0
LINE
  5
3D
  8
0
  6
CONTINUOUS
 62
     5
 10
132.40817
 20
220.71466
 30
0.0
 11
131.40817
 21
219.71466
 31
0.0
  0
LINE
  5
3E
  8
0
  6
CONTINUOUS
 62
     5
 10
131.4082
 20
219.71466
 30
0.0
 11
103.8082
 21
219.71466
 31
0.0
  0
LINE
  5
3F
  8
0
  6
CONTINUOUS
 62
     5
 10
103.80821
 20
219.71468
 30
0.0
 11
102.80822
 21
220.71468
 31
0.0
  0
LINE
  5
40
  8
0
  6
CONTINUOUS
 62
     5
 10
102.8082
 20
220.71466
 30
0.0
 11
102.8082
 21
239.01466
 31
0.0
  0
LINE
  5
41
  8
0
  6
CONTINUOUS
 62
     5
 10
132.4082
 20
236.01466
 30
0.0
 11
102.8082
 21
236.01466
 31
0.0
  0
LINE
  5
42
  8
0
  6
CONTINUOUS
 62
     5
 10
103.8082
 20
236.01466
 30
0.0
 11
103.8082
 21
219.71466
 31
0.0
  0
LINE
  5
43
  8
0
  6
CONTINUOUS
 62
     5
 10
132.4082
 20
220.71466
 30
0.0
 11
102.8082
 21
220.71466
 31
0.0
  0
LINE
  5
44
  8
0
  6
CONTINUOUS
 62
     5
 10
131.4082
 20
219.71466
 30
0.0
 11
131.4082
 21
236.01466
 31
0.0
  0
LINE
  5
45
  8
0
  6
CONTINUOUS
 62
     5
 10
97.108215
 20
258.70566
 30
0.0
 11
90.114067
 21
258.70566
 31
0.0
  0
LINE
  5
46
  8
0
  6
CONTINUOUS
 62
     5
 10
149.29602
 20
263.45096
 30
0.0
 11
145.12274
 21
268.42447
 31
0.0
  0
LINE
  5
47
  8
0
  6
CENTER
 62
     6
 10
79.854393
 20
269.53586
 30
0.0
 11
84.85276
 21
273.72998
 31
0.0
  0
LINE
  5
48
  8
0
  6
CENTER
 62
     6
 10
149.13837
 20
327.67194
 30
0.0
 11
155.27423
 21
332.82056
 31
0.0
  0
LINE
  5
49
  8
0
  6
CONTINUOUS
 62
     5
 10
175.6082
 20
215.2151
 30
0.0
 11
175.6082
 21
228.2151
 31
0.0
  0
LINE
  5
4A
  8
0
  6
CONTINUOUS
 62
     5
 10
190.6082
 20
243.2151
 30
0.0
 11
202.51253
 21
243.2151
 31
0.0
  0
LINE
  5
4B
  8
0
  6
CONTINUOUS
 62
     5
 10
43.575462
 20
213.2151
 30
0.0
 11
191.64252
 21
213.2151
 31
0.0
  0
LINE
  5
4C
  8
0
  6
CONTINUOUS
 62
     5
 10
92.608215
 20
213.2151
 30
0.0
 11
92.608215
 21
216.715
 31
0.0
  0
LINE
  5
4D
  8
0
  6
CONTINUOUS
 62
     5
 10
92.608215
 20
216.715
 30
0.0
 11
142.60822
 21
216.715
 31
0.0
  0
LINE
  5
4E
  8
0
  6
CONTINUOUS
 62
     5
 10
142.60822
 20
216.715
 30
0.0
 11
142.60822
 21
213.2151
 31
0.0
  0
LINE
  5
4F
  8
0
  6
CONTINUOUS
 62
     5
 10
140.60785
 20
213.215
 30
0.0
 11
140.60785
 21
182.59486
 31
0.0
  0
LINE
  5
50
  8
0
  6
CONTINUOUS
 62
     5
 10
140.60785
 20
182.59486
 30
0.0
 11
94.607849
 21
182.59486
 31
0.0
  0
LINE
  5
51
  8
0
  6
CONTINUOUS
 62
     5
 10
94.607849
 20
182.59486
 30
0.0
 11
94.607849
 21
213.215
 31
0.0
  0
LINE
  5
52
  8
0
  6
CONTINUOUS
 62
     5
 10
104.10785
 20
213.2151
 30
0.0
 11
104.10785
 21
200.91499
 31
0.0
  0
LINE
  5
53
  8
0
  6
CONTINUOUS
 62
     5
 10
104.10785
 20
200.91499
 30
0.0
 11
131.10785
 21
200.91499
 31
0.0
  0
LINE
  5
54
  8
0
  6
CONTINUOUS
 62
     5
 10
131.10785
 20
200.91499
 30
0.0
 11
131.10785
 21
213.2151
 31
0.0
  0
LINE
  5
55
  8
0
  6
CONTINUOUS
 62
     5
 10
130.30765
 20
200.91499
 30
0.0
 11
130.30765
 21
198.71536
 31
0.0
  0
LINE
  5
56
  8
0
  6
CONTINUOUS
 62
     5
 10
130.30765
 20
198.71536
 30
0.0
 11
104.90765
 21
198.71536
 31
0.0
  0
LINE
  5
57
  8
0
  6
CONTINUOUS
 62
     5
 10
104.90765
 20
198.71536
 30
0.0
 11
104.90765
 21
200.91499
 31
0.0
  0
LINE
  5
58
  8
0
  6
CONTINUOUS
 62
     5
 10
109.66965
 20
198.71536
 30
0.0
 11
109.66965
 21
185.58371
 31
0.0
  0
LINE
  5
59
  8
0
  6
CONTINUOUS
 62
     5
 10
109.66968
 20
185.58374
 30
0.0
 11
110.30767
 21
185.21539
 31
0.0
  0
LINE
  5
5A
  8
0
  6
CONTINUOUS
 62
     5
 10
110.30765
 20
185.21536
 30
0.0
 11
124.90765
 21
185.21536
 31
0.0
  0
LINE
  5
5B
  8
0
  6
CONTINUOUS
 62
     5
 10
124.90765
 20
185.21536
 30
0.0
 11
125.54564
 21
185.58371
 31
0.0
  0
LINE
  5
5C
  8
0
  6
CONTINUOUS
 62
     5
 10
125.54565
 20
185.58371
 30
0.0
 11
125.54565
 21
198.71536
 31
0.0
  0
LINE
  5
5D
  8
0
  6
CONTINUOUS
 62
     5
 10
125.54566
 20
194.58372
 30
0.0
 11
124.90766
 21
194.21538
 31
0.0
  0
LINE
  5
5E
  8
0
  6
CONTINUOUS
 62
     5
 10
124.90765
 20
194.21536
 30
0.0
 11
110.30765
 21
194.21536
 31
0.0
  0
LINE
  5
5F
  8
0
  6
CONTINUOUS
 62
     5
 10
110.30767
 20
194.21541
 30
0.0
 11
109.66967
 21
194.58376
 31
0.0
  0
LINE
  5
60
  8
0
  6
CONTINUOUS
 62
     5
 10
110.30765
 20
194.21536
 30
0.0
 11
110.30765
 21
184.21536
 31
0.0
  0
LINE
  5
61
  8
0
  6
CONTINUOUS
 62
     5
 10
110.30765
 20
184.21536
 30
0.0
 11
124.90765
 21
184.21536
 31
0.0
  0
LINE
  5
62
  8
0
  6
CONTINUOUS
 62
     5
 10
124.90765
 20
184.21536
 30
0.0
 11
124.90765
 21
194.21536
 31
0.0
  0
LINE
  5
63
  8
0
  6
CONTINUOUS
 62
     5
 10
139.80801
 20
182.59486
 30
0.0
 11
139.80801
 21
179.84486
 31
0.0
  0
LINE
  5
64
  8
0
  6
CONTINUOUS
 62
     5
 10
139.80801
 20
179.84486
 30
0.0
 11
95.40802
 21
179.84486
 31
0.0
  0
LINE
  5
65
  8
0
  6
CONTINUOUS
 62
     5
 10
95.40802
 20
179.84486
 30
0.0
 11
95.40802
 21
182.59486
 31
0.0
  0
LINE
  5
66
  8
0
  6
CENTER
 62
     6
 10
27.253967
 20
301.215
 30
0.0
 11
210.29015
 21
301.215
 31
0.0
  0
LINE
  5
67
  8
0
  6
CONTINUOUS
 62
     5
 10
43.574585
 20
389.21512
 30
0.0
 11
191.64185
 21
389.21512
 31
0.0
  0
LINE
  5
68
  8
0
  6
CONTINUOUS
 62
     5
 10
205.6082
 20
375.24878
 30
0.0
 11
205.6082
 21
227.18123
 31
0.0
  0
LINE
  5
69
  8
0
  6
CONTINUOUS
 62
     5
 10
29.608215
 20
227.18123
 30
0.0
 11
29.608215
 21
375.24878
 31
0.0
  0
LINE
  5
6A
  8
0
  6
CONTINUOUS
 62
     5
 10
32.703743
 20
359.21512
 30
0.0
 11
44.608215
 21
359.21512
 31
0.0
  0
LINE
  5
6B
  8
0
  6
CONTINUOUS
 62
     5
 10
59.608215
 20
387.21512
 30
0.0
 11
59.608215
 21
374.21512
 31
0.0
  0
LINE
  5
6C
  8
0
  6
CONTINUOUS
 62
     5
 10
175.6082
 20
387.21512
 30
0.0
 11
175.6082
 21
374.21512
 31
0.0
  0
LINE
  5
6D
  8
0
  6
CONTINUOUS
 62
     5
 10
202.5127
 20
359.21512
 30
0.0
 11
190.6082
 21
359.21512
 31
0.0
  0
LINE
  5
6E
  8
0
  6
CONTINUOUS
 62
     5
 10
59.608215
 20
228.2151
 30
0.0
 11
59.608215
 21
215.2151
 31
0.0
  0
LINE
  5
6F
  8
0
  6
CONTINUOUS
 62
     5
 10
44.608215
 20
243.2151
 30
0.0
 11
32.703743
 21
243.2151
 31
0.0
  0
LINE
  5
70
  8
0
  6
CONTINUOUS
 62
     5
 10
46.408203
 20
255.41501
 30
0.0
 11
46.408203
 21
244.78496
 31
0.0
  0
LINE
  5
71
  8
0
  6
CONTINUOUS
 62
     5
 10
38.408203
 20
263.41501
 30
0.0
 11
32.033813
 21
263.41501
 31
0.0
  0
LINE
  5
72
  8
0
  6
CONTINUOUS
 62
     5
 10
155.4082
 20
222.015
 30
0.0
 11
155.4082
 21
215.2151
 31
0.0
  0
LINE
  5
73
  8
0
  6
CONTINUOUS
 62
     5
 10
163.4082
 20
230.015
 30
0.0
 11
174.03833
 21
230.015
 31
0.0
  0
LINE
  5
74
  8
0
  6
CONTINUOUS
 62
     5
 10
203.19258
 20
338.715
 30
0.0
 11
196.8082
 21
338.715
 31
0.0
  0
LINE
  5
75
  8
0
  6
CONTINUOUS
 62
     5
 10
188.8082
 20
346.715
 30
0.0
 11
188.8082
 21
357.64526
 31
0.0
  0
LINE
  5
76
  8
0
  6
CONTINUOUS
 62
     5
 10
61.17804
 20
372.41501
 30
0.0
 11
72.108215
 21
372.41501
 31
0.0
  0
LINE
  5
77
  8
0
  6
CONTINUOUS
 62
     5
 10
80.108215
 20
380.41501
 30
0.0
 11
80.108215
 21
387.21512
 31
0.0
  0
LINE
  5
78
  8
0
  6
CENTER
 62
     6
 10
39.56588
 20
223.1727
 30
0.0
 11
54.017612
 21
237.62444
 31
0.0
  0
LINE
  5
79
  8
0
  6
CENTER
 62
     6
 10
39.100574
 20
379.72269
 30
0.0
 11
54.012493
 21
364.81076
 31
0.0
  0
LINE
  5
7A
  8
0
  6
CENTER
 62
     6
 10
181.18176
 20
237.64149
 30
0.0
 11
196.07251
 21
222.75075
 31
0.0
  0
LINE
  5
7B
  8
0
  6
CENTER
 62
     6
 10
181.05569
 20
364.66251
 30
0.0
 11
196.2482
 21
379.85501
 31
0.0
  0
LINE
  5
7C
  8
0
  6
CONTINUOUS
 62
     5
 10
98.558197
 20
239.01466
 30
0.0
 11
98.558197
 21
267.75836
 31
0.0
  0
LINE
  5
7D
  8
0
  6
CONTINUOUS
 62
     5
 10
29.608192
 20
278.21512
 30
0.0
 11
30.704834
 21
245.14879
 31
0.0
  0
LINE
  5
7E
  8
0
  6
CONTINUOUS
 62
     5
 10
30.704826
 20
357.2814
 30
0.0
 11
29.608187
 21
324.21515
 31
0.0
  0
LINE
  5
7F
  8
0
  6
CONTINUOUS
 62
     5
 10
205.60825
 20
278.21506
 30
0.0
 11
204.51161
 21
245.14877
 31
0.0
  0
LINE
  5
80
  8
0
  6
CONTINUOUS
 62
     5
 10
204.51158
 20
357.28143
 30
0.0
 11
205.60823
 21
324.21509
 31
0.0
  0
LINE
  5
81
  8
0
  6
CENTER
 62
     6
 10
66.949799
 20
388.95816
 30
0.0
 11
76.877464
 21
371.76291
 31
0.0
  0
LINE
  5
82
  8
0
  6
CENTER
 62
     6
 10
117.60826
 20
378.20215
 30
0.0
 11
117.60826
 21
363.84473
 31
0.0
  0
LINE
  5
83
  8
0
  6
CONTINUOUS
 62
     5
 10
75.322449
 20
380.45636
 30
0.0
 11
73.590401
 21
383.45633
 31
0.0
  0
LINE
  5
84
  8
0
  6
CONTINUOUS
 62
     5
 10
73.590256
 20
383.45633
 30
0.0
 11
70.126175
 21
383.45633
 31
0.0
  0
LINE
  5
85
  8
0
  6
CONTINUOUS
 62
     5
 10
70.126205
 20
383.45633
 30
0.0
 11
68.394157
 21
380.4563
 31
0.0
  0
LINE
  5
86
  8
0
  6
CONTINUOUS
 62
     5
 10
68.394188
 20
380.45639
 30
0.0
 11
70.126244
 21
377.45639
 31
0.0
  0
LINE
  5
87
  8
0
  6
CONTINUOUS
 62
     5
 10
70.126205
 20
377.45715
 30
0.0
 11
73.590286
 21
377.45715
 31
0.0
  0
LINE
  5
88
  8
0
  6
CONTINUOUS
 62
     5
 10
73.590271
 20
377.45633
 30
0.0
 11
75.322327
 21
380.45633
 31
0.0
  0
LINE
  5
89
  8
0
  6
CONTINUOUS
 62
     5
 10
120.10837
 20
369.77161
 30
0.0
 11
120.10837
 21
372.65839
 31
0.0
  0
LINE
  5
8A
  8
0
  6
CONTINUOUS
 62
     5
 10
120.10821
 20
372.65836
 30
0.0
 11
117.60821
 21
374.10175
 31
0.0
  0
LINE
  5
8B
  8
0
  6
CONTINUOUS
 62
     5
 10
117.60815
 20
374.1019
 30
0.0
 11
115.10815
 21
372.65854
 31
0.0
  0
LINE
  5
8C
  8
0
  6
CONTINUOUS
 62
     5
 10
115.10854
 20
372.65839
 30
0.0
 11
115.10854
 21
369.77164
 31
0.0
  0
LINE
  5
8D
  8
0
  6
CONTINUOUS
 62
     5
 10
115.10784
 20
369.77097
 30
0.0
 11
117.60784
 21
368.32761
 31
0.0
  0
LINE
  5
8E
  8
0
  6
CONTINUOUS
 62
     5
 10
117.60811
 20
368.32849
 30
0.0
 11
120.10811
 21
369.77185
 31
0.0
  0
LINE
  5
8F
  8
0
  6
CENTER
 62
     6
 10
29.865162
 20
250.55655
 30
0.0
 11
47.060371
 21
260.48419
 31
0.0
  0
LINE
  5
90
  8
0
  6
CONTINUOUS
 62
     5
 10
41.36689
 20
257.19705
 30
0.0
 11
38.366898
 21
258.92911
 31
0.0
  0
LINE
  5
91
  8
0
  6
CONTINUOUS
 62
     5
 10
38.366848
 20
258.92914
 30
0.0
 11
35.366871
 21
257.19708
 31
0.0
  0
LINE
  5
92
  8
0
  6
CONTINUOUS
 62
     5
 10
35.366882
 20
257.19705
 30
0.0
 11
35.366882
 21
253.73296
 31
0.0
  0
LINE
  5
93
  8
0
  6
CONTINUOUS
 62
     5
 10
35.366901
 20
253.733
 30
0.0
 11
38.366901
 21
252.00096
 31
0.0
  0
LINE
  5
94
  8
0
  6
CONTINUOUS
 62
     5
 10
38.366886
 20
252.0009
 30
0.0
 11
41.366894
 21
253.73296
 31
0.0
  0
LINE
  5
95
  8
0
  6
CONTINUOUS
 62
     5
 10
41.366066
 20
253.73296
 30
0.0
 11
41.366066
 21
257.19705
 31
0.0
  0
LINE
  5
96
  8
0
  6
CENTER
 62
     6
 10
168.26669
 20
213.47189
 30
0.0
 11
158.33904
 21
230.66713
 31
0.0
  0
LINE
  5
97
  8
0
  6
CONTINUOUS
 62
     5
 10
161.62621
 20
224.97366
 30
0.0
 11
159.89413
 21
221.97366
 31
0.0
  0
LINE
  5
98
  8
0
  6
CONTINUOUS
 62
     5
 10
159.89417
 20
221.97368
 30
0.0
 11
161.62622
 21
218.97369
 31
0.0
  0
LINE
  5
99
  8
0
  6
CONTINUOUS
 62
     5
 10
161.62617
 20
218.97363
 30
0.0
 11
165.09027
 21
218.97363
 31
0.0
  0
LINE
  5
9A
  8
0
  6
CONTINUOUS
 62
     5
 10
165.09023
 20
218.97363
 30
0.0
 11
166.82228
 21
221.97365
 31
0.0
  0
LINE
  5
9B
  8
0
  6
CONTINUOUS
 62
     5
 10
166.82233
 20
221.97366
 30
0.0
 11
165.09029
 21
224.97366
 31
0.0
  0
LINE
  5
9C
  8
0
  6
CONTINUOUS
 62
     5
 10
165.09026
 20
224.97282
 30
0.0
 11
161.62616
 21
224.97282
 31
0.0
  0
LINE
  5
9D
  8
0
  6
CENTER
 62
     6
 10
205.3513
 20
351.87347
 30
0.0
 11
188.15607
 21
341.9458
 31
0.0
  0
LINE
  5
9E
  8
0
  6
CONTINUOUS
 62
     5
 10
193.84955
 20
345.23294
 30
0.0
 11
196.84955
 21
343.50089
 31
0.0
  0
LINE
  5
9F
  8
0
  6
CONTINUOUS
 62
     5
 10
196.84955
 20
343.50089
 30
0.0
 11
199.84953
 21
345.23294
 31
0.0
  0
LINE
  5
A0
  8
0
  6
CONTINUOUS
 62
     5
 10
199.84956
 20
345.23297
 30
0.0
 11
199.84956
 21
348.69705
 31
0.0
  0
LINE
  5
A1
  8
0
  6
CONTINUOUS
 62
     5
 10
199.84956
 20
348.69702
 30
0.0
 11
196.84955
 21
350.42908
 31
0.0
  0
LINE
  5
A2
  8
0
  6
CONTINUOUS
 62
     5
 10
196.84955
 20
350.42914
 30
0.0
 11
193.84953
 21
348.69708
 31
0.0
  0
LINE
  5
A3
  8
0
  6
CONTINUOUS
 62
     5
 10
193.85039
 20
348.69702
 30
0.0
 11
193.85039
 21
345.23294
 31
0.0
  0
LINE
  5
A4
  8
0
  6
CENTER
 62
     6
 10
50.935356
 20
262.72144
 30
0.0
 11
63.369274
 21
269.90015
 31
0.0
  0
LINE
  5
A5
  8
0
  6
CONTINUOUS
 62
     5
 10
56.986423
 20
269.10181
 30
0.0
 11
54.486404
 21
267.65842
 31
0.0
  0
LINE
  5
A6
  8
0
  6
CONTINUOUS
 62
     5
 10
54.486404
 20
267.65839
 30
0.0
 11
54.486404
 21
264.77164
 31
0.0
  0
LINE
  5
A7
  8
0
  6
CONTINUOUS
 62
     5
 10
54.486317
 20
264.77155
 30
0.0
 11
56.986317
 21
263.32816
 31
0.0
  0
LINE
  5
A8
  8
0
  6
CONTINUOUS
 62
     5
 10
56.986423
 20
263.32822
 30
0.0
 11
59.486412
 21
264.77161
 31
0.0
  0
LINE
  5
A9
  8
0
  6
CONTINUOUS
 62
     5
 10
59.487183
 20
264.77161
 30
0.0
 11
59.487183
 21
267.65836
 31
0.0
  0
LINE
  5
AA
  8
0
  6
CONTINUOUS
 62
     5
 10
59.486252
 20
267.65814
 30
0.0
 11
56.986252
 21
269.10153
 31
0.0
  0
LINE
  5
AB
  8
0
  6
CENTER
 62
     6
 10
184.28102
 20
262.72134
 30
0.0
 11
171.84711
 21
269.90009
 31
0.0
  0
LINE
  5
AC
  8
0
  6
CONTINUOUS
 62
     5
 10
175.73
 20
264.77161
 30
0.0
 11
178.23001
 21
263.32825
 31
0.0
  0
LINE
  5
AD
  8
0
  6
CONTINUOUS
 62
     5
 10
178.23
 20
263.32822
 30
0.0
 11
180.72998
 21
264.77158
 31
0.0
  0
LINE
  5
AE
  8
0
  6
CONTINUOUS
 62
     5
 10
180.73013
 20
264.77158
 30
0.0
 11
180.73013
 21
267.65833
 31
0.0
  0
LINE
  5
AF
  8
0
  6
CONTINUOUS
 62
     5
 10
180.72995
 20
267.65833
 30
0.0
 11
178.22997
 21
269.10165
 31
0.0
  0
LINE
  5
B0
  8
0
  6
CONTINUOUS
 62
     5
 10
178.22963
 20
269.10239
 30
0.0
 11
175.72963
 21
267.65903
 31
0.0
  0
LINE
  5
B1
  8
0
  6
CONTINUOUS
 62
     5
 10
175.73026
 20
267.65833
 30
0.0
 11
175.73026
 21
264.77158
 31
0.0
  0
LINE
  5
B2
  8
0
  6
CONTINUOUS
 62
     5
 10
80.325073
 20
271.76764
 30
0.0
 11
84.309883
 21
271.41898
 31
0.0
  0
LINE
  5
B3
  8
0
  6
CONTINUOUS
 62
     5
 10
82.143135
 20
269.6008
 30
0.0
 11
82.491783
 21
273.58557
 31
0.0
  0
LINE
  5
B4
  8
0
  6
CONTINUOUS
 62
     5
 10
79.130798
 20
274.78073
 30
0.0
 11
76.584885
 21
272.23483
 31
0.0
  0
LINE
  5
B5
  8
0
  6
CONTINUOUS
 62
     5
 10
85.504929
 20
268.40656
 30
0.0
 11
82.959
 21
265.86066
 31
0.0
  0
LINE
  5
B6
  8
0
  6
CENTER
 62
     6
 10
149.28741
 20
263.46121
 30
0.0
 11
145.09331
 21
268.45956
 31
0.0
  0
LINE
  5
B7
  8
0
  6
CONTINUOUS
 62
     5
 10
147.05565
 20
263.93185
 30
0.0
 11
147.40428
 21
267.91666
 31
0.0
  0
LINE
  5
B8
  8
0
  6
CONTINUOUS
 62
     5
 10
149.22238
 20
265.75
 30
0.0
 11
145.23761
 21
266.09863
 31
0.0
  0
LINE
  5
B9
  8
0
  6
CONTINUOUS
 62
     5
 10
144.04247
 20
262.73761
 30
0.0
 11
146.58836
 21
260.19168
 31
0.0
  0
LINE
  5
BA
  8
0
  6
CONTINUOUS
 62
     5
 10
150.41666
 20
269.11172
 30
0.0
 11
152.96255
 21
266.5658
 31
0.0
  0
LINE
  5
BB
  8
0
  6
CONTINUOUS
 62
     5
 10
154.89137
 20
330.66241
 30
0.0
 11
150.90656
 21
331.01105
 31
0.0
  0
LINE
  5
BC
  8
0
  6
CONTINUOUS
 62
     5
 10
153.07326
 20
332.82913
 30
0.0
 11
152.72461
 21
328.84436
 31
0.0
  0
LINE
  5
BD
  8
0
  6
CONTINUOUS
 62
     5
 10
156.0856
 20
327.6492
 30
0.0
 11
158.63156
 21
330.19513
 31
0.0
  0
LINE
  5
BE
  8
0
  6
CONTINUOUS
 62
     5
 10
149.7115
 20
334.02344
 30
0.0
 11
152.25743
 21
336.56934
 31
0.0
  0
LINE
  5
BF
  8
0
  6
CENTER
 62
     6
 10
85.929039
 20
338.96884
 30
0.0
 11
90.123169
 21
333.97046
 31
0.0
  0
LINE
  5
C0
  8
0
  6
CONTINUOUS
 62
     5
 10
88.160812
 20
338.49817
 30
0.0
 11
87.81218
 21
334.51334
 31
0.0
  0
LINE
  5
C1
  8
0
  6
CONTINUOUS
 62
     5
 10
85.994026
 20
336.68008
 30
0.0
 11
89.978798
 21
336.33142
 31
0.0
  0
LINE
  5
C2
  8
0
  6
CONTINUOUS
 62
     5
 10
91.173958
 20
339.69238
 30
0.0
 11
88.628059
 21
342.23831
 31
0.0
  0
LINE
  5
C3
  8
0
  6
CONTINUOUS
 62
     5
 10
84.799782
 20
333.31827
 30
0.0
 11
82.253883
 21
335.8642
 31
0.0
  0
LINE
  5
C4
  8
0
  6
CONTINUOUS
 62
     5
 10
493.65283
 20
318.715
 30
0.0
 11
568.65283
 21
318.715
 31
0.0
  0
LINE
  5
C5
  8
0
  6
CONTINUOUS
 62
     5
 10
568.65283
 20
318.715
 30
0.0
 11
568.65283
 21
283.715
 31
0.0
  0
LINE
  5
C6
  8
0
  6
CONTINUOUS
 62
     5
 10
568.65283
 20
283.715
 30
0.0
 11
493.65283
 21
283.715
 31
0.0
  0
LINE
  5
C7
  8
0
  6
CONTINUOUS
 62
     5
 10
310.15283
 20
213.215
 30
0.0
 11
310.15283
 21
200.91499
 31
0.0
  0
LINE
  5
C8
  8
0
  6
CONTINUOUS
 62
     5
 10
310.15283
 20
200.91499
 30
0.0
 11
337.15283
 21
200.91499
 31
0.0
  0
LINE
  5
C9
  8
0
  6
CONTINUOUS
 62
     5
 10
337.15283
 20
200.91499
 30
0.0
 11
337.15283
 21
213.215
 31
0.0
  0
LINE
  5
CA
  8
0
  6
CONTINUOUS
 62
     5
 10
310.95264
 20
200.91499
 30
0.0
 11
310.95264
 21
198.71536
 31
0.0
  0
LINE
  5
CB
  8
0
  6
CONTINUOUS
 62
     5
 10
310.95264
 20
198.71536
 30
0.0
 11
336.35266
 21
198.71536
 31
0.0
  0
LINE
  5
CC
  8
0
  6
CONTINUOUS
 62
     5
 10
336.35266
 20
198.71536
 30
0.0
 11
336.35266
 21
200.91499
 31
0.0
  0
LINE
  5
CD
  8
0
  6
CONTINUOUS
 62
     5
 10
315.71466
 20
198.71536
 30
0.0
 11
315.71466
 21
185.58369
 31
0.0
  0
LINE
  5
CE
  8
0
  6
CONTINUOUS
 62
     5
 10
315.71463
 20
185.58371
 30
0.0
 11
316.35263
 21
185.21536
 31
0.0
  0
LINE
  5
CF
  8
0
  6
CONTINUOUS
 62
     5
 10
316.35266
 20
185.21536
 30
0.0
 11
330.95264
 21
185.21536
 31
0.0
  0
LINE
  5
D0
  8
0
  6
CONTINUOUS
 62
     5
 10
330.95267
 20
185.21538
 30
0.0
 11
331.59067
 21
185.58372
 31
0.0
  0
LINE
  5
D1
  8
0
  6
CONTINUOUS
 62
     5
 10
331.59064
 20
185.58371
 30
0.0
 11
331.59064
 21
198.71536
 31
0.0
  0
LINE
  5
D2
  8
0
  6
CONTINUOUS
 62
     5
 10
315.71469
 20
194.58371
 30
0.0
 11
316.35269
 21
194.21538
 31
0.0
  0
LINE
  5
D3
  8
0
  6
CONTINUOUS
 62
     5
 10
316.35266
 20
194.21536
 30
0.0
 11
330.95264
 21
194.21536
 31
0.0
  0
LINE
  5
D4
  8
0
  6
CONTINUOUS
 62
     5
 10
330.95264
 20
194.21532
 30
0.0
 11
331.59067
 21
194.58368
 31
0.0
  0
LINE
  5
D5
  8
0
  6
CONTINUOUS
 62
     5
 10
316.35266
 20
194.21536
 30
0.0
 11
316.35266
 21
184.21536
 31
0.0
  0
LINE
  5
D6
  8
0
  6
CONTINUOUS
 62
     5
 10
316.35266
 20
184.21536
 30
0.0
 11
330.95264
 21
184.21536
 31
0.0
  0
LINE
  5
D7
  8
0
  6
CONTINUOUS
 62
     5
 10
330.95264
 20
184.21536
 30
0.0
 11
330.95264
 21
194.21536
 31
0.0
  0
LINE
  5
D8
  8
0
  6
CENTER
 62
     6
 10
323.65283
 20
184.64473
 30
0.0
 11
323.65283
 21
213.215
 31
0.0
  0
LINE
  5
D9
  8
0
  6
CONTINUOUS
 62
     5
 10
307.15283
 20
229.67368
 30
0.0
 11
305.15283
 21
229.67368
 31
0.0
  0
LINE
  5
DA
  8
0
  6
CONTINUOUS
 62
     5
 10
305.15283
 20
229.67368
 30
0.0
 11
305.15283
 21
214.27368
 31
0.0
  0
LINE
  5
DB
  8
0
  6
CONTINUOUS
 62
     5
 10
305.15283
 20
214.27368
 30
0.0
 11
307.15283
 21
214.27368
 31
0.0
  0
LINE
  5
DC
  8
0
  6
CONTINUOUS
 62
     5
 10
305.15283
 20
228.47368
 30
0.0
 11
297.15283
 21
228.47368
 31
0.0
  0
LINE
  5
DD
  8
0
  6
CONTINUOUS
 62
     5
 10
297.15283
 20
228.47368
 30
0.0
 11
297.15283
 21
215.47368
 31
0.0
  0
LINE
  5
DE
  8
0
  6
CONTINUOUS
 62
     5
 10
297.15283
 20
215.47368
 30
0.0
 11
305.15283
 21
215.47368
 31
0.0
  0
LINE
  5
DF
  8
0
  6
CENTER
 62
     6
 10
295.8653
 20
221.97368
 30
0.0
 11
308.83142
 21
221.97368
 31
0.0
  0
LINE
  5
E0
  8
0
  6
CONTINUOUS
 62
     5
 10
293.20282
 20
241.815
 30
0.0
 11
293.20282
 21
239.01501
 31
0.0
  0
LINE
  5
E1
  8
0
  6
CONTINUOUS
 62
     5
 10
293.20282
 20
239.01501
 30
0.0
 11
255.10284
 21
239.01501
 31
0.0
  0
LINE
  5
E2
  8
0
  6
CONTINUOUS
 62
     5
 10
255.10284
 20
239.01501
 30
0.0
 11
255.10284
 21
241.815
 31
0.0
  0
LINE
  5
E3
  8
0
  6
CONTINUOUS
 62
     5
 10
259.35284
 20
239.01501
 30
0.0
 11
259.35284
 21
220.71501
 31
0.0
  0
LINE
  5
E4
  8
0
  6
CONTINUOUS
 62
     5
 10
259.35278
 20
220.71497
 30
0.0
 11
260.35278
 21
219.71497
 31
0.0
  0
LINE
  5
E5
  8
0
  6
CONTINUOUS
 62
     5
 10
260.35284
 20
219.71501
 30
0.0
 11
287.95282
 21
219.71501
 31
0.0
  0
LINE
  5
E6
  8
0
  6
CONTINUOUS
 62
     5
 10
287.95282
 20
219.71503
 30
0.0
 11
288.95282
 21
220.71503
 31
0.0
  0
LINE
  5
E7
  8
0
  6
CONTINUOUS
 62
     5
 10
288.95282
 20
220.71501
 30
0.0
 11
288.95282
 21
239.01501
 31
0.0
  0
LINE
  5
E8
  8
0
  6
CENTER
 62
     6
 10
274.15283
 20
211.97226
 30
0.0
 11
274.15283
 21
245.2742
 31
0.0
  0
LINE
  5
E9
  8
0
  6
CONTINUOUS
 62
     5
 10
259.35284
 20
236.01501
 30
0.0
 11
288.95282
 21
236.01501
 31
0.0
  0
LINE
  5
EA
  8
0
  6
CONTINUOUS
 62
     5
 10
287.95282
 20
219.71501
 30
0.0
 11
287.95282
 21
236.01501
 31
0.0
  0
LINE
  5
EB
  8
0
  6
CONTINUOUS
 62
     5
 10
288.95282
 20
220.71501
 30
0.0
 11
259.35284
 21
220.71501
 31
0.0
  0
LINE
  5
EC
  8
0
  6
CONTINUOUS
 62
     5
 10
260.35284
 20
219.71501
 30
0.0
 11
260.35284
 21
236.01501
 31
0.0
  0
LINE
  5
ED
  8
0
  6
CONTINUOUS
 62
     5
 10
254.65283
 20
241.815
 30
0.0
 11
293.65283
 21
241.815
 31
0.0
  0
LINE
  5
EE
  8
0
  6
CONTINUOUS
 62
     5
 10
293.65283
 20
241.815
 30
0.0
 11
293.65283
 21
258.715
 31
0.0
  0
LINE
  5
EF
  8
0
  6
CONTINUOUS
 62
     5
 10
296.15283
 20
258.715
 30
0.0
 11
281.15283
 21
258.715
 31
0.0
  0
LINE
  5
F0
  8
0
  6
CONTINUOUS
 62
     5
 10
287.15283
 20
260.19183
 30
0.0
 11
281.15283
 21
260.19183
 31
0.0
  0
LINE
  5
F1
  8
0
  6
CENTER
 62
     6
 10
285.66345
 20
266.215
 30
0.0
 11
294.85028
 21
266.215
 31
0.0
  0
LINE
  5
F2
  8
0
  6
CONTINUOUS
 62
     5
 10
294.15283
 20
272.315
 30
0.0
 11
292.65283
 21
272.315
 31
0.0
  0
LINE
  5
F3
  8
0
  6
CONTINUOUS
 62
     5
 10
292.65283
 20
272.315
 30
0.0
 11
292.65283
 21
260.11502
 31
0.0
  0
LINE
  5
F4
  8
0
  6
CONTINUOUS
 62
     5
 10
292.65283
 20
260.11499
 30
0.0
 11
294.15283
 21
260.11499
 31
0.0
  0
LINE
  5
F5
  8
0
  6
CONTINUOUS
 62
     5
 10
292.65283
 20
271.215
 30
0.0
 11
286.65283
 21
271.215
 31
0.0
  0
LINE
  5
F6
  8
0
  6
CONTINUOUS
 62
     5
 10
286.65283
 20
271.215
 30
0.0
 11
286.65283
 21
261.215
 31
0.0
  0
LINE
  5
F7
  8
0
  6
CONTINUOUS
 62
     5
 10
286.65283
 20
261.215
 30
0.0
 11
292.65283
 21
261.215
 31
0.0
  0
LINE
  5
F8
  8
0
  6
CONTINUOUS
 62
     5
 10
287.15283
 20
258.715
 30
0.0
 11
287.15283
 21
261.215
 31
0.0
  0
LINE
  5
F9
  8
0
  6
CONTINUOUS
 62
     5
 10
281.15283
 20
273.71152
 30
0.0
 11
294.15283
 21
273.71152
 31
0.0
  0
LINE
  5
FA
  8
0
  6
CONTINUOUS
 62
     5
 10
285.15283
 20
266.55579
 30
0.0
 11
285.15283
 21
264.53992
 31
0.0
  0
LINE
  5
FB
  8
0
  6
CONTINUOUS
 62
     5
 10
286.65283
 20
266.55579
 30
0.0
 11
281.15283
 21
266.55579
 31
0.0
  0
LINE
  5
FC
  8
0
  6
CONTINUOUS
 62
     5
 10
286.15283
 20
263.53992
 30
0.0
 11
286.65283
 21
263.53992
 31
0.0
  0
LINE
  5
FD
  8
0
  6
CONTINUOUS
 62
     5
 10
281.15283
 20
266.86761
 30
0.0
 11
256.15283
 21
266.86761
 31
0.0
  0
LINE
  5
FE
  8
0
  6
CONTINUOUS
 62
     5
 10
254.6528
 20
267.73004
 30
0.0
 11
256.1528
 21
266.86761
 31
0.0
  0
LINE
  5
FF
  8
0
  6
CONTINUOUS
 62
     5
 10
307.15283
 20
358.215
 30
0.0
 11
307.15283
 21
338.715
 31
0.0
  0
LINE
  5
100
  8
0
  6
CONTINUOUS
 62
     5
 10
307.15283
 20
338.715
 30
0.0
 11
297.15283
 21
338.715
 31
0.0
  0
LINE
  5
101
  8
0
  6
CONTINUOUS
 62
     5
 10
297.15283
 20
340.465
 30
0.0
 11
305.15283
 21
340.465
 31
0.0
  0
LINE
  5
102
  8
0
  6
CONTINUOUS
 62
     5
 10
305.15283
 20
353.465
 30
0.0
 11
297.15283
 21
353.465
 31
0.0
  0
LINE
  5
103
  8
0
  6
CONTINUOUS
 62
     5
 10
297.15283
 20
353.465
 30
0.0
 11
297.15283
 21
340.465
 31
0.0
  0
LINE
  5
104
  8
0
  6
CONTINUOUS
 62
     5
 10
307.15283
 20
339.26501
 30
0.0
 11
305.15283
 21
339.26501
 31
0.0
  0
LINE
  5
105
  8
0
  6
CONTINUOUS
 62
     5
 10
305.15283
 20
339.26501
 30
0.0
 11
305.15283
 21
354.66501
 31
0.0
  0
LINE
  5
106
  8
0
  6
CONTINUOUS
 62
     5
 10
305.15283
 20
354.66501
 30
0.0
 11
307.15283
 21
354.66501
 31
0.0
  0
LINE
  5
107
  8
0
  6
CONTINUOUS
 62
     5
 10
294.15283
 20
328.71869
 30
0.0
 11
281.15283
 21
328.71869
 31
0.0
  0
LINE
  5
108
  8
0
  6
CONTINUOUS
 62
     5
 10
281.15283
 20
336.55936
 30
0.0
 11
287.15283
 21
336.55936
 31
0.0
  0
LINE
  5
109
  8
0
  6
CONTINUOUS
 62
     5
 10
296.15283
 20
343.715
 30
0.0
 11
281.15283
 21
343.715
 31
0.0
  0
LINE
  5
10A
  8
0
  6
CENTER
 62
     6
 10
295.38525
 20
346.965
 30
0.0
 11
308.49451
 21
346.965
 31
0.0
  0
LINE
  5
10B
  8
0
  6
CENTER
 62
     6
 10
289.64496
 20
330.82748
 30
0.0
 11
282.82367
 21
330.82748
 31
0.0
  0
LINE
  5
10C
  8
0
  6
CONTINUOUS
 62
     5
 10
281.15283
 20
258.715
 30
0.0
 11
281.15283
 21
343.715
 31
0.0
  0
LINE
  5
10D
  8
0
  6
CONTINUOUS
 62
     5
 10
287.15283
 20
343.715
 30
0.0
 11
287.15283
 21
271.215
 31
0.0
  0
LINE
  5
10E
  8
0
  6
CONTINUOUS
 62
     5
 10
294.15283
 20
258.715
 30
0.0
 11
294.15283
 21
343.715
 31
0.0
  0
LINE
  5
10F
  8
0
  6
CONTINUOUS
 62
     5
 10
256.79691
 20
340.39929
 30
0.0
 11
281.15283
 21
341.24982
 31
0.0
  0
LINE
  5
110
  8
0
  6
CONTINUOUS
 62
     5
 10
287.15283
 20
330.1954
 30
0.0
 11
281.15283
 21
330.1954
 31
0.0
  0
LINE
  5
111
  8
0
  6
CONTINUOUS
 62
     5
 10
285.15283
 20
330.1954
 30
0.0
 11
285.15283
 21
332.32748
 31
0.0
  0
LINE
  5
112
  8
0
  6
CONTINUOUS
 62
     5
 10
286.15283
 20
333.32748
 30
0.0
 11
287.15283
 21
333.32748
 31
0.0
  0
LINE
  5
113
  8
0
  6
CONTINUOUS
 62
     5
 10
296.15283
 20
377.315
 30
0.0
 11
294.65283
 21
377.315
 31
0.0
  0
LINE
  5
114
  8
0
  6
CONTINUOUS
 62
     5
 10
296.15283
 20
365.11502
 30
0.0
 11
294.65283
 21
365.11502
 31
0.0
  0
LINE
  5
115
  8
0
  6
CONTINUOUS
 62
     5
 10
294.65283
 20
365.11502
 30
0.0
 11
294.65283
 21
377.315
 31
0.0
  0
LINE
  5
116
  8
0
  6
CENTER
 62
     6
 10
297.47229
 20
371.215
 30
0.0
 11
287.21429
 21
371.215
 31
0.0
  0
LINE
  5
117
  8
0
  6
CONTINUOUS
 62
     5
 10
294.65283
 20
366.215
 30
0.0
 11
288.65283
 21
366.215
 31
0.0
  0
LINE
  5
118
  8
0
  6
CONTINUOUS
 62
     5
 10
288.65283
 20
366.215
 30
0.0
 11
288.65283
 21
376.215
 31
0.0
  0
LINE
  5
119
  8
0
  6
CONTINUOUS
 62
     5
 10
288.65283
 20
376.215
 30
0.0
 11
294.65283
 21
376.215
 31
0.0
  0
LINE
  5
11A
  8
0
  6
CONTINUOUS
 62
     5
 10
332.15283
 20
389.215
 30
0.0
 11
332.15283
 21
372.45599
 31
0.0
  0
LINE
  5
11B
  8
0
  6
CONTINUOUS
 62
     5
 10
332.15283
 20
372.45599
 30
0.0
 11
343.15283
 21
372.45599
 31
0.0
  0
LINE
  5
11C
  8
0
  6
CENTER
 62
     6
 10
332.65076
 20
380.45499
 30
0.0
 11
345.05432
 21
380.45499
 31
0.0
  0
LINE
  5
11D
  8
0
  6
CONTINUOUS
 62
     5
 10
343.15283
 20
386.95633
 30
0.0
 11
335.15283
 21
386.95633
 31
0.0
  0
LINE
  5
11E
  8
0
  6
CONTINUOUS
 62
     5
 10
335.15283
 20
386.95633
 30
0.0
 11
335.15283
 21
373.95633
 31
0.0
  0
LINE
  5
11F
  8
0
  6
CONTINUOUS
 62
     5
 10
335.15283
 20
373.95633
 30
0.0
 11
343.15283
 21
373.95633
 31
0.0
  0
LINE
  5
120
  8
0
  6
CONTINUOUS
 62
     5
 10
489.65283
 20
375.021
 30
0.0
 11
471.65283
 21
375.021
 31
0.0
  0
LINE
  5
121
  8
0
  6
CONTINUOUS
 62
     5
 10
489.65283
 20
358.36502
 30
0.0
 11
492.65283
 21
358.36502
 31
0.0
  0
LINE
  5
122
  8
0
  6
CONTINUOUS
 62
     5
 10
492.65283
 20
358.36502
 30
0.0
 11
492.65283
 21
244.065
 31
0.0
  0
LINE
  5
123
  8
0
  6
CONTINUOUS
 62
     5
 10
492.65283
 20
244.065
 30
0.0
 11
489.65283
 21
244.065
 31
0.0
  0
LINE
  5
124
  8
0
  6
CONTINUOUS
 62
     5
 10
492.65283
 20
281.215
 30
0.0
 11
493.65283
 21
281.215
 31
0.0
  0
LINE
  5
125
  8
0
  6
CONTINUOUS
 62
     5
 10
493.65283
 20
281.215
 30
0.0
 11
493.65283
 21
321.215
 31
0.0
  0
LINE
  5
126
  8
0
  6
CONTINUOUS
 62
     5
 10
493.65283
 20
321.215
 30
0.0
 11
492.65283
 21
321.215
 31
0.0
  0
LINE
  5
127
  8
0
  6
CONTINUOUS
 62
     5
 10
307.15283
 20
230.015
 30
0.0
 11
307.15283
 21
214.215
 31
0.0
  0
LINE
  5
128
  8
0
  6
CONTINUOUS
 62
     5
 10
307.15283
 20
230.015
 30
0.0
 11
297.15283
 21
230.015
 31
0.0
  0
LINE
  5
129
  8
0
  6
CONTINUOUS
 62
     5
 10
469.65283
 20
352.215
 30
0.0
 11
350.15283
 21
352.215
 31
0.0
  0
LINE
  5
12A
  8
0
  6
CONTINUOUS
 62
     5
 10
469.65283
 20
349.215
 30
0.0
 11
350.15283
 21
349.215
 31
0.0
  0
LINE
  5
12B
  8
0
  6
CONTINUOUS
 62
     5
 10
469.65283
 20
346.215
 30
0.0
 11
350.15283
 21
346.215
 31
0.0
  0
LINE
  5
12C
  8
0
  6
CONTINUOUS
 62
     5
 10
469.65283
 20
343.215
 30
0.0
 11
350.15283
 21
343.215
 31
0.0
  0
LINE
  5
12D
  8
0
  6
CONTINUOUS
 62
     5
 10
296.15283
 20
359.215
 30
0.0
 11
471.65283
 21
359.215
 31
0.0
  0
LINE
  5
12E
  8
0
  6
CONTINUOUS
 62
     5
 10
489.65283
 20
389.215
 30
0.0
 11
297.15283
 21
389.215
 31
0.0
  0
LINE
  5
12F
  8
0
  6
CENTER
 62
     6
 10
577.48041
 20
301.215
 30
0.0
 11
237.73462
 21
301.215
 31
0.0
  0
LINE
  5
130
  8
0
  6
CONTINUOUS
 62
     5
 10
254.65283
 20
331.215
 30
0.0
 11
254.65283
 21
241.815
 31
0.0
  0
LINE
  5
131
  8
0
  6
CONTINUOUS
 62
     5
 10
256.15283
 20
266.86761
 30
0.0
 11
256.15283
 21
340.13403
 31
0.0
  0
LINE
  5
132
  8
0
  6
CONTINUOUS
 62
     5
 10
397.85303
 20
182.59486
 30
0.0
 11
397.85303
 21
179.84486
 31
0.0
  0
LINE
  5
133
  8
0
  6
CONTINUOUS
 62
     5
 10
397.85303
 20
179.84486
 30
0.0
 11
353.453
 21
179.84486
 31
0.0
  0
LINE
  5
134
  8
0
  6
CONTINUOUS
 62
     5
 10
353.453
 20
179.84486
 30
0.0
 11
353.453
 21
182.59486
 31
0.0
  0
LINE
  5
135
  8
0
  6
CONTINUOUS
 62
     5
 10
356.65302
 20
179.84486
 30
0.0
 11
356.65302
 21
161.21487
 31
0.0
  0
LINE
  5
136
  8
0
  6
CONTINUOUS
 62
     5
 10
356.65302
 20
161.21487
 30
0.0
 11
394.65302
 21
161.21487
 31
0.0
  0
LINE
  5
137
  8
0
  6
CONTINUOUS
 62
     5
 10
394.65302
 20
161.21487
 30
0.0
 11
394.65302
 21
179.84486
 31
0.0
  0
LINE
  5
138
  8
0
  6
CONTINUOUS
 62
     5
 10
394.65302
 20
175.21487
 30
0.0
 11
356.65302
 21
175.21487
 31
0.0
  0
LINE
  5
139
  8
0
  6
CONTINUOUS
 62
     5
 10
357.65302
 20
175.21487
 30
0.0
 11
357.65302
 21
159.21487
 31
0.0
  0
LINE
  5
13A
  8
0
  6
CONTINUOUS
 62
     5
 10
357.65302
 20
159.21487
 30
0.0
 11
393.65302
 21
159.21487
 31
0.0
  0
LINE
  5
13B
  8
0
  6
CONTINUOUS
 62
     5
 10
393.65302
 20
159.21487
 30
0.0
 11
393.65302
 21
175.21487
 31
0.0
  0
LINE
  5
13C
  8
0
  6
CONTINUOUS
 62
     5
 10
407.02441
 20
182.59486
 30
0.0
 11
351.15302
 21
182.59486
 31
0.0
  0
LINE
  5
13D
  8
0
  6
CONTINUOUS
 62
     5
 10
351.15302
 20
213.21471
 30
0.0
 11
351.15302
 21
182.59486
 31
0.0
  0
LINE
  5
13E
  8
0
  6
CENTER
 62
     6
 10
375.65283
 20
197.34946
 30
0.0
 11
375.65283
 21
154.97446
 31
0.0
  0
LINE
  5
13F
  8
0
  6
CONTINUOUS
 62
     5
 10
489.65283
 20
227.409
 30
0.0
 11
471.65283
 21
227.409
 31
0.0
  0
LINE
  5
140
  8
0
  6
CONTINUOUS
 62
     5
 10
489.65283
 20
389.215
 30
0.0
 11
489.65283
 21
213.215
 31
0.0
  0
LINE
  5
141
  8
0
  6
CONTINUOUS
 62
     5
 10
489.65283
 20
213.215
 30
0.0
 11
297.15283
 21
213.215
 31
0.0
  0
LINE
  5
142
  8
0
  6
CONTINUOUS
 62
     5
 10
296.15283
 20
214.215
 30
0.0
 11
296.15283
 21
388.215
 31
0.0
  0
LINE
  5
143
  8
0
  6
CONTINUOUS
 62
     5
 10
343.15283
 20
389.215
 30
0.0
 11
343.15283
 21
213.215
 31
0.0
  0
LINE
  5
144
  8
0
  6
CONTINUOUS
 62
     5
 10
350.15283
 20
213.215
 30
0.0
 11
350.15283
 21
389.215
 31
0.0
  0
LINE
  5
145
  8
0
  6
CONTINUOUS
 62
     5
 10
469.65283
 20
259.215
 30
0.0
 11
350.15283
 21
259.215
 31
0.0
  0
LINE
  5
146
  8
0
  6
CONTINUOUS
 62
     5
 10
469.65283
 20
256.215
 30
0.0
 11
350.15283
 21
256.215
 31
0.0
  0
LINE
  5
147
  8
0
  6
CONTINUOUS
 62
     5
 10
469.65283
 20
253.215
 30
0.0
 11
350.15283
 21
253.215
 31
0.0
  0
LINE
  5
148
  8
0
  6
CONTINUOUS
 62
     5
 10
469.65283
 20
250.215
 30
0.0
 11
350.15283
 21
250.215
 31
0.0
  0
LINE
  5
149
  8
0
  6
CONTINUOUS
 62
     5
 10
471.65283
 20
243.215
 30
0.0
 11
296.15283
 21
243.215
 31
0.0
  0
LINE
  5
14A
  8
0
  6
CONTINUOUS
 62
     5
 10
471.65283
 20
213.215
 30
0.0
 11
471.65283
 21
389.215
 31
0.0
  0
LINE
  5
14B
  8
0
  6
CONTINUOUS
 62
     5
 10
469.65283
 20
389.215
 30
0.0
 11
469.65283
 21
213.215
 31
0.0
  0
LINE
  5
14C
  8
0
  6
CONTINUOUS
 62
     5
 10
695.62067
 20
213.21487
 30
0.0
 11
695.62067
 21
182.59503
 31
0.0
  0
LINE
  5
14D
  8
0
  6
CONTINUOUS
 62
     5
 10
695.62067
 20
182.59503
 30
0.0
 11
741.62067
 21
182.59503
 31
0.0
  0
LINE
  5
14E
  8
0
  6
CONTINUOUS
 62
     5
 10
741.62067
 20
182.59503
 30
0.0
 11
741.62067
 21
213.21487
 31
0.0
  0
LINE
  5
14F
  8
0
  6
CONTINUOUS
 62
     5
 10
740.82074
 20
182.59503
 30
0.0
 11
740.82074
 21
179.84503
 31
0.0
  0
LINE
  5
150
  8
0
  6
CONTINUOUS
 62
     5
 10
740.82074
 20
179.84503
 30
0.0
 11
696.42078
 21
179.84503
 31
0.0
  0
LINE
  5
151
  8
0
  6
CONTINUOUS
 62
     5
 10
696.42078
 20
179.84503
 30
0.0
 11
696.42078
 21
182.59503
 31
0.0
  0
LINE
  5
152
  8
0
  6
CONTINUOUS
 62
     5
 10
699.62079
 20
179.84503
 30
0.0
 11
699.62079
 21
161.21503
 31
0.0
  0
LINE
  5
153
  8
0
  6
CONTINUOUS
 62
     5
 10
699.62079
 20
161.21503
 30
0.0
 11
737.62079
 21
161.21503
 31
0.0
  0
LINE
  5
154
  8
0
  6
CONTINUOUS
 62
     5
 10
737.62079
 20
161.21503
 30
0.0
 11
737.62079
 21
179.84503
 31
0.0
  0
LINE
  5
155
  8
0
  6
CONTINUOUS
 62
     5
 10
737.62079
 20
175.21503
 30
0.0
 11
699.62079
 21
175.21503
 31
0.0
  0
LINE
  5
156
  8
0
  6
CONTINUOUS
 62
     5
 10
700.62079
 20
175.21503
 30
0.0
 11
700.62079
 21
159.21503
 31
0.0
  0
LINE
  5
157
  8
0
  6
CONTINUOUS
 62
     5
 10
700.62079
 20
159.21503
 30
0.0
 11
736.62079
 21
159.21503
 31
0.0
  0
LINE
  5
158
  8
0
  6
CONTINUOUS
 62
     5
 10
736.62079
 20
159.21503
 30
0.0
 11
736.62079
 21
175.21503
 31
0.0
  0
LINE
  5
159
  8
0
  6
CENTER
 62
     6
 10
817.61346
 20
301.215
 30
0.0
 11
626.36823
 21
301.215
 31
0.0
  0
LINE
  5
15A
  8
0
  6
CENTER
 62
     6
 10
718.62109
 20
155.92453
 30
0.0
 11
718.62109
 21
409.64224
 31
0.0
  0
LINE
  5
15B
  8
0
  6
CONTINUOUS
 62
     5
 10
644.58679
 20
389.20908
 30
0.0
 11
792.65387
 21
389.20908
 31
0.0
  0
LINE
  5
15C
  8
0
  6
CONTINUOUS
 62
     5
 10
806.62384
 20
375.2493
 30
0.0
 11
806.62384
 21
227.18224
 31
0.0
  0
LINE
  5
15D
  8
0
  6
CONTINUOUS
 62
     5
 10
792.6554
 20
213.20859
 30
0.0
 11
644.58832
 21
213.20859
 31
0.0
  0
LINE
  5
15E
  8
0
  6
CONTINUOUS
 62
     5
 10
630.62341
 20
227.18069
 30
0.0
 11
630.62341
 21
375.24774
 31
0.0
  0
LINE
  5
15F
  8
0
  6
CENTER
 62
     6
 10
640.92358
 20
223.51738
 30
0.0
 11
656.18323
 21
238.77705
 31
0.0
  0
LINE
  5
160
  8
0
  6
CENTER
 62
     6
 10
641.27789
 20
378.55835
 30
0.0
 11
654.62726
 21
365.20895
 31
0.0
  0
LINE
  5
161
  8
0
  6
CENTER
 62
     6
 10
782.66486
 20
365.25861
 30
0.0
 11
795.82245
 21
378.41623
 31
0.0
  0
LINE
  5
162
  8
0
  6
CENTER
 62
     6
 10
781.80774
 20
238.02823
 30
0.0
 11
796.67773
 21
223.15826
 31
0.0
  0
LINE
  5
163
  8
0
  6
CENTER
 62
     6
 10
643.27765
 20
344.71454
 30
0.0
 11
637.99969
 21
347.76175
 31
0.0
  0
LINE
  5
164
  8
0
  6
CENTER
 62
     6
 10
675.12164
 20
225.87148
 30
0.0
 11
672.07446
 21
220.59355
 31
0.0
  0
LINE
  5
165
  8
0
  6
CENTER
 62
     6
 10
793.9646
 20
257.71555
 30
0.0
 11
799.24255
 21
254.66832
 31
0.0
  0
LINE
  5
166
  8
0
  6
CENTER
 62
     6
 10
762.12085
 20
376.55838
 30
0.0
 11
765.16809
 21
381.83636
 31
0.0
  0
LINE
  5
167
  8
0
  6
CONTINUOUS
 62
     5
 10
745.79846
 20
272.22217
 30
0.0
 11
749.39844
 21
272.22217
 31
0.0
  0
LINE
  5
168
  8
0
  6
CONTINUOUS
 62
     5
 10
747.59839
 20
274.02225
 30
0.0
 11
747.59839
 21
270.42215
 31
0.0
  0
LINE
  5
169
  8
0
  6
CENTER
 62
     6
 10
744.75732
 20
275.07852
 30
0.0
 11
750.51343
 21
269.32239
 31
0.0
  0
LINE
  5
16A
  8
0
  6
CONTINUOUS
 62
     5
 10
747.61389
 20
328.3923
 30
0.0
 11
747.61389
 21
331.99228
 31
0.0
  0
LINE
  5
16B
  8
0
  6
CONTINUOUS
 62
     5
 10
745.81384
 20
330.19226
 30
0.0
 11
749.41394
 21
330.19226
 31
0.0
  0
LINE
  5
16C
  8
0
  6
CENTER
 62
     6
 10
744.75739
 20
327.35144
 30
0.0
 11
750.51349
 21
333.10757
 31
0.0
  0
LINE
  5
16D
  8
0
  6
CONTINUOUS
 62
     5
 10
691.44373
 20
330.20776
 30
0.0
 11
687.84375
 21
330.20776
 31
0.0
  0
LINE
  5
16E
  8
0
  6
CONTINUOUS
 62
     5
 10
689.6438
 20
328.40775
 30
0.0
 11
689.6438
 21
332.00784
 31
0.0
  0
LINE
  5
16F
  8
0
  6
CENTER
 62
     6
 10
692.48462
 20
327.35138
 30
0.0
 11
686.72845
 21
333.10751
 31
0.0
  0
LINE
  5
170
  8
0
  6
CONTINUOUS
 62
     5
 10
689.6283
 20
274.03763
 30
0.0
 11
689.6283
 21
270.43765
 31
0.0
  0
LINE
  5
171
  8
0
  6
CONTINUOUS
 62
     5
 10
691.42834
 20
272.23767
 30
0.0
 11
687.82825
 21
272.23767
 31
0.0
  0
LINE
  5
172
  8
0
  6
CENTER
 62
     6
 10
692.48468
 20
275.07864
 30
0.0
 11
686.72852
 21
269.32254
 31
0.0
  0
CIRCLE
  5
173
  8
0
  6
CONTINUOUS
 62
     5
 10
132.3082
 20
255.70566
 30
0.0
 40
2.0
  0
CIRCLE
  5
174
  8
0
  6
CONTINUOUS
 62
     5
 10
102.9082
 20
255.70566
 30
0.0
 40
2.0
  0
ARC
  5
175
  8
0
  6
CONTINUOUS
 62
     5
 10
117.60822
 20
301.215
 30
0.0
 40
115.0
 50
220.07364
 51
229.92623
  0
ARC
  5
176
  8
0
  6
CONTINUOUS
 62
     5
 10
117.60822
 20
301.215
 30
0.0
 40
115.0
 50
130.07359
 51
139.92636
  0
ARC
  5
177
  8
0
  6
CONTINUOUS
 62
     5
 10
117.60822
 20
301.215
 30
0.0
 40
115.0
 50
40.073673
 51
49.926432
  0
ARC
  5
178
  8
0
  6
CONTINUOUS
 62
     5
 10
117.60822
 20
301.215
 30
0.0
 40
115.0
 50
310.07375
 51
319.92633
  0
ARC
  5
179
  8
0
  6
CENTER
 62
     6
 10
117.60822
 20
301.215
 30
0.0
 40
100.0
 50
308.55499
 51
321.25742
  0
ARC
  5
17A
  8
0
  6
CENTER
 62
     6
 10
117.60822
 20
301.215
 30
0.0
 40
100.0
 50
38.638991
 51
51.856425
  0
ARC
  5
17B
  8
0
  6
CENTER
 62
     6
 10
117.60822
 20
301.215
 30
0.0
 40
100.0
 50
128.77002
 51
141.28345
  0
ARC
  5
17C
  8
0
  6
CENTER
 62
     6
 10
117.60822
 20
301.215
 30
0.0
 40
100.0
 50
218.71698
 51
232.01698
  0
ARC
  5
17D
  8
0
  6
CONTINUOUS
 62
     5
 10
117.60822
 20
301.215
 30
0.0
 40
38.5
 50
299.65688
 51
240.34302
  0
ARC
  5
17E
  8
0
  6
CONTINUOUS
 62
     5
 10
117.60822
 20
301.215
 30
0.0
 40
40.0
 50
300.83049
 51
239.16948
  0
ARC
  5
17F
  8
0
  6
CONTINUOUS
 62
     5
 10
44.608215
 20
228.2151
 30
0.0
 40
15.0
 50
0.0
 51
89.999982
  0
ARC
  5
180
  8
0
  6
CONTINUOUS
 62
     5
 10
190.6082
 20
228.2151
 30
0.0
 40
15.0
 50
89.999982
 51
179.99996
  0
ARC
  5
181
  8
0
  6
CONTINUOUS
 62
     5
 10
44.608215
 20
374.21512
 30
0.0
 40
15.0
 50
270.00002
 51
0.0
  0
ARC
  5
182
  8
0
  6
CONTINUOUS
 62
     5
 10
190.6082
 20
374.21512
 30
0.0
 40
15.0
 50
179.99998
 51
270.00003
  0
ARC
  5
183
  8
0
  6
CONTINUOUS
 62
     5
 10
48.408203
 20
244.78496
 30
0.0
 40
2.0
 50
179.99998
 51
257.08359
  0
ARC
  5
184
  8
0
  6
CONTINUOUS
 62
     5
 10
61.608215
 20
215.2151
 30
0.0
 40
2.0
 50
179.99998
 51
270.00003
  0
ARC
  5
185
  8
0
  6
CONTINUOUS
 62
     5
 10
153.4082
 20
215.2151
 30
0.0
 40
2.0
 50
270.00002
 51
0.0
  0
ARC
  5
186
  8
0
  6
CONTINUOUS
 62
     5
 10
173.6082
 20
215.2151
 30
0.0
 40
2.0
 50
270.00002
 51
0.0
  0
ARC
  5
187
  8
0
  6
CONTINUOUS
 62
     5
 10
174.03833
 20
232.015
 30
0.0
 40
2.0
 50
270.00002
 51
347.08372
  0
ARC
  5
188
  8
0
  6
CONTINUOUS
 62
     5
 10
202.51253
 20
245.2151
 30
0.0
 40
2.0
 50
270.00002
 51
358.10031
  0
ARC
  5
189
  8
0
  6
CONTINUOUS
 62
     5
 10
-469.68463
 20
301.21512
 30
0.0
 40
499.8223
 50
357.36254
 51
2.637474
  0
ARC
  5
18A
  8
0
  6
CONTINUOUS
 62
     5
 10
32.703743
 20
245.2151
 30
0.0
 40
2.0
 50
181.89966
 51
270.00002
  0
ARC
  5
18B
  8
0
  6
CONTINUOUS
 62
     5
 10
32.033813
 20
265.41501
 30
0.0
 40
2.0
 50
181.89966
 51
270.00002
  0
ARC
  5
18C
  8
0
  6
CONTINUOUS
 62
     5
 10
32.703743
 20
357.21512
 30
0.0
 40
2.0
 50
89.999982
 51
178.10078
  0
ARC
  5
18D
  8
0
  6
CONTINUOUS
 62
     5
 10
61.17804
 20
370.41501
 30
0.0
 40
2.0
 50
89.999982
 51
167.08289
  0
ARC
  5
18E
  8
0
  6
CONTINUOUS
 62
     5
 10
61.608215
 20
387.21512
 30
0.0
 40
2.0
 50
89.999982
 51
179.99996
  0
ARC
  5
18F
  8
0
  6
CONTINUOUS
 62
     5
 10
82.108215
 20
387.21512
 30
0.0
 40
2.0
 50
89.999982
 51
179.99996
  0
ARC
  5
190
  8
0
  6
CONTINUOUS
 62
     5
 10
72.108215
 20
380.41501
 30
0.0
 40
8.0
 50
270.00002
 51
0.0
  0
ARC
  5
191
  8
0
  6
CONTINUOUS
 62
     5
 10
704.90106
 20
301.21512
 30
0.0
 40
499.8223
 50
177.36254
 51
182.63748
  0
ARC
  5
192
  8
0
  6
CONTINUOUS
 62
     5
 10
203.19258
 20
336.715
 30
0.0
 40
2.0
 50
1.89925
 51
89.999982
  0
ARC
  5
193
  8
0
  6
CONTINUOUS
 62
     5
 10
202.5127
 20
357.21512
 30
0.0
 40
2.0
 50
1.89925
 51
89.999982
  0
ARC
  5
194
  8
0
  6
CONTINUOUS
 62
     5
 10
196.8082
 20
346.715
 30
0.0
 40
8.0
 50
179.99998
 51
270.00003
  0
ARC
  5
195
  8
0
  6
CONTINUOUS
 62
     5
 10
186.8082
 20
357.64526
 30
0.0
 40
2.0
 50
0.0
 51
77.083398
  0
ARC
  5
196
  8
0
  6
CONTINUOUS
 62
     5
 10
173.6082
 20
387.21512
 30
0.0
 40
2.0
 50
0.0
 51
89.999982
  0
CIRCLE
  5
197
  8
0
  6
CONTINUOUS
 62
     5
 10
46.791695
 20
230.39859
 30
0.0
 40
6.75
  0
CIRCLE
  5
198
  8
0
  6
CONTINUOUS
 62
     5
 10
188.62715
 20
230.19611
 30
0.0
 40
6.75
  0
CIRCLE
  5
199
  8
0
  6
CONTINUOUS
 62
     5
 10
188.65196
 20
372.25876
 30
0.0
 40
6.75
  0
CIRCLE
  5
19A
  8
0
  6
CONTINUOUS
 62
     5
 10
46.556534
 20
372.26672
 30
0.0
 40
6.75
  0
ARC
  5
19B
  8
0
  6
CONTINUOUS
 62
     5
 10
163.4082
 20
222.015
 30
0.0
 40
8.0
 50
89.999982
 51
179.99996
  0
ARC
  5
19C
  8
0
  6
CONTINUOUS
 62
     5
 10
38.408203
 20
255.41501
 30
0.0
 40
8.0
 50
0.0
 51
89.999982
  0
ARC
  5
19D
  8
0
  6
CENTER
 62
     6
 10
117.60822
 20
301.215
 30
0.0
 40
91.5
 50
113.98397
 51
126.11898
  0
CIRCLE
  5
19E
  8
0
  6
CONTINUOUS
 62
     5
 10
71.858253
 20
380.45633
 30
0.0
 40
6.5
  0
CIRCLE
  5
19F
  8
0
  6
CONTINUOUS
 62
     5
 10
71.858253
 20
380.45633
 30
0.0
 40
7.7
  0
ARC
  5
1A0
  8
0
  6
CENTER
 62
     6
 10
117.60822
 20
301.215
 30
0.0
 40
70.000008
 50
84.152001
 51
96.157999
  0
CIRCLE
  5
1A1
  8
0
  6
CONTINUOUS
 62
     5
 10
117.60825
 20
371.21503
 30
0.0
 40
5.0
  0
CIRCLE
  5
1A2
  8
0
  6
CONTINUOUS
 62
     5
 10
117.60825
 20
371.21503
 30
0.0
 40
6.1
  0
ARC
  5
1A3
  8
0
  6
CENTER
 62
     6
 10
117.60822
 20
301.215
 30
0.0
 40
91.5
 50
203.98397
 51
216.11899
  0
CIRCLE
  5
1A4
  8
0
  6
CONTINUOUS
 62
     5
 10
38.36689
 20
255.465
 30
0.0
 40
6.5
  0
CIRCLE
  5
1A5
  8
0
  6
CONTINUOUS
 62
     5
 10
38.36689
 20
255.465
 30
0.0
 40
7.7
  0
ARC
  5
1A6
  8
0
  6
CENTER
 62
     6
 10
117.60822
 20
301.215
 30
0.0
 40
91.5
 50
293.98398
 51
306.11899
  0
CIRCLE
  5
1A7
  8
0
  6
CONTINUOUS
 62
     5
 10
163.3582
 20
221.97366
 30
0.0
 40
6.5
  0
CIRCLE
  5
1A8
  8
0
  6
CONTINUOUS
 62
     5
 10
163.3582
 20
221.97366
 30
0.0
 40
7.7
  0
ARC
  5
1A9
  8
0
  6
CENTER
 62
     6
 10
117.60822
 20
301.215
 30
0.0
 40
91.5
 50
23.983977
 51
36.118983
  0
CIRCLE
  5
1AA
  8
0
  6
CONTINUOUS
 62
     5
 10
196.84955
 20
346.96497
 30
0.0
 40
6.5
  0
CIRCLE
  5
1AB
  8
0
  6
CONTINUOUS
 62
     5
 10
196.84955
 20
346.96497
 30
0.0
 40
7.7
  0
ARC
  5
1AC
  8
0
  6
CENTER
 62
     6
 10
117.60822
 20
301.215
 30
0.0
 40
70.000008
 50
204.15199
 51
216.15799
  0
CIRCLE
  5
1AD
  8
0
  6
CONTINUOUS
 62
     5
 10
56.98642
 20
266.215
 30
0.0
 40
5.0
  0
CIRCLE
  5
1AE
  8
0
  6
CONTINUOUS
 62
     5
 10
56.98642
 20
266.215
 30
0.0
 40
6.1
  0
ARC
  5
1AF
  8
0
  6
CENTER
 62
     6
 10
117.60822
 20
301.215
 30
0.0
 40
70.000008
 50
324.152
 51
336.158
  0
CIRCLE
  5
1B0
  8
0
  6
CONTINUOUS
 62
     5
 10
178.23
 20
266.21497
 30
0.0
 40
5.0
  0
CIRCLE
  5
1B1
  8
0
  6
CONTINUOUS
 62
     5
 10
178.23
 20
266.21497
 30
0.0
 40
6.1
  0
ARC
  5
1B2
  8
0
  6
CENTER
 62
     6
 10
117.60822
 20
301.215
 30
0.0
 40
46.074776
 50
215.39133
 51
223.96928
  0
CIRCLE
  5
1B3
  8
0
  6
CONTINUOUS
 62
     5
 10
82.317474
 20
271.59323
 30
0.0
 40
2.4
  0
ARC
  5
1B4
  8
0
  6
CONTINUOUS
 62
     5
 10
82.317474
 20
271.59323
 30
0.0
 40
4.507212
 50
314.99965
 51
134.99969
  0
ARC
  5
1B5
  8
0
  6
CENTER
 62
     6
 10
117.60822
 20
301.215
 30
0.0
 40
46.074776
 50
305.39133
 51
313.96928
  0
CIRCLE
  5
1B6
  8
0
  6
CONTINUOUS
 62
     5
 10
147.22998
 20
265.92426
 30
0.0
 40
2.4
  0
ARC
  5
1B7
  8
0
  6
CONTINUOUS
 62
     5
 10
147.22998
 20
265.92426
 30
0.0
 40
4.507212
 50
44.999649
 51
224.99967
  0
ARC
  5
1B8
  8
0
  6
CENTER
 62
     6
 10
117.60822
 20
301.215
 30
0.0
 40
46.074776
 50
35.391322
 51
43.969274
  0
CIRCLE
  5
1B9
  8
0
  6
CONTINUOUS
 62
     5
 10
152.89896
 20
330.83676
 30
0.0
 40
2.4
  0
ARC
  5
1BA
  8
0
  6
CONTINUOUS
 62
     5
 10
152.89896
 20
330.83676
 30
0.0
 40
4.507212
 50
134.99965
 51
314.99966
  0
ARC
  5
1BB
  8
0
  6
CENTER
 62
     6
 10
117.60822
 20
301.215
 30
0.0
 40
46.074776
 50
125.39132
 51
133.96927
  0
CIRCLE
  5
1BC
  8
0
  6
CONTINUOUS
 62
     5
 10
87.98645
 20
336.50574
 30
0.0
 40
2.4
  0
ARC
  5
1BD
  8
0
  6
CONTINUOUS
 62
     5
 10
87.98645
 20
336.50574
 30
0.0
 40
4.507212
 50
224.99966
 51
44.99969
  0
ARC
  5
1BE
  8
0
  6
CONTINUOUS
 62
     5
 10
284.70074
 20
331.20807
 30
0.0
 40
30.047937
 50
163.61976
 51
179.98682
  0
ARC
  5
1BF
  8
0
  6
CONTINUOUS
 62
     5
 10
256.83185
 20
339.3999
 30
0.0
 40
1.0
 50
92.000742
 51
163.61965
  0
ARC
  5
1C0
  8
0
  6
CONTINUOUS
 62
     5
 10
297.15283
 20
388.215
 30
0.0
 40
1.0
 50
89.999982
 51
179.99996
  0
ARC
  5
1C1
  8
0
  6
CONTINUOUS
 62
     5
 10
308.15283
 20
358.215
 30
0.0
 40
1.0
 50
89.999982
 51
179.99996
  0
ARC
  5
1C2
  8
0
  6
CONTINUOUS
 62
     5
 10
297.15283
 20
337.715
 30
0.0
 40
1.0
 50
89.999982
 51
179.99996
  0
ARC
  5
1C3
  8
0
  6
CONTINUOUS
 62
     5
 10
286.15283
 20
332.32748
 30
0.0
 40
1.0
 50
89.999982
 51
179.99996
  0
ARC
  5
1C4
  8
0
  6
CONTINUOUS
 62
     5
 10
297.15283
 20
231.015
 30
0.0
 40
1.0
 50
179.99998
 51
270.00003
  0
ARC
  5
1C5
  8
0
  6
CONTINUOUS
 62
     5
 10
297.15283
 20
214.215
 30
0.0
 40
1.0
 50
179.99998
 51
270.00003
  0
ARC
  5
1C6
  8
0
  6
CONTINUOUS
 62
     5
 10
308.15283
 20
214.215
 30
0.0
 40
1.0
 50
179.99998
 51
270.00003
  0
ARC
  5
1C7
  8
0
  6
CONTINUOUS
 62
     5
 10
407.02441
 20
183.59486
 30
0.0
 40
1.0
 50
270.00002
 51
339.25117
  0
CIRCLE
  5
1C8
  8
0
  6
CONTINUOUS
 62
     5
 10
718.62109
 20
301.215
 30
0.0
 40
57.150024
  0
CIRCLE
  5
1C9
  8
0
  6
CONTINUOUS
 62
     5
 10
718.62109
 20
301.215
 30
0.0
 40
50.0
  0
CIRCLE
  5
1CA
  8
0
  6
CONTINUOUS
 62
     5
 10
718.62109
 20
301.215
 30
0.0
 40
30.0
  0
CIRCLE
  5
1CB
  8
0
  6
CONTINUOUS
 62
     5
 10
718.62109
 20
301.215
 30
0.0
 40
20.0
  0
CIRCLE
  5
1CC
  8
0
  6
CONTINUOUS
 62
     5
 10
718.62109
 20
301.215
 30
0.0
 40
17.5
  0
ARC
  5
1CD
  8
0
  6
CENTER
 62
     6
 10
718.62109
 20
301.215
 30
0.0
 40
100.0
 50
218.48196
 51
230.87241
  0
ARC
  5
1CE
  8
0
  6
CENTER
 62
     6
 10
718.62109
 20
301.215
 30
0.0
 40
100.0
 50
129.67801
 51
140.17742
  0
ARC
  5
1CF
  8
0
  6
CENTER
 62
     6
 10
718.62109
 20
301.215
 30
0.0
 40
100.0
 50
40.002171
 51
50.357431
  0
ARC
  5
1D0
  8
0
  6
CENTER
 62
     6
 10
718.62109
 20
301.215
 30
0.0
 40
100.0
 50
309.417
 51
321.15542
  0
ARC
  5
1D1
  8
0
  6
CONTINUOUS
 62
     5
 10
718.62109
 20
301.215
 30
0.0
 40
115.0
 50
220.07397
 51
229.92697
  0
ARC
  5
1D2
  8
0
  6
CONTINUOUS
 62
     5
 10
718.62109
 20
301.215
 30
0.0
 40
115.0
 50
310.074
 51
319.927
  0
ARC
  5
1D3
  8
0
  6
CONTINUOUS
 62
     5
 10
718.62109
 20
301.215
 30
0.0
 40
115.0
 50
40.07399
 51
49.926992
  0
ARC
  5
1D4
  8
0
  6
CONTINUOUS
 62
     5
 10
718.62109
 20
301.215
 30
0.0
 40
115.0
 50
130.07403
 51
139.92701
  0
CIRCLE
  5
1D5
  8
0
  6
CONTINUOUS
 62
     5
 10
647.9104
 20
230.50432
 30
0.0
 40
6.75
  0
CIRCLE
  5
1D6
  8
0
  6
CONTINUOUS
 62
     5
 10
647.9104
 20
371.92566
 30
0.0
 40
6.75
  0
CIRCLE
  5
1D7
  8
0
  6
CONTINUOUS
 62
     5
 10
789.33179
 20
371.92566
 30
0.0
 40
6.75
  0
CIRCLE
  5
1D8
  8
0
  6
CONTINUOUS
 62
     5
 10
789.33179
 20
230.50433
 30
0.0
 40
6.75
  0
ARC
  5
1D9
  8
0
  6
CENTER
 62
     6
 10
718.62109
 20
301.215
 30
0.0
 40
90.0
 50
148.29962
 51
151.78968
  0
CIRCLE
  5
1DA
  8
0
  6
CONTINUOUS
 62
     5
 10
640.67877
 20
346.21494
 30
0.0
 40
1.5
  0
CIRCLE
  5
1DB
  8
0
  6
CONTINUOUS
 62
     5
 10
640.67877
 20
346.21494
 30
0.0
 40
2.5
  0
CIRCLE
  5
1DC
  8
0
  6
CONTINUOUS
 62
     5
 10
673.62115
 20
223.27266
 30
0.0
 40
1.5
  0
CIRCLE
  5
1DD
  8
0
  6
CONTINUOUS
 62
     5
 10
673.62115
 20
223.27266
 30
0.0
 40
2.5
  0
ARC
  5
1DE
  8
0
  6
CENTER
 62
     6
 10
718.62109
 20
301.215
 30
0.0
 40
90.0
 50
238.29963
 51
241.7897
  0
CIRCLE
  5
1DF
  8
0
  6
CONTINUOUS
 62
     5
 10
796.56342
 20
256.21506
 30
0.0
 40
1.5
  0
CIRCLE
  5
1E0
  8
0
  6
CONTINUOUS
 62
     5
 10
796.56342
 20
256.21506
 30
0.0
 40
2.5
  0
ARC
  5
1E1
  8
0
  6
CENTER
 62
     6
 10
718.62109
 20
301.215
 30
0.0
 40
90.0
 50
328.29963
 51
331.78969
  0
CIRCLE
  5
1E2
  8
0
  6
CONTINUOUS
 62
     5
 10
763.62103
 20
379.15732
 30
0.0
 40
1.5
  0
CIRCLE
  5
1E3
  8
0
  6
CONTINUOUS
 62
     5
 10
763.62103
 20
379.15732
 30
0.0
 40
2.5
  0
ARC
  5
1E4
  8
0
  6
CENTER
 62
     6
 10
718.62109
 20
301.215
 30
0.0
 40
90.0
 50
58.299626
 51
61.789689
  0
ARC
  5
1E5
  8
0
  6
CENTER
 62
     6
 10
718.62109
 20
301.215
 30
0.0
 40
40.99107
 50
307.29944
 51
322.57118
  0
CIRCLE
  5
1E6
  8
0
  6
CONTINUOUS
 62
     5
 10
747.59839
 20
272.22214
 30
0.0
 40
2.5
  0
ARC
  5
1E7
  8
0
  6
CENTER
 62
     6
 10
718.62109
 20
301.215
 30
0.0
 40
40.99107
 50
37.299431
 51
52.571187
  0
CIRCLE
  5
1E8
  8
0
  6
CONTINUOUS
 62
     5
 10
747.61395
 20
330.19229
 30
0.0
 40
2.5
  0
ARC
  5
1E9
  8
0
  6
CENTER
 62
     6
 10
718.62109
 20
301.215
 30
0.0
 40
40.99107
 50
127.29943
 51
142.57118
  0
CIRCLE
  5
1EA
  8
0
  6
CONTINUOUS
 62
     5
 10
689.6438
 20
330.20786
 30
0.0
 40
2.5
  0
ARC
  5
1EB
  8
0
  6
CENTER
 62
     6
 10
718.62109
 20
301.215
 30
0.0
 40
40.99107
 50
217.29944
 51
232.57118
  0
CIRCLE
  5
1EC
  8
0
  6
CONTINUOUS
 62
     5
 10
689.62823
 20
272.2377
 30
0.0
 40
2.5
  0
ARC
  5
1ED
  8
0
  6
CONTINUOUS
 62
     5
 10
286.15283
 20
264.53992
 30
0.0
 40
1.0
 50
179.99998
 51
270.00003
  0
ARC
  5
1EE
  8
0
  6
CONTINUOUS
 62
     5
 10
333.16858
 20
211.63615
 30
0.0
 40
80.0
 50
339.20997
 51
1.130836
  0
TEXT
  5
1EF
  8
0
  6
CONTINUOUS
 62
     7
 10
38.696111
 20
476.9167
 30
0.0
 40
12.7
  1
HC-SF353B
  0
ENDSEC
  0
EOF
