  0
SECTION
  2
HEADER
  9
$ACADVER
  1
AC1009
  9
$INSBASE
 10
0.0
 20
0.0
 30
0.0
  9
$EXTMIN
 10
30.180649
 20
118.5889
 30
-0.001526
  9
$EXTMAX
 10
400.562844
 20
238.935049
 30
0.0
  9
$LIMMIN
 10
0.0
 20
0.0
  9
$LIMMAX
 10
12.0
 20
9.0
  9
$ORTHOMODE
 70
     0
  9
$REGENMODE
 70
     1
  9
$FILLMODE
 70
     1
  9
$QTEXTMODE
 70
     0
  9
$MIRRTEXT
 70
     1
  9
$DRAGMODE
 70
     2
  9
$LTSCALE
 40
0.5
  9
$OSMODE
 70
    39
  9
$ATTMODE
 70
     1
  9
$TEXTSIZE
 40
0.2
  9
$TRACEWID
 40
0.05
  9
$TEXTSTYLE
  7
STANDARD
  9
$CLAYER
  8
0
  9
$CELTYPE
  6
BYLAYER
  9
$CECOLOR
 62
   256
  9
$DIMSCALE
 40
1.0
  9
$DIMASZ
 40
0.18
  9
$DIMEXO
 40
0.0625
  9
$DIMDLI
 40
0.38
  9
$DIMRND
 40
0.0
  9
$DIMDLE
 40
0.0
  9
$DIMEXE
 40
0.18
  9
$DIMTP
 40
0.0
  9
$DIMTM
 40
0.0
  9
$DIMTXT
 40
0.18
  9
$DIMCEN
 40
0.09
  9
$DIMTSZ
 40
0.0
  9
$DIMTOL
 70
     0
  9
$DIMLIM
 70
     0
  9
$DIMTIH
 70
     1
  9
$DIMTOH
 70
     1
  9
$DIMSE1
 70
     0
  9
$DIMSE2
 70
     0
  9
$DIMTAD
 70
     0
  9
$DIMZIN
 70
     0
  9
$DIMBLK
  1

  9
$DIMASO
 70
     1
  9
$DIMSHO
 70
     1
  9
$DIMPOST
  1

  9
$DIMAPOST
  1

  9
$DIMALT
 70
     0
  9
$DIMALTD
 70
     2
  9
$DIMALTF
 40
25.4
  9
$DIMLFAC
 40
1.0
  9
$DIMTOFL
 70
     0
  9
$DIMTVP
 40
0.0
  9
$DIMTIX
 70
     0
  9
$DIMSOXD
 70
     0
  9
$DIMSAH
 70
     0
  9
$DIMBLK1
  1

  9
$DIMBLK2
  1

  9
$DIMSTYLE
  2
STANDARD
  9
$DIMCLRD
 70
     0
  9
$DIMCLRE
 70
     0
  9
$DIMCLRT
 70
     0
  9
$DIMTFAC
 40
1.0
  9
$DIMGAP
 40
0.09
  9
$LUNITS
 70
     2
  9
$LUPREC
 70
     4
  9
$SKETCHINC
 40
0.1
  9
$FILLETRAD
 40
0.0
  9
$AUNITS
 70
     0
  9
$AUPREC
 70
     0
  9
$MENU
  1
.
  9
$ELEVATION
 40
0.0
  9
$PELEVATION
 40
0.0
  9
$THICKNESS
 40
0.0
  9
$LIMCHECK
 70
     0
  9
$BLIPMODE
 70
     0
  9
$CHAMFERA
 40
0.0
  9
$CHAMFERB
 40
0.0
  9
$SKPOLY
 70
     0
  9
$TDCREATE
 40
2451614.568096
  9
$TDUPDATE
 40
2452948.804835
  9
$TDINDWG
 40
0.278099
  9
$TDUSRTIMER
 40
0.278091
  9
$USRTIMER
 70
     1
  9
$ANGBASE
 50
0.0
  9
$ANGDIR
 70
     0
  9
$PDMODE
 70
     0
  9
$PDSIZE
 40
0.0
  9
$PLINEWID
 40
0.0
  9
$COORDS
 70
     2
  9
$SPLFRAME
 70
     0
  9
$SPLINETYPE
 70
     6
  9
$SPLINESEGS
 70
     8
  9
$ATTDIA
 70
     0
  9
$ATTREQ
 70
     1
  9
$HANDLING
 70
     1
  9
$HANDSEED
  5
1B4F0
  9
$SURFTAB1
 70
     6
  9
$SURFTAB2
 70
     6
  9
$SURFTYPE
 70
     6
  9
$SURFU
 70
     6
  9
$SURFV
 70
     6
  9
$UCSNAME
  2

  9
$UCSORG
 10
0.0
 20
0.0
 30
0.0
  9
$UCSXDIR
 10
1.0
 20
0.0
 30
0.0
  9
$UCSYDIR
 10
0.0
 20
1.0
 30
0.0
  9
$PUCSNAME
  2

  9
$PUCSORG
 10
0.0
 20
0.0
 30
0.0
  9
$PUCSXDIR
 10
1.0
 20
0.0
 30
0.0
  9
$PUCSYDIR
 10
0.0
 20
1.0
 30
0.0
  9
$USERI1
 70
     0
  9
$USERI2
 70
     0
  9
$USERI3
 70
     0
  9
$USERI4
 70
     0
  9
$USERI5
 70
     0
  9
$USERR1
 40
0.0
  9
$USERR2
 40
0.0
  9
$USERR3
 40
0.0
  9
$USERR4
 40
0.0
  9
$USERR5
 40
0.0
  9
$WORLDVIEW
 70
     1
  9
$SHADEDGE
 70
     3
  9
$SHADEDIF
 70
    70
  9
$TILEMODE
 70
     1
  9
$MAXACTVP
 70
    48
  9
$PLIMCHECK
 70
     0
  9
$PEXTMIN
 10
1.000000E+020
 20
1.000000E+020
 30
1.000000E+020
  9
$PEXTMAX
 10
-1.000000E+020
 20
-1.000000E+020
 30
-1.000000E+020
  9
$PLIMMIN
 10
0.0
 20
0.0
  9
$PLIMMAX
 10
12.0
 20
9.0
  9
$UNITMODE
 70
     0
  9
$VISRETAIN
 70
     1
  9
$PLINEGEN
 70
     0
  9
$PSLTSCALE
 70
     1
  0
ENDSEC
  0
SECTION
  2
TABLES
  0
TABLE
  2
VPORT
 70
     4
  0
VPORT
  2
*ACTIVE
 70
     0
 10
0.0
 20
0.0
 11
1.0
 21
1.0
 12
215.371746
 22
178.761974
 13
0.0
 23
0.0
 14
1.0
 24
1.0
 15
0.0
 25
0.0
 16
0.0
 26
0.0
 36
1.0
 17
0.0
 27
0.0
 37
0.0
 40
230.150988
 41
1.616967
 42
50.0
 43
0.0
 44
0.0
 50
0.0
 51
0.0
 71
     0
 72
   100
 73
     1
 74
     1
 75
     0
 76
     0
 77
     0
 78
     0
  0
ENDTAB
  0
TABLE
  2
LTYPE
 70
     6
  0
LTYPE
  2
CONTINUOUS
 70
     0
  3
Solid line
 72
    65
 73
     0
 40
0.0
  0
LTYPE
  2
CENTER
 70
     0
  3
____ _ ____ _ ____ _ ____ _ ____ _ ____ _ ____
 72
    65
 73
     4
 40
17.5
 49
13.0
 49
-1.5
 49
1.5
 49
-1.5
  0
LTYPE
  2
HIDDEN
 70
     0
  3
Hidden __ __ __ __ __ __ __ __ __ __ __ __ __ _
 72
    65
 73
     2
 40
9.525
 49
6.35
 49
-3.175
  0
ENDTAB
  0
TABLE
  2
LAYER
 70
     5
  0
LAYER
  2
0
 70
     0
 62
     7
  6
CONTINUOUS
  0
LAYER
  2
CENTER
 70
     0
 62
     1
  6
CENTER
  0
LAYER
  2
1
 70
     0
 62
     7
  6
CONTINUOUS
  0
LAYER
  2
HIDDEN
 70
     0
 62
     6
  6
HIDDEN
  0
ENDTAB
  0
TABLE
  2
STYLE
 70
     2
  0
STYLE
  2
STANDARD
 70
     0
 40
0.0
 41
1.0
 50
0.0
 71
     0
 42
0.2
  3
txt
  4

  0
ENDTAB
  0
TABLE
  2
VIEW
 70
     0
  0
ENDTAB
  0
TABLE
  2
UCS
 70
     0
  0
ENDTAB
  0
TABLE
  2
APPID
 70
     2
  0
APPID
  2
ACAD
 70
     0
  0
APPID
  2
DCO15
 70
     0
  0
ENDTAB
  0
TABLE
  2
DIMSTYLE
 70
     3
  0
DIMSTYLE
  2
STANDARD
 70
     0
  3

  4

  5

  6

  7

 40
1.0
 41
0.18
 42
0.0625
 43
0.38
 44
0.18
 45
0.0
 46
0.0
 47
0.0
 48
0.0
140
0.18
141
0.09
142
0.0
143
25.4
144
1.0
145
0.0
146
1.0
147
0.09
 71
     0
 72
     0
 73
     1
 74
     1
 75
     0
 76
     0
 77
     0
 78
     0
170
     0
171
     2
172
     0
173
     0
174
     0
175
     0
176
     0
177
     0
178
     0
  0
ENDTAB
  0
ENDSEC
  0
SECTION
  2
BLOCKS
  0
BLOCK
  8
0
  2
$MODEL_SPACE
 70
     0
 10
0.0
 20
0.0
 30
0.0
  3
$MODEL_SPACE
  1

  0
ENDBLK
  5
1B4C8
  8
0
  0
BLOCK
 67
     1
  8
0
  2
$PAPER_SPACE
 70
     0
 10
0.0
 20
0.0
 30
0.0
  3
$PAPER_SPACE
  1

  0
ENDBLK
  5
1B4C5
 67
     1
  8
0
  0
BLOCK
  8
0
  2
A$C3C4259C2
 70
     0
 10
0.0
 20
0.0
 30
0.0
  3
A$C3C4259C2
  1

  0
POLYLINE
  5
1A8A6
  8
HIDDEN
 66
     1
 10
0.0
 20
0.0
 30
0.0
 70
     8
  0
VERTEX
  5
1A8A7
  8
0
 10
0.0
 20
4.16
 30
0.0
 70
    32
  0
VERTEX
  5
1A8A8
  8
0
 10
-0.01641
 20
4.15969
 30
0.0
 70
    32
  0
VERTEX
  5
1A8A9
  8
0
 10
-0.032811
 20
4.15875
 30
0.0
 70
    32
  0
VERTEX
  5
1A8AA
  8
0
 10
-0.049191
 20
4.15718
 30
0.0
 70
    32
  0
VERTEX
  5
1A8AB
  8
0
 10
-0.065542
 20
4.15499
 30
0.0
 70
    32
  0
VERTEX
  5
1A8AC
  8
0
 10
-0.081853
 20
4.15218
 30
0.0
 70
    32
  0
VERTEX
  5
1A8AD
  8
0
 10
-0.098115
 20
4.14874
 30
0.0
 70
    32
  0
VERTEX
  5
1A8AE
  8
0
 10
-0.114318
 20
4.14469
 30
0.0
 70
    32
  0
VERTEX
  5
1A8AF
  8
0
 10
-0.130453
 20
4.14002
 30
0.0
 70
    32
  0
VERTEX
  5
1A8B0
  8
0
 10
-0.146508
 20
4.13473
 30
0.0
 70
    32
  0
VERTEX
  5
1A8B1
  8
0
 10
-0.162475
 20
4.12883
 30
0.0
 70
    32
  0
VERTEX
  5
1A8B2
  8
0
 10
-0.178345
 20
4.12233
 30
0.0
 70
    32
  0
VERTEX
  5
1A8B3
  8
0
 10
-0.194107
 20
4.11522
 30
0.0
 70
    32
  0
VERTEX
  5
1A8B4
  8
0
 10
-0.209752
 20
4.10751
 30
0.0
 70
    32
  0
VERTEX
  5
1A8B5
  8
0
 10
-0.225271
 20
4.09921
 30
0.0
 70
    32
  0
VERTEX
  5
1A8B6
  8
0
 10
-0.240654
 20
4.09031
 30
0.0
 70
    32
  0
VERTEX
  5
1A8B7
  8
0
 10
-0.255892
 20
4.08083
 30
0.0
 70
    32
  0
VERTEX
  5
1A8B8
  8
0
 10
-0.270976
 20
4.07078
 30
0.0
 70
    32
  0
VERTEX
  5
1A8B9
  8
0
 10
-0.285897
 20
4.06015
 30
0.0
 70
    32
  0
VERTEX
  5
1A8BA
  8
0
 10
-0.300645
 20
4.04895
 30
0.0
 70
    32
  0
VERTEX
  5
1A8BB
  8
0
 10
-0.315212
 20
4.0372
 30
0.0
 70
    32
  0
VERTEX
  5
1A8BC
  8
0
 10
-0.32959
 20
4.02489
 30
0.0
 70
    32
  0
VERTEX
  5
1A8BD
  8
0
 10
-0.343769
 20
4.01204
 30
0.0
 70
    32
  0
VERTEX
  5
1A8BE
  8
0
 10
-0.357741
 20
3.99865
 30
0.0
 70
    32
  0
VERTEX
  5
1A8BF
  8
0
 10
-0.371497
 20
3.98473
 30
0.0
 70
    32
  0
VERTEX
  5
1A8C0
  8
0
 10
-0.38503
 20
3.97029
 30
0.0
 70
    32
  0
VERTEX
  5
1A8C1
  8
0
 10
-0.398331
 20
3.95534
 30
0.0
 70
    32
  0
VERTEX
  5
1A8C2
  8
0
 10
-0.411392
 20
3.93988
 30
0.0
 70
    32
  0
VERTEX
  5
1A8C3
  8
0
 10
-0.424205
 20
3.92393
 30
0.0
 70
    32
  0
VERTEX
  5
1A8C4
  8
0
 10
-0.436762
 20
3.9075
 30
0.0
 70
    32
  0
VERTEX
  5
1A8C5
  8
0
 10
-0.449056
 20
3.89059
 30
0.0
 70
    32
  0
VERTEX
  5
1A8C6
  8
0
 10
-0.46108
 20
3.87322
 30
0.0
 70
    32
  0
VERTEX
  5
1A8C7
  8
0
 10
-0.472826
 20
3.85539
 30
0.0
 70
    32
  0
VERTEX
  5
1A8C8
  8
0
 10
-0.484288
 20
3.83712
 30
0.0
 70
    32
  0
VERTEX
  5
1A8C9
  8
0
 10
-0.495457
 20
3.81842
 30
0.0
 70
    32
  0
VERTEX
  5
1A8CA
  8
0
 10
-0.506329
 20
3.7993
 30
0.0
 70
    32
  0
VERTEX
  5
1A8CB
  8
0
 10
-0.516895
 20
3.77977
 30
0.0
 70
    32
  0
VERTEX
  5
1A8CC
  8
0
 10
-0.52715
 20
3.75984
 30
0.0
 70
    32
  0
VERTEX
  5
1A8CD
  8
0
 10
-0.537087
 20
3.73953
 30
0.0
 70
    32
  0
VERTEX
  5
1A8CE
  8
0
 10
-0.546701
 20
3.71884
 30
0.0
 70
    32
  0
VERTEX
  5
1A8CF
  8
0
 10
-0.555985
 20
3.69779
 30
0.0
 70
    32
  0
VERTEX
  5
1A8D0
  8
0
 10
-0.564935
 20
3.6764
 30
0.0
 70
    32
  0
VERTEX
  5
1A8D1
  8
0
 10
-0.573544
 20
3.65467
 30
0.0
 70
    32
  0
VERTEX
  5
1A8D2
  8
0
 10
-0.581808
 20
3.63261
 30
0.0
 70
    32
  0
VERTEX
  5
1A8D3
  8
0
 10
-0.589721
 20
3.61025
 30
0.0
 70
    32
  0
VERTEX
  5
1A8D4
  8
0
 10
-0.597279
 20
3.5876
 30
0.0
 70
    32
  0
VERTEX
  5
1A8D5
  8
0
 10
-0.604477
 20
3.56466
 30
0.0
 70
    32
  0
VERTEX
  5
1A8D6
  8
0
 10
-0.611312
 20
3.54145
 30
0.0
 70
    32
  0
VERTEX
  5
1A8D7
  8
0
 10
-0.617778
 20
3.51799
 30
0.0
 70
    32
  0
VERTEX
  5
1A8D8
  8
0
 10
-0.623871
 20
3.49429
 30
0.0
 70
    32
  0
VERTEX
  5
1A8D9
  8
0
 10
-0.629589
 20
3.47037
 30
0.0
 70
    32
  0
VERTEX
  5
1A8DA
  8
0
 10
-0.634928
 20
3.44623
 30
0.0
 70
    32
  0
VERTEX
  5
1A8DB
  8
0
 10
-0.639885
 20
3.4219
 30
0.0
 70
    32
  0
VERTEX
  5
1A8DC
  8
0
 10
-0.644456
 20
3.39738
 30
0.0
 70
    32
  0
VERTEX
  5
1A8DD
  8
0
 10
-0.648638
 20
3.3727
 30
0.0
 70
    32
  0
VERTEX
  5
1A8DE
  8
0
 10
-0.65243
 20
3.34787
 30
0.0
 70
    32
  0
VERTEX
  5
1A8DF
  8
0
 10
-0.655829
 20
3.32289
 30
0.0
 70
    32
  0
VERTEX
  5
1A8E0
  8
0
 10
-0.658833
 20
3.2978
 30
0.0
 70
    32
  0
VERTEX
  5
1A8E1
  8
0
 10
-0.66144
 20
3.2726
 30
0.0
 70
    32
  0
VERTEX
  5
1A8E2
  8
0
 10
-0.663649
 20
3.24731
 30
0.0
 70
    32
  0
VERTEX
  5
1A8E3
  8
0
 10
-0.665458
 20
3.22194
 30
0.0
 70
    32
  0
VERTEX
  5
1A8E4
  8
0
 10
-0.666866
 20
3.19651
 30
0.0
 70
    32
  0
VERTEX
  5
1A8E5
  8
0
 10
-0.667872
 20
3.17103
 30
0.0
 70
    32
  0
VERTEX
  5
1A8E6
  8
0
 10
-0.668476
 20
3.14552
 30
0.0
 70
    32
  0
VERTEX
  5
1A8E7
  8
0
 10
-0.668678
 20
3.12
 30
0.0
 70
    32
  0
VERTEX
  5
1A8E8
  8
0
 10
-0.668476
 20
3.09448
 30
0.0
 70
    32
  0
VERTEX
  5
1A8E9
  8
0
 10
-0.667872
 20
3.06897
 30
0.0
 70
    32
  0
VERTEX
  5
1A8EA
  8
0
 10
-0.666866
 20
3.04349
 30
0.0
 70
    32
  0
VERTEX
  5
1A8EB
  8
0
 10
-0.665458
 20
3.01806
 30
0.0
 70
    32
  0
VERTEX
  5
1A8EC
  8
0
 10
-0.663649
 20
2.99269
 30
0.0
 70
    32
  0
VERTEX
  5
1A8ED
  8
0
 10
-0.66144
 20
2.9674
 30
0.0
 70
    32
  0
VERTEX
  5
1A8EE
  8
0
 10
-0.658833
 20
2.9422
 30
0.0
 70
    32
  0
VERTEX
  5
1A8EF
  8
0
 10
-0.655829
 20
2.91711
 30
0.0
 70
    32
  0
VERTEX
  5
1A8F0
  8
0
 10
-0.65243
 20
2.89213
 30
0.0
 70
    32
  0
VERTEX
  5
1A8F1
  8
0
 10
-0.648638
 20
2.8673
 30
0.0
 70
    32
  0
VERTEX
  5
1A8F2
  8
0
 10
-0.644456
 20
2.84262
 30
0.0
 70
    32
  0
VERTEX
  5
1A8F3
  8
0
 10
-0.639885
 20
2.8181
 30
0.0
 70
    32
  0
VERTEX
  5
1A8F4
  8
0
 10
-0.634928
 20
2.79377
 30
0.0
 70
    32
  0
VERTEX
  5
1A8F5
  8
0
 10
-0.629589
 20
2.76963
 30
0.0
 70
    32
  0
VERTEX
  5
1A8F6
  8
0
 10
-0.623871
 20
2.74571
 30
0.0
 70
    32
  0
VERTEX
  5
1A8F7
  8
0
 10
-0.617778
 20
2.72201
 30
0.0
 70
    32
  0
VERTEX
  5
1A8F8
  8
0
 10
-0.611312
 20
2.69855
 30
0.0
 70
    32
  0
VERTEX
  5
1A8F9
  8
0
 10
-0.604477
 20
2.67534
 30
0.0
 70
    32
  0
VERTEX
  5
1A8FA
  8
0
 10
-0.597279
 20
2.6524
 30
0.0
 70
    32
  0
VERTEX
  5
1A8FB
  8
0
 10
-0.589721
 20
2.62975
 30
0.0
 70
    32
  0
VERTEX
  5
1A8FC
  8
0
 10
-0.581808
 20
2.60739
 30
0.0
 70
    32
  0
VERTEX
  5
1A8FD
  8
0
 10
-0.573544
 20
2.58533
 30
0.0
 70
    32
  0
VERTEX
  5
1A8FE
  8
0
 10
-0.564935
 20
2.5636
 30
0.0
 70
    32
  0
VERTEX
  5
1A8FF
  8
0
 10
-0.555985
 20
2.54221
 30
0.0
 70
    32
  0
VERTEX
  5
1A900
  8
0
 10
-0.546701
 20
2.52116
 30
0.0
 70
    32
  0
VERTEX
  5
1A901
  8
0
 10
-0.537087
 20
2.50047
 30
0.0
 70
    32
  0
VERTEX
  5
1A902
  8
0
 10
-0.52715
 20
2.48016
 30
0.0
 70
    32
  0
VERTEX
  5
1A903
  8
0
 10
-0.516895
 20
2.46023
 30
0.0
 70
    32
  0
VERTEX
  5
1A904
  8
0
 10
-0.506329
 20
2.4407
 30
0.0
 70
    32
  0
VERTEX
  5
1A905
  8
0
 10
-0.495457
 20
2.42158
 30
0.0
 70
    32
  0
VERTEX
  5
1A906
  8
0
 10
-0.484288
 20
2.40288
 30
0.0
 70
    32
  0
VERTEX
  5
1A907
  8
0
 10
-0.472826
 20
2.38461
 30
0.0
 70
    32
  0
VERTEX
  5
1A908
  8
0
 10
-0.46108
 20
2.36678
 30
0.0
 70
    32
  0
VERTEX
  5
1A909
  8
0
 10
-0.449056
 20
2.34941
 30
0.0
 70
    32
  0
VERTEX
  5
1A90A
  8
0
 10
-0.436762
 20
2.3325
 30
0.0
 70
    32
  0
VERTEX
  5
1A90B
  8
0
 10
-0.424205
 20
2.31607
 30
0.0
 70
    32
  0
VERTEX
  5
1A90C
  8
0
 10
-0.411392
 20
2.30012
 30
0.0
 70
    32
  0
VERTEX
  5
1A90D
  8
0
 10
-0.398331
 20
2.28466
 30
0.0
 70
    32
  0
VERTEX
  5
1A90E
  8
0
 10
-0.38503
 20
2.26971
 30
0.0
 70
    32
  0
VERTEX
  5
1A90F
  8
0
 10
-0.371497
 20
2.25527
 30
0.0
 70
    32
  0
VERTEX
  5
1A910
  8
0
 10
-0.357741
 20
2.24135
 30
0.0
 70
    32
  0
VERTEX
  5
1A911
  8
0
 10
-0.343769
 20
2.22796
 30
0.0
 70
    32
  0
VERTEX
  5
1A912
  8
0
 10
-0.32959
 20
2.21511
 30
0.0
 70
    32
  0
VERTEX
  5
1A913
  8
0
 10
-0.315212
 20
2.2028
 30
0.0
 70
    32
  0
VERTEX
  5
1A914
  8
0
 10
-0.300645
 20
2.19105
 30
0.0
 70
    32
  0
VERTEX
  5
1A915
  8
0
 10
-0.285897
 20
2.17985
 30
0.0
 70
    32
  0
VERTEX
  5
1A916
  8
0
 10
-0.270976
 20
2.16922
 30
0.0
 70
    32
  0
VERTEX
  5
1A917
  8
0
 10
-0.255892
 20
2.15917
 30
0.0
 70
    32
  0
VERTEX
  5
1A918
  8
0
 10
-0.240654
 20
2.14969
 30
0.0
 70
    32
  0
VERTEX
  5
1A919
  8
0
 10
-0.225271
 20
2.14079
 30
0.0
 70
    32
  0
VERTEX
  5
1A91A
  8
0
 10
-0.209752
 20
2.13249
 30
0.0
 70
    32
  0
VERTEX
  5
1A91B
  8
0
 10
-0.194107
 20
2.12478
 30
0.0
 70
    32
  0
VERTEX
  5
1A91C
  8
0
 10
-0.178345
 20
2.11767
 30
0.0
 70
    32
  0
VERTEX
  5
1A91D
  8
0
 10
-0.162475
 20
2.11117
 30
0.0
 70
    32
  0
VERTEX
  5
1A91E
  8
0
 10
-0.146508
 20
2.10527
 30
0.0
 70
    32
  0
VERTEX
  5
1A91F
  8
0
 10
-0.130453
 20
2.09998
 30
0.0
 70
    32
  0
VERTEX
  5
1A920
  8
0
 10
-0.114318
 20
2.09531
 30
0.0
 70
    32
  0
VERTEX
  5
1A921
  8
0
 10
-0.098115
 20
2.09126
 30
0.0
 70
    32
  0
VERTEX
  5
1A922
  8
0
 10
-0.081853
 20
2.08782
 30
0.0
 70
    32
  0
VERTEX
  5
1A923
  8
0
 10
-0.065542
 20
2.08501
 30
0.0
 70
    32
  0
VERTEX
  5
1A924
  8
0
 10
-0.049191
 20
2.08282
 30
0.0
 70
    32
  0
VERTEX
  5
1A925
  8
0
 10
-0.032811
 20
2.08125
 30
0.0
 70
    32
  0
VERTEX
  5
1A926
  8
0
 10
-0.01641
 20
2.08031
 30
0.0
 70
    32
  0
VERTEX
  5
1A927
  8
0
 10
0.0
 20
2.08
 30
0.0
 70
    32
  0
SEQEND
  5
1A928
  8
0
  0
POLYLINE
  5
1A929
  8
HIDDEN
 66
     1
 10
0.0
 20
0.0
 30
0.0
 70
     8
  0
VERTEX
  5
1A92A
  8
0
 10
0.0
 20
0.0
 30
0.0
 70
    32
  0
VERTEX
  5
1A92B
  8
0
 10
0.032811
 20
0.001253
 30
0.0
 70
    32
  0
VERTEX
  5
1A92C
  8
0
 10
0.065542
 20
0.005008
 30
0.0
 70
    32
  0
VERTEX
  5
1A92D
  8
0
 10
0.098115
 20
0.011256
 30
0.0
 70
    32
  0
VERTEX
  5
1A92E
  8
0
 10
0.130453
 20
0.019983
 30
0.0
 70
    32
  0
VERTEX
  5
1A92F
  8
0
 10
0.162475
 20
0.031168
 30
0.0
 70
    32
  0
VERTEX
  5
1A930
  8
0
 10
0.194107
 20
0.044782
 30
0.0
 70
    32
  0
VERTEX
  5
1A931
  8
0
 10
0.225271
 20
0.060794
 30
0.0
 70
    32
  0
VERTEX
  5
1A932
  8
0
 10
0.255892
 20
0.079165
 30
0.0
 70
    32
  0
VERTEX
  5
1A933
  8
0
 10
0.285897
 20
0.099851
 30
0.0
 70
    32
  0
VERTEX
  5
1A934
  8
0
 10
0.315212
 20
0.122802
 30
0.0
 70
    32
  0
VERTEX
  5
1A935
  8
0
 10
0.343769
 20
0.147962
 30
0.0
 70
    32
  0
VERTEX
  5
1A936
  8
0
 10
0.371497
 20
0.175272
 30
0.0
 70
    32
  0
VERTEX
  5
1A937
  8
0
 10
0.398331
 20
0.204664
 30
0.0
 70
    32
  0
VERTEX
  5
1A938
  8
0
 10
0.424205
 20
0.236069
 30
0.0
 70
    32
  0
VERTEX
  5
1A939
  8
0
 10
0.449056
 20
0.269411
 30
0.0
 70
    32
  0
VERTEX
  5
1A93A
  8
0
 10
0.472826
 20
0.304609
 30
0.0
 70
    32
  0
VERTEX
  5
1A93B
  8
0
 10
0.495457
 20
0.341579
 30
0.0
 70
    32
  0
VERTEX
  5
1A93C
  8
0
 10
0.516895
 20
0.380231
 30
0.0
 70
    32
  0
VERTEX
  5
1A93D
  8
0
 10
0.537087
 20
0.420473
 30
0.0
 70
    32
  0
VERTEX
  5
1A93E
  8
0
 10
0.555985
 20
0.462207
 30
0.0
 70
    32
  0
VERTEX
  5
1A93F
  8
0
 10
0.573544
 20
0.505333
 30
0.0
 70
    32
  0
VERTEX
  5
1A940
  8
0
 10
0.589721
 20
0.549747
 30
0.0
 70
    32
  0
VERTEX
  5
1A941
  8
0
 10
0.604477
 20
0.595343
 30
0.0
 70
    32
  0
VERTEX
  5
1A942
  8
0
 10
0.617778
 20
0.642009
 30
0.0
 70
    32
  0
VERTEX
  5
1A943
  8
0
 10
0.629589
 20
0.689635
 30
0.0
 70
    32
  0
VERTEX
  5
1A944
  8
0
 10
0.639885
 20
0.738104
 30
0.0
 70
    32
  0
VERTEX
  5
1A945
  8
0
 10
0.648638
 20
0.787301
 30
0.0
 70
    32
  0
VERTEX
  5
1A946
  8
0
 10
0.655829
 20
0.837106
 30
0.0
 70
    32
  0
VERTEX
  5
1A947
  8
0
 10
0.66144
 20
0.8874
 30
0.0
 70
    32
  0
VERTEX
  5
1A948
  8
0
 10
0.665458
 20
0.938062
 30
0.0
 70
    32
  0
VERTEX
  5
1A949
  8
0
 10
0.667872
 20
0.98897
 30
0.0
 70
    32
  0
VERTEX
  5
1A94A
  8
0
 10
0.668678
 20
1.04
 30
0.0
 70
    32
  0
VERTEX
  5
1A94B
  8
0
 10
0.667872
 20
1.09103
 30
0.0
 70
    32
  0
VERTEX
  5
1A94C
  8
0
 10
0.665458
 20
1.14194
 30
0.0
 70
    32
  0
VERTEX
  5
1A94D
  8
0
 10
0.66144
 20
1.1926
 30
0.0
 70
    32
  0
VERTEX
  5
1A94E
  8
0
 10
0.655829
 20
1.24289
 30
0.0
 70
    32
  0
VERTEX
  5
1A94F
  8
0
 10
0.648638
 20
1.2927
 30
0.0
 70
    32
  0
VERTEX
  5
1A950
  8
0
 10
0.639885
 20
1.3419
 30
0.0
 70
    32
  0
VERTEX
  5
1A951
  8
0
 10
0.629589
 20
1.39037
 30
0.0
 70
    32
  0
VERTEX
  5
1A952
  8
0
 10
0.617778
 20
1.43799
 30
0.0
 70
    32
  0
VERTEX
  5
1A953
  8
0
 10
0.604477
 20
1.48466
 30
0.0
 70
    32
  0
VERTEX
  5
1A954
  8
0
 10
0.589721
 20
1.53025
 30
0.0
 70
    32
  0
VERTEX
  5
1A955
  8
0
 10
0.573544
 20
1.57467
 30
0.0
 70
    32
  0
VERTEX
  5
1A956
  8
0
 10
0.555985
 20
1.61779
 30
0.0
 70
    32
  0
VERTEX
  5
1A957
  8
0
 10
0.537087
 20
1.65953
 30
0.0
 70
    32
  0
VERTEX
  5
1A958
  8
0
 10
0.516895
 20
1.69977
 30
0.0
 70
    32
  0
VERTEX
  5
1A959
  8
0
 10
0.495457
 20
1.73842
 30
0.0
 70
    32
  0
VERTEX
  5
1A95A
  8
0
 10
0.472826
 20
1.77539
 30
0.0
 70
    32
  0
VERTEX
  5
1A95B
  8
0
 10
0.449056
 20
1.81059
 30
0.0
 70
    32
  0
VERTEX
  5
1A95C
  8
0
 10
0.424205
 20
1.84393
 30
0.0
 70
    32
  0
VERTEX
  5
1A95D
  8
0
 10
0.398331
 20
1.87534
 30
0.0
 70
    32
  0
VERTEX
  5
1A95E
  8
0
 10
0.371497
 20
1.90473
 30
0.0
 70
    32
  0
VERTEX
  5
1A95F
  8
0
 10
0.343769
 20
1.93204
 30
0.0
 70
    32
  0
VERTEX
  5
1A960
  8
0
 10
0.315212
 20
1.9572
 30
0.0
 70
    32
  0
VERTEX
  5
1A961
  8
0
 10
0.285897
 20
1.98015
 30
0.0
 70
    32
  0
VERTEX
  5
1A962
  8
0
 10
0.255892
 20
2.00083
 30
0.0
 70
    32
  0
VERTEX
  5
1A963
  8
0
 10
0.225271
 20
2.01921
 30
0.0
 70
    32
  0
VERTEX
  5
1A964
  8
0
 10
0.194107
 20
2.03522
 30
0.0
 70
    32
  0
VERTEX
  5
1A965
  8
0
 10
0.162475
 20
2.04883
 30
0.0
 70
    32
  0
VERTEX
  5
1A966
  8
0
 10
0.130453
 20
2.06002
 30
0.0
 70
    32
  0
VERTEX
  5
1A967
  8
0
 10
0.098115
 20
2.06874
 30
0.0
 70
    32
  0
VERTEX
  5
1A968
  8
0
 10
0.065542
 20
2.07499
 30
0.0
 70
    32
  0
VERTEX
  5
1A969
  8
0
 10
0.032811
 20
2.07875
 30
0.0
 70
    32
  0
VERTEX
  5
1A96A
  8
0
 10
0.0
 20
2.08
 30
0.0
 70
    32
  0
VERTEX
  5
1A96B
  8
0
 10
-0.032811
 20
2.07875
 30
0.0
 70
    32
  0
VERTEX
  5
1A96C
  8
0
 10
-0.065542
 20
2.07499
 30
0.0
 70
    32
  0
VERTEX
  5
1A96D
  8
0
 10
-0.098115
 20
2.06874
 30
0.0
 70
    32
  0
VERTEX
  5
1A96E
  8
0
 10
-0.130453
 20
2.06002
 30
0.0
 70
    32
  0
VERTEX
  5
1A96F
  8
0
 10
-0.162475
 20
2.04883
 30
0.0
 70
    32
  0
VERTEX
  5
1A970
  8
0
 10
-0.194107
 20
2.03522
 30
0.0
 70
    32
  0
VERTEX
  5
1A971
  8
0
 10
-0.225271
 20
2.01921
 30
0.0
 70
    32
  0
VERTEX
  5
1A972
  8
0
 10
-0.255892
 20
2.00083
 30
0.0
 70
    32
  0
VERTEX
  5
1A973
  8
0
 10
-0.285897
 20
1.98015
 30
0.0
 70
    32
  0
VERTEX
  5
1A974
  8
0
 10
-0.315212
 20
1.9572
 30
0.0
 70
    32
  0
VERTEX
  5
1A975
  8
0
 10
-0.343769
 20
1.93204
 30
0.0
 70
    32
  0
VERTEX
  5
1A976
  8
0
 10
-0.371497
 20
1.90473
 30
0.0
 70
    32
  0
VERTEX
  5
1A977
  8
0
 10
-0.398331
 20
1.87534
 30
0.0
 70
    32
  0
VERTEX
  5
1A978
  8
0
 10
-0.424205
 20
1.84393
 30
0.0
 70
    32
  0
VERTEX
  5
1A979
  8
0
 10
-0.449056
 20
1.81059
 30
0.0
 70
    32
  0
VERTEX
  5
1A97A
  8
0
 10
-0.472826
 20
1.77539
 30
0.0
 70
    32
  0
VERTEX
  5
1A97B
  8
0
 10
-0.495457
 20
1.73842
 30
0.0
 70
    32
  0
VERTEX
  5
1A97C
  8
0
 10
-0.516895
 20
1.69977
 30
0.0
 70
    32
  0
VERTEX
  5
1A97D
  8
0
 10
-0.537087
 20
1.65953
 30
0.0
 70
    32
  0
VERTEX
  5
1A97E
  8
0
 10
-0.555985
 20
1.61779
 30
0.0
 70
    32
  0
VERTEX
  5
1A97F
  8
0
 10
-0.573544
 20
1.57467
 30
0.0
 70
    32
  0
VERTEX
  5
1A980
  8
0
 10
-0.589721
 20
1.53025
 30
0.0
 70
    32
  0
VERTEX
  5
1A981
  8
0
 10
-0.604477
 20
1.48466
 30
0.0
 70
    32
  0
VERTEX
  5
1A982
  8
0
 10
-0.617778
 20
1.43799
 30
0.0
 70
    32
  0
VERTEX
  5
1A983
  8
0
 10
-0.629589
 20
1.39037
 30
0.0
 70
    32
  0
VERTEX
  5
1A984
  8
0
 10
-0.639885
 20
1.3419
 30
0.0
 70
    32
  0
VERTEX
  5
1A985
  8
0
 10
-0.648638
 20
1.2927
 30
0.0
 70
    32
  0
VERTEX
  5
1A986
  8
0
 10
-0.655829
 20
1.24289
 30
0.0
 70
    32
  0
VERTEX
  5
1A987
  8
0
 10
-0.66144
 20
1.1926
 30
0.0
 70
    32
  0
VERTEX
  5
1A988
  8
0
 10
-0.665458
 20
1.14194
 30
0.0
 70
    32
  0
VERTEX
  5
1A989
  8
0
 10
-0.667872
 20
1.09103
 30
0.0
 70
    32
  0
VERTEX
  5
1A98A
  8
0
 10
-0.668678
 20
1.04
 30
0.0
 70
    32
  0
VERTEX
  5
1A98B
  8
0
 10
-0.667872
 20
0.98897
 30
0.0
 70
    32
  0
VERTEX
  5
1A98C
  8
0
 10
-0.665458
 20
0.938062
 30
0.0
 70
    32
  0
VERTEX
  5
1A98D
  8
0
 10
-0.66144
 20
0.8874
 30
0.0
 70
    32
  0
VERTEX
  5
1A98E
  8
0
 10
-0.655829
 20
0.837106
 30
0.0
 70
    32
  0
VERTEX
  5
1A98F
  8
0
 10
-0.648638
 20
0.787301
 30
0.0
 70
    32
  0
VERTEX
  5
1A990
  8
0
 10
-0.639885
 20
0.738104
 30
0.0
 70
    32
  0
VERTEX
  5
1A991
  8
0
 10
-0.629589
 20
0.689635
 30
0.0
 70
    32
  0
VERTEX
  5
1A992
  8
0
 10
-0.617778
 20
0.642009
 30
0.0
 70
    32
  0
VERTEX
  5
1A993
  8
0
 10
-0.604477
 20
0.595343
 30
0.0
 70
    32
  0
VERTEX
  5
1A994
  8
0
 10
-0.589721
 20
0.549747
 30
0.0
 70
    32
  0
VERTEX
  5
1A995
  8
0
 10
-0.573544
 20
0.505333
 30
0.0
 70
    32
  0
VERTEX
  5
1A996
  8
0
 10
-0.555985
 20
0.462207
 30
0.0
 70
    32
  0
VERTEX
  5
1A997
  8
0
 10
-0.537087
 20
0.420473
 30
0.0
 70
    32
  0
VERTEX
  5
1A998
  8
0
 10
-0.516895
 20
0.380231
 30
0.0
 70
    32
  0
VERTEX
  5
1A999
  8
0
 10
-0.495457
 20
0.341579
 30
0.0
 70
    32
  0
VERTEX
  5
1A99A
  8
0
 10
-0.472826
 20
0.304609
 30
0.0
 70
    32
  0
VERTEX
  5
1A99B
  8
0
 10
-0.449056
 20
0.269411
 30
0.0
 70
    32
  0
VERTEX
  5
1A99C
  8
0
 10
-0.424205
 20
0.236069
 30
0.0
 70
    32
  0
VERTEX
  5
1A99D
  8
0
 10
-0.398331
 20
0.204664
 30
0.0
 70
    32
  0
VERTEX
  5
1A99E
  8
0
 10
-0.371497
 20
0.175272
 30
0.0
 70
    32
  0
VERTEX
  5
1A99F
  8
0
 10
-0.343769
 20
0.147962
 30
0.0
 70
    32
  0
VERTEX
  5
1A9A0
  8
0
 10
-0.315212
 20
0.122802
 30
0.0
 70
    32
  0
VERTEX
  5
1A9A1
  8
0
 10
-0.285897
 20
0.099851
 30
0.0
 70
    32
  0
VERTEX
  5
1A9A2
  8
0
 10
-0.255892
 20
0.079165
 30
0.0
 70
    32
  0
VERTEX
  5
1A9A3
  8
0
 10
-0.225271
 20
0.060794
 30
0.0
 70
    32
  0
VERTEX
  5
1A9A4
  8
0
 10
-0.194107
 20
0.044782
 30
0.0
 70
    32
  0
VERTEX
  5
1A9A5
  8
0
 10
-0.162475
 20
0.031168
 30
0.0
 70
    32
  0
VERTEX
  5
1A9A6
  8
0
 10
-0.130453
 20
0.019983
 30
0.0
 70
    32
  0
VERTEX
  5
1A9A7
  8
0
 10
-0.098115
 20
0.011256
 30
0.0
 70
    32
  0
VERTEX
  5
1A9A8
  8
0
 10
-0.065542
 20
0.005008
 30
0.0
 70
    32
  0
VERTEX
  5
1A9A9
  8
0
 10
-0.032811
 20
0.001253
 30
0.0
 70
    32
  0
VERTEX
  5
1A9AA
  8
0
 10
0.0
 20
0.0
 30
0.0
 70
    32
  0
SEQEND
  5
1A9AB
  8
0
  0
ENDBLK
  5
1A9AC
  8
0
  0
ENDSEC
  0
SECTION
  2
ENTITIES
  0
TEXT
  5
1A9AD
  8
0
  6
CONTINUOUS
 62
     7
 10
30.208543
 20
230.46109
 30
0.0
 40
8.466667
  1
HF-KP23B
  0
LINE
  5
1A9AE
  8
CENTER
 10
284.679299
 20
170.48888
 30
0.0
 11
125.874158
 21
170.48888
 31
0.0
  0
LINE
  5
1A9AF
  8
0
 62
     5
 10
251.683518
 20
177.48888
 30
0.0
 11
277.883518
 21
177.48888
 31
0.0
  0
LINE
  5
1A9B0
  8
0
 62
     5
 10
251.683518
 20
163.48888
 30
0.0
 11
277.883518
 21
163.48888
 31
0.0
  0
LINE
  5
1A9B1
  8
CENTER
 10
91.146925
 20
151.786398
 30
0.0
 11
102.888036
 21
140.045287
 31
0.0
  0
LINE
  5
1A9B2
  8
CENTER
 10
91.146925
 20
189.191362
 30
0.0
 11
102.888036
 21
200.932473
 31
0.0
  0
LINE
  5
1A9B3
  8
CENTER
 10
107.741132
 20
170.48888
 30
0.0
 11
37.147754
 21
170.48888
 31
0.0
  0
ARC
  5
1A9B4
  8
0
 62
     5
 10
97.944443
 20
195.98888
 30
0.0
 40
4.5
 50
0.0
 51
90.0
  0
ARC
  5
1A9B5
  8
0
 62
     5
 10
101.444443
 20
189.123183
 30
0.0
 40
1.0
 50
0.0
 51
85.611601
  0
ARC
  5
1A9B6
  8
0
 62
     5
 10
101.444443
 20
181.98888
 30
0.0
 40
1.0
 50
0.0
 51
90.0
  0
ARC
  5
1A9B7
  8
0
 62
     5
 10
101.444443
 20
151.854577
 30
0.0
 40
1.0
 50
274.388399
 51
0.0
  0
ARC
  5
1A9B8
  8
0
 62
     5
 10
101.444443
 20
158.68888
 30
0.0
 40
1.0
 50
270.0
 51
0.0
  0
ARC
  5
1A9B9
  8
0
 62
     5
 10
97.944443
 20
144.98888
 30
0.0
 40
4.5
 50
270.0
 51
0.0
  0
LINE
  5
1A9BA
  8
CENTER
 10
72.444443
 20
204.206572
 30
0.0
 11
72.444443
 21
118.593374
 31
0.0
  0
LINE
  5
1A9BB
  8
0
 62
     5
 10
102.444443
 20
151.854577
 30
0.0
 11
102.444443
 21
189.123183
 31
0.0
  0
LINE
  5
1A9BC
  8
0
 62
     5
 10
42.178279
 20
151.608128
 30
0.0
 11
42.178279
 21
189.369632
 31
0.0
  0
LINE
  5
1A9BD
  8
0
 62
     5
 10
42.444443
 20
189.123183
 30
0.0
 11
42.444443
 21
151.854577
 31
0.0
  0
LINE
  5
1A9BE
  8
HIDDEN
 10
66.46776
 20
123.38888
 30
0.0
 11
60.87818
 21
123.38888
 31
0.0
  0
LINE
  5
1A9BF
  8
0
 62
     5
 10
66.739635
 20
129.68888
 30
0.0
 11
57.555801
 21
129.68888
 31
0.0
  0
LINE
  5
1A9C0
  8
HIDDEN
 10
66.679535
 20
124.492105
 30
0.0
 11
60.555839
 21
124.492106
 31
0.0
  0
LINE
  5
1A9C1
  8
0
 62
     5
 10
59.079243
 20
136.28888
 30
0.0
 11
67.968438
 21
136.28888
 31
0.0
  0
LINE
  5
1A9C2
  8
0
 62
     5
 10
69.106734
 20
132.98888
 30
0.0
 11
52.955889
 21
132.98888
 31
0.0
  0
LINE
  5
1A9C3
  8
0
 62
     5
 10
50.254613
 20
137.48888
 30
0.0
 11
74.634273
 21
137.48888
 31
0.0
  0
LINE
  5
1A9C4
  8
0
 62
     5
 10
48.944443
 20
138.48888
 30
0.0
 11
76.944443
 21
138.48888
 31
0.0
  0
ARC
  5
1A9C5
  8
0
 62
     5
 10
51.155651
 20
143.48888
 30
0.0
 40
1.5
 50
270.0
 51
4.058402
  0
LINE
  5
1A9C6
  8
CENTER
 10
53.741961
 20
151.786398
 30
0.0
 11
42.00085
 21
140.045287
 31
0.0
  0
LINE
  5
1A9C7
  8
0
 62
     5
 10
51.37588
 20
141.490432
 30
0.0
 11
51.349768
 21
141.989656
 31
0.0
  0
ARC
  5
1A9C8
  8
0
 62
     5
 10
49.244443
 20
141.48888
 30
0.0
 40
0.5
 50
90.0
 51
180.0
  0
ARC
  5
1A9C9
  8
0
 62
     5
 10
46.944443
 20
144.98888
 30
0.0
 40
4.5
 50
180.0
 51
270.0
  0
ARC
  5
1A9CA
  8
HIDDEN
 10
51.754608
 20
132.992105
 30
0.0
 40
1.5
 50
180.0
 51
270.0
  0
LINE
  5
1A9CB
  8
HIDDEN
 10
50.254608
 20
132.992105
 30
0.0
 11
50.254608
 21
135.742105
 31
0.0
  0
LINE
  5
1A9CC
  8
0
 62
     5
 10
50.254608
 20
137.48888
 30
0.0
 11
50.254608
 21
138.48888
 31
0.0
  0
LINE
  5
1A9CD
  8
0
 62
     5
 10
50.303855
 20
138.48888
 30
0.0
 11
50.303855
 21
137.48888
 31
0.0
  0
LINE
  5
1A9CE
  8
0
 62
     5
 10
48.744443
 20
140.48888
 30
0.0
 11
46.944443
 21
140.48888
 31
0.0
  0
ARC
  5
1A9CF
  8
0
 62
     5
 10
48.944443
 20
138.68888
 30
0.0
 40
0.2
 50
180.0
 51
270.0
  0
LINE
  5
1A9D0
  8
0
 62
     5
 10
48.744443
 20
138.68888
 30
0.0
 11
48.744443
 21
141.48888
 31
0.0
  0
LINE
  5
1A9D1
  8
0
 62
     5
 10
59.079243
 20
133.28888
 30
0.0
 11
59.079243
 21
136.28888
 31
0.0
  0
LINE
  5
1A9D2
  8
0
 62
     5
 10
52.354608
 20
137.48888
 30
0.0
 11
52.354608
 21
133.58888
 31
0.0
  0
LINE
  5
1A9D3
  8
0
 62
     5
 10
52.378
 20
137.48888
 30
0.0
 11
52.378
 21
133.58888
 31
0.0
  0
LINE
  5
1A9D4
  8
0
 62
     5
 10
53.942345
 20
133.58888
 30
0.0
 11
53.942345
 21
137.48888
 31
0.0
  0
LINE
  5
1A9D5
  8
0
 62
     5
 10
56.116178
 20
137.48888
 30
0.0
 11
56.116178
 21
133.58888
 31
0.0
  0
LINE
  5
1A9D6
  8
HIDDEN
 10
51.75457
 20
131.492105
 30
0.0
 11
56.538982
 21
131.492105
 31
0.0
  0
LINE
  5
1A9D7
  8
0
 62
     5
 10
53.660763
 20
133.58888
 30
0.0
 11
57.894017
 21
133.58888
 31
0.0
  0
LINE
  5
1A9D8
  8
HIDDEN
 10
56.1541
 20
130.856698
 30
0.0
 11
56.1541
 21
127.38888
 31
0.0
  0
LINE
  5
1A9D9
  8
0
 62
     5
 10
55.537371
 20
133.58888
 30
0.0
 11
55.537371
 21
132.98888
 31
0.0
  0
LINE
  5
1A9DA
  8
0
 62
     5
 10
52.955889
 20
132.98888
 30
0.0
 11
52.659582
 21
133.28888
 31
0.0
  0
LINE
  5
1A9DB
  8
0
 62
     5
 10
52.659582
 20
133.28888
 30
0.0
 11
53.660763
 21
133.28888
 31
0.0
  0
LINE
  5
1A9DC
  8
0
 62
     5
 10
52.659582
 20
133.58888
 30
0.0
 11
52.354657
 21
133.58888
 31
0.0
  0
LINE
  5
1A9DD
  8
0
 62
     5
 10
52.659582
 20
133.58888
 30
0.0
 11
52.659582
 21
133.28888
 31
0.0
  0
LINE
  5
1A9DE
  8
0
 62
     5
 10
53.660763
 20
133.28888
 30
0.0
 11
53.660763
 21
133.58888
 31
0.0
  0
LINE
  5
1A9DF
  8
0
 62
     5
 10
53.957069
 20
132.98888
 30
0.0
 11
53.660763
 21
133.28888
 31
0.0
  0
LINE
  5
1A9E0
  8
0
 62
     5
 10
57.235081
 20
129.98888
 30
0.0
 11
57.235081
 21
132.98888
 31
0.0
  0
LINE
  5
1A9E1
  8
0
 62
     5
 10
57.555801
 20
129.68888
 30
0.0
 11
57.235081
 21
129.98888
 31
0.0
  0
LINE
  5
1A9E2
  8
HIDDEN
 10
56.538982
 20
131.492105
 30
0.0
 11
56.538982
 21
128.88048
 31
0.0
  0
LINE
  5
1A9E3
  8
0
 62
     5
 10
57.894017
 20
133.28888
 30
0.0
 11
59.079243
 21
133.28888
 31
0.0
  0
LINE
  5
1A9E4
  8
0
 62
     5
 10
57.894017
 20
133.58888
 30
0.0
 11
57.894017
 21
133.28888
 31
0.0
  0
LINE
  5
1A9E5
  8
0
 62
     5
 10
57.847087
 20
132.98888
 30
0.0
 11
57.894017
 21
133.28888
 31
0.0
  0
LINE
  5
1A9E6
  8
0
 62
     5
 10
59.032313
 20
132.98888
 30
0.0
 11
59.079243
 21
133.28888
 31
0.0
  0
LINE
  5
1A9E7
  8
0
 62
     5
 10
57.596792
 20
132.98888
 30
0.0
 11
57.596792
 21
133.58888
 31
0.0
  0
LINE
  5
1A9E8
  8
0
 62
     5
 10
51.868199
 20
137.48888
 30
0.0
 11
51.868199
 21
138.48888
 31
0.0
  0
LINE
  5
1A9E9
  8
0
 62
     5
 10
51.37588
 20
141.490431
 30
0.0
 11
51.37588
 21
138.48888
 31
0.0
  0
LINE
  5
1A9EA
  8
0
 62
     5
 10
56.444691
 20
138.48888
 30
0.0
 11
56.444691
 21
137.48888
 31
0.0
  0
CIRCLE
  5
1A9EB
  8
0
 62
     5
 10
45.955735
 20
154.192918
 30
0.0
 40
2.75
  0
ARC
  5
1A9EC
  8
0
 62
     5
 10
45.955735
 20
154.192918
 30
0.0
 40
2.95
 50
276.813854
 51
263.186146
  0
CIRCLE
  5
1A9ED
  8
0
 62
     5
 10
45.955735
 20
154.192918
 30
0.0
 40
3.0
  0
ARC
  5
1A9EE
  8
0
 62
     5
 10
46.444443
 20
154.48888
 30
0.0
 40
3.5
 50
0.0
 51
90.0
  0
ARC
  5
1A9EF
  8
CENTER
 10
72.444443
 20
170.48888
 30
0.0
 40
35.0
 50
216.254023
 51
234.381034
  0
ARC
  5
1A9F0
  8
0
 62
     5
 10
47.695706
 20
145.740143
 30
0.0
 40
4.533836
 50
3.687572
 51
86.312428
  0
ARC
  5
1A9F1
  8
0
 62
     5
 10
47.695706
 20
145.740143
 30
0.0
 40
4.8
 50
3.687572
 51
86.312428
  0
LINE
  5
1A9F2
  8
0
 62
     5
 10
42.444443
 20
144.98888
 30
0.0
 11
42.444443
 21
150.929511
 31
0.0
  0
CIRCLE
  5
1A9F3
  8
0
 62
     5
 10
47.695706
 20
145.740143
 30
0.0
 40
2.9
  0
POLYLINE
  5
1A9F4
  8
0
 62
     5
 66
     1
 10
0.0
 20
0.0
 30
0.0
  0
VERTEX
  5
1B437
  8
0
 62
     5
 10
50.235386
 20
141.984602
 30
0.0
  0
VERTEX
  5
1B438
  8
0
 62
     5
 10
50.267547
 20
141.987809
 30
0.0
  0
VERTEX
  5
1B439
  8
0
 62
     5
 10
50.299845
 20
141.98888
 30
0.0
  0
SEQEND
  5
1B43A
  8
0
 62
     5
  0
LINE
  5
1A9F9
  8
0
 62
     5
 10
51.155651
 20
141.98888
 30
0.0
 11
49.244443
 21
141.98888
 31
0.0
  0
LINE
  5
1A9FA
  8
0
 62
     5
 10
46.235735
 20
152.974829
 30
0.0
 11
46.095735
 21
153.178031
 31
0.0
  0
LINE
  5
1A9FB
  8
0
 62
     5
 10
46.415966
 20
154.653149
 30
0.0
 11
46.095735
 21
155.207806
 31
0.0
  0
LINE
  5
1A9FC
  8
0
 62
     5
 10
46.235735
 20
152.414829
 30
0.0
 11
46.095735
 21
153.122031
 31
0.0
  0
LINE
  5
1A9FD
  8
0
 62
     5
 10
46.235735
 20
155.971007
 30
0.0
 11
46.095735
 21
155.263806
 31
0.0
  0
LINE
  5
1A9FE
  8
0
 62
     5
 10
46.095735
 20
153.178031
 30
0.0
 11
46.415966
 21
153.732687
 31
0.0
  0
LINE
  5
1A9FF
  8
0
 62
     5
 10
46.235735
 20
155.411007
 30
0.0
 11
46.095735
 21
155.207806
 31
0.0
  0
ARC
  5
1AA00
  8
0
 62
     5
 10
45.955735
 20
154.192918
 30
0.0
 40
1.8
 50
261.050982
 51
278.949018
  0
ARC
  5
1AA01
  8
0
 62
     5
 10
45.955735
 20
154.192918
 30
0.0
 40
1.8
 50
81.050982
 51
98.949018
  0
LINE
  5
1AA02
  8
0
 62
     5
 10
46.5791
 20
153.569554
 30
0.0
 11
45.332371
 21
154.816283
 31
0.0
  0
LINE
  5
1AA03
  8
0
 62
     5
 10
44.884848
 20
154.332918
 30
0.0
 11
47.026623
 21
154.052918
 31
0.0
  0
LINE
  5
1AA04
  8
0
 62
     5
 10
44.940848
 20
154.332918
 30
0.0
 11
46.970623
 21
154.052918
 31
0.0
  0
LINE
  5
1AA05
  8
0
 62
     5
 10
44.884848
 20
154.052918
 30
0.0
 11
47.026623
 21
154.332918
 31
0.0
  0
LINE
  5
1AA06
  8
0
 62
     5
 10
44.940848
 20
154.052918
 30
0.0
 11
46.970623
 21
154.332918
 31
0.0
  0
LINE
  5
1AA07
  8
0
 62
     5
 10
45.332371
 20
153.569554
 30
0.0
 11
46.5791
 21
154.816283
 31
0.0
  0
ARC
  5
1AA08
  8
0
 62
     5
 10
72.444443
 20
529.74345
 30
0.0
 40
380.266164
 50
265.574357
 51
266.312428
  0
ARC
  5
1AA09
  8
0
 62
     5
 10
72.444443
 20
529.74345
 30
0.0
 40
380.0
 50
265.611601
 51
266.312428
  0
LINE
  5
1AA0A
  8
0
 62
     5
 10
44.737646
 20
154.472918
 30
0.0
 11
44.940848
 21
154.332918
 31
0.0
  0
LINE
  5
1AA0B
  8
0
 62
     5
 10
45.675735
 20
155.411007
 30
0.0
 11
45.815735
 21
155.207806
 31
0.0
  0
LINE
  5
1AA0C
  8
0
 62
     5
 10
45.675735
 20
152.974829
 30
0.0
 11
45.332371
 21
153.569554
 31
0.0
  0
LINE
  5
1AA0D
  8
0
 62
     5
 10
45.495504
 20
153.732687
 30
0.0
 11
45.815735
 21
153.178031
 31
0.0
  0
LINE
  5
1AA0E
  8
0
 62
     5
 10
45.675735
 20
155.971007
 30
0.0
 11
45.815735
 21
155.263806
 31
0.0
  0
LINE
  5
1AA0F
  8
0
 62
     5
 10
45.675735
 20
152.414829
 30
0.0
 11
45.675735
 21
152.974829
 31
0.0
  0
LINE
  5
1AA10
  8
0
 62
     5
 10
45.675735
 20
155.411007
 30
0.0
 11
45.675735
 21
155.971007
 31
0.0
  0
LINE
  5
1AA11
  8
0
 62
     5
 10
45.815735
 20
155.263806
 30
0.0
 11
45.815735
 21
155.207806
 31
0.0
  0
LINE
  5
1AA12
  8
0
 62
     5
 10
45.815735
 20
153.178031
 30
0.0
 11
45.815735
 21
153.122031
 31
0.0
  0
LINE
  5
1AA13
  8
0
 62
     5
 10
46.095735
 20
153.122031
 30
0.0
 11
46.095735
 21
153.178031
 31
0.0
  0
LINE
  5
1AA14
  8
0
 62
     5
 10
46.095735
 20
155.207806
 30
0.0
 11
46.095735
 21
155.263806
 31
0.0
  0
LINE
  5
1AA15
  8
0
 62
     5
 10
45.332371
 20
153.569554
 30
0.0
 11
44.737646
 21
153.912918
 31
0.0
  0
LINE
  5
1AA16
  8
0
 62
     5
 10
44.940848
 20
154.052918
 30
0.0
 11
45.495504
 21
153.732687
 31
0.0
  0
LINE
  5
1AA17
  8
0
 62
     5
 10
46.095735
 20
153.178031
 30
0.0
 11
45.815735
 21
155.207806
 31
0.0
  0
LINE
  5
1AA18
  8
0
 62
     5
 10
46.095735
 20
153.122031
 30
0.0
 11
45.815735
 21
155.263806
 31
0.0
  0
LINE
  5
1AA19
  8
0
 62
     5
 10
45.815735
 20
153.122031
 30
0.0
 11
46.095735
 21
155.263806
 31
0.0
  0
LINE
  5
1AA1A
  8
0
 62
     5
 10
45.815735
 20
153.178031
 30
0.0
 11
46.095735
 21
155.207806
 31
0.0
  0
LINE
  5
1AA1B
  8
0
 62
     5
 10
45.675735
 20
152.414829
 30
0.0
 11
45.815735
 21
153.122031
 31
0.0
  0
LINE
  5
1AA1C
  8
0
 62
     5
 10
44.177646
 20
154.472918
 30
0.0
 11
44.884848
 21
154.332918
 31
0.0
  0
LINE
  5
1AA1D
  8
0
 62
     5
 10
44.737646
 20
153.912918
 30
0.0
 11
44.177646
 21
153.912918
 31
0.0
  0
LINE
  5
1AA1E
  8
0
 62
     5
 10
44.884848
 20
154.052918
 30
0.0
 11
44.940848
 21
154.052918
 31
0.0
  0
LINE
  5
1AA1F
  8
0
 62
     5
 10
44.940848
 20
154.332918
 30
0.0
 11
44.884848
 21
154.332918
 31
0.0
  0
LINE
  5
1AA20
  8
0
 62
     5
 10
44.177646
 20
154.472918
 30
0.0
 11
44.737646
 21
154.472918
 31
0.0
  0
LINE
  5
1AA21
  8
0
 62
     5
 10
45.332371
 20
154.816283
 30
0.0
 11
45.675735
 21
155.411007
 31
0.0
  0
LINE
  5
1AA22
  8
0
 62
     5
 10
45.815735
 20
155.207806
 30
0.0
 11
45.495504
 21
154.653149
 31
0.0
  0
LINE
  5
1AA23
  8
0
 62
     5
 10
45.675735
 20
152.974829
 30
0.0
 11
45.815735
 21
153.178031
 31
0.0
  0
LINE
  5
1AA24
  8
0
 62
     5
 10
44.177646
 20
153.912918
 30
0.0
 11
44.884848
 21
154.052918
 31
0.0
  0
LINE
  5
1AA25
  8
0
 62
     5
 10
44.737646
 20
153.912918
 30
0.0
 11
44.940848
 21
154.052918
 31
0.0
  0
LINE
  5
1AA26
  8
0
 62
     5
 10
44.737646
 20
154.472918
 30
0.0
 11
45.332371
 21
154.816283
 31
0.0
  0
LINE
  5
1AA27
  8
0
 62
     5
 10
45.495504
 20
154.653149
 30
0.0
 11
44.940848
 21
154.332918
 31
0.0
  0
ARC
  5
1AA28
  8
0
 62
     5
 10
45.955735
 20
154.192918
 30
0.0
 40
1.127721
 50
109.033269
 51
160.966731
  0
ARC
  5
1AA29
  8
0
 62
     5
 10
45.955735
 20
154.192918
 30
0.0
 40
1.08
 50
172.551809
 51
187.448191
  0
ARC
  5
1AA2A
  8
0
 62
     5
 10
45.955735
 20
154.192918
 30
0.0
 40
1.08
 50
262.551809
 51
277.448191
  0
ARC
  5
1AA2B
  8
0
 62
     5
 10
45.955735
 20
154.192918
 30
0.0
 40
1.08
 50
82.551809
 51
97.448191
  0
ARC
  5
1AA2C
  8
0
 62
     5
 10
45.955735
 20
154.192918
 30
0.0
 40
1.127721
 50
199.033269
 51
250.966731
  0
ARC
  5
1AA2D
  8
0
 62
     5
 10
45.955735
 20
154.192918
 30
0.0
 40
1.8
 50
171.050982
 51
188.949018
  0
LINE
  5
1AA2E
  8
0
 62
     5
 10
45.605735
 20
151.467658
 30
0.0
 11
45.605735
 21
151.263755
 31
0.0
  0
ARC
  5
1AA2F
  8
0
 62
     5
 10
43.444443
 20
151.854577
 30
0.0
 40
1.0
 50
180.0
 51
265.611601
  0
LINE
  5
1AA30
  8
0
 62
     5
 10
46.5791
 20
154.816283
 30
0.0
 11
47.173824
 21
154.472918
 31
0.0
  0
LINE
  5
1AA31
  8
0
 62
     5
 10
47.173824
 20
153.912918
 30
0.0
 11
46.970623
 21
154.052918
 31
0.0
  0
LINE
  5
1AA32
  8
0
 62
     5
 10
47.733824
 20
153.912918
 30
0.0
 11
47.026623
 21
154.052918
 31
0.0
  0
LINE
  5
1AA33
  8
0
 62
     5
 10
47.733824
 20
153.912918
 30
0.0
 11
47.173824
 21
153.912918
 31
0.0
  0
LINE
  5
1AA34
  8
0
 62
     5
 10
46.970623
 20
154.052918
 30
0.0
 11
47.026623
 21
154.052918
 31
0.0
  0
LINE
  5
1AA35
  8
0
 62
     5
 10
47.026623
 20
154.332918
 30
0.0
 11
46.970623
 21
154.332918
 31
0.0
  0
LINE
  5
1AA36
  8
0
 62
     5
 10
47.173824
 20
154.472918
 30
0.0
 11
47.733824
 21
154.472918
 31
0.0
  0
LINE
  5
1AA37
  8
0
 62
     5
 10
47.733824
 20
154.472918
 30
0.0
 11
47.026623
 21
154.332918
 31
0.0
  0
LINE
  5
1AA38
  8
0
 62
     5
 10
47.173824
 20
154.472918
 30
0.0
 11
46.970623
 21
154.332918
 31
0.0
  0
LINE
  5
1AA39
  8
0
 62
     5
 10
47.173824
 20
153.912918
 30
0.0
 11
46.5791
 21
153.569554
 31
0.0
  0
ARC
  5
1AA3A
  8
0
 62
     5
 10
45.955735
 20
154.192918
 30
0.0
 40
1.08
 50
352.551809
 51
7.448191
  0
ARC
  5
1AA3B
  8
0
 62
     5
 10
45.955735
 20
154.192918
 30
0.0
 40
1.8
 50
351.050982
 51
8.949018
  0
LINE
  5
1AA3C
  8
0
 62
     5
 10
46.235735
 20
155.971007
 30
0.0
 11
46.235735
 21
155.411007
 31
0.0
  0
LINE
  5
1AA3D
  8
0
 62
     5
 10
46.235735
 20
152.974829
 30
0.0
 11
46.235735
 21
152.414829
 31
0.0
  0
LINE
  5
1AA3E
  8
0
 62
     5
 10
46.235735
 20
155.411007
 30
0.0
 11
46.5791
 21
154.816283
 31
0.0
  0
LINE
  5
1AA3F
  8
0
 62
     5
 10
46.970623
 20
154.332918
 30
0.0
 11
46.415966
 21
154.653149
 31
0.0
  0
LINE
  5
1AA40
  8
0
 62
     5
 10
46.5791
 20
153.569554
 30
0.0
 11
46.235735
 21
152.974829
 31
0.0
  0
LINE
  5
1AA41
  8
0
 62
     5
 10
46.415966
 20
153.732687
 30
0.0
 11
46.970623
 21
154.052918
 31
0.0
  0
ARC
  5
1AA42
  8
0
 62
     5
 10
45.955735
 20
154.192918
 30
0.0
 40
1.127721
 50
289.033269
 51
340.966731
  0
ARC
  5
1AA43
  8
0
 62
     5
 10
45.955735
 20
154.192918
 30
0.0
 40
1.127721
 50
19.033269
 51
70.966731
  0
ARC
  5
1AA44
  8
0
 62
     5
 10
50.944443
 20
150.544901
 30
0.0
 40
1.0
 50
180.0
 51
235.93541
  0
LINE
  5
1AA45
  8
0
 62
     5
 10
46.305735
 20
151.263755
 30
0.0
 11
46.305735
 21
151.467658
 31
0.0
  0
LINE
  5
1AA46
  8
0
 62
     5
 10
49.944443
 20
154.48888
 30
0.0
 11
49.944443
 21
150.544901
 31
0.0
  0
ARC
  5
1AA47
  8
0
 62
     5
 10
431.699013
 20
170.48888
 30
0.0
 40
380.266164
 50
183.687572
 51
184.186722
  0
ARC
  5
1AA48
  8
0
 62
     5
 10
431.699013
 20
170.48888
 30
0.0
 40
380.0
 50
183.687572
 51
184.058402
  0
LINE
  5
1AA49
  8
0
 62
     5
 10
43.444443
 20
157.98888
 30
0.0
 11
46.444443
 21
157.98888
 31
0.0
  0
ARC
  5
1AA4A
  8
0
 62
     5
 10
43.444443
 20
158.98888
 30
0.0
 40
1.0
 50
180.0
 51
270.0
  0
LINE
  5
1AA4B
  8
CENTER
 10
63.144443
 20
142.501408
 30
0.0
 11
63.144443
 21
122.142964
 31
0.0
  0
LINE
  5
1AA4C
  8
CENTER
 10
78.344443
 20
142.501408
 30
0.0
 11
78.344443
 21
121.433329
 31
0.0
  0
LINE
  5
1AA4D
  8
CENTER
 10
62.444443
 20
142.501408
 30
0.0
 11
62.444443
 21
122.142964
 31
0.0
  0
ARC
  5
1AA4E
  8
0
 62
     5
 10
-286.810127
 20
170.48888
 30
0.0
 40
380.0
 50
355.611601
 51
356.312428
  0
ARC
  5
1AA4F
  8
0
 62
     5
 10
-286.810127
 20
170.48888
 30
0.0
 40
380.266164
 50
355.434883
 51
356.312428
  0
LINE
  5
1AA50
  8
0
 62
     5
 10
84.944443
 20
141.48888
 30
0.0
 11
84.944443
 21
144.48888
 31
0.0
  0
CIRCLE
  5
1AA51
  8
0
 62
     5
 10
88.740405
 20
144.000172
 30
0.0
 40
2.75
  0
ARC
  5
1AA52
  8
0
 62
     5
 10
88.740405
 20
144.000172
 30
0.0
 40
2.95
 50
276.813854
 51
263.186146
  0
CIRCLE
  5
1AA53
  8
0
 62
     5
 10
88.740405
 20
144.000172
 30
0.0
 40
3.0
  0
LINE
  5
1AA54
  8
HIDDEN
 10
72.894443
 20
123.38888
 30
0.0
 11
83.794443
 21
123.38888
 31
0.0
  0
LINE
  5
1AA55
  8
0
 62
     5
 10
77.644443
 20
140.48888
 30
0.0
 11
91.078746
 21
140.48888
 31
0.0
  0
LINE
  5
1AA56
  8
0
 62
     5
 10
70.986143
 20
131.68888
 30
0.0
 11
85.702743
 21
131.68888
 31
0.0
  0
LINE
  5
1AA57
  8
0
 62
     5
 10
91.767135
 20
137.08888
 30
0.0
 11
73.534278
 21
137.08888
 31
0.0
  0
LINE
  5
1AA58
  8
0
 62
     5
 10
92.249651
 20
140.222716
 30
0.0
 11
77.202546
 21
140.222716
 31
0.0
  0
ARC
  5
1AA59
  8
HIDDEN
 10
72.894443
 20
127.38888
 30
0.0
 40
4.0
 50
226.903739
 51
270.0
  0
LINE
  5
1AA5A
  8
HIDDEN
 10
70.786905
 20
131.485748
 30
0.0
 11
73.134316
 21
131.492105
 31
0.0
  0
LINE
  5
1AA5B
  8
0
 62
     5
 10
71.932997
 20
132.98888
 30
0.0
 11
69.178133
 21
132.98888
 31
0.0
  0
LINE
  5
1AA5C
  8
0
 62
     5
 10
69.153664
 20
133.58888
 30
0.0
 11
72.534229
 21
133.58888
 31
0.0
  0
LINE
  5
1AA5D
  8
0
 62
     5
 10
67.608639
 20
132.98888
 30
0.0
 11
67.608639
 21
136.28888
 31
0.0
  0
LINE
  5
1AA5E
  8
0
 62
     5
 10
67.968438
 20
136.28888
 30
0.0
 11
67.968438
 21
133.28888
 31
0.0
  0
LINE
  5
1AA5F
  8
0
 62
     5
 10
70.931503
 20
133.58888
 30
0.0
 11
70.931503
 21
137.48888
 31
0.0
  0
LINE
  5
1AA60
  8
0
 62
     5
 10
67.060355
 20
129.98888
 30
0.0
 11
66.739635
 21
129.68888
 31
0.0
  0
LINE
  5
1AA61
  8
0
 62
     5
 10
67.052714
 20
132.98888
 30
0.0
 11
67.060355
 21
129.98888
 31
0.0
  0
LINE
  5
1AA62
  8
0
 62
     5
 10
71.656925
 20
132.98888
 30
0.0
 11
71.673848
 21
131.68888
 31
0.0
  0
LINE
  5
1AA63
  8
0
 62
     5
 10
70.352696
 20
132.98888
 30
0.0
 11
70.352696
 21
133.58888
 31
0.0
  0
LINE
  5
1AA64
  8
0
 62
     5
 10
67.968438
 20
133.28888
 30
0.0
 11
69.153664
 21
133.28888
 31
0.0
  0
LINE
  5
1AA65
  8
0
 62
     5
 10
69.986143
 20
131.68888
 30
0.0
 11
69.945289
 21
132.98888
 31
0.0
  0
LINE
  5
1AA66
  8
0
 62
     5
 10
69.153664
 20
133.28888
 30
0.0
 11
69.153664
 21
133.58888
 31
0.0
  0
LINE
  5
1AA67
  8
0
 62
     5
 10
67.968438
 20
133.28888
 30
0.0
 11
67.921508
 21
132.98888
 31
0.0
  0
LINE
  5
1AA68
  8
0
 62
     5
 10
69.153664
 20
133.28888
 30
0.0
 11
69.106734
 21
132.98888
 31
0.0
  0
LINE
  5
1AA69
  8
0
 62
     5
 10
71.260016
 20
137.48888
 30
0.0
 11
71.260016
 21
138.48888
 31
0.0
  0
LINE
  5
1AA6A
  8
HIDDEN
 10
74.634278
 20
132.992105
 30
0.0
 11
74.634278
 21
135.742105
 31
0.0
  0
LINE
  5
1AA6B
  8
0
 62
     5
 10
72.534278
 20
137.48888
 30
0.0
 11
72.534278
 21
133.58888
 31
0.0
  0
ARC
  5
1AA6C
  8
HIDDEN
 10
73.134278
 20
132.992105
 30
0.0
 40
1.5
 50
270.0
 51
0.0
  0
LINE
  5
1AA6D
  8
0
 62
     5
 10
72.229304
 20
133.58888
 30
0.0
 11
72.229304
 21
133.28888
 31
0.0
  0
LINE
  5
1AA6E
  8
0
 62
     5
 10
72.229304
 20
133.28888
 30
0.0
 11
71.932997
 21
132.98888
 31
0.0
  0
LINE
  5
1AA6F
  8
0
 62
     5
 10
81.844443
 20
137.11191
 30
0.0
 11
74.844443
 21
137.11191
 31
0.0
  0
LINE
  5
1AA70
  8
0
 62
     5
 10
81.844443
 20
137.38888
 30
0.0
 11
74.844443
 21
137.38888
 31
0.0
  0
LINE
  5
1AA71
  8
0
 62
     5
 10
74.634278
 20
137.48888
 30
0.0
 11
74.634278
 21
138.48888
 31
0.0
  0
LINE
  5
1AA72
  8
0
 62
     5
 10
74.844443
 20
137.11191
 30
0.0
 11
74.844443
 21
137.38888
 31
0.0
  0
LINE
  5
1AA73
  8
0
 62
     5
 10
81.844443
 20
137.11191
 30
0.0
 11
81.844443
 21
137.38888
 31
0.0
  0
LINE
  5
1AA74
  8
0
 62
     5
 10
77.144443
 20
139.98888
 30
0.0
 11
77.144443
 21
138.68888
 31
0.0
  0
ARC
  5
1AA75
  8
0
 62
     5
 10
76.944443
 20
138.68888
 30
0.0
 40
0.2
 50
270.0
 51
0.0
  0
ARC
  5
1AA76
  8
0
 62
     5
 10
77.644443
 20
139.98888
 30
0.0
 40
0.5
 50
90.0
 51
180.0
  0
ARC
  5
1AA77
  8
HIDDEN
 10
83.794443
 20
127.38888
 30
0.0
 40
4.0
 50
270.0
 51
0.0
  0
LINE
  5
1AA78
  8
0
 62
     5
 10
97.944443
 20
140.48888
 30
0.0
 11
92.270561
 21
140.48888
 31
0.0
  0
LINE
  5
1AA79
  8
HIDDEN
 10
87.794443
 20
127.38888
 30
0.0
 11
87.794443
 21
134.58888
 31
0.0
  0
LINE
  5
1AA7A
  8
0
 62
     5
 10
85.015038
 20
131.68888
 30
0.0
 11
85.085331
 21
137.08888
 31
0.0
  0
LINE
  5
1AA7B
  8
0
 62
     5
 10
85.872445
 20
137.08888
 30
0.0
 11
85.702743
 21
131.68888
 31
0.0
  0
ARC
  5
1AA7C
  8
0
 62
     5
 10
83.944443
 20
141.48888
 30
0.0
 40
1.0
 50
270.0
 51
0.0
  0
LINE
  5
1AA7D
  8
HIDDEN
 10
90.094443
 20
134.58888
 30
0.0
 11
87.794443
 21
134.58888
 31
0.0
  0
ARC
  5
1AA7E
  8
HIDDEN
 10
90.094443
 20
135.08888
 30
0.0
 40
0.5
 50
270.0
 51
0.0
  0
LINE
  5
1AA7F
  8
HIDDEN
 10
90.594443
 20
135.63888
 30
0.0
 11
90.594443
 21
135.08888
 31
0.0
  0
LINE
  5
1AA80
  8
0
 62
     5
 10
92.267135
 20
140.445272
 30
0.0
 11
92.267135
 21
137.58888
 31
0.0
  0
LINE
  5
1AA81
  8
0
 62
     5
 10
88.390405
 20
141.274912
 30
0.0
 11
88.390405
 21
141.071009
 31
0.0
  0
LINE
  5
1AA82
  8
0
 62
     5
 10
89.090405
 20
141.071009
 30
0.0
 11
89.090405
 21
141.274912
 31
0.0
  0
ARC
  5
1AA83
  8
0
 62
     5
 10
91.078746
 20
141.48888
 30
0.0
 40
1.0
 50
270.0
 51
355.611601
  0
ARC
  5
1AA84
  8
0
 62
     5
 10
98.944443
 20
154.18888
 30
0.0
 40
3.5
 50
90.0
 51
180.0
  0
ARC
  5
1AA85
  8
0
 62
     5
 10
97.19318
 20
145.740143
 30
0.0
 40
4.533836
 50
93.687572
 51
176.312428
  0
LINE
  5
1AA86
  8
0
 62
     5
 10
88.444443
 20
147.98888
 30
0.0
 11
92.388422
 21
147.98888
 31
0.0
  0
ARC
  5
1AA87
  8
0
 62
     5
 10
97.19318
 20
145.740143
 30
0.0
 40
4.8
 50
93.687572
 51
176.312428
  0
LINE
  5
1AA88
  8
0
 62
     5
 10
87.522316
 20
143.720172
 30
0.0
 11
86.962316
 21
143.720172
 31
0.0
  0
LINE
  5
1AA89
  8
0
 62
     5
 10
86.962316
 20
144.280172
 30
0.0
 11
87.522316
 21
144.280172
 31
0.0
  0
LINE
  5
1AA8A
  8
0
 62
     5
 10
86.962316
 20
143.720172
 30
0.0
 11
87.669517
 21
143.860172
 31
0.0
  0
LINE
  5
1AA8B
  8
0
 62
     5
 10
86.962316
 20
144.280172
 30
0.0
 11
87.669517
 21
144.140172
 31
0.0
  0
ARC
  5
1AA8C
  8
0
 62
     5
 10
88.444443
 20
144.48888
 30
0.0
 40
3.5
 50
90.0
 51
180.0
  0
ARC
  5
1AA8D
  8
0
 62
     5
 10
88.740405
 20
144.000172
 30
0.0
 40
1.8
 50
171.050982
 51
188.949018
  0
LINE
  5
1AA8E
  8
0
 62
     5
 10
90.518494
 20
144.280172
 30
0.0
 11
89.811292
 21
144.140172
 31
0.0
  0
LINE
  5
1AA8F
  8
0
 62
     5
 10
87.725517
 20
143.860172
 30
0.0
 11
89.755292
 21
144.140172
 31
0.0
  0
LINE
  5
1AA90
  8
0
 62
     5
 10
87.669517
 20
143.860172
 30
0.0
 11
89.811292
 21
144.140172
 31
0.0
  0
LINE
  5
1AA91
  8
0
 62
     5
 10
90.518494
 20
143.720172
 30
0.0
 11
89.958494
 21
143.720172
 31
0.0
  0
LINE
  5
1AA92
  8
0
 62
     5
 10
87.669517
 20
143.860172
 30
0.0
 11
87.725517
 21
143.860172
 31
0.0
  0
LINE
  5
1AA93
  8
0
 62
     5
 10
89.755292
 20
143.860172
 30
0.0
 11
89.811292
 21
143.860172
 31
0.0
  0
LINE
  5
1AA94
  8
0
 62
     5
 10
89.811292
 20
144.140172
 30
0.0
 11
89.755292
 21
144.140172
 31
0.0
  0
LINE
  5
1AA95
  8
0
 62
     5
 10
87.725517
 20
144.140172
 30
0.0
 11
87.669517
 21
144.140172
 31
0.0
  0
LINE
  5
1AA96
  8
0
 62
     5
 10
89.958494
 20
144.280172
 30
0.0
 11
90.518494
 21
144.280172
 31
0.0
  0
LINE
  5
1AA97
  8
0
 62
     5
 10
87.669517
 20
144.140172
 30
0.0
 11
89.811292
 21
143.860172
 31
0.0
  0
LINE
  5
1AA98
  8
0
 62
     5
 10
87.725517
 20
144.140172
 30
0.0
 11
89.755292
 21
143.860172
 31
0.0
  0
LINE
  5
1AA99
  8
0
 62
     5
 10
90.518494
 20
143.720172
 30
0.0
 11
89.811292
 21
143.860172
 31
0.0
  0
LINE
  5
1AA9A
  8
0
 62
     5
 10
87.725517
 20
143.860172
 30
0.0
 11
88.280174
 21
143.539941
 31
0.0
  0
LINE
  5
1AA9B
  8
0
 62
     5
 10
89.755292
 20
144.140172
 30
0.0
 11
89.200636
 21
144.460403
 31
0.0
  0
LINE
  5
1AA9C
  8
0
 62
     5
 10
89.363769
 20
144.623537
 30
0.0
 11
89.958494
 21
144.280172
 31
0.0
  0
LINE
  5
1AA9D
  8
0
 62
     5
 10
89.958494
 20
143.720172
 30
0.0
 11
89.755292
 21
143.860172
 31
0.0
  0
LINE
  5
1AA9E
  8
0
 62
     5
 10
89.363769
 20
143.376808
 30
0.0
 11
88.11704
 21
144.623537
 31
0.0
  0
LINE
  5
1AA9F
  8
0
 62
     5
 10
89.020405
 20
142.782083
 30
0.0
 11
88.880405
 21
142.985285
 31
0.0
  0
LINE
  5
1AAA0
  8
0
 62
     5
 10
88.460405
 20
145.218261
 30
0.0
 11
88.600405
 21
145.01506
 31
0.0
  0
LINE
  5
1AAA1
  8
0
 62
     5
 10
88.460405
 20
142.782083
 30
0.0
 11
88.11704
 21
143.376808
 31
0.0
  0
LINE
  5
1AAA2
  8
0
 62
     5
 10
88.280174
 20
143.539941
 30
0.0
 11
88.600405
 21
142.985285
 31
0.0
  0
LINE
  5
1AAA3
  8
0
 62
     5
 10
89.200636
 20
144.460403
 30
0.0
 11
88.880405
 21
145.01506
 31
0.0
  0
LINE
  5
1AAA4
  8
0
 62
     5
 10
89.020405
 20
145.218261
 30
0.0
 11
89.363769
 21
144.623537
 31
0.0
  0
LINE
  5
1AAA5
  8
0
 62
     5
 10
89.020405
 20
142.222083
 30
0.0
 11
88.880405
 21
142.929285
 31
0.0
  0
LINE
  5
1AAA6
  8
0
 62
     5
 10
88.460405
 20
145.778261
 30
0.0
 11
88.600405
 21
145.07106
 31
0.0
  0
LINE
  5
1AAA7
  8
0
 62
     5
 10
88.880405
 20
142.985285
 30
0.0
 11
88.600405
 21
145.01506
 31
0.0
  0
LINE
  5
1AAA8
  8
0
 62
     5
 10
88.880405
 20
142.929285
 30
0.0
 11
88.600405
 21
145.07106
 31
0.0
  0
LINE
  5
1AAA9
  8
0
 62
     5
 10
88.460405
 20
142.222083
 30
0.0
 11
88.460405
 21
142.782083
 31
0.0
  0
LINE
  5
1AAAA
  8
0
 62
     5
 10
88.460405
 20
145.218261
 30
0.0
 11
88.460405
 21
145.778261
 31
0.0
  0
LINE
  5
1AAAB
  8
0
 62
     5
 10
88.600405
 20
145.07106
 30
0.0
 11
88.600405
 21
145.01506
 31
0.0
  0
LINE
  5
1AAAC
  8
0
 62
     5
 10
88.600405
 20
142.985285
 30
0.0
 11
88.600405
 21
142.929285
 31
0.0
  0
LINE
  5
1AAAD
  8
0
 62
     5
 10
88.880405
 20
142.929285
 30
0.0
 11
88.880405
 21
142.985285
 31
0.0
  0
LINE
  5
1AAAE
  8
0
 62
     5
 10
88.880405
 20
145.01506
 30
0.0
 11
88.880405
 21
145.07106
 31
0.0
  0
LINE
  5
1AAAF
  8
0
 62
     5
 10
89.020405
 20
145.778261
 30
0.0
 11
89.020405
 21
145.218261
 31
0.0
  0
LINE
  5
1AAB0
  8
0
 62
     5
 10
89.020405
 20
142.782083
 30
0.0
 11
89.020405
 21
142.222083
 31
0.0
  0
LINE
  5
1AAB1
  8
0
 62
     5
 10
88.600405
 20
142.929285
 30
0.0
 11
88.880405
 21
145.07106
 31
0.0
  0
LINE
  5
1AAB2
  8
0
 62
     5
 10
88.600405
 20
142.985285
 30
0.0
 11
88.880405
 21
145.01506
 31
0.0
  0
LINE
  5
1AAB3
  8
0
 62
     5
 10
89.020405
 20
145.778261
 30
0.0
 11
88.880405
 21
145.07106
 31
0.0
  0
LINE
  5
1AAB4
  8
0
 62
     5
 10
88.460405
 20
142.222083
 30
0.0
 11
88.600405
 21
142.929285
 31
0.0
  0
LINE
  5
1AAB5
  8
0
 62
     5
 10
88.11704
 20
144.623537
 30
0.0
 11
88.460405
 21
145.218261
 31
0.0
  0
LINE
  5
1AAB6
  8
0
 62
     5
 10
88.600405
 20
145.01506
 30
0.0
 11
88.280174
 21
144.460403
 31
0.0
  0
LINE
  5
1AAB7
  8
0
 62
     5
 10
88.880405
 20
142.985285
 30
0.0
 11
89.200636
 21
143.539941
 31
0.0
  0
LINE
  5
1AAB8
  8
0
 62
     5
 10
89.363769
 20
143.376808
 30
0.0
 11
89.020405
 21
142.782083
 31
0.0
  0
LINE
  5
1AAB9
  8
0
 62
     5
 10
89.020405
 20
145.218261
 30
0.0
 11
88.880405
 21
145.01506
 31
0.0
  0
LINE
  5
1AABA
  8
0
 62
     5
 10
88.460405
 20
142.782083
 30
0.0
 11
88.600405
 21
142.985285
 31
0.0
  0
LINE
  5
1AABB
  8
0
 62
     5
 10
88.11704
 20
143.376808
 30
0.0
 11
89.363769
 21
144.623537
 31
0.0
  0
LINE
  5
1AABC
  8
0
 62
     5
 10
89.958494
 20
144.280172
 30
0.0
 11
89.755292
 21
144.140172
 31
0.0
  0
LINE
  5
1AABD
  8
0
 62
     5
 10
88.280174
 20
144.460403
 30
0.0
 11
87.725517
 21
144.140172
 31
0.0
  0
LINE
  5
1AABE
  8
0
 62
     5
 10
89.200636
 20
143.539941
 30
0.0
 11
89.755292
 21
143.860172
 31
0.0
  0
LINE
  5
1AABF
  8
0
 62
     5
 10
89.958494
 20
143.720172
 30
0.0
 11
89.363769
 21
143.376808
 31
0.0
  0
ARC
  5
1AAC0
  8
0
 62
     5
 10
88.740405
 20
144.000172
 30
0.0
 40
1.127721
 50
109.033269
 51
160.966731
  0
ARC
  5
1AAC1
  8
0
 62
     5
 10
88.740405
 20
144.000172
 30
0.0
 40
1.127721
 50
289.033269
 51
340.966731
  0
ARC
  5
1AAC2
  8
0
 62
     5
 10
88.740405
 20
144.000172
 30
0.0
 40
1.127721
 50
19.033269
 51
70.966731
  0
ARC
  5
1AAC3
  8
0
 62
     5
 10
88.740405
 20
144.000172
 30
0.0
 40
1.08
 50
172.551809
 51
187.448191
  0
ARC
  5
1AAC4
  8
0
 62
     5
 10
88.740405
 20
144.000172
 30
0.0
 40
1.08
 50
262.551809
 51
277.448191
  0
ARC
  5
1AAC5
  8
0
 62
     5
 10
88.740405
 20
144.000172
 30
0.0
 40
1.08
 50
352.551809
 51
7.448191
  0
ARC
  5
1AAC6
  8
0
 62
     5
 10
88.740405
 20
144.000172
 30
0.0
 40
1.08
 50
82.551809
 51
97.448191
  0
ARC
  5
1AAC7
  8
0
 62
     5
 10
88.740405
 20
144.000172
 30
0.0
 40
1.8
 50
261.050982
 51
278.949018
  0
ARC
  5
1AAC8
  8
0
 62
     5
 10
88.740405
 20
144.000172
 30
0.0
 40
1.127721
 50
199.033269
 51
250.966731
  0
ARC
  5
1AAC9
  8
0
 62
     5
 10
88.740405
 20
144.000172
 30
0.0
 40
1.8
 50
351.050982
 51
8.949018
  0
ARC
  5
1AACA
  8
0
 62
     5
 10
88.740405
 20
144.000172
 30
0.0
 40
1.8
 50
81.050982
 51
98.949018
  0
LINE
  5
1AACB
  8
0
 62
     5
 10
88.11704
 20
143.376808
 30
0.0
 11
87.522316
 21
143.720172
 31
0.0
  0
LINE
  5
1AACC
  8
0
 62
     5
 10
87.522316
 20
144.280172
 30
0.0
 11
87.725517
 21
144.140172
 31
0.0
  0
LINE
  5
1AACD
  8
0
 62
     5
 10
87.522316
 20
143.720172
 30
0.0
 11
87.725517
 21
143.860172
 31
0.0
  0
LINE
  5
1AACE
  8
0
 62
     5
 10
87.522316
 20
144.280172
 30
0.0
 11
88.11704
 21
144.623537
 31
0.0
  0
ARC
  5
1AACF
  8
CENTER
 10
72.444443
 20
170.48888
 30
0.0
 40
35.0
 50
306.254023
 51
324.381034
  0
LINE
  5
1AAD0
  8
0
 62
     5
 10
102.444443
 20
150.929511
 30
0.0
 11
102.444443
 21
144.98888
 31
0.0
  0
CIRCLE
  5
1AAD1
  8
0
 62
     5
 10
97.19318
 20
145.740143
 30
0.0
 40
2.9
  0
ARC
  5
1AAD2
  8
0
 62
     5
 10
92.388422
 20
148.98888
 30
0.0
 40
1.0
 50
270.0
 51
325.93541
  0
LINE
  5
1AAD3
  8
0
 62
     5
 10
96.884464
 20
150.530205
 30
0.0
 11
101.52096
 21
150.857509
 31
0.0
  0
ARC
  5
1AAD4
  8
0
 62
     5
 10
72.444443
 20
529.74345
 30
0.0
 40
380.266164
 50
273.687572
 51
274.425643
  0
ARC
  5
1AAD5
  8
0
 62
     5
 10
94.444443
 20
150.847436
 30
0.0
 40
1.0
 50
298.28907
 51
0.0
  0
LINE
  5
1AAD6
  8
0
 62
     5
 10
95.444443
 20
150.847436
 30
0.0
 11
95.444443
 21
154.18888
 31
0.0
  0
LINE
  5
1AAD7
  8
0
 62
     5
 10
98.944443
 20
157.68888
 30
0.0
 11
101.444443
 21
157.68888
 31
0.0
  0
LINE
  5
1AAD8
  8
0
 62
     5
 10
91.078746
 20
200.48888
 30
0.0
 11
53.81014
 21
200.48888
 31
0.0
  0
LINE
  5
1AAD9
  8
0
 62
     5
 10
53.563691
 20
200.755044
 30
0.0
 11
91.325195
 21
200.755044
 31
0.0
  0
LINE
  5
1AADA
  8
CENTER
 10
53.741961
 20
189.191362
 30
0.0
 11
42.00085
 21
200.932473
 31
0.0
  0
ARC
  5
1AADB
  8
0
 62
     5
 10
60.944443
 20
199.48888
 30
0.0
 40
1.0
 50
90.0
 51
180.0
  0
ARC
  5
1AADC
  8
0
 62
     5
 10
53.81014
 20
199.48888
 30
0.0
 40
1.0
 50
90.0
 51
175.611601
  0
ARC
  5
1AADD
  8
0
 62
     5
 10
46.944443
 20
195.98888
 30
0.0
 40
4.5
 50
90.0
 51
180.0
  0
ARC
  5
1AADE
  8
0
 62
     5
 10
45.944443
 20
186.78888
 30
0.0
 40
3.5
 50
270.0
 51
0.0
  0
LINE
  5
1AADF
  8
0
 62
     5
 10
45.944443
 20
183.28888
 30
0.0
 11
43.444443
 21
183.28888
 31
0.0
  0
ARC
  5
1AAE0
  8
0
 62
     5
 10
43.444443
 20
182.28888
 30
0.0
 40
1.0
 50
90.0
 51
180.0
  0
ARC
  5
1AAE1
  8
CENTER
 10
72.444443
 20
170.48888
 30
0.0
 40
35.0
 50
126.254023
 51
144.381034
  0
ARC
  5
1AAE2
  8
0
 62
     5
 10
47.695706
 20
195.237617
 30
0.0
 40
4.533836
 50
273.687572
 51
356.312428
  0
ARC
  5
1AAE3
  8
0
 62
     5
 10
47.695706
 20
195.237617
 30
0.0
 40
4.8
 50
273.687572
 51
356.312428
  0
LINE
  5
1AAE4
  8
0
 62
     5
 10
42.444443
 20
190.048249
 30
0.0
 11
42.444443
 21
195.98888
 31
0.0
  0
CIRCLE
  5
1AAE5
  8
0
 62
     5
 10
47.695706
 20
195.237617
 30
0.0
 40
2.9
  0
LINE
  5
1AAE6
  8
0
 62
     5
 10
43.367926
 20
190.120251
 30
0.0
 11
48.004422
 21
190.447555
 31
0.0
  0
ARC
  5
1AAE7
  8
0
 62
     5
 10
72.444443
 20
-188.76569
 30
0.0
 40
380.266164
 50
93.687572
 51
94.425643
  0
ARC
  5
1AAE8
  8
0
 62
     5
 10
43.444443
 20
189.123183
 30
0.0
 40
1.0
 50
94.388399
 51
180.0
  0
ARC
  5
1AAE9
  8
0
 62
     5
 10
50.444443
 20
190.130324
 30
0.0
 40
1.0
 50
118.28907
 51
180.0
  0
LINE
  5
1AAEA
  8
0
 62
     5
 10
49.444443
 20
190.130324
 30
0.0
 11
49.444443
 21
186.78888
 31
0.0
  0
ARC
  5
1AAEB
  8
0
 62
     5
 10
52.500464
 20
191.98888
 30
0.0
 40
1.0
 50
90.0
 51
145.93541
  0
ARC
  5
1AAEC
  8
0
 62
     5
 10
56.444443
 20
196.48888
 30
0.0
 40
3.5
 50
270.0
 51
0.0
  0
ARC
  5
1AAED
  8
0
 62
     5
 10
56.148481
 20
196.977588
 30
0.0
 40
1.8
 50
81.050982
 51
98.949018
  0
LINE
  5
1AAEE
  8
0
 62
     5
 10
56.288481
 20
195.9627
 30
0.0
 11
56.608712
 21
196.517357
 31
0.0
  0
LINE
  5
1AAEF
  8
0
 62
     5
 10
56.428481
 20
198.195677
 30
0.0
 11
56.288481
 21
197.992475
 31
0.0
  0
LINE
  5
1AAF0
  8
0
 62
     5
 10
55.525117
 20
196.354223
 30
0.0
 11
56.771846
 21
197.600952
 31
0.0
  0
LINE
  5
1AAF1
  8
0
 62
     5
 10
56.428481
 20
195.199499
 30
0.0
 11
56.288481
 21
195.9067
 31
0.0
  0
LINE
  5
1AAF2
  8
0
 62
     5
 10
56.428481
 20
195.759499
 30
0.0
 11
56.288481
 21
195.9627
 31
0.0
  0
LINE
  5
1AAF3
  8
0
 62
     5
 10
56.608712
 20
197.437819
 30
0.0
 11
56.288481
 21
197.992475
 31
0.0
  0
LINE
  5
1AAF4
  8
0
 62
     5
 10
56.771846
 20
196.354223
 30
0.0
 11
55.525117
 21
197.600952
 31
0.0
  0
LINE
  5
1AAF5
  8
0
 62
     5
 10
55.077594
 20
197.117588
 30
0.0
 11
57.219369
 21
196.837588
 31
0.0
  0
LINE
  5
1AAF6
  8
0
 62
     5
 10
55.133594
 20
197.117588
 30
0.0
 11
57.163369
 21
196.837588
 31
0.0
  0
LINE
  5
1AAF7
  8
0
 62
     5
 10
55.133594
 20
196.837588
 30
0.0
 11
57.163369
 21
197.117588
 31
0.0
  0
LINE
  5
1AAF8
  8
0
 62
     5
 10
55.077594
 20
196.837588
 30
0.0
 11
57.219369
 21
197.117588
 31
0.0
  0
ARC
  5
1AAF9
  8
0
 62
     5
 10
56.148481
 20
196.977588
 30
0.0
 40
1.8
 50
261.050982
 51
278.949018
  0
LINE
  5
1AAFA
  8
0
 62
     5
 10
56.444443
 20
192.98888
 30
0.0
 11
52.500464
 21
192.98888
 31
0.0
  0
LINE
  5
1AAFB
  8
0
 62
     5
 10
56.428481
 20
198.755677
 30
0.0
 11
56.288481
 21
198.048475
 31
0.0
  0
CIRCLE
  5
1AAFC
  8
0
 62
     5
 10
56.148481
 20
196.977588
 30
0.0
 40
2.75
  0
ARC
  5
1AAFD
  8
0
 62
     5
 10
56.148481
 20
196.977588
 30
0.0
 40
2.95
 50
276.813854
 51
263.186146
  0
CIRCLE
  5
1AAFE
  8
0
 62
     5
 10
56.148481
 20
196.977588
 30
0.0
 40
3.0
  0
LINE
  5
1AAFF
  8
0
 62
     5
 10
54.930392
 20
196.697588
 30
0.0
 11
55.133594
 21
196.837588
 31
0.0
  0
LINE
  5
1AB00
  8
0
 62
     5
 10
54.930392
 20
197.257588
 30
0.0
 11
55.525117
 21
197.600952
 31
0.0
  0
LINE
  5
1AB01
  8
0
 62
     5
 10
55.68825
 20
197.437819
 30
0.0
 11
55.133594
 21
197.117588
 31
0.0
  0
LINE
  5
1AB02
  8
0
 62
     5
 10
55.525117
 20
197.600952
 30
0.0
 11
55.868481
 21
198.195677
 31
0.0
  0
LINE
  5
1AB03
  8
0
 62
     5
 10
56.008481
 20
197.992475
 30
0.0
 11
55.68825
 21
197.437819
 31
0.0
  0
LINE
  5
1AB04
  8
0
 62
     5
 10
55.868481
 20
195.759499
 30
0.0
 11
56.008481
 21
195.9627
 31
0.0
  0
LINE
  5
1AB05
  8
0
 62
     5
 10
56.008481
 20
195.9067
 30
0.0
 11
56.288481
 21
198.048475
 31
0.0
  0
LINE
  5
1AB06
  8
0
 62
     5
 10
56.008481
 20
195.9627
 30
0.0
 11
56.288481
 21
197.992475
 31
0.0
  0
LINE
  5
1AB07
  8
0
 62
     5
 10
55.868481
 20
195.199499
 30
0.0
 11
56.008481
 21
195.9067
 31
0.0
  0
LINE
  5
1AB08
  8
0
 62
     5
 10
55.798481
 20
194.252327
 30
0.0
 11
55.798481
 21
194.048424
 31
0.0
  0
LINE
  5
1AB09
  8
0
 62
     5
 10
55.868481
 20
195.199499
 30
0.0
 11
55.868481
 21
195.759499
 31
0.0
  0
LINE
  5
1AB0A
  8
0
 62
     5
 10
56.008481
 20
198.048475
 30
0.0
 11
56.008481
 21
197.992475
 31
0.0
  0
LINE
  5
1AB0B
  8
0
 62
     5
 10
56.008481
 20
195.9627
 30
0.0
 11
56.008481
 21
195.9067
 31
0.0
  0
LINE
  5
1AB0C
  8
0
 62
     5
 10
56.288481
 20
195.9067
 30
0.0
 11
56.288481
 21
195.9627
 31
0.0
  0
LINE
  5
1AB0D
  8
0
 62
     5
 10
56.288481
 20
197.992475
 30
0.0
 11
56.288481
 21
198.048475
 31
0.0
  0
LINE
  5
1AB0E
  8
0
 62
     5
 10
56.288481
 20
195.9627
 30
0.0
 11
56.008481
 21
197.992475
 31
0.0
  0
LINE
  5
1AB0F
  8
0
 62
     5
 10
56.288481
 20
195.9067
 30
0.0
 11
56.008481
 21
198.048475
 31
0.0
  0
LINE
  5
1AB10
  8
0
 62
     5
 10
55.868481
 20
195.759499
 30
0.0
 11
55.525117
 21
196.354223
 31
0.0
  0
LINE
  5
1AB11
  8
0
 62
     5
 10
55.68825
 20
196.517357
 30
0.0
 11
56.008481
 21
195.9627
 31
0.0
  0
LINE
  5
1AB12
  8
0
 62
     5
 10
55.868481
 20
198.195677
 30
0.0
 11
56.008481
 21
197.992475
 31
0.0
  0
LINE
  5
1AB13
  8
0
 62
     5
 10
54.930392
 20
197.257588
 30
0.0
 11
55.133594
 21
197.117588
 31
0.0
  0
LINE
  5
1AB14
  8
0
 62
     5
 10
55.525117
 20
196.354223
 30
0.0
 11
54.930392
 21
196.697588
 31
0.0
  0
LINE
  5
1AB15
  8
0
 62
     5
 10
55.133594
 20
196.837588
 30
0.0
 11
55.68825
 21
196.517357
 31
0.0
  0
LINE
  5
1AB16
  8
0
 62
     5
 10
55.077594
 20
196.837588
 30
0.0
 11
55.133594
 21
196.837588
 31
0.0
  0
LINE
  5
1AB17
  8
0
 62
     5
 10
55.133594
 20
197.117588
 30
0.0
 11
55.077594
 21
197.117588
 31
0.0
  0
ARC
  5
1AB18
  8
0
 62
     5
 10
56.148481
 20
196.977588
 30
0.0
 40
1.127721
 50
109.033269
 51
160.966731
  0
ARC
  5
1AB19
  8
0
 62
     5
 10
56.148481
 20
196.977588
 30
0.0
 40
1.08
 50
172.551809
 51
187.448191
  0
ARC
  5
1AB1A
  8
0
 62
     5
 10
56.148481
 20
196.977588
 30
0.0
 40
1.08
 50
262.551809
 51
277.448191
  0
ARC
  5
1AB1B
  8
0
 62
     5
 10
56.148481
 20
196.977588
 30
0.0
 40
1.08
 50
82.551809
 51
97.448191
  0
ARC
  5
1AB1C
  8
0
 62
     5
 10
56.148481
 20
196.977588
 30
0.0
 40
1.127721
 50
199.033269
 51
250.966731
  0
ARC
  5
1AB1D
  8
0
 62
     5
 10
56.148481
 20
196.977588
 30
0.0
 40
1.8
 50
171.050982
 51
188.949018
  0
LINE
  5
1AB1E
  8
0
 62
     5
 10
54.370392
 20
197.257588
 30
0.0
 11
55.077594
 21
197.117588
 31
0.0
  0
LINE
  5
1AB1F
  8
0
 62
     5
 10
54.930392
 20
196.697588
 30
0.0
 11
54.370392
 21
196.697588
 31
0.0
  0
LINE
  5
1AB20
  8
0
 62
     5
 10
54.370392
 20
196.697588
 30
0.0
 11
55.077594
 21
196.837588
 31
0.0
  0
LINE
  5
1AB21
  8
0
 62
     5
 10
54.370392
 20
197.257588
 30
0.0
 11
54.930392
 21
197.257588
 31
0.0
  0
LINE
  5
1AB22
  8
0
 62
     5
 10
55.868481
 20
198.195677
 30
0.0
 11
55.868481
 21
198.755677
 31
0.0
  0
LINE
  5
1AB23
  8
0
 62
     5
 10
55.868481
 20
198.755677
 30
0.0
 11
56.008481
 21
198.048475
 31
0.0
  0
ARC
  5
1AB24
  8
0
 62
     5
 10
431.699013
 20
170.48888
 30
0.0
 40
380.266164
 50
175.574357
 51
176.312428
  0
ARC
  5
1AB25
  8
0
 62
     5
 10
431.699013
 20
170.48888
 30
0.0
 40
380.0
 50
175.611601
 51
176.312428
  0
LINE
  5
1AB26
  8
0
 62
     5
 10
59.944443
 20
199.48888
 30
0.0
 11
59.944443
 21
196.48888
 31
0.0
  0
LINE
  5
1AB27
  8
0
 62
     5
 10
56.771846
 20
196.354223
 30
0.0
 11
56.428481
 21
195.759499
 31
0.0
  0
LINE
  5
1AB28
  8
0
 62
     5
 10
57.36657
 20
197.257588
 30
0.0
 11
57.163369
 21
197.117588
 31
0.0
  0
LINE
  5
1AB29
  8
0
 62
     5
 10
56.608712
 20
196.517357
 30
0.0
 11
57.163369
 21
196.837588
 31
0.0
  0
LINE
  5
1AB2A
  8
0
 62
     5
 10
57.36657
 20
196.697588
 30
0.0
 11
56.771846
 21
196.354223
 31
0.0
  0
LINE
  5
1AB2B
  8
0
 62
     5
 10
56.428481
 20
195.759499
 30
0.0
 11
56.428481
 21
195.199499
 31
0.0
  0
LINE
  5
1AB2C
  8
0
 62
     5
 10
56.498481
 20
194.048424
 30
0.0
 11
56.498481
 21
194.252327
 31
0.0
  0
LINE
  5
1AB2D
  8
0
 62
     5
 10
56.428481
 20
198.195677
 30
0.0
 11
56.771846
 21
197.600952
 31
0.0
  0
LINE
  5
1AB2E
  8
0
 62
     5
 10
57.36657
 20
196.697588
 30
0.0
 11
57.163369
 21
196.837588
 31
0.0
  0
LINE
  5
1AB2F
  8
0
 62
     5
 10
57.163369
 20
197.117588
 30
0.0
 11
56.608712
 21
197.437819
 31
0.0
  0
LINE
  5
1AB30
  8
0
 62
     5
 10
56.771846
 20
197.600952
 30
0.0
 11
57.36657
 21
197.257588
 31
0.0
  0
LINE
  5
1AB31
  8
0
 62
     5
 10
57.92657
 20
196.697588
 30
0.0
 11
57.219369
 21
196.837588
 31
0.0
  0
LINE
  5
1AB32
  8
0
 62
     5
 10
57.92657
 20
196.697588
 30
0.0
 11
57.36657
 21
196.697588
 31
0.0
  0
LINE
  5
1AB33
  8
0
 62
     5
 10
57.92657
 20
197.257588
 30
0.0
 11
57.219369
 21
197.117588
 31
0.0
  0
LINE
  5
1AB34
  8
0
 62
     5
 10
57.163369
 20
196.837588
 30
0.0
 11
57.219369
 21
196.837588
 31
0.0
  0
LINE
  5
1AB35
  8
0
 62
     5
 10
57.219369
 20
197.117588
 30
0.0
 11
57.163369
 21
197.117588
 31
0.0
  0
LINE
  5
1AB36
  8
0
 62
     5
 10
57.36657
 20
197.257588
 30
0.0
 11
57.92657
 21
197.257588
 31
0.0
  0
ARC
  5
1AB37
  8
0
 62
     5
 10
56.148481
 20
196.977588
 30
0.0
 40
1.127721
 50
289.033269
 51
340.966731
  0
ARC
  5
1AB38
  8
0
 62
     5
 10
56.148481
 20
196.977588
 30
0.0
 40
1.127721
 50
19.033269
 51
70.966731
  0
ARC
  5
1AB39
  8
0
 62
     5
 10
56.148481
 20
196.977588
 30
0.0
 40
1.08
 50
352.551809
 51
7.448191
  0
ARC
  5
1AB3A
  8
0
 62
     5
 10
56.148481
 20
196.977588
 30
0.0
 40
1.8
 50
351.050982
 51
8.949018
  0
LINE
  5
1AB3B
  8
0
 62
     5
 10
56.428481
 20
198.755677
 30
0.0
 11
56.428481
 21
198.195677
 31
0.0
  0
LINE
  5
1AB3C
  8
0
 62
     5
 10
46.944443
 20
200.48888
 30
0.0
 11
52.885074
 21
200.48888
 31
0.0
  0
ARC
  5
1AB3D
  8
0
 62
     5
 10
84.244443
 20
199.48888
 30
0.0
 40
1.0
 50
0.0
 51
90.0
  0
ARC
  5
1AB3E
  8
0
 62
     5
 10
91.078746
 20
199.48888
 30
0.0
 40
1.0
 50
4.388399
 51
90.0
  0
LINE
  5
1AB3F
  8
0
 62
     5
 10
98.653151
 20
185.006753
 30
0.0
 11
98.793151
 21
185.713954
 31
0.0
  0
LINE
  5
1AB40
  8
0
 62
     5
 10
98.653151
 20
185.006753
 30
0.0
 11
98.653151
 21
185.566753
 31
0.0
  0
LINE
  5
1AB41
  8
0
 62
     5
 10
99.213151
 20
185.566753
 30
0.0
 11
99.213151
 21
185.006753
 31
0.0
  0
LINE
  5
1AB42
  8
0
 62
     5
 10
99.213151
 20
185.006753
 30
0.0
 11
99.073151
 21
185.713954
 31
0.0
  0
ARC
  5
1AB43
  8
0
 62
     5
 10
98.444443
 20
186.48888
 30
0.0
 40
3.5
 50
180.0
 51
270.0
  0
CIRCLE
  5
1AB44
  8
0
 62
     5
 10
98.933151
 20
186.784842
 30
0.0
 40
2.75
  0
ARC
  5
1AB45
  8
0
 62
     5
 10
98.933151
 20
186.784842
 30
0.0
 40
2.95
 50
276.813854
 51
263.186146
  0
CIRCLE
  5
1AB46
  8
0
 62
     5
 10
98.933151
 20
186.784842
 30
0.0
 40
3.0
  0
LINE
  5
1AB47
  8
0
 62
     5
 10
98.583151
 20
184.059581
 30
0.0
 11
98.583151
 21
183.855678
 31
0.0
  0
LINE
  5
1AB48
  8
0
 62
     5
 10
99.283151
 20
183.855678
 30
0.0
 11
99.283151
 21
184.059581
 31
0.0
  0
ARC
  5
1AB49
  8
0
 62
     5
 10
98.933151
 20
186.784842
 30
0.0
 40
1.8
 50
261.050982
 51
278.949018
  0
LINE
  5
1AB4A
  8
0
 62
     5
 10
101.444443
 20
182.98888
 30
0.0
 11
98.444443
 21
182.98888
 31
0.0
  0
ARC
  5
1AB4B
  8
0
 62
     5
 10
92.085887
 20
192.48888
 30
0.0
 40
1.0
 50
28.28907
 51
90.0
  0
LINE
  5
1AB4C
  8
0
 62
     5
 10
92.075814
 20
199.565397
 30
0.0
 11
92.403118
 21
194.928901
 31
0.0
  0
ARC
  5
1AB4D
  8
0
 62
     5
 10
97.19318
 20
195.237617
 30
0.0
 40
4.533836
 50
183.687572
 51
266.312428
  0
ARC
  5
1AB4E
  8
0
 62
     5
 10
97.19318
 20
195.237617
 30
0.0
 40
4.8
 50
183.687572
 51
266.312428
  0
ARC
  5
1AB4F
  8
0
 62
     5
 10
88.744443
 20
196.98888
 30
0.0
 40
3.5
 50
180.0
 51
270.0
  0
LINE
  5
1AB50
  8
0
 62
     5
 10
85.244443
 20
196.98888
 30
0.0
 11
85.244443
 21
199.48888
 31
0.0
  0
LINE
  5
1AB51
  8
0
 62
     5
 10
92.085887
 20
193.48888
 30
0.0
 11
88.744443
 21
193.48888
 31
0.0
  0
ARC
  5
1AB52
  8
CENTER
 10
72.444443
 20
170.48888
 30
0.0
 40
35.0
 50
36.254023
 51
54.381034
  0
LINE
  5
1AB53
  8
0
 62
     5
 10
102.444443
 20
195.98888
 30
0.0
 11
102.444443
 21
190.048249
 31
0.0
  0
CIRCLE
  5
1AB54
  8
0
 62
     5
 10
97.19318
 20
195.237617
 30
0.0
 40
2.9
  0
LINE
  5
1AB55
  8
0
 62
     5
 10
97.155062
 20
187.064842
 30
0.0
 11
97.715062
 21
187.064842
 31
0.0
  0
LINE
  5
1AB56
  8
0
 62
     5
 10
97.155062
 20
187.064842
 30
0.0
 11
97.862263
 21
186.924842
 31
0.0
  0
LINE
  5
1AB57
  8
0
 62
     5
 10
97.155062
 20
186.504842
 30
0.0
 11
97.862263
 21
186.644842
 31
0.0
  0
LINE
  5
1AB58
  8
0
 62
     5
 10
97.715062
 20
186.504842
 30
0.0
 11
97.155062
 21
186.504842
 31
0.0
  0
ARC
  5
1AB59
  8
0
 62
     5
 10
72.444443
 20
-188.76569
 30
0.0
 40
380.266164
 50
85.574357
 51
86.312428
  0
ARC
  5
1AB5A
  8
0
 62
     5
 10
72.444443
 20
-188.76569
 30
0.0
 40
380.0
 50
85.611601
 51
86.312428
  0
ARC
  5
1AB5B
  8
0
 62
     5
 10
93.944443
 20
190.432859
 30
0.0
 40
1.0
 50
0.0
 51
55.93541
  0
LINE
  5
1AB5C
  8
0
 62
     5
 10
94.944443
 20
186.48888
 30
0.0
 11
94.944443
 21
190.432859
 31
0.0
  0
ARC
  5
1AB5D
  8
0
 62
     5
 10
98.933151
 20
186.784842
 30
0.0
 40
1.8
 50
171.050982
 51
188.949018
  0
LINE
  5
1AB5E
  8
0
 62
     5
 10
100.15124
 20
187.064842
 30
0.0
 11
99.948038
 21
186.924842
 31
0.0
  0
LINE
  5
1AB5F
  8
0
 62
     5
 10
100.71124
 20
187.064842
 30
0.0
 11
100.004038
 21
186.924842
 31
0.0
  0
LINE
  5
1AB60
  8
0
 62
     5
 10
100.004038
 20
186.924842
 30
0.0
 11
99.948038
 21
186.924842
 31
0.0
  0
LINE
  5
1AB61
  8
0
 62
     5
 10
100.15124
 20
187.064842
 30
0.0
 11
100.71124
 21
187.064842
 31
0.0
  0
LINE
  5
1AB62
  8
0
 62
     5
 10
100.71124
 20
186.504842
 30
0.0
 11
100.15124
 21
186.504842
 31
0.0
  0
LINE
  5
1AB63
  8
0
 62
     5
 10
99.948038
 20
186.644842
 30
0.0
 11
100.004038
 21
186.644842
 31
0.0
  0
LINE
  5
1AB64
  8
0
 62
     5
 10
100.71124
 20
186.504842
 30
0.0
 11
100.004038
 21
186.644842
 31
0.0
  0
LINE
  5
1AB65
  8
0
 62
     5
 10
100.15124
 20
186.504842
 30
0.0
 11
99.948038
 21
186.644842
 31
0.0
  0
ARC
  5
1AB66
  8
0
 62
     5
 10
98.933151
 20
186.784842
 30
0.0
 40
1.08
 50
352.551809
 51
7.448191
  0
ARC
  5
1AB67
  8
0
 62
     5
 10
98.933151
 20
186.784842
 30
0.0
 40
1.8
 50
351.050982
 51
8.949018
  0
LINE
  5
1AB68
  8
0
 62
     5
 10
97.715062
 20
187.064842
 30
0.0
 11
98.309786
 21
187.408206
 31
0.0
  0
LINE
  5
1AB69
  8
0
 62
     5
 10
98.47292
 20
187.245073
 30
0.0
 11
97.918263
 21
186.924842
 31
0.0
  0
LINE
  5
1AB6A
  8
0
 62
     5
 10
99.213151
 20
188.002931
 30
0.0
 11
99.073151
 21
187.799729
 31
0.0
  0
LINE
  5
1AB6B
  8
0
 62
     5
 10
98.309786
 20
187.408206
 30
0.0
 11
98.653151
 21
188.002931
 31
0.0
  0
LINE
  5
1AB6C
  8
0
 62
     5
 10
98.793151
 20
187.799729
 30
0.0
 11
98.47292
 21
187.245073
 31
0.0
  0
LINE
  5
1AB6D
  8
0
 62
     5
 10
97.918263
 20
186.924842
 30
0.0
 11
97.862263
 21
186.924842
 31
0.0
  0
LINE
  5
1AB6E
  8
0
 62
     5
 10
99.213151
 20
188.562931
 30
0.0
 11
99.073151
 21
187.855729
 31
0.0
  0
LINE
  5
1AB6F
  8
0
 62
     5
 10
98.653151
 20
188.002931
 30
0.0
 11
98.653151
 21
188.562931
 31
0.0
  0
LINE
  5
1AB70
  8
0
 62
     5
 10
98.793151
 20
187.855729
 30
0.0
 11
98.793151
 21
187.799729
 31
0.0
  0
LINE
  5
1AB71
  8
0
 62
     5
 10
99.073151
 20
187.799729
 30
0.0
 11
99.073151
 21
187.855729
 31
0.0
  0
LINE
  5
1AB72
  8
0
 62
     5
 10
99.213151
 20
188.562931
 30
0.0
 11
99.213151
 21
188.002931
 31
0.0
  0
LINE
  5
1AB73
  8
0
 62
     5
 10
97.715062
 20
187.064842
 30
0.0
 11
97.918263
 21
186.924842
 31
0.0
  0
LINE
  5
1AB74
  8
0
 62
     5
 10
98.653151
 20
188.562931
 30
0.0
 11
98.793151
 21
187.855729
 31
0.0
  0
LINE
  5
1AB75
  8
0
 62
     5
 10
98.653151
 20
188.002931
 30
0.0
 11
98.793151
 21
187.799729
 31
0.0
  0
LINE
  5
1AB76
  8
0
 62
     5
 10
99.393382
 20
187.245073
 30
0.0
 11
99.073151
 21
187.799729
 31
0.0
  0
LINE
  5
1AB77
  8
0
 62
     5
 10
99.213151
 20
188.002931
 30
0.0
 11
99.556515
 21
187.408206
 31
0.0
  0
ARC
  5
1AB78
  8
0
 62
     5
 10
98.933151
 20
186.784842
 30
0.0
 40
1.127721
 50
109.033269
 51
160.966731
  0
ARC
  5
1AB79
  8
0
 62
     5
 10
98.933151
 20
186.784842
 30
0.0
 40
1.08
 50
82.551809
 51
97.448191
  0
ARC
  5
1AB7A
  8
0
 62
     5
 10
98.933151
 20
186.784842
 30
0.0
 40
1.8
 50
81.050982
 51
98.949018
  0
LINE
  5
1AB7B
  8
0
 62
     5
 10
97.715062
 20
186.504842
 30
0.0
 11
97.918263
 21
186.644842
 31
0.0
  0
LINE
  5
1AB7C
  8
0
 62
     5
 10
99.073151
 20
185.769954
 30
0.0
 11
99.393382
 21
186.324611
 31
0.0
  0
LINE
  5
1AB7D
  8
0
 62
     5
 10
99.556515
 20
186.161477
 30
0.0
 11
99.213151
 21
185.566753
 31
0.0
  0
LINE
  5
1AB7E
  8
0
 62
     5
 10
98.653151
 20
185.566753
 30
0.0
 11
98.793151
 21
185.769954
 31
0.0
  0
LINE
  5
1AB7F
  8
0
 62
     5
 10
97.862263
 20
186.644842
 30
0.0
 11
97.918263
 21
186.644842
 31
0.0
  0
LINE
  5
1AB80
  8
0
 62
     5
 10
98.793151
 20
185.769954
 30
0.0
 11
98.793151
 21
185.713954
 31
0.0
  0
LINE
  5
1AB81
  8
0
 62
     5
 10
99.073151
 20
185.713954
 30
0.0
 11
99.073151
 21
185.769954
 31
0.0
  0
LINE
  5
1AB82
  8
0
 62
     5
 10
98.309786
 20
186.161477
 30
0.0
 11
97.715062
 21
186.504842
 31
0.0
  0
LINE
  5
1AB83
  8
0
 62
     5
 10
97.918263
 20
186.644842
 30
0.0
 11
98.47292
 21
186.324611
 31
0.0
  0
LINE
  5
1AB84
  8
0
 62
     5
 10
99.213151
 20
185.566753
 30
0.0
 11
99.073151
 21
185.769954
 31
0.0
  0
LINE
  5
1AB85
  8
0
 62
     5
 10
98.653151
 20
185.566753
 30
0.0
 11
98.309786
 21
186.161477
 31
0.0
  0
LINE
  5
1AB86
  8
0
 62
     5
 10
98.47292
 20
186.324611
 30
0.0
 11
98.793151
 21
185.769954
 31
0.0
  0
ARC
  5
1AB87
  8
0
 62
     5
 10
98.933151
 20
186.784842
 30
0.0
 40
1.08
 50
262.551809
 51
277.448191
  0
ARC
  5
1AB88
  8
0
 62
     5
 10
98.933151
 20
186.784842
 30
0.0
 40
1.127721
 50
199.033269
 51
250.966731
  0
LINE
  5
1AB89
  8
0
 62
     5
 10
98.309786
 20
186.161477
 30
0.0
 11
99.556515
 21
187.408206
 31
0.0
  0
LINE
  5
1AB8A
  8
0
 62
     5
 10
98.793151
 20
185.713954
 30
0.0
 11
99.073151
 21
187.855729
 31
0.0
  0
LINE
  5
1AB8B
  8
0
 62
     5
 10
98.793151
 20
185.769954
 30
0.0
 11
99.073151
 21
187.799729
 31
0.0
  0
LINE
  5
1AB8C
  8
0
 62
     5
 10
99.556515
 20
186.161477
 30
0.0
 11
98.309786
 21
187.408206
 31
0.0
  0
LINE
  5
1AB8D
  8
0
 62
     5
 10
99.073151
 20
185.769954
 30
0.0
 11
98.793151
 21
187.799729
 31
0.0
  0
LINE
  5
1AB8E
  8
0
 62
     5
 10
99.073151
 20
185.713954
 30
0.0
 11
98.793151
 21
187.855729
 31
0.0
  0
ARC
  5
1AB8F
  8
0
 62
     5
 10
98.933151
 20
186.784842
 30
0.0
 40
1.08
 50
172.551809
 51
187.448191
  0
LINE
  5
1AB90
  8
0
 62
     5
 10
99.393382
 20
186.324611
 30
0.0
 11
99.948038
 21
186.644842
 31
0.0
  0
LINE
  5
1AB91
  8
0
 62
     5
 10
100.15124
 20
186.504842
 30
0.0
 11
99.556515
 21
186.161477
 31
0.0
  0
LINE
  5
1AB92
  8
0
 62
     5
 10
97.918263
 20
186.644842
 30
0.0
 11
99.948038
 21
186.924842
 31
0.0
  0
LINE
  5
1AB93
  8
0
 62
     5
 10
97.862263
 20
186.644842
 30
0.0
 11
100.004038
 21
186.924842
 31
0.0
  0
LINE
  5
1AB94
  8
0
 62
     5
 10
97.862263
 20
186.924842
 30
0.0
 11
100.004038
 21
186.644842
 31
0.0
  0
LINE
  5
1AB95
  8
0
 62
     5
 10
97.918263
 20
186.924842
 30
0.0
 11
99.948038
 21
186.644842
 31
0.0
  0
LINE
  5
1AB96
  8
0
 62
     5
 10
99.948038
 20
186.924842
 30
0.0
 11
99.393382
 21
187.245073
 31
0.0
  0
LINE
  5
1AB97
  8
0
 62
     5
 10
99.556515
 20
187.408206
 30
0.0
 11
100.15124
 21
187.064842
 31
0.0
  0
ARC
  5
1AB98
  8
0
 62
     5
 10
98.933151
 20
186.784842
 30
0.0
 40
1.127721
 50
289.033269
 51
340.966731
  0
ARC
  5
1AB99
  8
0
 62
     5
 10
98.933151
 20
186.784842
 30
0.0
 40
1.127721
 50
19.033269
 51
70.966731
  0
ARC
  5
1AB9A
  8
0
 62
     5
 10
-286.810127
 20
170.48888
 30
0.0
 40
380.266164
 50
3.687572
 51
4.425643
  0
LINE
  5
1AB9B
  8
0
 62
     5
 10
92.003812
 20
200.48888
 30
0.0
 11
97.944443
 21
200.48888
 31
0.0
  0
LINE
  5
1AB9C
  8
0
 62
     5
 10
199.392545
 20
135.18888
 30
0.0
 11
180.02984
 21
135.18888
 31
0.0
  0
LINE
  5
1AB9D
  8
0
 62
     5
 10
199.854761
 20
138.48888
 30
0.0
 11
180.112276
 21
138.48888
 31
0.0
  0
LINE
  5
1AB9E
  8
0
 62
     5
 10
156.383518
 20
200.48888
 30
0.0
 11
199.983518
 21
200.48888
 31
0.0
  0
LINE
  5
1AB9F
  8
0
 62
     5
 10
156.383518
 20
190.447555
 30
0.0
 11
199.983518
 21
190.447555
 31
0.0
  0
LINE
  5
1ABA0
  8
0
 62
     5
 10
156.183518
 20
150.530205
 30
0.0
 11
200.045322
 21
150.539973
 31
0.0
  0
LINE
  5
1ABA1
  8
0
 62
     5
 10
199.983518
 20
140.48888
 30
0.0
 11
156.383518
 21
140.48888
 31
0.0
  0
LINE
  5
1ABA2
  8
0
 62
     5
 10
156.183518
 20
200.28888
 30
0.0
 11
156.183518
 21
140.48888
 31
0.0
  0
LINE
  5
1ABA3
  8
0
 62
     5
 10
132.183518
 20
138.68888
 30
0.0
 11
132.183518
 21
199.48888
 31
0.0
  0
LINE
  5
1ABA4
  8
0
 62
     5
 10
102.710607
 20
189.369632
 30
0.0
 11
102.710607
 21
151.608128
 31
0.0
  0
LINE
  5
1ABA5
  8
HIDDEN
 10
160.205231
 20
124.48888
 30
0.0
 11
140.529859
 21
124.488882
 31
0.0
  0
LINE
  5
1ABA6
  8
0
 62
     5
 10
132.183518
 20
150.847436
 30
0.0
 11
148.184412
 21
150.847436
 31
0.0
  0
LINE
  5
1ABA7
  8
0
 62
     5
 10
133.183518
 20
157.68888
 30
0.0
 11
148.183518
 21
157.68888
 31
0.0
  0
LINE
  5
1ABA8
  8
0
 62
     5
 10
151.393938
 20
132.98888
 30
0.0
 11
136.573099
 21
132.98888
 31
0.0
  0
LINE
  5
1ABA9
  8
0
 62
     5
 10
142.2934
 20
133.28888
 30
0.0
 11
148.614605
 21
133.28888
 31
0.0
  0
LINE
  5
1ABAA
  8
0
 62
     5
 10
133.871823
 20
137.48888
 30
0.0
 11
154.095214
 21
137.48888
 31
0.0
  0
LINE
  5
1ABAB
  8
0
 62
     5
 10
132.383518
 20
138.48888
 30
0.0
 11
155.483518
 21
138.48888
 31
0.0
  0
LINE
  5
1ABAC
  8
0
 62
     5
 10
133.183518
 20
140.48888
 30
0.0
 11
156.183518
 21
140.48888
 31
0.0
  0
LINE
  5
1ABAD
  8
0
 62
     5
 10
151.183518
 20
147.98888
 30
0.0
 11
133.183518
 21
147.98888
 31
0.0
  0
ARC
  5
1ABAE
  8
HIDDEN
 10
140.417522
 20
131.277088
 30
0.0
 40
6.789135
 50
195.389534
 51
270.948097
  0
POLYLINE
  5
1ABAF
  8
0
 62
     5
 66
     1
 10
0.0
 20
0.0
 30
0.0
 70
     8
  0
VERTEX
  5
1ABB0
  8
0
 62
     5
 10
132.184
 20
141.434
 30
0.0
 70
    32
  0
VERTEX
  5
1ABB1
  8
0
 62
     5
 10
132.184
 20
141.434
 30
0.0
 70
    32
  0
VERTEX
  5
1ABB2
  8
0
 62
     5
 10
132.184
 20
141.435
 30
0.0
 70
    32
  0
VERTEX
  5
1ABB3
  8
0
 62
     5
 10
132.184
 20
141.435
 30
0.0
 70
    32
  0
VERTEX
  5
1ABB4
  8
0
 62
     5
 10
132.184
 20
141.436
 30
0.0
 70
    32
  0
VERTEX
  5
1ABB5
  8
0
 62
     5
 10
132.184
 20
141.436
 30
0.0
 70
    32
  0
VERTEX
  5
1ABB6
  8
0
 62
     5
 10
132.184
 20
141.436
 30
0.0
 70
    32
  0
VERTEX
  5
1ABB7
  8
0
 62
     5
 10
132.184
 20
141.437
 30
0.0
 70
    32
  0
VERTEX
  5
1ABB8
  8
0
 62
     5
 10
132.184
 20
141.437
 30
0.0
 70
    32
  0
VERTEX
  5
1ABB9
  8
0
 62
     5
 10
132.184
 20
141.438
 30
0.0
 70
    32
  0
VERTEX
  5
1ABBA
  8
0
 62
     5
 10
132.184
 20
141.438
 30
0.0
 70
    32
  0
VERTEX
  5
1ABBB
  8
0
 62
     5
 10
132.184
 20
141.439
 30
0.0
 70
    32
  0
VERTEX
  5
1ABBC
  8
0
 62
     5
 10
132.184
 20
141.439
 30
0.0
 70
    32
  0
VERTEX
  5
1ABBD
  8
0
 62
     5
 10
132.184
 20
141.439
 30
0.0
 70
    32
  0
VERTEX
  5
1ABBE
  8
0
 62
     5
 10
132.184
 20
141.44
 30
0.0
 70
    32
  0
VERTEX
  5
1ABBF
  8
0
 62
     5
 10
132.184
 20
141.44
 30
0.0
 70
    32
  0
VERTEX
  5
1ABC0
  8
0
 62
     5
 10
132.184
 20
141.441
 30
0.0
 70
    32
  0
VERTEX
  5
1ABC1
  8
0
 62
     5
 10
132.184
 20
141.441
 30
0.0
 70
    32
  0
VERTEX
  5
1ABC2
  8
0
 62
     5
 10
132.184
 20
141.442
 30
0.0
 70
    32
  0
VERTEX
  5
1ABC3
  8
0
 62
     5
 10
132.184
 20
141.442
 30
0.0
 70
    32
  0
VERTEX
  5
1ABC4
  8
0
 62
     5
 10
132.184
 20
141.443
 30
0.0
 70
    32
  0
VERTEX
  5
1ABC5
  8
0
 62
     5
 10
132.184
 20
141.443
 30
0.0
 70
    32
  0
VERTEX
  5
1ABC6
  8
0
 62
     5
 10
132.184
 20
141.443
 30
0.0
 70
    32
  0
VERTEX
  5
1ABC7
  8
0
 62
     5
 10
132.184
 20
141.444
 30
0.0
 70
    32
  0
VERTEX
  5
1ABC8
  8
0
 62
     5
 10
132.184
 20
141.444
 30
0.0
 70
    32
  0
VERTEX
  5
1ABC9
  8
0
 62
     5
 10
132.184
 20
141.445
 30
0.0
 70
    32
  0
VERTEX
  5
1ABCA
  8
0
 62
     5
 10
132.184
 20
141.445
 30
0.0
 70
    32
  0
VERTEX
  5
1ABCB
  8
0
 62
     5
 10
132.184
 20
141.446
 30
0.0
 70
    32
  0
VERTEX
  5
1ABCC
  8
0
 62
     5
 10
132.184
 20
141.446
 30
0.0
 70
    32
  0
VERTEX
  5
1ABCD
  8
0
 62
     5
 10
132.184
 20
141.446
 30
0.0
 70
    32
  0
VERTEX
  5
1ABCE
  8
0
 62
     5
 10
132.184
 20
141.447
 30
0.0
 70
    32
  0
VERTEX
  5
1ABCF
  8
0
 62
     5
 10
132.184
 20
141.447
 30
0.0
 70
    32
  0
VERTEX
  5
1ABD0
  8
0
 62
     5
 10
132.184
 20
141.448
 30
0.0
 70
    32
  0
VERTEX
  5
1ABD1
  8
0
 62
     5
 10
132.184
 20
141.448
 30
0.0
 70
    32
  0
VERTEX
  5
1ABD2
  8
0
 62
     5
 10
132.184
 20
141.449
 30
0.0
 70
    32
  0
VERTEX
  5
1ABD3
  8
0
 62
     5
 10
132.184
 20
141.449
 30
0.0
 70
    32
  0
VERTEX
  5
1ABD4
  8
0
 62
     5
 10
132.184
 20
141.449
 30
0.0
 70
    32
  0
VERTEX
  5
1ABD5
  8
0
 62
     5
 10
132.184
 20
141.45
 30
0.0
 70
    32
  0
VERTEX
  5
1ABD6
  8
0
 62
     5
 10
132.184
 20
141.45
 30
0.0
 70
    32
  0
VERTEX
  5
1ABD7
  8
0
 62
     5
 10
132.184
 20
141.451
 30
0.0
 70
    32
  0
VERTEX
  5
1ABD8
  8
0
 62
     5
 10
132.184
 20
141.451
 30
0.0
 70
    32
  0
VERTEX
  5
1ABD9
  8
0
 62
     5
 10
132.184
 20
141.452
 30
0.0
 70
    32
  0
VERTEX
  5
1ABDA
  8
0
 62
     5
 10
132.184
 20
141.452
 30
0.0
 70
    32
  0
VERTEX
  5
1ABDB
  8
0
 62
     5
 10
132.184
 20
141.452
 30
0.0
 70
    32
  0
VERTEX
  5
1ABDC
  8
0
 62
     5
 10
132.184
 20
141.453
 30
0.0
 70
    32
  0
VERTEX
  5
1ABDD
  8
0
 62
     5
 10
132.184
 20
141.453
 30
0.0
 70
    32
  0
VERTEX
  5
1ABDE
  8
0
 62
     5
 10
132.184
 20
141.454
 30
0.0
 70
    32
  0
VERTEX
  5
1ABDF
  8
0
 62
     5
 10
132.184
 20
141.454
 30
0.0
 70
    32
  0
VERTEX
  5
1ABE0
  8
0
 62
     5
 10
132.184
 20
141.455
 30
0.0
 70
    32
  0
VERTEX
  5
1ABE1
  8
0
 62
     5
 10
132.184
 20
141.455
 30
0.0
 70
    32
  0
VERTEX
  5
1ABE2
  8
0
 62
     5
 10
132.184
 20
141.456
 30
0.0
 70
    32
  0
VERTEX
  5
1ABE3
  8
0
 62
     5
 10
132.184
 20
141.456
 30
0.0
 70
    32
  0
VERTEX
  5
1ABE4
  8
0
 62
     5
 10
132.184
 20
141.456
 30
0.0
 70
    32
  0
VERTEX
  5
1ABE5
  8
0
 62
     5
 10
132.184
 20
141.457
 30
0.0
 70
    32
  0
VERTEX
  5
1ABE6
  8
0
 62
     5
 10
132.184
 20
141.457
 30
0.0
 70
    32
  0
VERTEX
  5
1ABE7
  8
0
 62
     5
 10
132.184
 20
141.458
 30
0.0
 70
    32
  0
VERTEX
  5
1ABE8
  8
0
 62
     5
 10
132.184
 20
141.458
 30
0.0
 70
    32
  0
VERTEX
  5
1ABE9
  8
0
 62
     5
 10
132.184
 20
141.459
 30
0.0
 70
    32
  0
VERTEX
  5
1ABEA
  8
0
 62
     5
 10
132.184
 20
141.459
 30
0.0
 70
    32
  0
VERTEX
  5
1ABEB
  8
0
 62
     5
 10
132.184
 20
141.459
 30
0.0
 70
    32
  0
VERTEX
  5
1ABEC
  8
0
 62
     5
 10
132.184
 20
141.46
 30
0.0
 70
    32
  0
VERTEX
  5
1ABED
  8
0
 62
     5
 10
132.184
 20
141.46
 30
0.0
 70
    32
  0
VERTEX
  5
1ABEE
  8
0
 62
     5
 10
132.184
 20
141.461
 30
0.0
 70
    32
  0
VERTEX
  5
1ABEF
  8
0
 62
     5
 10
132.184
 20
141.461
 30
0.0
 70
    32
  0
VERTEX
  5
1ABF0
  8
0
 62
     5
 10
132.184
 20
141.462
 30
0.0
 70
    32
  0
VERTEX
  5
1ABF1
  8
0
 62
     5
 10
132.184
 20
141.462
 30
0.0
 70
    32
  0
VERTEX
  5
1ABF2
  8
0
 62
     5
 10
132.184
 20
141.462
 30
0.0
 70
    32
  0
VERTEX
  5
1ABF3
  8
0
 62
     5
 10
132.184
 20
141.463
 30
0.0
 70
    32
  0
VERTEX
  5
1ABF4
  8
0
 62
     5
 10
132.184
 20
141.463
 30
0.0
 70
    32
  0
VERTEX
  5
1ABF5
  8
0
 62
     5
 10
132.184
 20
141.464
 30
0.0
 70
    32
  0
VERTEX
  5
1ABF6
  8
0
 62
     5
 10
132.184
 20
141.464
 30
0.0
 70
    32
  0
VERTEX
  5
1ABF7
  8
0
 62
     5
 10
132.184
 20
141.465
 30
0.0
 70
    32
  0
VERTEX
  5
1ABF8
  8
0
 62
     5
 10
132.184
 20
141.465
 30
0.0
 70
    32
  0
VERTEX
  5
1ABF9
  8
0
 62
     5
 10
132.184
 20
141.465
 30
0.0
 70
    32
  0
VERTEX
  5
1ABFA
  8
0
 62
     5
 10
132.184
 20
141.466
 30
0.0
 70
    32
  0
VERTEX
  5
1ABFB
  8
0
 62
     5
 10
132.184
 20
141.466
 30
0.0
 70
    32
  0
VERTEX
  5
1ABFC
  8
0
 62
     5
 10
132.184
 20
141.467
 30
0.0
 70
    32
  0
VERTEX
  5
1ABFD
  8
0
 62
     5
 10
132.184
 20
141.467
 30
0.0
 70
    32
  0
VERTEX
  5
1ABFE
  8
0
 62
     5
 10
132.184
 20
141.468
 30
0.0
 70
    32
  0
VERTEX
  5
1ABFF
  8
0
 62
     5
 10
132.184
 20
141.468
 30
0.0
 70
    32
  0
VERTEX
  5
1AC00
  8
0
 62
     5
 10
132.184
 20
141.469
 30
0.0
 70
    32
  0
VERTEX
  5
1AC01
  8
0
 62
     5
 10
132.184
 20
141.469
 30
0.0
 70
    32
  0
VERTEX
  5
1AC02
  8
0
 62
     5
 10
132.184
 20
141.469
 30
0.0
 70
    32
  0
VERTEX
  5
1AC03
  8
0
 62
     5
 10
132.184
 20
141.47
 30
0.0
 70
    32
  0
VERTEX
  5
1AC04
  8
0
 62
     5
 10
132.184
 20
141.47
 30
0.0
 70
    32
  0
VERTEX
  5
1AC05
  8
0
 62
     5
 10
132.184
 20
141.471
 30
0.0
 70
    32
  0
VERTEX
  5
1AC06
  8
0
 62
     5
 10
132.184
 20
141.471
 30
0.0
 70
    32
  0
VERTEX
  5
1AC07
  8
0
 62
     5
 10
132.184
 20
141.472
 30
0.0
 70
    32
  0
VERTEX
  5
1AC08
  8
0
 62
     5
 10
132.184
 20
141.472
 30
0.0
 70
    32
  0
VERTEX
  5
1AC09
  8
0
 62
     5
 10
132.184
 20
141.472
 30
0.0
 70
    32
  0
VERTEX
  5
1AC0A
  8
0
 62
     5
 10
132.184
 20
141.473
 30
0.0
 70
    32
  0
VERTEX
  5
1AC0B
  8
0
 62
     5
 10
132.184
 20
141.473
 30
0.0
 70
    32
  0
VERTEX
  5
1AC0C
  8
0
 62
     5
 10
132.184
 20
141.474
 30
0.0
 70
    32
  0
VERTEX
  5
1AC0D
  8
0
 62
     5
 10
132.184
 20
141.474
 30
0.0
 70
    32
  0
VERTEX
  5
1AC0E
  8
0
 62
     5
 10
132.184
 20
141.475
 30
0.0
 70
    32
  0
VERTEX
  5
1AC0F
  8
0
 62
     5
 10
132.184
 20
141.475
 30
0.0
 70
    32
  0
VERTEX
  5
1AC10
  8
0
 62
     5
 10
132.184
 20
141.475
 30
0.0
 70
    32
  0
VERTEX
  5
1AC11
  8
0
 62
     5
 10
132.184
 20
141.476
 30
0.0
 70
    32
  0
VERTEX
  5
1AC12
  8
0
 62
     5
 10
132.184
 20
141.476
 30
0.0
 70
    32
  0
VERTEX
  5
1AC13
  8
0
 62
     5
 10
132.184
 20
141.477
 30
0.0
 70
    32
  0
VERTEX
  5
1AC14
  8
0
 62
     5
 10
132.184
 20
141.477
 30
0.0
 70
    32
  0
VERTEX
  5
1AC15
  8
0
 62
     5
 10
132.184
 20
141.478
 30
0.0
 70
    32
  0
VERTEX
  5
1AC16
  8
0
 62
     5
 10
132.184
 20
141.478
 30
0.0
 70
    32
  0
VERTEX
  5
1AC17
  8
0
 62
     5
 10
132.184
 20
141.478
 30
0.0
 70
    32
  0
VERTEX
  5
1AC18
  8
0
 62
     5
 10
132.184
 20
141.479
 30
0.0
 70
    32
  0
VERTEX
  5
1AC19
  8
0
 62
     5
 10
132.184
 20
141.479
 30
0.0
 70
    32
  0
VERTEX
  5
1AC1A
  8
0
 62
     5
 10
132.184
 20
141.48
 30
0.0
 70
    32
  0
VERTEX
  5
1AC1B
  8
0
 62
     5
 10
132.184
 20
141.48
 30
0.0
 70
    32
  0
VERTEX
  5
1AC1C
  8
0
 62
     5
 10
132.184
 20
141.481
 30
0.0
 70
    32
  0
VERTEX
  5
1AC1D
  8
0
 62
     5
 10
132.184
 20
141.481
 30
0.0
 70
    32
  0
VERTEX
  5
1AC1E
  8
0
 62
     5
 10
132.184
 20
141.482
 30
0.0
 70
    32
  0
VERTEX
  5
1AC1F
  8
0
 62
     5
 10
132.184
 20
141.482
 30
0.0
 70
    32
  0
VERTEX
  5
1AC20
  8
0
 62
     5
 10
132.184
 20
141.482
 30
0.0
 70
    32
  0
VERTEX
  5
1AC21
  8
0
 62
     5
 10
132.184
 20
141.483
 30
0.0
 70
    32
  0
VERTEX
  5
1AC22
  8
0
 62
     5
 10
132.184
 20
141.483
 30
0.0
 70
    32
  0
VERTEX
  5
1AC23
  8
0
 62
     5
 10
132.184
 20
141.484
 30
0.0
 70
    32
  0
VERTEX
  5
1AC24
  8
0
 62
     5
 10
132.184
 20
141.484
 30
0.0
 70
    32
  0
VERTEX
  5
1AC25
  8
0
 62
     5
 10
132.184
 20
141.485
 30
0.0
 70
    32
  0
VERTEX
  5
1AC26
  8
0
 62
     5
 10
132.184
 20
141.485
 30
0.0
 70
    32
  0
VERTEX
  5
1AC27
  8
0
 62
     5
 10
132.184
 20
141.485
 30
0.0
 70
    32
  0
VERTEX
  5
1AC28
  8
0
 62
     5
 10
132.184
 20
141.486
 30
0.0
 70
    32
  0
VERTEX
  5
1AC29
  8
0
 62
     5
 10
132.184
 20
141.486
 30
0.0
 70
    32
  0
VERTEX
  5
1AC2A
  8
0
 62
     5
 10
132.184
 20
141.487
 30
0.0
 70
    32
  0
VERTEX
  5
1AC2B
  8
0
 62
     5
 10
132.184
 20
141.487
 30
0.0
 70
    32
  0
VERTEX
  5
1AC2C
  8
0
 62
     5
 10
132.184
 20
141.488
 30
0.0
 70
    32
  0
VERTEX
  5
1AC2D
  8
0
 62
     5
 10
132.184
 20
141.488
 30
0.0
 70
    32
  0
VERTEX
  5
1AC2E
  8
0
 62
     5
 10
132.184
 20
141.488
 30
0.0
 70
    32
  0
VERTEX
  5
1AC2F
  8
0
 62
     5
 10
132.184
 20
141.489
 30
0.0
 70
    32
  0
SEQEND
  5
1AC30
  8
0
 62
     5
  0
ARC
  5
1AC31
  8
0
 62
     5
 10
132.383518
 20
138.68888
 30
0.0
 40
0.2
 50
180.0
 51
270.0
  0
ARC
  5
1AC32
  8
0
 62
     5
 10
133.183518
 20
141.48888
 30
0.0
 40
1.0
 50
180.0
 51
270.0
  0
LINE
  5
1AC33
  8
HIDDEN
 10
133.871818
 20
129.475388
 30
0.0
 11
133.871818
 21
138.48888
 31
0.0
  0
LINE
  5
1AC34
  8
0
 62
     5
 10
135.971818
 20
137.48888
 30
0.0
 11
135.971818
 21
133.58888
 31
0.0
  0
LINE
  5
1AC35
  8
0
 62
     5
 10
135.99521
 20
137.48888
 30
0.0
 11
135.99521
 21
133.58888
 31
0.0
  0
LINE
  5
1AC36
  8
0
 62
     5
 10
136.464514
 20
133.28888
 30
0.0
 11
136.464514
 21
136.28888
 31
0.0
  0
LINE
  5
1AC37
  8
0
 62
     5
 10
137.872424
 20
136.28888
 30
0.0
 11
137.872424
 21
133.28888
 31
0.0
  0
LINE
  5
1AC38
  8
0
 62
     5
 10
138.341727
 20
133.58888
 30
0.0
 11
138.341727
 21
137.48888
 31
0.0
  0
LINE
  5
1AC39
  8
0
 62
     5
 10
140.515561
 20
137.48888
 30
0.0
 11
140.515561
 21
133.58888
 31
0.0
  0
LINE
  5
1AC3A
  8
0
 62
     5
 10
138.060145
 20
133.58888
 30
0.0
 11
142.2934
 21
133.58888
 31
0.0
  0
LINE
  5
1AC3B
  8
0
 62
     5
 10
136.573099
 20
132.98888
 30
0.0
 11
136.276792
 21
133.28888
 31
0.0
  0
LINE
  5
1AC3C
  8
0
 62
     5
 10
136.76082
 20
132.98888
 30
0.0
 11
136.464514
 21
133.28888
 31
0.0
  0
LINE
  5
1AC3D
  8
0
 62
     5
 10
137.872424
 20
133.28888
 30
0.0
 11
138.16873
 21
132.98888
 31
0.0
  0
LINE
  5
1AC3E
  8
0
 62
     5
 10
138.060145
 20
133.28888
 30
0.0
 11
138.356452
 21
132.98888
 31
0.0
  0
LINE
  5
1AC3F
  8
0
 62
     5
 10
136.276792
 20
133.58888
 30
0.0
 11
136.276792
 21
133.28888
 31
0.0
  0
LINE
  5
1AC40
  8
0
 62
     5
 10
138.060145
 20
133.28888
 30
0.0
 11
138.060145
 21
133.58888
 31
0.0
  0
LINE
  5
1AC41
  8
0
 62
     5
 10
136.276792
 20
133.28888
 30
0.0
 11
136.464514
 21
133.28888
 31
0.0
  0
LINE
  5
1AC42
  8
0
 62
     5
 10
137.872424
 20
133.28888
 30
0.0
 11
138.060145
 21
133.28888
 31
0.0
  0
LINE
  5
1AC43
  8
0
 62
     5
 10
135.971867
 20
133.58888
 30
0.0
 11
136.276792
 21
133.58888
 31
0.0
  0
LINE
  5
1AC44
  8
0
 62
     5
 10
141.996174
 20
132.98888
 30
0.0
 11
141.996174
 21
133.58888
 31
0.0
  0
LINE
  5
1AC45
  8
0
 62
     5
 10
142.2934
 20
133.58888
 30
0.0
 11
142.2934
 21
133.28888
 31
0.0
  0
LINE
  5
1AC46
  8
0
 62
     5
 10
142.2934
 20
133.28888
 30
0.0
 11
142.246469
 21
132.98888
 31
0.0
  0
LINE
  5
1AC47
  8
0
 62
     5
 10
139.936753
 20
133.58888
 30
0.0
 11
139.936753
 21
132.98888
 31
0.0
  0
LINE
  5
1AC48
  8
0
  6
CONTINUOUS
 62
     5
 10
133.871818
 20
138.08888
 30
0.0
 11
133.871818
 21
138.48888
 31
0.0
  0
LINE
  5
1AC49
  8
0
 62
     5
 10
136.464514
 20
136.28888
 30
0.0
 11
137.872424
 21
136.28888
 31
0.0
  0
LINE
  5
1AC4A
  8
0
 62
     5
 10
133.871818
 20
137.48888
 30
0.0
 11
133.871818
 21
138.48888
 31
0.0
  0
ARC
  5
1AC4B
  8
0
 62
     5
 10
133.183518
 20
148.98888
 30
0.0
 40
1.0
 50
180.0
 51
270.0
  0
ARC
  5
1AC4C
  8
0
 62
     5
 10
133.183518
 20
158.68888
 30
0.0
 40
1.0
 50
180.0
 51
270.0
  0
LINE
  5
1AC4D
  8
CENTER
 10
143.983518
 20
126.702282
 30
0.0
 11
143.983518
 21
143.704037
 31
0.0
  0
ARC
  5
1AC4E
  8
0
 62
     5
 10
150.479621
 20
143.1693
 30
0.0
 40
1.919132
 50
187.039486
 51
270.11637
  0
LINE
  5
1AC4F
  8
0
 62
     5
 10
150.483518
 20
141.071009
 30
0.0
 11
150.483518
 21
146.94837
 31
0.0
  0
LINE
  5
1AC50
  8
0
 62
     5
 10
151.183518
 20
146.997367
 30
0.0
 11
151.183518
 21
141.002977
 31
0.0
  0
LINE
  5
1AC51
  8
0
 62
     5
 10
151.683518
 20
140.68888
 30
0.0
 11
151.683518
 21
147.493883
 31
0.0
  0
LINE
  5
1AC52
  8
HIDDEN
 10
163.737285
 20
125.68888
 30
0.0
 11
162.354522
 21
125.68888
 31
0.0
  0
LINE
  5
1AC53
  8
HIDDEN
 10
162.403646
 20
125.68888
 30
0.0
 11
161.173733
 21
124.804339
 31
0.0
  0
LINE
  5
1AC54
  8
0
 62
     5
 10
150.392444
 20
133.58888
 30
0.0
 11
150.392444
 21
137.48888
 31
0.0
  0
LINE
  5
1AC55
  8
0
 62
     5
 10
151.995219
 20
137.48888
 30
0.0
 11
151.995219
 21
133.58888
 31
0.0
  0
LINE
  5
1AC56
  8
0
 62
     5
 10
151.99517
 20
133.58888
 30
0.0
 11
148.614605
 21
133.58888
 31
0.0
  0
LINE
  5
1AC57
  8
0
 62
     5
 10
148.614605
 20
133.28888
 30
0.0
 11
148.614605
 21
133.58888
 31
0.0
  0
LINE
  5
1AC58
  8
0
 62
     5
 10
148.567675
 20
132.98888
 30
0.0
 11
148.614605
 21
133.28888
 31
0.0
  0
LINE
  5
1AC59
  8
0
 62
     5
 10
149.813637
 20
132.98888
 30
0.0
 11
149.813637
 21
133.58888
 31
0.0
  0
LINE
  5
1AC5A
  8
0
 62
     5
 10
151.690244
 20
133.58888
 30
0.0
 11
151.690244
 21
133.28888
 31
0.0
  0
LINE
  5
1AC5B
  8
0
 62
     5
 10
151.393938
 20
132.98888
 30
0.0
 11
151.690244
 21
133.28888
 31
0.0
  0
LINE
  5
1AC5C
  8
0
 62
     5
 10
151.183518
 20
141.000172
 30
0.0
 11
151.683518
 21
141.000172
 31
0.0
  0
LINE
  5
1AC5D
  8
0
 62
     5
 10
151.183518
 20
141.071009
 30
0.0
 11
150.483518
 21
141.071009
 31
0.0
  0
ARC
  5
1AC5E
  8
0
 62
     5
 10
151.883518
 20
140.68888
 30
0.0
 40
0.2
 50
180.0
 51
270.0
  0
LINE
  5
1AC5F
  8
HIDDEN
 10
160.205231
 20
138.08888
 30
0.0
 11
154.095219
 21
138.08888
 31
0.0
  0
ARC
  5
1AC60
  8
0
 62
     5
 10
156.383518
 20
140.68888
 30
0.0
 40
0.2
 50
180.0
 51
270.0
  0
LINE
  5
1AC61
  8
0
 62
     5
 10
154.095219
 20
137.48888
 30
0.0
 11
154.095219
 21
138.48888
 31
0.0
  0
ARC
  5
1AC62
  8
0
 62
     5
 10
155.483518
 20
138.68888
 30
0.0
 40
0.2
 50
270.0
 51
0.0
  0
LINE
  5
1AC63
  8
0
 62
     5
 10
155.683518
 20
140.48888
 30
0.0
 11
155.683518
 21
138.68888
 31
0.0
  0
LINE
  5
1AC64
  8
HIDDEN
 10
162.403646
 20
136.88888
 30
0.0
 11
161.173733
 21
137.773421
 31
0.0
  0
LINE
  5
1AC65
  8
HIDDEN
 10
163.737285
 20
136.88888
 30
0.0
 11
162.354522
 21
136.88888
 31
0.0
  0
LINE
  5
1AC66
  8
HIDDEN
 10
165.184929
 20
127.58888
 30
0.0
 11
173.614169
 21
127.58888
 31
0.0
  0
LINE
  5
1AC67
  8
HIDDEN
 10
165.187751
 20
134.98888
 30
0.0
 11
173.614169
 21
134.98888
 31
0.0
  0
LINE
  5
1AC68
  8
HIDDEN
 10
182.635849
 20
135.18888
 30
0.0
 11
182.635849
 21
127.792978
 31
0.0
  0
LINE
  5
1AC69
  8
0
 62
     5
 10
180.02984
 20
135.18888
 30
0.0
 11
180.02984
 21
138.48888
 31
0.0
  0
ARC
  5
1AC6A
  8
0
 62
     5
 10
180.112274
 20
138.68888
 30
0.0
 40
0.2
 50
180.0
 51
270.0
  0
LINE
  5
1AC6B
  8
0
 62
     5
 10
179.912274
 20
138.68888
 30
0.0
 11
179.912274
 21
140.48888
 31
0.0
  0
ARC
  5
1AC6C
  8
0
 62
     5
 10
154.744398
 20
155.942918
 30
0.0
 40
1.0
 50
90.000014
 51
163.042285
  0
LINE
  5
1AC6D
  8
0
 62
     5
 10
148.683518
 20
150.890934
 30
0.0
 11
148.683518
 21
157.18888
 31
0.0
  0
LINE
  5
1AC6E
  8
0
 62
     5
 10
151.683518
 20
157.38888
 30
0.0
 11
151.683518
 21
150.838286
 31
0.0
  0
LINE
  5
1AC6F
  8
0
 62
     5
 10
155.483518
 20
151.263755
 30
0.0
 11
155.483518
 21
157.141116
 31
0.0
  0
LINE
  5
1AC70
  8
0
 62
     5
 10
151.683518
 20
150.847436
 30
0.0
 11
156.183518
 21
150.847436
 31
0.0
  0
ARC
  5
1AC71
  8
0
 62
     5
 10
154.744398
 20
152.442918
 30
0.0
 40
1.0
 50
196.957715
 51
269.999986
  0
LINE
  5
1AC72
  8
0
 62
     5
 10
148.818657
 20
143.720172
 30
0.0
 11
148.598951
 21
143.720172
 31
0.0
  0
LINE
  5
1AC73
  8
0
 62
     5
 10
148.598951
 20
144.280172
 30
0.0
 11
148.818657
 21
144.280172
 31
0.0
  0
ARC
  5
1AC74
  8
0
 62
     5
 10
150.479589
 20
144.831165
 30
0.0
 40
1.919012
 50
89.882671
 51
172.970922
  0
LINE
  5
1AC75
  8
0
 62
     5
 10
148.574955
 20
143.632403
 30
0.0
 11
148.574955
 21
142.934104
 31
0.0
  0
LINE
  5
1AC76
  8
0
 62
     5
 10
148.574955
 20
144.367942
 30
0.0
 11
148.574955
 21
145.06624
 31
0.0
  0
LINE
  5
1AC77
  8
0
 62
     5
 10
151.183518
 20
147.000172
 30
0.0
 11
151.183518
 21
147.992215
 31
0.0
  0
LINE
  5
1AC78
  8
0
 62
     5
 10
151.183518
 20
146.950172
 30
0.0
 11
150.483518
 21
146.950172
 31
0.0
  0
LINE
  5
1AC79
  8
0
 62
     5
 10
151.183518
 20
147.000172
 30
0.0
 11
151.683518
 21
147.000172
 31
0.0
  0
ARC
  5
1AC7A
  8
0
 62
     5
 10
151.183518
 20
147.48888
 30
0.0
 40
0.5
 50
0.0
 51
90.0
  0
LINE
  5
1AC7B
  8
0
 62
     5
 10
148.818657
 20
144.280172
 30
0.0
 11
148.818657
 21
143.720172
 31
0.0
  0
POLYLINE
  5
1AC7C
  8
0
 62
     5
 66
     1
 10
0.0
 20
0.0
 30
0.0
 70
     8
  0
VERTEX
  5
1AC7D
  8
0
 62
     5
 10
148.684
 20
150.868
 30
0.0
 70
    32
  0
VERTEX
  5
1AC7E
  8
0
 62
     5
 10
148.684
 20
150.868
 30
0.0
 70
    32
  0
VERTEX
  5
1AC7F
  8
0
 62
     5
 10
148.684
 20
150.868
 30
0.0
 70
    32
  0
VERTEX
  5
1AC80
  8
0
 62
     5
 10
148.684
 20
150.868
 30
0.0
 70
    32
  0
VERTEX
  5
1AC81
  8
0
 62
     5
 10
148.684
 20
150.869
 30
0.0
 70
    32
  0
VERTEX
  5
1AC82
  8
0
 62
     5
 10
148.684
 20
150.869
 30
0.0
 70
    32
  0
VERTEX
  5
1AC83
  8
0
 62
     5
 10
148.684
 20
150.869
 30
0.0
 70
    32
  0
VERTEX
  5
1AC84
  8
0
 62
     5
 10
148.684
 20
150.869
 30
0.0
 70
    32
  0
VERTEX
  5
1AC85
  8
0
 62
     5
 10
148.684
 20
150.869
 30
0.0
 70
    32
  0
VERTEX
  5
1AC86
  8
0
 62
     5
 10
148.684
 20
150.869
 30
0.0
 70
    32
  0
VERTEX
  5
1AC87
  8
0
 62
     5
 10
148.684
 20
150.869
 30
0.0
 70
    32
  0
VERTEX
  5
1AC88
  8
0
 62
     5
 10
148.684
 20
150.87
 30
0.0
 70
    32
  0
VERTEX
  5
1AC89
  8
0
 62
     5
 10
148.684
 20
150.87
 30
0.0
 70
    32
  0
VERTEX
  5
1AC8A
  8
0
 62
     5
 10
148.684
 20
150.87
 30
0.0
 70
    32
  0
VERTEX
  5
1AC8B
  8
0
 62
     5
 10
148.684
 20
150.87
 30
0.0
 70
    32
  0
VERTEX
  5
1AC8C
  8
0
 62
     5
 10
148.684
 20
150.87
 30
0.0
 70
    32
  0
VERTEX
  5
1AC8D
  8
0
 62
     5
 10
148.684
 20
150.87
 30
0.0
 70
    32
  0
VERTEX
  5
1AC8E
  8
0
 62
     5
 10
148.684
 20
150.87
 30
0.0
 70
    32
  0
VERTEX
  5
1AC8F
  8
0
 62
     5
 10
148.684
 20
150.871
 30
0.0
 70
    32
  0
VERTEX
  5
1AC90
  8
0
 62
     5
 10
148.684
 20
150.871
 30
0.0
 70
    32
  0
VERTEX
  5
1AC91
  8
0
 62
     5
 10
148.684
 20
150.871
 30
0.0
 70
    32
  0
VERTEX
  5
1AC92
  8
0
 62
     5
 10
148.684
 20
150.871
 30
0.0
 70
    32
  0
VERTEX
  5
1AC93
  8
0
 62
     5
 10
148.684
 20
150.871
 30
0.0
 70
    32
  0
VERTEX
  5
1AC94
  8
0
 62
     5
 10
148.684
 20
150.871
 30
0.0
 70
    32
  0
VERTEX
  5
1AC95
  8
0
 62
     5
 10
148.684
 20
150.871
 30
0.0
 70
    32
  0
VERTEX
  5
1AC96
  8
0
 62
     5
 10
148.684
 20
150.872
 30
0.0
 70
    32
  0
VERTEX
  5
1AC97
  8
0
 62
     5
 10
148.684
 20
150.872
 30
0.0
 70
    32
  0
VERTEX
  5
1AC98
  8
0
 62
     5
 10
148.684
 20
150.872
 30
0.0
 70
    32
  0
VERTEX
  5
1AC99
  8
0
 62
     5
 10
148.684
 20
150.872
 30
0.0
 70
    32
  0
VERTEX
  5
1AC9A
  8
0
 62
     5
 10
148.684
 20
150.872
 30
0.0
 70
    32
  0
VERTEX
  5
1AC9B
  8
0
 62
     5
 10
148.684
 20
150.872
 30
0.0
 70
    32
  0
VERTEX
  5
1AC9C
  8
0
 62
     5
 10
148.684
 20
150.872
 30
0.0
 70
    32
  0
VERTEX
  5
1AC9D
  8
0
 62
     5
 10
148.684
 20
150.873
 30
0.0
 70
    32
  0
VERTEX
  5
1AC9E
  8
0
 62
     5
 10
148.684
 20
150.873
 30
0.0
 70
    32
  0
VERTEX
  5
1AC9F
  8
0
 62
     5
 10
148.684
 20
150.873
 30
0.0
 70
    32
  0
VERTEX
  5
1ACA0
  8
0
 62
     5
 10
148.684
 20
150.873
 30
0.0
 70
    32
  0
VERTEX
  5
1ACA1
  8
0
 62
     5
 10
148.684
 20
150.873
 30
0.0
 70
    32
  0
VERTEX
  5
1ACA2
  8
0
 62
     5
 10
148.684
 20
150.873
 30
0.0
 70
    32
  0
VERTEX
  5
1ACA3
  8
0
 62
     5
 10
148.684
 20
150.873
 30
0.0
 70
    32
  0
VERTEX
  5
1ACA4
  8
0
 62
     5
 10
148.684
 20
150.874
 30
0.0
 70
    32
  0
VERTEX
  5
1ACA5
  8
0
 62
     5
 10
148.684
 20
150.874
 30
0.0
 70
    32
  0
VERTEX
  5
1ACA6
  8
0
 62
     5
 10
148.684
 20
150.874
 30
0.0
 70
    32
  0
VERTEX
  5
1ACA7
  8
0
 62
     5
 10
148.684
 20
150.874
 30
0.0
 70
    32
  0
VERTEX
  5
1ACA8
  8
0
 62
     5
 10
148.684
 20
150.874
 30
0.0
 70
    32
  0
VERTEX
  5
1ACA9
  8
0
 62
     5
 10
148.684
 20
150.874
 30
0.0
 70
    32
  0
VERTEX
  5
1ACAA
  8
0
 62
     5
 10
148.684
 20
150.874
 30
0.0
 70
    32
  0
VERTEX
  5
1ACAB
  8
0
 62
     5
 10
148.684
 20
150.875
 30
0.0
 70
    32
  0
VERTEX
  5
1ACAC
  8
0
 62
     5
 10
148.684
 20
150.875
 30
0.0
 70
    32
  0
VERTEX
  5
1ACAD
  8
0
 62
     5
 10
148.684
 20
150.875
 30
0.0
 70
    32
  0
VERTEX
  5
1ACAE
  8
0
 62
     5
 10
148.684
 20
150.875
 30
0.0
 70
    32
  0
VERTEX
  5
1ACAF
  8
0
 62
     5
 10
148.684
 20
150.875
 30
0.0
 70
    32
  0
VERTEX
  5
1ACB0
  8
0
 62
     5
 10
148.684
 20
150.875
 30
0.0
 70
    32
  0
VERTEX
  5
1ACB1
  8
0
 62
     5
 10
148.684
 20
150.875
 30
0.0
 70
    32
  0
VERTEX
  5
1ACB2
  8
0
 62
     5
 10
148.684
 20
150.876
 30
0.0
 70
    32
  0
VERTEX
  5
1ACB3
  8
0
 62
     5
 10
148.684
 20
150.876
 30
0.0
 70
    32
  0
VERTEX
  5
1ACB4
  8
0
 62
     5
 10
148.684
 20
150.876
 30
0.0
 70
    32
  0
VERTEX
  5
1ACB5
  8
0
 62
     5
 10
148.684
 20
150.876
 30
0.0
 70
    32
  0
VERTEX
  5
1ACB6
  8
0
 62
     5
 10
148.684
 20
150.876
 30
0.0
 70
    32
  0
VERTEX
  5
1ACB7
  8
0
 62
     5
 10
148.684
 20
150.876
 30
0.0
 70
    32
  0
VERTEX
  5
1ACB8
  8
0
 62
     5
 10
148.684
 20
150.876
 30
0.0
 70
    32
  0
VERTEX
  5
1ACB9
  8
0
 62
     5
 10
148.684
 20
150.877
 30
0.0
 70
    32
  0
VERTEX
  5
1ACBA
  8
0
 62
     5
 10
148.684
 20
150.877
 30
0.0
 70
    32
  0
VERTEX
  5
1ACBB
  8
0
 62
     5
 10
148.684
 20
150.877
 30
0.0
 70
    32
  0
VERTEX
  5
1ACBC
  8
0
 62
     5
 10
148.684
 20
150.877
 30
0.0
 70
    32
  0
VERTEX
  5
1ACBD
  8
0
 62
     5
 10
148.684
 20
150.877
 30
0.0
 70
    32
  0
VERTEX
  5
1ACBE
  8
0
 62
     5
 10
148.684
 20
150.877
 30
0.0
 70
    32
  0
VERTEX
  5
1ACBF
  8
0
 62
     5
 10
148.684
 20
150.877
 30
0.0
 70
    32
  0
VERTEX
  5
1ACC0
  8
0
 62
     5
 10
148.684
 20
150.878
 30
0.0
 70
    32
  0
VERTEX
  5
1ACC1
  8
0
 62
     5
 10
148.684
 20
150.878
 30
0.0
 70
    32
  0
VERTEX
  5
1ACC2
  8
0
 62
     5
 10
148.684
 20
150.878
 30
0.0
 70
    32
  0
VERTEX
  5
1ACC3
  8
0
 62
     5
 10
148.684
 20
150.878
 30
0.0
 70
    32
  0
VERTEX
  5
1ACC4
  8
0
 62
     5
 10
148.684
 20
150.878
 30
0.0
 70
    32
  0
VERTEX
  5
1ACC5
  8
0
 62
     5
 10
148.684
 20
150.878
 30
0.0
 70
    32
  0
VERTEX
  5
1ACC6
  8
0
 62
     5
 10
148.684
 20
150.879
 30
0.0
 70
    32
  0
VERTEX
  5
1ACC7
  8
0
 62
     5
 10
148.684
 20
150.879
 30
0.0
 70
    32
  0
VERTEX
  5
1ACC8
  8
0
 62
     5
 10
148.684
 20
150.879
 30
0.0
 70
    32
  0
VERTEX
  5
1ACC9
  8
0
 62
     5
 10
148.684
 20
150.879
 30
0.0
 70
    32
  0
VERTEX
  5
1ACCA
  8
0
 62
     5
 10
148.684
 20
150.879
 30
0.0
 70
    32
  0
VERTEX
  5
1ACCB
  8
0
 62
     5
 10
148.684
 20
150.879
 30
0.0
 70
    32
  0
VERTEX
  5
1ACCC
  8
0
 62
     5
 10
148.684
 20
150.879
 30
0.0
 70
    32
  0
VERTEX
  5
1ACCD
  8
0
 62
     5
 10
148.684
 20
150.88
 30
0.0
 70
    32
  0
VERTEX
  5
1ACCE
  8
0
 62
     5
 10
148.684
 20
150.88
 30
0.0
 70
    32
  0
VERTEX
  5
1ACCF
  8
0
 62
     5
 10
148.684
 20
150.88
 30
0.0
 70
    32
  0
VERTEX
  5
1ACD0
  8
0
 62
     5
 10
148.684
 20
150.88
 30
0.0
 70
    32
  0
VERTEX
  5
1ACD1
  8
0
 62
     5
 10
148.684
 20
150.88
 30
0.0
 70
    32
  0
VERTEX
  5
1ACD2
  8
0
 62
     5
 10
148.684
 20
150.88
 30
0.0
 70
    32
  0
VERTEX
  5
1ACD3
  8
0
 62
     5
 10
148.684
 20
150.88
 30
0.0
 70
    32
  0
VERTEX
  5
1ACD4
  8
0
 62
     5
 10
148.684
 20
150.881
 30
0.0
 70
    32
  0
VERTEX
  5
1ACD5
  8
0
 62
     5
 10
148.684
 20
150.881
 30
0.0
 70
    32
  0
VERTEX
  5
1ACD6
  8
0
 62
     5
 10
148.684
 20
150.881
 30
0.0
 70
    32
  0
VERTEX
  5
1ACD7
  8
0
 62
     5
 10
148.684
 20
150.881
 30
0.0
 70
    32
  0
VERTEX
  5
1ACD8
  8
0
 62
     5
 10
148.684
 20
150.881
 30
0.0
 70
    32
  0
VERTEX
  5
1ACD9
  8
0
 62
     5
 10
148.684
 20
150.881
 30
0.0
 70
    32
  0
VERTEX
  5
1ACDA
  8
0
 62
     5
 10
148.684
 20
150.881
 30
0.0
 70
    32
  0
VERTEX
  5
1ACDB
  8
0
 62
     5
 10
148.684
 20
150.882
 30
0.0
 70
    32
  0
VERTEX
  5
1ACDC
  8
0
 62
     5
 10
148.684
 20
150.882
 30
0.0
 70
    32
  0
VERTEX
  5
1ACDD
  8
0
 62
     5
 10
148.684
 20
150.882
 30
0.0
 70
    32
  0
VERTEX
  5
1ACDE
  8
0
 62
     5
 10
148.684
 20
150.882
 30
0.0
 70
    32
  0
VERTEX
  5
1ACDF
  8
0
 62
     5
 10
148.684
 20
150.882
 30
0.0
 70
    32
  0
VERTEX
  5
1ACE0
  8
0
 62
     5
 10
148.684
 20
150.882
 30
0.0
 70
    32
  0
VERTEX
  5
1ACE1
  8
0
 62
     5
 10
148.684
 20
150.882
 30
0.0
 70
    32
  0
VERTEX
  5
1ACE2
  8
0
 62
     5
 10
148.684
 20
150.883
 30
0.0
 70
    32
  0
VERTEX
  5
1ACE3
  8
0
 62
     5
 10
148.684
 20
150.883
 30
0.0
 70
    32
  0
VERTEX
  5
1ACE4
  8
0
 62
     5
 10
148.684
 20
150.883
 30
0.0
 70
    32
  0
VERTEX
  5
1ACE5
  8
0
 62
     5
 10
148.684
 20
150.883
 30
0.0
 70
    32
  0
VERTEX
  5
1ACE6
  8
0
 62
     5
 10
148.684
 20
150.883
 30
0.0
 70
    32
  0
VERTEX
  5
1ACE7
  8
0
 62
     5
 10
148.684
 20
150.883
 30
0.0
 70
    32
  0
VERTEX
  5
1ACE8
  8
0
 62
     5
 10
148.684
 20
150.883
 30
0.0
 70
    32
  0
VERTEX
  5
1ACE9
  8
0
 62
     5
 10
148.684
 20
150.884
 30
0.0
 70
    32
  0
VERTEX
  5
1ACEA
  8
0
 62
     5
 10
148.684
 20
150.884
 30
0.0
 70
    32
  0
VERTEX
  5
1ACEB
  8
0
 62
     5
 10
148.684
 20
150.884
 30
0.0
 70
    32
  0
VERTEX
  5
1ACEC
  8
0
 62
     5
 10
148.684
 20
150.884
 30
0.0
 70
    32
  0
VERTEX
  5
1ACED
  8
0
 62
     5
 10
148.684
 20
150.884
 30
0.0
 70
    32
  0
VERTEX
  5
1ACEE
  8
0
 62
     5
 10
148.684
 20
150.884
 30
0.0
 70
    32
  0
VERTEX
  5
1ACEF
  8
0
 62
     5
 10
148.684
 20
150.884
 30
0.0
 70
    32
  0
VERTEX
  5
1ACF0
  8
0
 62
     5
 10
148.684
 20
150.885
 30
0.0
 70
    32
  0
VERTEX
  5
1ACF1
  8
0
 62
     5
 10
148.684
 20
150.885
 30
0.0
 70
    32
  0
VERTEX
  5
1ACF2
  8
0
 62
     5
 10
148.684
 20
150.885
 30
0.0
 70
    32
  0
VERTEX
  5
1ACF3
  8
0
 62
     5
 10
148.684
 20
150.885
 30
0.0
 70
    32
  0
VERTEX
  5
1ACF4
  8
0
 62
     5
 10
148.684
 20
150.885
 30
0.0
 70
    32
  0
VERTEX
  5
1ACF5
  8
0
 62
     5
 10
148.684
 20
150.885
 30
0.0
 70
    32
  0
VERTEX
  5
1ACF6
  8
0
 62
     5
 10
148.684
 20
150.885
 30
0.0
 70
    32
  0
VERTEX
  5
1ACF7
  8
0
 62
     5
 10
148.684
 20
150.886
 30
0.0
 70
    32
  0
VERTEX
  5
1ACF8
  8
0
 62
     5
 10
148.684
 20
150.886
 30
0.0
 70
    32
  0
VERTEX
  5
1ACF9
  8
0
 62
     5
 10
148.684
 20
150.886
 30
0.0
 70
    32
  0
VERTEX
  5
1ACFA
  8
0
 62
     5
 10
148.684
 20
150.886
 30
0.0
 70
    32
  0
VERTEX
  5
1ACFB
  8
0
 62
     5
 10
148.684
 20
150.886
 30
0.0
 70
    32
  0
VERTEX
  5
1ACFC
  8
0
 62
     5
 10
148.684
 20
150.886
 30
0.0
 70
    32
  0
VERTEX
  5
1ACFD
  8
0
 62
     5
 10
148.684
 20
150.886
 30
0.0
 70
    32
  0
VERTEX
  5
1ACFE
  8
0
 62
     5
 10
148.684
 20
150.887
 30
0.0
 70
    32
  0
VERTEX
  5
1ACFF
  8
0
 62
     5
 10
148.684
 20
150.887
 30
0.0
 70
    32
  0
VERTEX
  5
1AD00
  8
0
 62
     5
 10
148.684
 20
150.887
 30
0.0
 70
    32
  0
VERTEX
  5
1AD01
  8
0
 62
     5
 10
148.684
 20
150.887
 30
0.0
 70
    32
  0
VERTEX
  5
1AD02
  8
0
 62
     5
 10
148.684
 20
150.887
 30
0.0
 70
    32
  0
VERTEX
  5
1AD03
  8
0
 62
     5
 10
148.684
 20
150.887
 30
0.0
 70
    32
  0
VERTEX
  5
1AD04
  8
0
 62
     5
 10
148.684
 20
150.887
 30
0.0
 70
    32
  0
VERTEX
  5
1AD05
  8
0
 62
     5
 10
148.684
 20
150.888
 30
0.0
 70
    32
  0
VERTEX
  5
1AD06
  8
0
 62
     5
 10
148.684
 20
150.888
 30
0.0
 70
    32
  0
VERTEX
  5
1AD07
  8
0
 62
     5
 10
148.684
 20
150.888
 30
0.0
 70
    32
  0
VERTEX
  5
1AD08
  8
0
 62
     5
 10
148.684
 20
150.888
 30
0.0
 70
    32
  0
VERTEX
  5
1AD09
  8
0
 62
     5
 10
148.684
 20
150.888
 30
0.0
 70
    32
  0
VERTEX
  5
1AD0A
  8
0
 62
     5
 10
148.684
 20
150.888
 30
0.0
 70
    32
  0
VERTEX
  5
1AD0B
  8
0
 62
     5
 10
148.684
 20
150.888
 30
0.0
 70
    32
  0
VERTEX
  5
1AD0C
  8
0
 62
     5
 10
148.684
 20
150.889
 30
0.0
 70
    32
  0
VERTEX
  5
1AD0D
  8
0
 62
     5
 10
148.684
 20
150.889
 30
0.0
 70
    32
  0
VERTEX
  5
1AD0E
  8
0
 62
     5
 10
148.684
 20
150.889
 30
0.0
 70
    32
  0
VERTEX
  5
1AD0F
  8
0
 62
     5
 10
148.684
 20
150.889
 30
0.0
 70
    32
  0
VERTEX
  5
1AD10
  8
0
 62
     5
 10
148.684
 20
150.889
 30
0.0
 70
    32
  0
VERTEX
  5
1AD11
  8
0
 62
     5
 10
148.684
 20
150.889
 30
0.0
 70
    32
  0
VERTEX
  5
1AD12
  8
0
 62
     5
 10
148.684
 20
150.889
 30
0.0
 70
    32
  0
VERTEX
  5
1AD13
  8
0
 62
     5
 10
148.684
 20
150.89
 30
0.0
 70
    32
  0
VERTEX
  5
1AD14
  8
0
 62
     5
 10
148.684
 20
150.89
 30
0.0
 70
    32
  0
VERTEX
  5
1AD15
  8
0
 62
     5
 10
148.684
 20
150.89
 30
0.0
 70
    32
  0
VERTEX
  5
1AD16
  8
0
 62
     5
 10
148.684
 20
150.89
 30
0.0
 70
    32
  0
VERTEX
  5
1AD17
  8
0
 62
     5
 10
148.684
 20
150.89
 30
0.0
 70
    32
  0
VERTEX
  5
1AD18
  8
0
 62
     5
 10
148.684
 20
150.89
 30
0.0
 70
    32
  0
VERTEX
  5
1AD19
  8
0
 62
     5
 10
148.684
 20
150.891
 30
0.0
 70
    32
  0
VERTEX
  5
1AD1A
  8
0
 62
     5
 10
148.684
 20
150.891
 30
0.0
 70
    32
  0
VERTEX
  5
1AD1B
  8
0
 62
     5
 10
148.684
 20
150.891
 30
0.0
 70
    32
  0
VERTEX
  5
1AD1C
  8
0
 62
     5
 10
148.684
 20
150.891
 30
0.0
 70
    32
  0
SEQEND
  5
1AD1D
  8
0
 62
     5
  0
LINE
  5
1AD1E
  8
0
 62
     5
 10
148.683965
 20
150.867963
 30
0.0
 11
148.184412
 21
150.847436
 31
0.0
  0
LINE
  5
1AD1F
  8
0
 62
     5
 10
153.732407
 20
154.472918
 30
0.0
 11
153.732407
 21
153.912918
 31
0.0
  0
LINE
  5
1AD20
  8
0
 62
     5
 10
153.732407
 20
156.042918
 30
0.0
 11
153.787878
 21
156.234584
 31
0.0
  0
LINE
  5
1AD21
  8
0
 62
     5
 10
153.732407
 20
153.912918
 30
0.0
 11
153.605144
 21
153.912918
 31
0.0
  0
LINE
  5
1AD22
  8
0
 62
     5
 10
153.605144
 20
154.472918
 30
0.0
 11
153.732407
 21
154.472918
 31
0.0
  0
LINE
  5
1AD23
  8
0
 62
     5
 10
149.183518
 20
150.857509
 30
0.0
 11
151.183518
 21
150.857509
 31
0.0
  0
POLYLINE
  5
1AD24
  8
0
 62
     5
 66
     1
 10
0.0
 20
0.0
 30
0.0
 70
     8
  0
VERTEX
  5
1AD25
  8
0
 62
     5
 10
151.684
 20
150.839
 30
0.0
 70
    32
  0
VERTEX
  5
1AD26
  8
0
 62
     5
 10
151.684
 20
150.839
 30
0.0
 70
    32
  0
VERTEX
  5
1AD27
  8
0
 62
     5
 10
151.684
 20
150.839
 30
0.0
 70
    32
  0
VERTEX
  5
1AD28
  8
0
 62
     5
 10
151.684
 20
150.839
 30
0.0
 70
    32
  0
VERTEX
  5
1AD29
  8
0
 62
     5
 10
151.684
 20
150.839
 30
0.0
 70
    32
  0
VERTEX
  5
1AD2A
  8
0
 62
     5
 10
151.684
 20
150.839
 30
0.0
 70
    32
  0
VERTEX
  5
1AD2B
  8
0
 62
     5
 10
151.684
 20
150.839
 30
0.0
 70
    32
  0
VERTEX
  5
1AD2C
  8
0
 62
     5
 10
151.684
 20
150.839
 30
0.0
 70
    32
  0
VERTEX
  5
1AD2D
  8
0
 62
     5
 10
151.684
 20
150.839
 30
0.0
 70
    32
  0
VERTEX
  5
1AD2E
  8
0
 62
     5
 10
151.684
 20
150.839
 30
0.0
 70
    32
  0
VERTEX
  5
1AD2F
  8
0
 62
     5
 10
151.684
 20
150.839
 30
0.0
 70
    32
  0
VERTEX
  5
1AD30
  8
0
 62
     5
 10
151.684
 20
150.839
 30
0.0
 70
    32
  0
VERTEX
  5
1AD31
  8
0
 62
     5
 10
151.684
 20
150.839
 30
0.0
 70
    32
  0
VERTEX
  5
1AD32
  8
0
 62
     5
 10
151.684
 20
150.839
 30
0.0
 70
    32
  0
VERTEX
  5
1AD33
  8
0
 62
     5
 10
151.684
 20
150.839
 30
0.0
 70
    32
  0
VERTEX
  5
1AD34
  8
0
 62
     5
 10
151.684
 20
150.839
 30
0.0
 70
    32
  0
VERTEX
  5
1AD35
  8
0
 62
     5
 10
151.684
 20
150.839
 30
0.0
 70
    32
  0
VERTEX
  5
1AD36
  8
0
 62
     5
 10
151.684
 20
150.839
 30
0.0
 70
    32
  0
VERTEX
  5
1AD37
  8
0
 62
     5
 10
151.684
 20
150.839
 30
0.0
 70
    32
  0
VERTEX
  5
1AD38
  8
0
 62
     5
 10
151.684
 20
150.839
 30
0.0
 70
    32
  0
VERTEX
  5
1AD39
  8
0
 62
     5
 10
151.684
 20
150.839
 30
0.0
 70
    32
  0
VERTEX
  5
1AD3A
  8
0
 62
     5
 10
151.684
 20
150.839
 30
0.0
 70
    32
  0
VERTEX
  5
1AD3B
  8
0
 62
     5
 10
151.684
 20
150.839
 30
0.0
 70
    32
  0
VERTEX
  5
1AD3C
  8
0
 62
     5
 10
151.684
 20
150.839
 30
0.0
 70
    32
  0
VERTEX
  5
1AD3D
  8
0
 62
     5
 10
151.684
 20
150.839
 30
0.0
 70
    32
  0
VERTEX
  5
1AD3E
  8
0
 62
     5
 10
151.684
 20
150.839
 30
0.0
 70
    32
  0
VERTEX
  5
1AD3F
  8
0
 62
     5
 10
151.684
 20
150.839
 30
0.0
 70
    32
  0
VERTEX
  5
1AD40
  8
0
 62
     5
 10
151.684
 20
150.839
 30
0.0
 70
    32
  0
VERTEX
  5
1AD41
  8
0
 62
     5
 10
151.684
 20
150.839
 30
0.0
 70
    32
  0
VERTEX
  5
1AD42
  8
0
 62
     5
 10
151.684
 20
150.839
 30
0.0
 70
    32
  0
VERTEX
  5
1AD43
  8
0
 62
     5
 10
151.684
 20
150.839
 30
0.0
 70
    32
  0
VERTEX
  5
1AD44
  8
0
 62
     5
 10
151.684
 20
150.839
 30
0.0
 70
    32
  0
VERTEX
  5
1AD45
  8
0
 62
     5
 10
151.684
 20
150.839
 30
0.0
 70
    32
  0
VERTEX
  5
1AD46
  8
0
 62
     5
 10
151.684
 20
150.839
 30
0.0
 70
    32
  0
VERTEX
  5
1AD47
  8
0
 62
     5
 10
151.684
 20
150.839
 30
0.0
 70
    32
  0
VERTEX
  5
1AD48
  8
0
 62
     5
 10
151.684
 20
150.839
 30
0.0
 70
    32
  0
VERTEX
  5
1AD49
  8
0
 62
     5
 10
151.684
 20
150.839
 30
0.0
 70
    32
  0
VERTEX
  5
1AD4A
  8
0
 62
     5
 10
151.684
 20
150.839
 30
0.0
 70
    32
  0
VERTEX
  5
1AD4B
  8
0
 62
     5
 10
151.684
 20
150.839
 30
0.0
 70
    32
  0
VERTEX
  5
1AD4C
  8
0
 62
     5
 10
151.684
 20
150.839
 30
0.0
 70
    32
  0
VERTEX
  5
1AD4D
  8
0
 62
     5
 10
151.684
 20
150.839
 30
0.0
 70
    32
  0
VERTEX
  5
1AD4E
  8
0
 62
     5
 10
151.684
 20
150.839
 30
0.0
 70
    32
  0
VERTEX
  5
1AD4F
  8
0
 62
     5
 10
151.684
 20
150.839
 30
0.0
 70
    32
  0
VERTEX
  5
1AD50
  8
0
 62
     5
 10
151.684
 20
150.839
 30
0.0
 70
    32
  0
VERTEX
  5
1AD51
  8
0
 62
     5
 10
151.684
 20
150.839
 30
0.0
 70
    32
  0
VERTEX
  5
1AD52
  8
0
 62
     5
 10
151.684
 20
150.839
 30
0.0
 70
    32
  0
VERTEX
  5
1AD53
  8
0
 62
     5
 10
151.684
 20
150.839
 30
0.0
 70
    32
  0
VERTEX
  5
1AD54
  8
0
 62
     5
 10
151.684
 20
150.839
 30
0.0
 70
    32
  0
VERTEX
  5
1AD55
  8
0
 62
     5
 10
151.684
 20
150.839
 30
0.0
 70
    32
  0
VERTEX
  5
1AD56
  8
0
 62
     5
 10
151.684
 20
150.839
 30
0.0
 70
    32
  0
VERTEX
  5
1AD57
  8
0
 62
     5
 10
151.684
 20
150.839
 30
0.0
 70
    32
  0
VERTEX
  5
1AD58
  8
0
 62
     5
 10
151.684
 20
150.839
 30
0.0
 70
    32
  0
VERTEX
  5
1AD59
  8
0
 62
     5
 10
151.684
 20
150.839
 30
0.0
 70
    32
  0
VERTEX
  5
1AD5A
  8
0
 62
     5
 10
151.684
 20
150.839
 30
0.0
 70
    32
  0
VERTEX
  5
1AD5B
  8
0
 62
     5
 10
151.684
 20
150.839
 30
0.0
 70
    32
  0
VERTEX
  5
1AD5C
  8
0
 62
     5
 10
151.684
 20
150.839
 30
0.0
 70
    32
  0
VERTEX
  5
1AD5D
  8
0
 62
     5
 10
151.684
 20
150.839
 30
0.0
 70
    32
  0
VERTEX
  5
1AD5E
  8
0
 62
     5
 10
151.684
 20
150.839
 30
0.0
 70
    32
  0
VERTEX
  5
1AD5F
  8
0
 62
     5
 10
151.684
 20
150.839
 30
0.0
 70
    32
  0
VERTEX
  5
1AD60
  8
0
 62
     5
 10
151.684
 20
150.839
 30
0.0
 70
    32
  0
VERTEX
  5
1AD61
  8
0
 62
     5
 10
151.684
 20
150.839
 30
0.0
 70
    32
  0
VERTEX
  5
1AD62
  8
0
 62
     5
 10
151.684
 20
150.839
 30
0.0
 70
    32
  0
VERTEX
  5
1AD63
  8
0
 62
     5
 10
151.684
 20
150.839
 30
0.0
 70
    32
  0
VERTEX
  5
1AD64
  8
0
 62
     5
 10
151.684
 20
150.839
 30
0.0
 70
    32
  0
VERTEX
  5
1AD65
  8
0
 62
     5
 10
151.684
 20
150.839
 30
0.0
 70
    32
  0
VERTEX
  5
1AD66
  8
0
 62
     5
 10
151.684
 20
150.839
 30
0.0
 70
    32
  0
VERTEX
  5
1AD67
  8
0
 62
     5
 10
151.684
 20
150.839
 30
0.0
 70
    32
  0
VERTEX
  5
1AD68
  8
0
 62
     5
 10
151.684
 20
150.839
 30
0.0
 70
    32
  0
VERTEX
  5
1AD69
  8
0
 62
     5
 10
151.684
 20
150.839
 30
0.0
 70
    32
  0
VERTEX
  5
1AD6A
  8
0
 62
     5
 10
151.684
 20
150.839
 30
0.0
 70
    32
  0
VERTEX
  5
1AD6B
  8
0
 62
     5
 10
151.684
 20
150.839
 30
0.0
 70
    32
  0
VERTEX
  5
1AD6C
  8
0
 62
     5
 10
151.684
 20
150.839
 30
0.0
 70
    32
  0
VERTEX
  5
1AD6D
  8
0
 62
     5
 10
151.684
 20
150.839
 30
0.0
 70
    32
  0
VERTEX
  5
1AD6E
  8
0
 62
     5
 10
151.684
 20
150.839
 30
0.0
 70
    32
  0
VERTEX
  5
1AD6F
  8
0
 62
     5
 10
151.684
 20
150.839
 30
0.0
 70
    32
  0
VERTEX
  5
1AD70
  8
0
 62
     5
 10
151.684
 20
150.839
 30
0.0
 70
    32
  0
VERTEX
  5
1AD71
  8
0
 62
     5
 10
151.684
 20
150.839
 30
0.0
 70
    32
  0
VERTEX
  5
1AD72
  8
0
 62
     5
 10
151.684
 20
150.839
 30
0.0
 70
    32
  0
VERTEX
  5
1AD73
  8
0
 62
     5
 10
151.684
 20
150.839
 30
0.0
 70
    32
  0
VERTEX
  5
1AD74
  8
0
 62
     5
 10
151.684
 20
150.839
 30
0.0
 70
    32
  0
VERTEX
  5
1AD75
  8
0
 62
     5
 10
151.684
 20
150.839
 30
0.0
 70
    32
  0
VERTEX
  5
1AD76
  8
0
 62
     5
 10
151.684
 20
150.839
 30
0.0
 70
    32
  0
VERTEX
  5
1AD77
  8
0
 62
     5
 10
151.684
 20
150.839
 30
0.0
 70
    32
  0
VERTEX
  5
1AD78
  8
0
 62
     5
 10
151.684
 20
150.839
 30
0.0
 70
    32
  0
VERTEX
  5
1AD79
  8
0
 62
     5
 10
151.684
 20
150.839
 30
0.0
 70
    32
  0
VERTEX
  5
1AD7A
  8
0
 62
     5
 10
151.684
 20
150.838
 30
0.0
 70
    32
  0
VERTEX
  5
1AD7B
  8
0
 62
     5
 10
151.684
 20
150.838
 30
0.0
 70
    32
  0
VERTEX
  5
1AD7C
  8
0
 62
     5
 10
151.684
 20
150.838
 30
0.0
 70
    32
  0
VERTEX
  5
1AD7D
  8
0
 62
     5
 10
151.684
 20
150.838
 30
0.0
 70
    32
  0
VERTEX
  5
1AD7E
  8
0
 62
     5
 10
151.684
 20
150.838
 30
0.0
 70
    32
  0
VERTEX
  5
1AD7F
  8
0
 62
     5
 10
151.684
 20
150.838
 30
0.0
 70
    32
  0
VERTEX
  5
1AD80
  8
0
 62
     5
 10
151.684
 20
150.838
 30
0.0
 70
    32
  0
VERTEX
  5
1AD81
  8
0
 62
     5
 10
151.684
 20
150.838
 30
0.0
 70
    32
  0
VERTEX
  5
1AD82
  8
0
 62
     5
 10
151.684
 20
150.838
 30
0.0
 70
    32
  0
VERTEX
  5
1AD83
  8
0
 62
     5
 10
151.684
 20
150.838
 30
0.0
 70
    32
  0
VERTEX
  5
1AD84
  8
0
 62
     5
 10
151.684
 20
150.838
 30
0.0
 70
    32
  0
VERTEX
  5
1AD85
  8
0
 62
     5
 10
151.684
 20
150.838
 30
0.0
 70
    32
  0
VERTEX
  5
1AD86
  8
0
 62
     5
 10
151.684
 20
150.838
 30
0.0
 70
    32
  0
VERTEX
  5
1AD87
  8
0
 62
     5
 10
151.684
 20
150.838
 30
0.0
 70
    32
  0
VERTEX
  5
1AD88
  8
0
 62
     5
 10
151.684
 20
150.838
 30
0.0
 70
    32
  0
VERTEX
  5
1AD89
  8
0
 62
     5
 10
151.684
 20
150.838
 30
0.0
 70
    32
  0
VERTEX
  5
1AD8A
  8
0
 62
     5
 10
151.684
 20
150.838
 30
0.0
 70
    32
  0
VERTEX
  5
1AD8B
  8
0
 62
     5
 10
151.684
 20
150.838
 30
0.0
 70
    32
  0
VERTEX
  5
1AD8C
  8
0
 62
     5
 10
151.684
 20
150.838
 30
0.0
 70
    32
  0
VERTEX
  5
1AD8D
  8
0
 62
     5
 10
151.684
 20
150.838
 30
0.0
 70
    32
  0
VERTEX
  5
1AD8E
  8
0
 62
     5
 10
151.684
 20
150.838
 30
0.0
 70
    32
  0
VERTEX
  5
1AD8F
  8
0
 62
     5
 10
151.684
 20
150.838
 30
0.0
 70
    32
  0
VERTEX
  5
1AD90
  8
0
 62
     5
 10
151.684
 20
150.838
 30
0.0
 70
    32
  0
VERTEX
  5
1AD91
  8
0
 62
     5
 10
151.684
 20
150.838
 30
0.0
 70
    32
  0
VERTEX
  5
1AD92
  8
0
 62
     5
 10
151.684
 20
150.838
 30
0.0
 70
    32
  0
VERTEX
  5
1AD93
  8
0
 62
     5
 10
151.684
 20
150.838
 30
0.0
 70
    32
  0
VERTEX
  5
1AD94
  8
0
 62
     5
 10
151.684
 20
150.838
 30
0.0
 70
    32
  0
VERTEX
  5
1AD95
  8
0
 62
     5
 10
151.684
 20
150.838
 30
0.0
 70
    32
  0
VERTEX
  5
1AD96
  8
0
 62
     5
 10
151.684
 20
150.838
 30
0.0
 70
    32
  0
VERTEX
  5
1AD97
  8
0
 62
     5
 10
151.684
 20
150.838
 30
0.0
 70
    32
  0
VERTEX
  5
1AD98
  8
0
 62
     5
 10
151.684
 20
150.838
 30
0.0
 70
    32
  0
VERTEX
  5
1AD99
  8
0
 62
     5
 10
151.684
 20
150.838
 30
0.0
 70
    32
  0
VERTEX
  5
1AD9A
  8
0
 62
     5
 10
151.684
 20
150.838
 30
0.0
 70
    32
  0
VERTEX
  5
1AD9B
  8
0
 62
     5
 10
151.684
 20
150.838
 30
0.0
 70
    32
  0
VERTEX
  5
1AD9C
  8
0
 62
     5
 10
151.684
 20
150.838
 30
0.0
 70
    32
  0
VERTEX
  5
1AD9D
  8
0
 62
     5
 10
151.684
 20
150.838
 30
0.0
 70
    32
  0
VERTEX
  5
1AD9E
  8
0
 62
     5
 10
151.684
 20
150.838
 30
0.0
 70
    32
  0
VERTEX
  5
1AD9F
  8
0
 62
     5
 10
151.684
 20
150.838
 30
0.0
 70
    32
  0
VERTEX
  5
1ADA0
  8
0
 62
     5
 10
151.684
 20
150.838
 30
0.0
 70
    32
  0
VERTEX
  5
1ADA1
  8
0
 62
     5
 10
151.684
 20
150.838
 30
0.0
 70
    32
  0
VERTEX
  5
1ADA2
  8
0
 62
     5
 10
151.684
 20
150.838
 30
0.0
 70
    32
  0
VERTEX
  5
1ADA3
  8
0
 62
     5
 10
151.684
 20
150.838
 30
0.0
 70
    32
  0
VERTEX
  5
1ADA4
  8
0
 62
     5
 10
151.684
 20
150.838
 30
0.0
 70
    32
  0
SEQEND
  5
1ADA5
  8
0
 62
     5
  0
LINE
  5
1ADA6
  8
0
 62
     5
 10
156.183518
 20
151.263755
 30
0.0
 11
155.483518
 21
151.263755
 31
0.0
  0
LINE
  5
1ADA7
  8
0
 62
     5
 10
154.744398
 20
151.442918
 30
0.0
 11
155.483518
 21
151.442918
 31
0.0
  0
LINE
  5
1ADA8
  8
0
 62
     5
 10
156.183518
 20
157.68888
 30
0.0
 11
151.983518
 21
157.68888
 31
0.0
  0
ARC
  5
1ADA9
  8
0
 62
     5
 10
148.183518
 20
157.18888
 30
0.0
 40
0.5
 50
0.0
 51
90.0
  0
ARC
  5
1ADAA
  8
0
 62
     5
 10
151.983518
 20
157.38888
 30
0.0
 40
0.3
 50
90.0
 51
180.0
  0
LINE
  5
1ADAB
  8
0
 62
     5
 10
154.744398
 20
156.942918
 30
0.0
 11
155.483518
 21
156.942918
 31
0.0
  0
LINE
  5
1ADAC
  8
0
 62
     5
 10
156.183518
 20
157.142918
 30
0.0
 11
155.483518
 21
157.142918
 31
0.0
  0
LINE
  5
1ADAD
  8
0
 62
     5
 10
133.183518
 20
193.48888
 30
0.0
 11
148.184412
 21
193.48888
 31
0.0
  0
LINE
  5
1ADAE
  8
0
 62
     5
 10
151.183518
 20
182.98888
 30
0.0
 11
133.183518
 21
182.98888
 31
0.0
  0
LINE
  5
1ADAF
  8
0
 62
     5
 10
132.183518
 20
190.432859
 30
0.0
 11
151.683518
 21
190.432859
 31
0.0
  0
LINE
  5
1ADB0
  8
0
 62
     5
 10
133.183518
 20
200.48888
 30
0.0
 11
156.183518
 21
200.48888
 31
0.0
  0
ARC
  5
1ADB1
  8
0
 62
     5
 10
133.183518
 20
199.48888
 30
0.0
 40
1.0
 50
90.0
 51
180.0
  0
ARC
  5
1ADB2
  8
0
 62
     5
 10
133.183518
 20
181.98888
 30
0.0
 40
1.0
 50
90.0
 51
180.0
  0
ARC
  5
1ADB3
  8
0
 62
     5
 10
133.183518
 20
192.48888
 30
0.0
 40
1.0
 50
90.0
 51
180.0
  0
LINE
  5
1ADB4
  8
0
 62
     5
 10
155.683518
 20
200.48888
 30
0.0
 11
155.683518
 21
199.927588
 31
0.0
  0
ARC
  5
1ADB5
  8
0
 62
     5
 10
149.183518
 20
199.98888
 30
0.0
 40
0.5
 50
90.0
 51
180.0
  0
ARC
  5
1ADB6
  8
0
 62
     5
 10
151.183518
 20
199.98888
 30
0.0
 40
0.5
 50
0.0
 51
90.0
  0
LINE
  5
1ADB7
  8
0
 62
     5
 10
151.683518
 20
183.48888
 30
0.0
 11
151.683518
 21
190.432859
 31
0.0
  0
LINE
  5
1ADB8
  8
0
 62
     5
 10
150.483518
 20
183.855678
 30
0.0
 11
150.483518
 21
189.73304
 31
0.0
  0
LINE
  5
1ADB9
  8
0
 62
     5
 10
151.183518
 20
189.782037
 30
0.0
 11
151.183518
 21
183.787647
 31
0.0
  0
ARC
  5
1ADBA
  8
0
 62
     5
 10
150.479621
 20
185.95397
 30
0.0
 40
1.919132
 50
187.039486
 51
270.11637
  0
LINE
  5
1ADBB
  8
0
 62
     5
 10
151.183518
 20
183.784842
 30
0.0
 11
151.683518
 21
183.784842
 31
0.0
  0
LINE
  5
1ADBC
  8
0
 62
     5
 10
151.183518
 20
183.855678
 30
0.0
 11
150.483518
 21
183.855678
 31
0.0
  0
ARC
  5
1ADBD
  8
0
 62
     5
 10
151.183518
 20
183.48888
 30
0.0
 40
0.5
 50
270.0
 51
0.0
  0
ARC
  5
1ADBE
  8
0
 62
     5
 10
154.744398
 20
198.727588
 30
0.0
 40
1.0
 50
90.000014
 51
163.042285
  0
ARC
  5
1ADBF
  8
0
 62
     5
 10
154.744398
 20
195.227588
 30
0.0
 40
1.0
 50
196.957715
 51
269.999986
  0
LINE
  5
1ADC0
  8
0
 62
     5
 10
151.983518
 20
193.48888
 30
0.0
 11
155.683518
 21
193.48888
 31
0.0
  0
LINE
  5
1ADC1
  8
0
 62
     5
 10
155.683518
 20
190.447555
 30
0.0
 11
151.883518
 21
190.447555
 31
0.0
  0
LINE
  5
1ADC2
  8
0
 62
     5
 10
148.598951
 20
187.064842
 30
0.0
 11
148.818657
 21
187.064842
 31
0.0
  0
ARC
  5
1ADC3
  8
0
 62
     5
 10
150.479621
 20
187.615714
 30
0.0
 40
1.919132
 50
89.88363
 51
172.960514
  0
LINE
  5
1ADC4
  8
0
 62
     5
 10
148.818657
 20
186.504842
 30
0.0
 11
148.598951
 21
186.504842
 31
0.0
  0
LINE
  5
1ADC5
  8
0
 62
     5
 10
148.574955
 20
187.152611
 30
0.0
 11
148.574955
 21
187.85091
 31
0.0
  0
LINE
  5
1ADC6
  8
0
 62
     5
 10
148.574955
 20
186.417072
 30
0.0
 11
148.574955
 21
185.718774
 31
0.0
  0
POLYLINE
  5
1ADC7
  8
0
 62
     5
 66
     1
 10
0.0
 20
0.0
 30
0.0
  0
VERTEX
  5
1B43B
  8
0
 62
     5
 10
151.683518
 20
190.247969
 30
0.0
  0
VERTEX
  5
1B43C
  8
0
 62
     5
 10
151.684135
 20
190.263629
 30
0.0
  0
VERTEX
  5
1B43D
  8
0
 62
     5
 10
151.685981
 20
190.279191
 30
0.0
  0
VERTEX
  5
1B43E
  8
0
 62
     5
 10
151.689044
 20
190.294562
 30
0.0
  0
VERTEX
  5
1B43F
  8
0
 62
     5
 10
151.693307
 20
190.309645
 30
0.0
  0
VERTEX
  5
1B440
  8
0
 62
     5
 10
151.698743
 20
190.324348
 30
0.0
  0
VERTEX
  5
1B441
  8
0
 62
     5
 10
151.705317
 20
190.338579
 30
0.0
  0
VERTEX
  5
1B442
  8
0
 62
     5
 10
151.71299
 20
190.352253
 30
0.0
  0
VERTEX
  5
1B443
  8
0
 62
     5
 10
151.721715
 20
190.365283
 30
0.0
  0
VERTEX
  5
1B444
  8
0
 62
     5
 10
151.731437
 20
190.37759
 30
0.0
  0
VERTEX
  5
1B445
  8
0
 62
     5
 10
151.742097
 20
190.389098
 30
0.0
  0
VERTEX
  5
1B446
  8
0
 62
     5
 10
151.753629
 20
190.399736
 30
0.0
  0
VERTEX
  5
1B447
  8
0
 62
     5
 10
151.765961
 20
190.409438
 30
0.0
  0
VERTEX
  5
1B448
  8
0
 62
     5
 10
151.779019
 20
190.418144
 30
0.0
  0
VERTEX
  5
1B449
  8
0
 62
     5
 10
151.79272
 20
190.425802
 30
0.0
  0
VERTEX
  5
1B44A
  8
0
 62
     5
 10
151.806982
 20
190.432363
 30
0.0
  0
VERTEX
  5
1B44B
  8
0
 62
     5
 10
151.821715
 20
190.437787
 30
0.0
  0
VERTEX
  5
1B44C
  8
0
 62
     5
 10
151.836829
 20
190.442041
 30
0.0
  0
VERTEX
  5
1B44D
  8
0
 62
     5
 10
151.852232
 20
190.445098
 30
0.0
  0
VERTEX
  5
1B44E
  8
0
 62
     5
 10
151.867827
 20
190.44694
 30
0.0
  0
VERTEX
  5
1B44F
  8
0
 62
     5
 10
151.883518
 20
190.447555
 30
0.0
  0
SEQEND
  5
1B450
  8
0
 62
     5
  0
LINE
  5
1ADDE
  8
0
 62
     5
 10
151.183518
 20
189.734842
 30
0.0
 11
150.483518
 21
189.734842
 31
0.0
  0
LINE
  5
1ADDF
  8
0
 62
     5
 10
151.183518
 20
189.784842
 30
0.0
 11
151.683518
 21
189.784842
 31
0.0
  0
LINE
  5
1ADE0
  8
0
 62
     5
 10
148.818657
 20
187.064842
 30
0.0
 11
148.818657
 21
186.504842
 31
0.0
  0
ARC
  5
1ADE1
  8
0
 62
     5
 10
148.183518
 20
193.98888
 30
0.0
 40
0.5
 50
270.0
 51
0.0
  0
POLYLINE
  5
1ADE2
  8
0
 62
     5
 66
     1
 10
0.0
 20
0.0
 30
0.0
 70
     8
  0
VERTEX
  5
1ADE3
  8
0
 62
     5
 10
148.684
 20
193.984
 30
0.0
 70
    32
  0
VERTEX
  5
1ADE4
  8
0
 62
     5
 10
148.684
 20
193.984
 30
0.0
 70
    32
  0
VERTEX
  5
1ADE5
  8
0
 62
     5
 10
148.684
 20
193.984
 30
0.0
 70
    32
  0
VERTEX
  5
1ADE6
  8
0
 62
     5
 10
148.684
 20
193.984
 30
0.0
 70
    32
  0
VERTEX
  5
1ADE7
  8
0
 62
     5
 10
148.684
 20
193.984
 30
0.0
 70
    32
  0
VERTEX
  5
1ADE8
  8
0
 62
     5
 10
148.684
 20
193.984
 30
0.0
 70
    32
  0
VERTEX
  5
1ADE9
  8
0
 62
     5
 10
148.684
 20
193.984
 30
0.0
 70
    32
  0
VERTEX
  5
1ADEA
  8
0
 62
     5
 10
148.684
 20
193.984
 30
0.0
 70
    32
  0
VERTEX
  5
1ADEB
  8
0
 62
     5
 10
148.684
 20
193.984
 30
0.0
 70
    32
  0
VERTEX
  5
1ADEC
  8
0
 62
     5
 10
148.684
 20
193.984
 30
0.0
 70
    32
  0
VERTEX
  5
1ADED
  8
0
 62
     5
 10
148.684
 20
193.984
 30
0.0
 70
    32
  0
VERTEX
  5
1ADEE
  8
0
 62
     5
 10
148.684
 20
193.984
 30
0.0
 70
    32
  0
VERTEX
  5
1ADEF
  8
0
 62
     5
 10
148.684
 20
193.984
 30
0.0
 70
    32
  0
VERTEX
  5
1ADF0
  8
0
 62
     5
 10
148.684
 20
193.984
 30
0.0
 70
    32
  0
VERTEX
  5
1ADF1
  8
0
 62
     5
 10
148.684
 20
193.984
 30
0.0
 70
    32
  0
VERTEX
  5
1ADF2
  8
0
 62
     5
 10
148.684
 20
193.984
 30
0.0
 70
    32
  0
VERTEX
  5
1ADF3
  8
0
 62
     5
 10
148.684
 20
193.984
 30
0.0
 70
    32
  0
VERTEX
  5
1ADF4
  8
0
 62
     5
 10
148.684
 20
193.984
 30
0.0
 70
    32
  0
VERTEX
  5
1ADF5
  8
0
 62
     5
 10
148.684
 20
193.984
 30
0.0
 70
    32
  0
VERTEX
  5
1ADF6
  8
0
 62
     5
 10
148.684
 20
193.984
 30
0.0
 70
    32
  0
VERTEX
  5
1ADF7
  8
0
 62
     5
 10
148.684
 20
193.984
 30
0.0
 70
    32
  0
VERTEX
  5
1ADF8
  8
0
 62
     5
 10
148.684
 20
193.985
 30
0.0
 70
    32
  0
VERTEX
  5
1ADF9
  8
0
 62
     5
 10
148.684
 20
193.985
 30
0.0
 70
    32
  0
VERTEX
  5
1ADFA
  8
0
 62
     5
 10
148.684
 20
193.985
 30
0.0
 70
    32
  0
VERTEX
  5
1ADFB
  8
0
 62
     5
 10
148.684
 20
193.985
 30
0.0
 70
    32
  0
VERTEX
  5
1ADFC
  8
0
 62
     5
 10
148.684
 20
193.985
 30
0.0
 70
    32
  0
VERTEX
  5
1ADFD
  8
0
 62
     5
 10
148.684
 20
193.985
 30
0.0
 70
    32
  0
VERTEX
  5
1ADFE
  8
0
 62
     5
 10
148.684
 20
193.985
 30
0.0
 70
    32
  0
VERTEX
  5
1ADFF
  8
0
 62
     5
 10
148.684
 20
193.985
 30
0.0
 70
    32
  0
VERTEX
  5
1AE00
  8
0
 62
     5
 10
148.684
 20
193.985
 30
0.0
 70
    32
  0
VERTEX
  5
1AE01
  8
0
 62
     5
 10
148.684
 20
193.985
 30
0.0
 70
    32
  0
VERTEX
  5
1AE02
  8
0
 62
     5
 10
148.684
 20
193.985
 30
0.0
 70
    32
  0
VERTEX
  5
1AE03
  8
0
 62
     5
 10
148.684
 20
193.985
 30
0.0
 70
    32
  0
VERTEX
  5
1AE04
  8
0
 62
     5
 10
148.684
 20
193.985
 30
0.0
 70
    32
  0
VERTEX
  5
1AE05
  8
0
 62
     5
 10
148.684
 20
193.985
 30
0.0
 70
    32
  0
VERTEX
  5
1AE06
  8
0
 62
     5
 10
148.684
 20
193.985
 30
0.0
 70
    32
  0
VERTEX
  5
1AE07
  8
0
 62
     5
 10
148.684
 20
193.985
 30
0.0
 70
    32
  0
VERTEX
  5
1AE08
  8
0
 62
     5
 10
148.684
 20
193.985
 30
0.0
 70
    32
  0
VERTEX
  5
1AE09
  8
0
 62
     5
 10
148.684
 20
193.985
 30
0.0
 70
    32
  0
VERTEX
  5
1AE0A
  8
0
 62
     5
 10
148.684
 20
193.985
 30
0.0
 70
    32
  0
VERTEX
  5
1AE0B
  8
0
 62
     5
 10
148.684
 20
193.985
 30
0.0
 70
    32
  0
VERTEX
  5
1AE0C
  8
0
 62
     5
 10
148.684
 20
193.985
 30
0.0
 70
    32
  0
VERTEX
  5
1AE0D
  8
0
 62
     5
 10
148.684
 20
193.985
 30
0.0
 70
    32
  0
VERTEX
  5
1AE0E
  8
0
 62
     5
 10
148.684
 20
193.985
 30
0.0
 70
    32
  0
VERTEX
  5
1AE0F
  8
0
 62
     5
 10
148.684
 20
193.985
 30
0.0
 70
    32
  0
VERTEX
  5
1AE10
  8
0
 62
     5
 10
148.684
 20
193.985
 30
0.0
 70
    32
  0
VERTEX
  5
1AE11
  8
0
 62
     5
 10
148.684
 20
193.985
 30
0.0
 70
    32
  0
VERTEX
  5
1AE12
  8
0
 62
     5
 10
148.684
 20
193.985
 30
0.0
 70
    32
  0
VERTEX
  5
1AE13
  8
0
 62
     5
 10
148.684
 20
193.985
 30
0.0
 70
    32
  0
VERTEX
  5
1AE14
  8
0
 62
     5
 10
148.684
 20
193.985
 30
0.0
 70
    32
  0
VERTEX
  5
1AE15
  8
0
 62
     5
 10
148.684
 20
193.985
 30
0.0
 70
    32
  0
VERTEX
  5
1AE16
  8
0
 62
     5
 10
148.684
 20
193.985
 30
0.0
 70
    32
  0
VERTEX
  5
1AE17
  8
0
 62
     5
 10
148.684
 20
193.985
 30
0.0
 70
    32
  0
VERTEX
  5
1AE18
  8
0
 62
     5
 10
148.684
 20
193.986
 30
0.0
 70
    32
  0
VERTEX
  5
1AE19
  8
0
 62
     5
 10
148.684
 20
193.986
 30
0.0
 70
    32
  0
VERTEX
  5
1AE1A
  8
0
 62
     5
 10
148.684
 20
193.986
 30
0.0
 70
    32
  0
VERTEX
  5
1AE1B
  8
0
 62
     5
 10
148.684
 20
193.986
 30
0.0
 70
    32
  0
VERTEX
  5
1AE1C
  8
0
 62
     5
 10
148.684
 20
193.986
 30
0.0
 70
    32
  0
VERTEX
  5
1AE1D
  8
0
 62
     5
 10
148.684
 20
193.986
 30
0.0
 70
    32
  0
VERTEX
  5
1AE1E
  8
0
 62
     5
 10
148.684
 20
193.986
 30
0.0
 70
    32
  0
VERTEX
  5
1AE1F
  8
0
 62
     5
 10
148.684
 20
193.986
 30
0.0
 70
    32
  0
VERTEX
  5
1AE20
  8
0
 62
     5
 10
148.684
 20
193.986
 30
0.0
 70
    32
  0
VERTEX
  5
1AE21
  8
0
 62
     5
 10
148.684
 20
193.986
 30
0.0
 70
    32
  0
VERTEX
  5
1AE22
  8
0
 62
     5
 10
148.684
 20
193.986
 30
0.0
 70
    32
  0
VERTEX
  5
1AE23
  8
0
 62
     5
 10
148.684
 20
193.986
 30
0.0
 70
    32
  0
VERTEX
  5
1AE24
  8
0
 62
     5
 10
148.684
 20
193.986
 30
0.0
 70
    32
  0
VERTEX
  5
1AE25
  8
0
 62
     5
 10
148.684
 20
193.986
 30
0.0
 70
    32
  0
VERTEX
  5
1AE26
  8
0
 62
     5
 10
148.684
 20
193.986
 30
0.0
 70
    32
  0
VERTEX
  5
1AE27
  8
0
 62
     5
 10
148.684
 20
193.986
 30
0.0
 70
    32
  0
VERTEX
  5
1AE28
  8
0
 62
     5
 10
148.684
 20
193.986
 30
0.0
 70
    32
  0
VERTEX
  5
1AE29
  8
0
 62
     5
 10
148.684
 20
193.986
 30
0.0
 70
    32
  0
VERTEX
  5
1AE2A
  8
0
 62
     5
 10
148.684
 20
193.986
 30
0.0
 70
    32
  0
VERTEX
  5
1AE2B
  8
0
 62
     5
 10
148.684
 20
193.986
 30
0.0
 70
    32
  0
VERTEX
  5
1AE2C
  8
0
 62
     5
 10
148.684
 20
193.986
 30
0.0
 70
    32
  0
VERTEX
  5
1AE2D
  8
0
 62
     5
 10
148.684
 20
193.986
 30
0.0
 70
    32
  0
VERTEX
  5
1AE2E
  8
0
 62
     5
 10
148.684
 20
193.986
 30
0.0
 70
    32
  0
VERTEX
  5
1AE2F
  8
0
 62
     5
 10
148.684
 20
193.986
 30
0.0
 70
    32
  0
VERTEX
  5
1AE30
  8
0
 62
     5
 10
148.684
 20
193.986
 30
0.0
 70
    32
  0
VERTEX
  5
1AE31
  8
0
 62
     5
 10
148.684
 20
193.986
 30
0.0
 70
    32
  0
VERTEX
  5
1AE32
  8
0
 62
     5
 10
148.684
 20
193.986
 30
0.0
 70
    32
  0
VERTEX
  5
1AE33
  8
0
 62
     5
 10
148.684
 20
193.986
 30
0.0
 70
    32
  0
VERTEX
  5
1AE34
  8
0
 62
     5
 10
148.684
 20
193.986
 30
0.0
 70
    32
  0
VERTEX
  5
1AE35
  8
0
 62
     5
 10
148.684
 20
193.986
 30
0.0
 70
    32
  0
VERTEX
  5
1AE36
  8
0
 62
     5
 10
148.684
 20
193.986
 30
0.0
 70
    32
  0
VERTEX
  5
1AE37
  8
0
 62
     5
 10
148.684
 20
193.987
 30
0.0
 70
    32
  0
VERTEX
  5
1AE38
  8
0
 62
     5
 10
148.684
 20
193.987
 30
0.0
 70
    32
  0
VERTEX
  5
1AE39
  8
0
 62
     5
 10
148.684
 20
193.987
 30
0.0
 70
    32
  0
VERTEX
  5
1AE3A
  8
0
 62
     5
 10
148.684
 20
193.987
 30
0.0
 70
    32
  0
VERTEX
  5
1AE3B
  8
0
 62
     5
 10
148.684
 20
193.987
 30
0.0
 70
    32
  0
VERTEX
  5
1AE3C
  8
0
 62
     5
 10
148.684
 20
193.987
 30
0.0
 70
    32
  0
VERTEX
  5
1AE3D
  8
0
 62
     5
 10
148.684
 20
193.987
 30
0.0
 70
    32
  0
VERTEX
  5
1AE3E
  8
0
 62
     5
 10
148.684
 20
193.987
 30
0.0
 70
    32
  0
VERTEX
  5
1AE3F
  8
0
 62
     5
 10
148.684
 20
193.987
 30
0.0
 70
    32
  0
VERTEX
  5
1AE40
  8
0
 62
     5
 10
148.684
 20
193.987
 30
0.0
 70
    32
  0
VERTEX
  5
1AE41
  8
0
 62
     5
 10
148.684
 20
193.987
 30
0.0
 70
    32
  0
VERTEX
  5
1AE42
  8
0
 62
     5
 10
148.684
 20
193.987
 30
0.0
 70
    32
  0
VERTEX
  5
1AE43
  8
0
 62
     5
 10
148.684
 20
193.987
 30
0.0
 70
    32
  0
VERTEX
  5
1AE44
  8
0
 62
     5
 10
148.684
 20
193.987
 30
0.0
 70
    32
  0
VERTEX
  5
1AE45
  8
0
 62
     5
 10
148.684
 20
193.987
 30
0.0
 70
    32
  0
VERTEX
  5
1AE46
  8
0
 62
     5
 10
148.684
 20
193.987
 30
0.0
 70
    32
  0
VERTEX
  5
1AE47
  8
0
 62
     5
 10
148.684
 20
193.987
 30
0.0
 70
    32
  0
VERTEX
  5
1AE48
  8
0
 62
     5
 10
148.684
 20
193.987
 30
0.0
 70
    32
  0
VERTEX
  5
1AE49
  8
0
 62
     5
 10
148.684
 20
193.987
 30
0.0
 70
    32
  0
VERTEX
  5
1AE4A
  8
0
 62
     5
 10
148.684
 20
193.987
 30
0.0
 70
    32
  0
VERTEX
  5
1AE4B
  8
0
 62
     5
 10
148.684
 20
193.987
 30
0.0
 70
    32
  0
VERTEX
  5
1AE4C
  8
0
 62
     5
 10
148.684
 20
193.987
 30
0.0
 70
    32
  0
VERTEX
  5
1AE4D
  8
0
 62
     5
 10
148.684
 20
193.987
 30
0.0
 70
    32
  0
VERTEX
  5
1AE4E
  8
0
 62
     5
 10
148.684
 20
193.987
 30
0.0
 70
    32
  0
VERTEX
  5
1AE4F
  8
0
 62
     5
 10
148.684
 20
193.987
 30
0.0
 70
    32
  0
VERTEX
  5
1AE50
  8
0
 62
     5
 10
148.684
 20
193.987
 30
0.0
 70
    32
  0
VERTEX
  5
1AE51
  8
0
 62
     5
 10
148.684
 20
193.987
 30
0.0
 70
    32
  0
VERTEX
  5
1AE52
  8
0
 62
     5
 10
148.684
 20
193.987
 30
0.0
 70
    32
  0
VERTEX
  5
1AE53
  8
0
 62
     5
 10
148.684
 20
193.987
 30
0.0
 70
    32
  0
VERTEX
  5
1AE54
  8
0
 62
     5
 10
148.684
 20
193.987
 30
0.0
 70
    32
  0
VERTEX
  5
1AE55
  8
0
 62
     5
 10
148.684
 20
193.987
 30
0.0
 70
    32
  0
VERTEX
  5
1AE56
  8
0
 62
     5
 10
148.684
 20
193.987
 30
0.0
 70
    32
  0
VERTEX
  5
1AE57
  8
0
 62
     5
 10
148.684
 20
193.988
 30
0.0
 70
    32
  0
VERTEX
  5
1AE58
  8
0
 62
     5
 10
148.684
 20
193.988
 30
0.0
 70
    32
  0
VERTEX
  5
1AE59
  8
0
 62
     5
 10
148.684
 20
193.988
 30
0.0
 70
    32
  0
VERTEX
  5
1AE5A
  8
0
 62
     5
 10
148.684
 20
193.988
 30
0.0
 70
    32
  0
VERTEX
  5
1AE5B
  8
0
 62
     5
 10
148.684
 20
193.988
 30
0.0
 70
    32
  0
VERTEX
  5
1AE5C
  8
0
 62
     5
 10
148.684
 20
193.988
 30
0.0
 70
    32
  0
VERTEX
  5
1AE5D
  8
0
 62
     5
 10
148.684
 20
193.988
 30
0.0
 70
    32
  0
VERTEX
  5
1AE5E
  8
0
 62
     5
 10
148.684
 20
193.988
 30
0.0
 70
    32
  0
VERTEX
  5
1AE5F
  8
0
 62
     5
 10
148.684
 20
193.988
 30
0.0
 70
    32
  0
VERTEX
  5
1AE60
  8
0
 62
     5
 10
148.684
 20
193.988
 30
0.0
 70
    32
  0
VERTEX
  5
1AE61
  8
0
 62
     5
 10
148.684
 20
193.988
 30
0.0
 70
    32
  0
VERTEX
  5
1AE62
  8
0
 62
     5
 10
148.684
 20
193.988
 30
0.0
 70
    32
  0
VERTEX
  5
1AE63
  8
0
 62
     5
 10
148.684
 20
193.988
 30
0.0
 70
    32
  0
VERTEX
  5
1AE64
  8
0
 62
     5
 10
148.684
 20
193.988
 30
0.0
 70
    32
  0
VERTEX
  5
1AE65
  8
0
 62
     5
 10
148.684
 20
193.988
 30
0.0
 70
    32
  0
VERTEX
  5
1AE66
  8
0
 62
     5
 10
148.684
 20
193.988
 30
0.0
 70
    32
  0
VERTEX
  5
1AE67
  8
0
 62
     5
 10
148.684
 20
193.988
 30
0.0
 70
    32
  0
VERTEX
  5
1AE68
  8
0
 62
     5
 10
148.684
 20
193.988
 30
0.0
 70
    32
  0
VERTEX
  5
1AE69
  8
0
 62
     5
 10
148.684
 20
193.988
 30
0.0
 70
    32
  0
VERTEX
  5
1AE6A
  8
0
 62
     5
 10
148.684
 20
193.988
 30
0.0
 70
    32
  0
VERTEX
  5
1AE6B
  8
0
 62
     5
 10
148.684
 20
193.988
 30
0.0
 70
    32
  0
VERTEX
  5
1AE6C
  8
0
 62
     5
 10
148.684
 20
193.988
 30
0.0
 70
    32
  0
VERTEX
  5
1AE6D
  8
0
 62
     5
 10
148.684
 20
193.988
 30
0.0
 70
    32
  0
VERTEX
  5
1AE6E
  8
0
 62
     5
 10
148.684
 20
193.988
 30
0.0
 70
    32
  0
VERTEX
  5
1AE6F
  8
0
 62
     5
 10
148.684
 20
193.988
 30
0.0
 70
    32
  0
VERTEX
  5
1AE70
  8
0
 62
     5
 10
148.684
 20
193.988
 30
0.0
 70
    32
  0
VERTEX
  5
1AE71
  8
0
 62
     5
 10
148.684
 20
193.988
 30
0.0
 70
    32
  0
VERTEX
  5
1AE72
  8
0
 62
     5
 10
148.684
 20
193.988
 30
0.0
 70
    32
  0
VERTEX
  5
1AE73
  8
0
 62
     5
 10
148.684
 20
193.988
 30
0.0
 70
    32
  0
VERTEX
  5
1AE74
  8
0
 62
     5
 10
148.684
 20
193.988
 30
0.0
 70
    32
  0
VERTEX
  5
1AE75
  8
0
 62
     5
 10
148.684
 20
193.988
 30
0.0
 70
    32
  0
VERTEX
  5
1AE76
  8
0
 62
     5
 10
148.684
 20
193.988
 30
0.0
 70
    32
  0
VERTEX
  5
1AE77
  8
0
 62
     5
 10
148.684
 20
193.989
 30
0.0
 70
    32
  0
VERTEX
  5
1AE78
  8
0
 62
     5
 10
148.684
 20
193.989
 30
0.0
 70
    32
  0
VERTEX
  5
1AE79
  8
0
 62
     5
 10
148.684
 20
193.989
 30
0.0
 70
    32
  0
VERTEX
  5
1AE7A
  8
0
 62
     5
 10
148.684
 20
193.989
 30
0.0
 70
    32
  0
VERTEX
  5
1AE7B
  8
0
 62
     5
 10
148.684
 20
193.989
 30
0.0
 70
    32
  0
VERTEX
  5
1AE7C
  8
0
 62
     5
 10
148.684
 20
193.989
 30
0.0
 70
    32
  0
VERTEX
  5
1AE7D
  8
0
 62
     5
 10
148.684
 20
193.989
 30
0.0
 70
    32
  0
VERTEX
  5
1AE7E
  8
0
 62
     5
 10
148.684
 20
193.989
 30
0.0
 70
    32
  0
VERTEX
  5
1AE7F
  8
0
 62
     5
 10
148.684
 20
193.989
 30
0.0
 70
    32
  0
VERTEX
  5
1AE80
  8
0
 62
     5
 10
148.684
 20
193.989
 30
0.0
 70
    32
  0
VERTEX
  5
1AE81
  8
0
 62
     5
 10
148.684
 20
193.989
 30
0.0
 70
    32
  0
VERTEX
  5
1AE82
  8
0
 62
     5
 10
148.684
 20
193.989
 30
0.0
 70
    32
  0
SEQEND
  5
1AE83
  8
0
 62
     5
  0
LINE
  5
1AE84
  8
0
 62
     5
 10
148.683518
 20
193.98888
 30
0.0
 11
148.683518
 21
199.98888
 31
0.0
  0
LINE
  5
1AE85
  8
0
 62
     5
 10
153.732407
 20
198.827588
 30
0.0
 11
153.787878
 21
199.019254
 31
0.0
  0
LINE
  5
1AE86
  8
0
 62
     5
 10
153.732407
 20
198.827588
 30
0.0
 11
153.732407
 21
198.806276
 31
0.0
  0
LINE
  5
1AE87
  8
0
 62
     5
 10
153.732407
 20
197.257588
 30
0.0
 11
153.732407
 21
196.697588
 31
0.0
  0
LINE
  5
1AE88
  8
0
 62
     5
 10
153.732407
 20
195.1489
 30
0.0
 11
153.732407
 21
195.127588
 31
0.0
  0
LINE
  5
1AE89
  8
0
 62
     5
 10
153.732407
 20
195.127588
 30
0.0
 11
153.787878
 21
194.935922
 31
0.0
  0
LINE
  5
1AE8A
  8
0
 62
     5
 10
153.732407
 20
196.697588
 30
0.0
 11
153.605144
 21
196.697588
 31
0.0
  0
LINE
  5
1AE8B
  8
0
 62
     5
 10
153.605144
 20
197.257588
 30
0.0
 11
153.732407
 21
197.257588
 31
0.0
  0
ARC
  5
1AE8C
  8
0
 62
     5
 10
151.983518
 20
193.78888
 30
0.0
 40
0.3
 50
180.0
 51
270.0
  0
LINE
  5
1AE8D
  8
0
 62
     5
 10
151.683518
 20
193.788848
 30
0.0
 11
151.683518
 21
199.98888
 31
0.0
  0
LINE
  5
1AE8E
  8
0
 62
     5
 10
155.683518
 20
190.375491
 30
0.0
 11
155.683518
 21
194.048424
 31
0.0
  0
POLYLINE
  5
1AE8F
  8
0
 62
     5
 66
     1
 10
0.0
 20
0.0
 30
0.0
  0
VERTEX
  5
1B451
  8
0
 62
     5
 10
156.383518
 20
190.447555
 30
0.0
  0
VERTEX
  5
1B452
  8
0
 62
     5
 10
156.367827
 20
190.44694
 30
0.0
  0
VERTEX
  5
1B453
  8
0
 62
     5
 10
156.352232
 20
190.445098
 30
0.0
  0
VERTEX
  5
1B454
  8
0
 62
     5
 10
156.336829
 20
190.442041
 30
0.0
  0
VERTEX
  5
1B455
  8
0
 62
     5
 10
156.321715
 20
190.437787
 30
0.0
  0
VERTEX
  5
1B456
  8
0
 62
     5
 10
156.306982
 20
190.432363
 30
0.0
  0
VERTEX
  5
1B457
  8
0
 62
     5
 10
156.29272
 20
190.425802
 30
0.0
  0
VERTEX
  5
1B458
  8
0
 62
     5
 10
156.279019
 20
190.418144
 30
0.0
  0
VERTEX
  5
1B459
  8
0
 62
     5
 10
156.265961
 20
190.409438
 30
0.0
  0
VERTEX
  5
1B45A
  8
0
 62
     5
 10
156.253629
 20
190.399736
 30
0.0
  0
VERTEX
  5
1B45B
  8
0
 62
     5
 10
156.242097
 20
190.389098
 30
0.0
  0
VERTEX
  5
1B45C
  8
0
 62
     5
 10
156.231437
 20
190.37759
 30
0.0
  0
VERTEX
  5
1B45D
  8
0
 62
     5
 10
156.221715
 20
190.365283
 30
0.0
  0
VERTEX
  5
1B45E
  8
0
 62
     5
 10
156.21299
 20
190.352253
 30
0.0
  0
VERTEX
  5
1B45F
  8
0
 62
     5
 10
156.205317
 20
190.338579
 30
0.0
  0
VERTEX
  5
1B460
  8
0
 62
     5
 10
156.198743
 20
190.324348
 30
0.0
  0
VERTEX
  5
1B461
  8
0
 62
     5
 10
156.193307
 20
190.309645
 30
0.0
  0
VERTEX
  5
1B462
  8
0
 62
     5
 10
156.189044
 20
190.294562
 30
0.0
  0
VERTEX
  5
1B463
  8
0
 62
     5
 10
156.185981
 20
190.279191
 30
0.0
  0
VERTEX
  5
1B464
  8
0
 62
     5
 10
156.184135
 20
190.263629
 30
0.0
  0
VERTEX
  5
1B465
  8
0
 62
     5
 10
156.183518
 20
190.247969
 30
0.0
  0
SEQEND
  5
1B466
  8
0
 62
     5
  0
LINE
  5
1AEA6
  8
0
 62
     5
 10
156.183518
 20
190.375491
 30
0.0
 11
155.683518
 21
190.375491
 31
0.0
  0
LINE
  5
1AEA7
  8
0
 62
     5
 10
156.183518
 20
190.376621
 30
0.0
 11
155.683518
 21
190.376621
 31
0.0
  0
LINE
  5
1AEA8
  8
0
 62
     5
 10
154.744398
 20
199.727588
 30
0.0
 11
155.483518
 21
199.727588
 31
0.0
  0
LINE
  5
1AEA9
  8
0
 62
     5
 10
156.183518
 20
199.927588
 30
0.0
 11
155.483518
 21
199.927588
 31
0.0
  0
LINE
  5
1AEAA
  8
0
 62
     5
 10
156.183518
 20
194.048424
 30
0.0
 11
155.483518
 21
194.048424
 31
0.0
  0
LINE
  5
1AEAB
  8
0
 62
     5
 10
154.744398
 20
194.227588
 30
0.0
 11
155.483518
 21
194.227588
 31
0.0
  0
LINE
  5
1AEAC
  8
0
 62
     5
 10
155.483518
 20
194.048424
 30
0.0
 11
155.483518
 21
199.925786
 31
0.0
  0
LINE
  5
1AEAD
  8
0
 62
     5
 10
156.183518
 20
200.48888
 30
0.0
 11
156.183518
 21
200.297238
 31
0.0
  0
ARC
  5
1AEAE
  8
0
 62
     5
 10
156.383518
 20
200.28888
 30
0.0
 40
0.2
 50
90.0
 51
180.0
  0
LINE
  5
1AEAF
  8
0
 62
     5
 10
239.283518
 20
140.48888
 30
0.0
 11
239.283518
 21
200.48888
 31
0.0
  0
LINE
  5
1AEB0
  8
0
 62
     5
 10
248.283518
 20
200.48888
 30
0.0
 11
248.283518
 21
140.48888
 31
0.0
  0
LINE
  5
1AEB1
  8
0
 62
     5
 10
251.083518
 20
195.48888
 30
0.0
 11
251.083518
 21
145.48888
 31
0.0
  0
LINE
  5
1AEB2
  8
0
 62
     5
 10
251.283518
 20
195.28888
 30
0.0
 11
251.283518
 21
145.68888
 31
0.0
  0
LINE
  5
1AEB3
  8
0
 62
     5
 10
200.183518
 20
140.318273
 30
0.0
 11
200.183518
 21
200.755044
 31
0.0
  0
LINE
  5
1AEB4
  8
0
 62
     5
 10
239.283518
 20
140.48888
 30
0.0
 11
218.98092
 21
140.400293
 31
0.0
  0
LINE
  5
1AEB5
  8
HIDDEN
 10
227.685306
 20
134.32781
 30
0.0
 11
223.980785
 21
136.488114
 31
0.0
  0
LINE
  5
1AEB6
  8
HIDDEN
 10
227.685306
 20
125.54995
 30
0.0
 11
223.979471
 21
123.38888
 31
0.0
  0
LINE
  5
1AEB7
  8
CENTER
 10
189.983518
 20
142.464265
 30
0.0
 11
189.983518
 21
127.992137
 31
0.0
  0
LINE
  5
1AEB8
  8
CENTER
 10
208.983518
 20
129.004286
 30
0.0
 11
208.983518
 21
144.779271
 31
0.0
  0
LINE
  5
1AEB9
  8
0
 62
     5
 10
200.8357
 20
140.478471
 30
0.0
 11
218.160972
 21
140.481459
 31
0.0
  0
LINE
  5
1AEBA
  8
HIDDEN
 10
205.192433
 20
124.473706
 30
0.0
 11
203.701505
 21
123.579831
 31
0.0
  0
ARC
  5
1AEBB
  8
HIDDEN
 10
208.633518
 20
129.38888
 30
0.0
 40
6.0
 50
180.0
 51
270.0
  0
LINE
  5
1AEBC
  8
0
 62
     5
 10
217.983518
 20
137.08888
 30
0.0
 11
200.833518
 21
137.08888
 31
0.0
  0
LINE
  5
1AEBD
  8
HIDDEN
 10
197.937562
 20
123.38888
 30
0.0
 11
189.117937
 21
123.38888
 31
0.0
  0
LINE
  5
1AEBE
  8
HIDDEN
 10
198.341394
 20
123.579831
 30
0.0
 11
203.701505
 21
123.579831
 31
0.0
  0
POLYLINE
  5
1AEBF
  8
HIDDEN
 66
     1
 10
0.0
 20
0.0
 30
0.0
  0
VERTEX
  5
1B467
  8
HIDDEN
 10
198.32774
 20
123.591203
 30
0.0
  0
VERTEX
  5
1B468
  8
HIDDEN
 10
198.281267
 20
123.535407
 30
0.0
  0
VERTEX
  5
1B469
  8
HIDDEN
 10
198.223323
 20
123.484363
 30
0.0
  0
VERTEX
  5
1B46A
  8
HIDDEN
 10
198.158217
 20
123.443469
 30
0.0
  0
VERTEX
  5
1B46B
  8
HIDDEN
 10
198.087782
 20
123.413345
 30
0.0
  0
VERTEX
  5
1B46C
  8
HIDDEN
 10
198.014507
 20
123.395294
 30
0.0
  0
VERTEX
  5
1B46D
  8
HIDDEN
 10
197.937562
 20
123.38888
 30
0.0
  0
SEQEND
  5
1B46E
  8
HIDDEN
  0
LINE
  5
1AEC8
  8
0
 62
     5
 10
194.434327
 20
129.98888
 30
0.0
 11
194.434327
 21
135.18888
 31
0.0
  0
LINE
  5
1AEC9
  8
0
 62
     5
 10
185.532709
 20
129.98888
 30
0.0
 11
185.532709
 21
135.18888
 31
0.0
  0
LINE
  5
1AECA
  8
0
 62
     5
 10
194.113608
 20
129.68888
 30
0.0
 11
185.853429
 21
129.68888
 31
0.0
  0
LINE
  5
1AECB
  8
0
 62
     5
 10
185.532709
 20
129.98888
 30
0.0
 11
194.434327
 21
129.98888
 31
0.0
  0
LINE
  5
1AECC
  8
0
  6
CONTINUOUS
 62
     5
 10
185.532709
 20
129.98888
 30
0.0
 11
185.853429
 21
129.68888
 31
0.0
  0
LINE
  5
1AECD
  8
0
 62
     5
 10
194.113608
 20
129.68888
 30
0.0
 11
194.434327
 21
129.98888
 31
0.0
  0
LINE
  5
1AECE
  8
HIDDEN
 10
202.633518
 20
129.38888
 30
0.0
 11
202.633518
 21
134.58888
 31
0.0
  0
LINE
  5
1AECF
  8
0
 62
     5
 10
195.743113
 20
137.38888
 30
0.0
 11
200.053152
 21
137.38888
 31
0.0
  0
LINE
  5
1AED0
  8
HIDDEN
 10
199.392545
 20
135.18888
 30
0.0
 11
200.054763
 21
135.18888
 31
0.0
  0
LINE
  5
1AED1
  8
0
 62
     5
 10
199.754763
 20
138.48888
 30
0.0
 11
200.054763
 21
138.18888
 31
0.0
  0
ARC
  5
1AED2
  8
0
 62
     5
 10
199.854763
 20
138.68888
 30
0.0
 40
0.2
 50
270.0
 51
0.0
  0
LINE
  5
1AED3
  8
0
 62
     5
 10
195.743113
 20
137.38888
 30
0.0
 11
195.743113
 21
135.18888
 31
0.0
  0
LINE
  5
1AED4
  8
0
 62
     5
 10
196.716299
 20
135.493284
 30
0.0
 11
197.695034
 21
135.493284
 31
0.0
  0
ARC
  5
1AED5
  8
0
 62
     5
 10
196.85662
 20
136.089417
 30
0.0
 40
0.6125
 50
185.0
 51
254.499559
  0
LINE
  5
1AED6
  8
0
 62
     5
 10
197.746133
 20
135.493284
 30
0.0
 11
198.724868
 21
135.493284
 31
0.0
  0
ARC
  5
1AED7
  8
0
 62
     5
 10
198.584548
 20
136.089417
 30
0.0
 40
0.6125
 50
285.500442
 51
355.0
  0
LINE
  5
1AED8
  8
0
 62
     5
 10
199.194717
 20
136.036034
 30
0.0
 11
199.251834
 21
136.68888
 31
0.0
  0
LINE
  5
1AED9
  8
0
 62
     5
 10
199.645584
 20
136.68888
 30
0.0
 11
199.645584
 21
137.38888
 31
0.0
  0
LINE
  5
1AEDA
  8
0
 62
     5
 10
195.796534
 20
136.68888
 30
0.0
 11
199.644833
 21
136.68888
 31
0.0
  0
LINE
  5
1AEDB
  8
0
 62
     5
 10
195.795584
 20
136.68888
 30
0.0
 11
195.795584
 21
137.38888
 31
0.0
  0
LINE
  5
1AEDC
  8
0
 62
     5
 10
196.24645
 20
136.036034
 30
0.0
 11
196.189334
 21
136.68888
 31
0.0
  0
LINE
  5
1AEDD
  8
0
 62
     5
 10
199.392545
 20
135.18888
 30
0.0
 11
199.392545
 21
136.697753
 31
0.0
  0
LINE
  5
1AEDE
  8
0
 62
     5
 10
200.724425
 20
140.320633
 30
0.0
 11
200.183518
 21
140.318273
 31
0.0
  0
LINE
  5
1AEDF
  8
HIDDEN
 10
200.054763
 20
134.797929
 30
0.0
 11
200.054763
 21
135.18888
 31
0.0
  0
LINE
  5
1AEE0
  8
HIDDEN
 10
201.076889
 20
134.797929
 30
0.0
 11
200.054763
 21
134.797929
 31
0.0
  0
LINE
  5
1AEE1
  8
0
  6
CONTINUOUS
 62
     5
 10
200.053152
 20
137.38888
 30
0.0
 11
200.054763
 21
137.38888
 31
0.0
  0
LINE
  5
1AEE2
  8
0
 62
     5
 10
200.054763
 20
138.18888
 30
0.0
 11
200.054763
 21
137.38888
 31
0.0
  0
LINE
  5
1AEE3
  8
0
 62
     5
 10
200.054763
 20
138.68888
 30
0.0
 11
200.054763
 21
140.48888
 31
0.0
  0
LINE
  5
1AEE4
  8
HIDDEN
 10
201.483518
 20
134.58888
 30
0.0
 11
202.633518
 21
134.58888
 31
0.0
  0
ARC
  5
1AEE5
  8
HIDDEN
 10
201.483518
 20
135.08888
 30
0.0
 40
0.5
 50
180.0
 51
270.0
  0
LINE
  5
1AEE6
  8
HIDDEN
 10
200.983518
 20
135.08888
 30
0.0
 11
200.983518
 21
136.18888
 31
0.0
  0
ARC
  5
1AEE7
  8
0
 62
     5
 10
199.983518
 20
140.68888
 30
0.0
 40
0.2
 50
270.0
 51
0.0
  0
LINE
  5
1AEE8
  8
0
 62
     5
 10
200.333518
 20
140.318927
 30
0.0
 11
200.333518
 21
137.58888
 31
0.0
  0
ARC
  5
1AEE9
  8
0
 62
     5
 10
200.833518
 20
137.58888
 30
0.0
 40
0.5
 50
180.0
 51
270.0
  0
LINE
  5
1AEEA
  8
HIDDEN
 10
223.979471
 20
123.38888
 30
0.0
 11
208.633518
 21
123.38888
 31
0.0
  0
LINE
  5
1AEEB
  8
0
 62
     5
 10
205.450219
 20
131.68888
 30
0.0
 11
205.280517
 21
137.08888
 31
0.0
  0
LINE
  5
1AEEC
  8
0
 62
     5
 10
206.06763
 20
137.08888
 30
0.0
 11
206.137923
 21
131.68888
 31
0.0
  0
LINE
  5
1AEED
  8
0
 62
     5
 10
211.829114
 20
131.68888
 30
0.0
 11
211.899406
 21
137.08888
 31
0.0
  0
LINE
  5
1AEEE
  8
0
 62
     5
 10
212.68652
 20
137.08888
 30
0.0
 11
212.516818
 21
131.68888
 31
0.0
  0
LINE
  5
1AEEF
  8
0
 62
     5
 10
205.450219
 20
131.68888
 30
0.0
 11
212.516818
 21
131.68888
 31
0.0
  0
LINE
  5
1AEF0
  8
HIDDEN
 10
223.980785
 20
136.488114
 30
0.0
 11
217.937221
 21
136.488114
 31
0.0
  0
ARC
  5
1AEF1
  8
0
 62
     5
 10
218.983102
 20
139.900297
 30
0.0
 40
0.5
 50
90.25
 51
180.0
  0
LINE
  5
1AEF2
  8
0
 62
     5
 10
218.483518
 20
139.871661
 30
0.0
 11
218.483518
 21
137.58888
 31
0.0
  0
ARC
  5
1AEF3
  8
0
 62
     5
 10
217.983518
 20
137.58888
 30
0.0
 40
0.5
 50
270.0
 51
0.0
  0
POLYLINE
  5
1AEF4
  8
0
 62
     5
 66
     1
 10
0.0
 20
0.0
 30
0.0
  0
VERTEX
  5
1B46F
  8
0
 62
     5
 10
199.983518
 20
150.530205
 30
0.0
  0
VERTEX
  5
1B470
  8
0
 62
     5
 10
199.99921
 20
150.53082
 30
0.0
  0
VERTEX
  5
1B471
  8
0
 62
     5
 10
200.014805
 20
150.532662
 30
0.0
  0
VERTEX
  5
1B472
  8
0
 62
     5
 10
200.030208
 20
150.535719
 30
0.0
  0
VERTEX
  5
1B473
  8
0
 62
     5
 10
200.045322
 20
150.539973
 30
0.0
  0
VERTEX
  5
1B474
  8
0
 62
     5
 10
200.060055
 20
150.545397
 30
0.0
  0
VERTEX
  5
1B475
  8
0
 62
     5
 10
200.074317
 20
150.551958
 30
0.0
  0
VERTEX
  5
1B476
  8
0
 62
     5
 10
200.088018
 20
150.559616
 30
0.0
  0
VERTEX
  5
1B477
  8
0
 62
     5
 10
200.101075
 20
150.568322
 30
0.0
  0
VERTEX
  5
1B478
  8
0
 62
     5
 10
200.113408
 20
150.578024
 30
0.0
  0
VERTEX
  5
1B479
  8
0
 62
     5
 10
200.12494
 20
150.588662
 30
0.0
  0
VERTEX
  5
1B47A
  8
0
 62
     5
 10
200.1356
 20
150.60017
 30
0.0
  0
VERTEX
  5
1B47B
  8
0
 62
     5
 10
200.145322
 20
150.612477
 30
0.0
  0
VERTEX
  5
1B47C
  8
0
 62
     5
 10
200.154046
 20
150.625507
 30
0.0
  0
VERTEX
  5
1B47D
  8
0
 62
     5
 10
200.16172
 20
150.639181
 30
0.0
  0
VERTEX
  5
1B47E
  8
0
 62
     5
 10
200.168294
 20
150.653412
 30
0.0
  0
VERTEX
  5
1B47F
  8
0
 62
     5
 10
200.17373
 20
150.668115
 30
0.0
  0
VERTEX
  5
1B480
  8
0
 62
     5
 10
200.177992
 20
150.683198
 30
0.0
  0
VERTEX
  5
1B481
  8
0
 62
     5
 10
200.181056
 20
150.698569
 30
0.0
  0
VERTEX
  5
1B482
  8
0
 62
     5
 10
200.182902
 20
150.714131
 30
0.0
  0
VERTEX
  5
1B483
  8
0
 62
     5
 10
200.183518
 20
150.729791
 30
0.0
  0
SEQEND
  5
1B484
  8
0
 62
     5
  0
LINE
  5
1AF0B
  8
0
 62
     5
 10
241.283518
 20
140.48888
 30
0.0
 11
241.283518
 21
150.929511
 31
0.0
  0
LINE
  5
1AF0C
  8
0
 62
     5
 10
248.283518
 20
140.48888
 30
0.0
 11
239.283518
 21
140.48888
 31
0.0
  0
INSERT
  5
1AF0D
  8
1
  2
A$C3C4259C2
 10
240.901836
 20
126.692718
 30
0.0
 41
-1.561577
 42
1.561577
 43
1.561578
  0
POLYLINE
  5
1AF0E
  8
HIDDEN
 66
     1
 10
0.0
 20
0.0
 30
0.0
  0
VERTEX
  5
1B485
  8
HIDDEN
 10
227.698532
 20
125.559014
 30
0.0
  0
VERTEX
  5
1B486
  8
HIDDEN
 10
227.754046
 20
125.626956
 30
0.0
  0
VERTEX
  5
1B487
  8
HIDDEN
 10
227.810174
 20
125.74678
 30
0.0
  0
VERTEX
  5
1B488
  8
HIDDEN
 10
227.864397
 20
125.915643
 30
0.0
  0
VERTEX
  5
1B489
  8
HIDDEN
 10
227.914459
 20
126.123895
 30
0.0
  0
VERTEX
  5
1B48A
  8
HIDDEN
 10
227.963108
 20
126.382969
 30
0.0
  0
VERTEX
  5
1B48B
  8
HIDDEN
 10
228.183518
 20
129.940799
 30
0.0
  0
SEQEND
  5
1B48C
  8
HIDDEN
  0
LINE
  5
1AF17
  8
HIDDEN
 10
227.98206
 20
126.68888
 30
0.0
 11
240.900934
 21
126.692718
 31
0.0
  0
LINE
  5
1AF18
  8
HIDDEN
 10
227.983358
 20
133.18888
 30
0.0
 11
240.901836
 21
133.18888
 31
0.0
  0
POLYLINE
  5
1AF19
  8
HIDDEN
 66
     1
 10
0.0
 20
0.0
 30
0.0
  0
VERTEX
  5
1B48D
  8
HIDDEN
 10
228.183518
 20
129.940799
 30
0.0
  0
VERTEX
  5
1B48E
  8
HIDDEN
 10
227.965329
 20
133.481443
 30
0.0
  0
VERTEX
  5
1B48F
  8
HIDDEN
 10
227.916842
 20
133.742562
 30
0.0
  0
VERTEX
  5
1B490
  8
HIDDEN
 10
227.865202
 20
133.959186
 30
0.0
  0
VERTEX
  5
1B491
  8
HIDDEN
 10
227.812794
 20
134.124065
 30
0.0
  0
VERTEX
  5
1B492
  8
HIDDEN
 10
227.756742
 20
134.246251
 30
0.0
  0
VERTEX
  5
1B493
  8
HIDDEN
 10
227.698532
 20
134.318746
 30
0.0
  0
SEQEND
  5
1B494
  8
HIDDEN
  0
LINE
  5
1AF22
  8
0
 62
     5
 10
241.283518
 20
150.929511
 30
0.0
 11
239.283518
 21
150.929511
 31
0.0
  0
LINE
  5
1AF23
  8
0
 62
     5
 10
251.083518
 20
145.48888
 30
0.0
 11
251.283518
 21
145.68888
 31
0.0
  0
LINE
  5
1AF24
  8
0
 62
     5
 10
248.483518
 20
145.48888
 30
0.0
 11
251.083518
 21
145.48888
 31
0.0
  0
ARC
  5
1AF25
  8
0
 62
     5
 10
248.483518
 20
145.28888
 30
0.0
 40
0.2
 50
90.0
 51
180.0
  0
ARC
  5
1AF26
  8
0
 62
     5
 10
251.683518
 20
163.08888
 30
0.0
 40
0.4
 50
90.0
 51
180.0
  0
LINE
  5
1AF27
  8
0
 62
     5
 10
239.283518
 20
200.48888
 30
0.0
 11
200.183518
 21
200.659487
 31
0.0
  0
POLYLINE
  5
1AF28
  8
0
 62
     5
 66
     1
 10
0.0
 20
0.0
 30
0.0
  0
VERTEX
  5
1B495
  8
0
 62
     5
 10
199.983518
 20
190.447555
 30
0.0
  0
VERTEX
  5
1B496
  8
0
 62
     5
 10
199.99921
 20
190.44694
 30
0.0
  0
VERTEX
  5
1B497
  8
0
 62
     5
 10
200.014805
 20
190.445098
 30
0.0
  0
VERTEX
  5
1B498
  8
0
 62
     5
 10
200.030208
 20
190.442041
 30
0.0
  0
VERTEX
  5
1B499
  8
0
 62
     5
 10
200.045322
 20
190.437787
 30
0.0
  0
VERTEX
  5
1B49A
  8
0
 62
     5
 10
200.060055
 20
190.432363
 30
0.0
  0
VERTEX
  5
1B49B
  8
0
 62
     5
 10
200.074317
 20
190.425802
 30
0.0
  0
VERTEX
  5
1B49C
  8
0
 62
     5
 10
200.088018
 20
190.418144
 30
0.0
  0
VERTEX
  5
1B49D
  8
0
 62
     5
 10
200.101075
 20
190.409438
 30
0.0
  0
VERTEX
  5
1B49E
  8
0
 62
     5
 10
200.113408
 20
190.399736
 30
0.0
  0
VERTEX
  5
1B49F
  8
0
 62
     5
 10
200.12494
 20
190.389098
 30
0.0
  0
VERTEX
  5
1B4A0
  8
0
 62
     5
 10
200.1356
 20
190.37759
 30
0.0
  0
VERTEX
  5
1B4A1
  8
0
 62
     5
 10
200.145322
 20
190.365283
 30
0.0
  0
VERTEX
  5
1B4A2
  8
0
 62
     5
 10
200.154046
 20
190.352253
 30
0.0
  0
VERTEX
  5
1B4A3
  8
0
 62
     5
 10
200.16172
 20
190.338579
 30
0.0
  0
VERTEX
  5
1B4A4
  8
0
 62
     5
 10
200.168294
 20
190.324348
 30
0.0
  0
VERTEX
  5
1B4A5
  8
0
 62
     5
 10
200.17373
 20
190.309645
 30
0.0
  0
VERTEX
  5
1B4A6
  8
0
 62
     5
 10
200.177992
 20
190.294562
 30
0.0
  0
VERTEX
  5
1B4A7
  8
0
 62
     5
 10
200.181056
 20
190.279191
 30
0.0
  0
VERTEX
  5
1B4A8
  8
0
 62
     5
 10
200.182902
 20
190.263629
 30
0.0
  0
VERTEX
  5
1B4A9
  8
0
 62
     5
 10
200.183518
 20
190.247969
 30
0.0
  0
SEQEND
  5
1B4AA
  8
0
 62
     5
  0
ARC
  5
1AF3F
  8
0
 62
     5
 10
199.983518
 20
200.28888
 30
0.0
 40
0.2
 50
0.0
 51
90.0
  0
LINE
  5
1AF40
  8
0
 62
     5
 10
241.283518
 20
190.048249
 30
0.0
 11
241.283518
 21
200.48888
 31
0.0
  0
LINE
  5
1AF41
  8
0
 62
     5
 10
241.283518
 20
190.048249
 30
0.0
 11
239.283518
 21
190.048249
 31
0.0
  0
ARC
  5
1AF42
  8
0
 62
     5
 10
251.683518
 20
177.88888
 30
0.0
 40
0.4
 50
180.0
 51
270.0
  0
LINE
  5
1AF43
  8
0
 62
     5
 10
251.083518
 20
195.48888
 30
0.0
 11
251.283518
 21
195.28888
 31
0.0
  0
ARC
  5
1AF44
  8
0
 62
     5
 10
248.483518
 20
195.68888
 30
0.0
 40
0.2
 50
180.0
 51
270.0
  0
LINE
  5
1AF45
  8
0
 62
     5
 10
248.483518
 20
195.48888
 30
0.0
 11
251.083518
 21
195.48888
 31
0.0
  0
LINE
  5
1AF46
  8
0
 62
     5
 10
248.283518
 20
200.48888
 30
0.0
 11
239.283518
 21
200.48888
 31
0.0
  0
LINE
  5
1AF47
  8
0
 62
     5
 10
347.326966
 20
200.755044
 30
0.0
 11
385.08847
 21
200.755044
 31
0.0
  0
LINE
  5
1AF48
  8
HIDDEN
 10
348.557718
 20
134.58888
 30
0.0
 11
350.857718
 21
134.58888
 31
0.0
  0
LINE
  5
1AF49
  8
CENTER
 10
331.864817
 20
170.48888
 30
0.0
 11
400.550619
 21
170.48888
 31
0.0
  0
LINE
  5
1AF4A
  8
0
 62
     5
 10
346.885026
 20
137.08888
 30
0.0
 11
373.648349
 21
137.08888
 31
0.0
  0
LINE
  5
1AF4B
  8
0
 62
     5
 10
340.707718
 20
140.48888
 30
0.0
 11
391.707718
 21
140.48888
 31
0.0
  0
LINE
  5
1AF4C
  8
0
 62
     5
 10
391.707718
 20
200.48888
 30
0.0
 11
340.707718
 21
200.48888
 31
0.0
  0
CIRCLE
  5
1AF4D
  8
0
 62
     5
 10
366.207718
 20
170.48888
 30
0.0
 40
25.0
  0
LINE
  5
1AF4E
  8
0
 62
     5
 10
335.941554
 20
151.608128
 30
0.0
 11
335.941554
 21
189.369632
 31
0.0
  0
LINE
  5
1AF4F
  8
0
 62
     5
 10
336.207718
 20
195.98888
 30
0.0
 11
336.207718
 21
144.98888
 31
0.0
  0
LINE
  5
1AF50
  8
0
 62
     5
 10
277.883518
 20
177.48888
 30
0.0
 11
277.883518
 21
163.48888
 31
0.0
  0
LINE
  5
1AF51
  8
0
 62
     5
 10
278.283518
 20
177.088877
 30
0.0
 11
278.283518
 21
163.888883
 31
0.0
  0
LINE
  5
1AF52
  8
0
 62
     5
 10
277.883518
 20
163.48888
 30
0.0
 11
278.283518
 21
163.88888
 31
0.0
  0
LINE
  5
1AF53
  8
CENTER
 10
347.505236
 20
151.786398
 30
0.0
 11
335.764125
 21
140.045287
 31
0.0
  0
ARC
  5
1AF54
  8
0
 62
     5
 10
340.707718
 20
144.98888
 30
0.0
 40
4.5
 50
180.0
 51
270.0
  0
ARC
  5
1AF55
  8
HIDDEN
 10
348.557718
 20
135.08888
 30
0.0
 40
0.5
 50
180.0
 51
270.0
  0
LINE
  5
1AF56
  8
HIDDEN
 10
348.057718
 20
136.18888
 30
0.0
 11
348.057718
 21
135.08888
 31
0.0
  0
LINE
  5
1AF57
  8
0
 62
     5
 10
346.385031
 20
140.478471
 30
0.0
 11
346.385026
 21
140.478226
 31
0.0
  0
POLYLINE
  5
1AF58
  8
0
 62
     5
 66
     1
 10
0.0
 20
0.0
 30
0.0
  0
VERTEX
  5
1B4AB
  8
0
 62
     5
 10
346.959857
 20
137.08888
 30
0.0
  0
VERTEX
  5
1B4AC
  8
0
 62
     5
 10
346.929668
 20
137.089792
 30
0.0
  0
VERTEX
  5
1B4AD
  8
0
 62
     5
 10
346.89959
 20
137.092526
 30
0.0
  0
SEQEND
  5
1B4AE
  8
0
 62
     5
  0
LINE
  5
1AF5D
  8
0
 62
     5
 10
346.385232
 20
140.48888
 30
0.0
 11
346.385026
 21
137.58888
 31
0.0
  0
ARC
  5
1AF5E
  8
CENTER
 10
366.207718
 20
170.48888
 30
0.0
 40
35.0
 50
216.254023
 51
234.381034
  0
CIRCLE
  5
1AF5F
  8
0
 62
     5
 10
341.458981
 20
145.740143
 30
0.0
 40
2.9
  0
CIRCLE
  5
1AF60
  8
0
 62
     5
 10
339.71901
 20
154.192918
 30
0.0
 40
1.25
  0
LINE
  5
1AF61
  8
0
 62
     5
 10
277.883518
 20
177.48888
 30
0.0
 11
278.283518
 21
177.08888
 31
0.0
  0
LINE
  5
1AF62
  8
CENTER
 10
347.505236
 20
189.191362
 30
0.0
 11
335.764125
 21
200.932473
 31
0.0
  0
ARC
  5
1AF63
  8
0
 62
     5
 10
340.707718
 20
195.98888
 30
0.0
 40
4.5
 50
90.0
 51
180.0
  0
ARC
  5
1AF64
  8
CENTER
 10
366.207718
 20
170.48888
 30
0.0
 40
35.0
 50
126.254023
 51
144.381034
  0
CIRCLE
  5
1AF65
  8
0
 62
     5
 10
341.458981
 20
195.237617
 30
0.0
 40
2.9
  0
POLYLINE
  5
1AF66
  8
0
 62
     5
 66
     1
 10
0.0
 20
0.0
 30
0.0
 70
     8
  0
VERTEX
  5
1AF67
  8
0
 62
     5
 10
347.327
 20
200.755
 30
0.0
 70
    32
  0
VERTEX
  5
1AF68
  8
0
 62
     5
 10
347.325
 20
200.755
 30
0.0
 70
    32
  0
VERTEX
  5
1AF69
  8
0
 62
     5
 10
347.323
 20
200.755
 30
0.0
 70
    32
  0
VERTEX
  5
1AF6A
  8
0
 62
     5
 10
347.321
 20
200.755
 30
0.0
 70
    32
  0
VERTEX
  5
1AF6B
  8
0
 62
     5
 10
347.318
 20
200.755
 30
0.0
 70
    32
  0
VERTEX
  5
1AF6C
  8
0
 62
     5
 10
347.316
 20
200.755
 30
0.0
 70
    32
  0
VERTEX
  5
1AF6D
  8
0
 62
     5
 10
347.314
 20
200.755
 30
0.0
 70
    32
  0
VERTEX
  5
1AF6E
  8
0
 62
     5
 10
347.312
 20
200.755
 30
0.0
 70
    32
  0
VERTEX
  5
1AF6F
  8
0
 62
     5
 10
347.31
 20
200.755
 30
0.0
 70
    32
  0
VERTEX
  5
1AF70
  8
0
 62
     5
 10
347.308
 20
200.754
 30
0.0
 70
    32
  0
VERTEX
  5
1AF71
  8
0
 62
     5
 10
347.306
 20
200.754
 30
0.0
 70
    32
  0
VERTEX
  5
1AF72
  8
0
 62
     5
 10
347.304
 20
200.754
 30
0.0
 70
    32
  0
VERTEX
  5
1AF73
  8
0
 62
     5
 10
347.301
 20
200.754
 30
0.0
 70
    32
  0
VERTEX
  5
1AF74
  8
0
 62
     5
 10
347.299
 20
200.754
 30
0.0
 70
    32
  0
VERTEX
  5
1AF75
  8
0
 62
     5
 10
347.297
 20
200.754
 30
0.0
 70
    32
  0
VERTEX
  5
1AF76
  8
0
 62
     5
 10
347.295
 20
200.754
 30
0.0
 70
    32
  0
VERTEX
  5
1AF77
  8
0
 62
     5
 10
347.293
 20
200.754
 30
0.0
 70
    32
  0
VERTEX
  5
1AF78
  8
0
 62
     5
 10
347.291
 20
200.754
 30
0.0
 70
    32
  0
VERTEX
  5
1AF79
  8
0
 62
     5
 10
347.289
 20
200.754
 30
0.0
 70
    32
  0
VERTEX
  5
1AF7A
  8
0
 62
     5
 10
347.287
 20
200.754
 30
0.0
 70
    32
  0
VERTEX
  5
1AF7B
  8
0
 62
     5
 10
347.284
 20
200.754
 30
0.0
 70
    32
  0
VERTEX
  5
1AF7C
  8
0
 62
     5
 10
347.282
 20
200.754
 30
0.0
 70
    32
  0
VERTEX
  5
1AF7D
  8
0
 62
     5
 10
347.28
 20
200.753
 30
0.0
 70
    32
  0
VERTEX
  5
1AF7E
  8
0
 62
     5
 10
347.278
 20
200.753
 30
0.0
 70
    32
  0
VERTEX
  5
1AF7F
  8
0
 62
     5
 10
347.276
 20
200.753
 30
0.0
 70
    32
  0
VERTEX
  5
1AF80
  8
0
 62
     5
 10
347.274
 20
200.753
 30
0.0
 70
    32
  0
VERTEX
  5
1AF81
  8
0
 62
     5
 10
347.272
 20
200.753
 30
0.0
 70
    32
  0
VERTEX
  5
1AF82
  8
0
 62
     5
 10
347.27
 20
200.753
 30
0.0
 70
    32
  0
VERTEX
  5
1AF83
  8
0
 62
     5
 10
347.267
 20
200.753
 30
0.0
 70
    32
  0
VERTEX
  5
1AF84
  8
0
 62
     5
 10
347.265
 20
200.753
 30
0.0
 70
    32
  0
VERTEX
  5
1AF85
  8
0
 62
     5
 10
347.263
 20
200.753
 30
0.0
 70
    32
  0
VERTEX
  5
1AF86
  8
0
 62
     5
 10
347.261
 20
200.753
 30
0.0
 70
    32
  0
VERTEX
  5
1AF87
  8
0
 62
     5
 10
347.259
 20
200.752
 30
0.0
 70
    32
  0
VERTEX
  5
1AF88
  8
0
 62
     5
 10
347.257
 20
200.752
 30
0.0
 70
    32
  0
VERTEX
  5
1AF89
  8
0
 62
     5
 10
347.255
 20
200.752
 30
0.0
 70
    32
  0
VERTEX
  5
1AF8A
  8
0
 62
     5
 10
347.253
 20
200.752
 30
0.0
 70
    32
  0
VERTEX
  5
1AF8B
  8
0
 62
     5
 10
347.25
 20
200.752
 30
0.0
 70
    32
  0
VERTEX
  5
1AF8C
  8
0
 62
     5
 10
347.248
 20
200.752
 30
0.0
 70
    32
  0
VERTEX
  5
1AF8D
  8
0
 62
     5
 10
347.246
 20
200.752
 30
0.0
 70
    32
  0
VERTEX
  5
1AF8E
  8
0
 62
     5
 10
347.244
 20
200.751
 30
0.0
 70
    32
  0
VERTEX
  5
1AF8F
  8
0
 62
     5
 10
347.242
 20
200.751
 30
0.0
 70
    32
  0
VERTEX
  5
1AF90
  8
0
 62
     5
 10
347.24
 20
200.751
 30
0.0
 70
    32
  0
VERTEX
  5
1AF91
  8
0
 62
     5
 10
347.238
 20
200.751
 30
0.0
 70
    32
  0
VERTEX
  5
1AF92
  8
0
 62
     5
 10
347.236
 20
200.751
 30
0.0
 70
    32
  0
VERTEX
  5
1AF93
  8
0
 62
     5
 10
347.233
 20
200.751
 30
0.0
 70
    32
  0
VERTEX
  5
1AF94
  8
0
 62
     5
 10
347.231
 20
200.75
 30
0.0
 70
    32
  0
VERTEX
  5
1AF95
  8
0
 62
     5
 10
347.229
 20
200.75
 30
0.0
 70
    32
  0
VERTEX
  5
1AF96
  8
0
 62
     5
 10
347.227
 20
200.75
 30
0.0
 70
    32
  0
VERTEX
  5
1AF97
  8
0
 62
     5
 10
347.225
 20
200.75
 30
0.0
 70
    32
  0
VERTEX
  5
1AF98
  8
0
 62
     5
 10
347.223
 20
200.75
 30
0.0
 70
    32
  0
VERTEX
  5
1AF99
  8
0
 62
     5
 10
347.221
 20
200.749
 30
0.0
 70
    32
  0
VERTEX
  5
1AF9A
  8
0
 62
     5
 10
347.219
 20
200.749
 30
0.0
 70
    32
  0
VERTEX
  5
1AF9B
  8
0
 62
     5
 10
347.217
 20
200.749
 30
0.0
 70
    32
  0
VERTEX
  5
1AF9C
  8
0
 62
     5
 10
347.214
 20
200.749
 30
0.0
 70
    32
  0
VERTEX
  5
1AF9D
  8
0
 62
     5
 10
347.212
 20
200.749
 30
0.0
 70
    32
  0
VERTEX
  5
1AF9E
  8
0
 62
     5
 10
347.21
 20
200.748
 30
0.0
 70
    32
  0
VERTEX
  5
1AF9F
  8
0
 62
     5
 10
347.208
 20
200.748
 30
0.0
 70
    32
  0
VERTEX
  5
1AFA0
  8
0
 62
     5
 10
347.206
 20
200.748
 30
0.0
 70
    32
  0
VERTEX
  5
1AFA1
  8
0
 62
     5
 10
347.204
 20
200.748
 30
0.0
 70
    32
  0
VERTEX
  5
1AFA2
  8
0
 62
     5
 10
347.202
 20
200.747
 30
0.0
 70
    32
  0
VERTEX
  5
1AFA3
  8
0
 62
     5
 10
347.2
 20
200.747
 30
0.0
 70
    32
  0
VERTEX
  5
1AFA4
  8
0
 62
     5
 10
347.198
 20
200.747
 30
0.0
 70
    32
  0
VERTEX
  5
1AFA5
  8
0
 62
     5
 10
347.195
 20
200.746
 30
0.0
 70
    32
  0
VERTEX
  5
1AFA6
  8
0
 62
     5
 10
347.193
 20
200.746
 30
0.0
 70
    32
  0
VERTEX
  5
1AFA7
  8
0
 62
     5
 10
347.191
 20
200.746
 30
0.0
 70
    32
  0
VERTEX
  5
1AFA8
  8
0
 62
     5
 10
347.189
 20
200.746
 30
0.0
 70
    32
  0
VERTEX
  5
1AFA9
  8
0
 62
     5
 10
347.187
 20
200.745
 30
0.0
 70
    32
  0
VERTEX
  5
1AFAA
  8
0
 62
     5
 10
347.185
 20
200.745
 30
0.0
 70
    32
  0
VERTEX
  5
1AFAB
  8
0
 62
     5
 10
347.183
 20
200.745
 30
0.0
 70
    32
  0
VERTEX
  5
1AFAC
  8
0
 62
     5
 10
347.181
 20
200.744
 30
0.0
 70
    32
  0
VERTEX
  5
1AFAD
  8
0
 62
     5
 10
347.179
 20
200.744
 30
0.0
 70
    32
  0
VERTEX
  5
1AFAE
  8
0
 62
     5
 10
347.176
 20
200.744
 30
0.0
 70
    32
  0
VERTEX
  5
1AFAF
  8
0
 62
     5
 10
347.174
 20
200.743
 30
0.0
 70
    32
  0
VERTEX
  5
1AFB0
  8
0
 62
     5
 10
347.172
 20
200.743
 30
0.0
 70
    32
  0
VERTEX
  5
1AFB1
  8
0
 62
     5
 10
347.17
 20
200.743
 30
0.0
 70
    32
  0
VERTEX
  5
1AFB2
  8
0
 62
     5
 10
347.168
 20
200.742
 30
0.0
 70
    32
  0
VERTEX
  5
1AFB3
  8
0
 62
     5
 10
347.166
 20
200.742
 30
0.0
 70
    32
  0
VERTEX
  5
1AFB4
  8
0
 62
     5
 10
347.164
 20
200.742
 30
0.0
 70
    32
  0
VERTEX
  5
1AFB5
  8
0
 62
     5
 10
347.162
 20
200.741
 30
0.0
 70
    32
  0
VERTEX
  5
1AFB6
  8
0
 62
     5
 10
347.16
 20
200.741
 30
0.0
 70
    32
  0
VERTEX
  5
1AFB7
  8
0
 62
     5
 10
347.158
 20
200.741
 30
0.0
 70
    32
  0
VERTEX
  5
1AFB8
  8
0
 62
     5
 10
347.155
 20
200.74
 30
0.0
 70
    32
  0
VERTEX
  5
1AFB9
  8
0
 62
     5
 10
347.153
 20
200.74
 30
0.0
 70
    32
  0
VERTEX
  5
1AFBA
  8
0
 62
     5
 10
347.151
 20
200.74
 30
0.0
 70
    32
  0
VERTEX
  5
1AFBB
  8
0
 62
     5
 10
347.149
 20
200.739
 30
0.0
 70
    32
  0
VERTEX
  5
1AFBC
  8
0
 62
     5
 10
347.147
 20
200.739
 30
0.0
 70
    32
  0
VERTEX
  5
1AFBD
  8
0
 62
     5
 10
347.145
 20
200.738
 30
0.0
 70
    32
  0
VERTEX
  5
1AFBE
  8
0
 62
     5
 10
347.143
 20
200.738
 30
0.0
 70
    32
  0
VERTEX
  5
1AFBF
  8
0
 62
     5
 10
347.141
 20
200.738
 30
0.0
 70
    32
  0
VERTEX
  5
1AFC0
  8
0
 62
     5
 10
347.139
 20
200.737
 30
0.0
 70
    32
  0
VERTEX
  5
1AFC1
  8
0
 62
     5
 10
347.137
 20
200.737
 30
0.0
 70
    32
  0
VERTEX
  5
1AFC2
  8
0
 62
     5
 10
347.135
 20
200.736
 30
0.0
 70
    32
  0
VERTEX
  5
1AFC3
  8
0
 62
     5
 10
347.132
 20
200.736
 30
0.0
 70
    32
  0
VERTEX
  5
1AFC4
  8
0
 62
     5
 10
347.13
 20
200.736
 30
0.0
 70
    32
  0
VERTEX
  5
1AFC5
  8
0
 62
     5
 10
347.128
 20
200.735
 30
0.0
 70
    32
  0
VERTEX
  5
1AFC6
  8
0
 62
     5
 10
347.126
 20
200.735
 30
0.0
 70
    32
  0
VERTEX
  5
1AFC7
  8
0
 62
     5
 10
347.124
 20
200.734
 30
0.0
 70
    32
  0
VERTEX
  5
1AFC8
  8
0
 62
     5
 10
347.122
 20
200.734
 30
0.0
 70
    32
  0
VERTEX
  5
1AFC9
  8
0
 62
     5
 10
347.12
 20
200.733
 30
0.0
 70
    32
  0
VERTEX
  5
1AFCA
  8
0
 62
     5
 10
347.118
 20
200.733
 30
0.0
 70
    32
  0
VERTEX
  5
1AFCB
  8
0
 62
     5
 10
347.116
 20
200.732
 30
0.0
 70
    32
  0
VERTEX
  5
1AFCC
  8
0
 62
     5
 10
347.114
 20
200.732
 30
0.0
 70
    32
  0
VERTEX
  5
1AFCD
  8
0
 62
     5
 10
347.112
 20
200.732
 30
0.0
 70
    32
  0
VERTEX
  5
1AFCE
  8
0
 62
     5
 10
347.11
 20
200.731
 30
0.0
 70
    32
  0
VERTEX
  5
1AFCF
  8
0
 62
     5
 10
347.108
 20
200.731
 30
0.0
 70
    32
  0
VERTEX
  5
1AFD0
  8
0
 62
     5
 10
347.105
 20
200.73
 30
0.0
 70
    32
  0
VERTEX
  5
1AFD1
  8
0
 62
     5
 10
347.103
 20
200.73
 30
0.0
 70
    32
  0
VERTEX
  5
1AFD2
  8
0
 62
     5
 10
347.101
 20
200.729
 30
0.0
 70
    32
  0
VERTEX
  5
1AFD3
  8
0
 62
     5
 10
347.099
 20
200.729
 30
0.0
 70
    32
  0
VERTEX
  5
1AFD4
  8
0
 62
     5
 10
347.097
 20
200.728
 30
0.0
 70
    32
  0
VERTEX
  5
1AFD5
  8
0
 62
     5
 10
347.095
 20
200.728
 30
0.0
 70
    32
  0
VERTEX
  5
1AFD6
  8
0
 62
     5
 10
347.093
 20
200.727
 30
0.0
 70
    32
  0
VERTEX
  5
1AFD7
  8
0
 62
     5
 10
347.091
 20
200.727
 30
0.0
 70
    32
  0
VERTEX
  5
1AFD8
  8
0
 62
     5
 10
347.089
 20
200.726
 30
0.0
 70
    32
  0
VERTEX
  5
1AFD9
  8
0
 62
     5
 10
347.087
 20
200.726
 30
0.0
 70
    32
  0
VERTEX
  5
1AFDA
  8
0
 62
     5
 10
347.085
 20
200.725
 30
0.0
 70
    32
  0
VERTEX
  5
1AFDB
  8
0
 62
     5
 10
347.083
 20
200.725
 30
0.0
 70
    32
  0
VERTEX
  5
1AFDC
  8
0
 62
     5
 10
347.081
 20
200.724
 30
0.0
 70
    32
  0
VERTEX
  5
1AFDD
  8
0
 62
     5
 10
347.079
 20
200.724
 30
0.0
 70
    32
  0
VERTEX
  5
1AFDE
  8
0
 62
     5
 10
347.076
 20
200.723
 30
0.0
 70
    32
  0
VERTEX
  5
1AFDF
  8
0
 62
     5
 10
347.074
 20
200.723
 30
0.0
 70
    32
  0
VERTEX
  5
1AFE0
  8
0
 62
     5
 10
347.072
 20
200.722
 30
0.0
 70
    32
  0
VERTEX
  5
1AFE1
  8
0
 62
     5
 10
347.07
 20
200.722
 30
0.0
 70
    32
  0
VERTEX
  5
1AFE2
  8
0
 62
     5
 10
347.068
 20
200.721
 30
0.0
 70
    32
  0
VERTEX
  5
1AFE3
  8
0
 62
     5
 10
347.066
 20
200.72
 30
0.0
 70
    32
  0
VERTEX
  5
1AFE4
  8
0
 62
     5
 10
347.064
 20
200.72
 30
0.0
 70
    32
  0
VERTEX
  5
1AFE5
  8
0
 62
     5
 10
347.062
 20
200.719
 30
0.0
 70
    32
  0
VERTEX
  5
1AFE6
  8
0
 62
     5
 10
347.06
 20
200.719
 30
0.0
 70
    32
  0
VERTEX
  5
1AFE7
  8
0
 62
     5
 10
347.058
 20
200.718
 30
0.0
 70
    32
  0
VERTEX
  5
1AFE8
  8
0
 62
     5
 10
347.056
 20
200.718
 30
0.0
 70
    32
  0
VERTEX
  5
1AFE9
  8
0
 62
     5
 10
347.054
 20
200.717
 30
0.0
 70
    32
  0
VERTEX
  5
1AFEA
  8
0
 62
     5
 10
347.052
 20
200.716
 30
0.0
 70
    32
  0
VERTEX
  5
1AFEB
  8
0
 62
     5
 10
347.05
 20
200.716
 30
0.0
 70
    32
  0
VERTEX
  5
1AFEC
  8
0
 62
     5
 10
347.048
 20
200.715
 30
0.0
 70
    32
  0
VERTEX
  5
1AFED
  8
0
 62
     5
 10
347.046
 20
200.715
 30
0.0
 70
    32
  0
VERTEX
  5
1AFEE
  8
0
 62
     5
 10
347.044
 20
200.714
 30
0.0
 70
    32
  0
VERTEX
  5
1AFEF
  8
0
 62
     5
 10
347.042
 20
200.713
 30
0.0
 70
    32
  0
VERTEX
  5
1AFF0
  8
0
 62
     5
 10
347.04
 20
200.713
 30
0.0
 70
    32
  0
VERTEX
  5
1AFF1
  8
0
 62
     5
 10
347.038
 20
200.712
 30
0.0
 70
    32
  0
VERTEX
  5
1AFF2
  8
0
 62
     5
 10
347.036
 20
200.712
 30
0.0
 70
    32
  0
VERTEX
  5
1AFF3
  8
0
 62
     5
 10
347.033
 20
200.711
 30
0.0
 70
    32
  0
VERTEX
  5
1AFF4
  8
0
 62
     5
 10
347.031
 20
200.71
 30
0.0
 70
    32
  0
VERTEX
  5
1AFF5
  8
0
 62
     5
 10
347.029
 20
200.71
 30
0.0
 70
    32
  0
VERTEX
  5
1AFF6
  8
0
 62
     5
 10
347.027
 20
200.709
 30
0.0
 70
    32
  0
VERTEX
  5
1AFF7
  8
0
 62
     5
 10
347.025
 20
200.708
 30
0.0
 70
    32
  0
VERTEX
  5
1AFF8
  8
0
 62
     5
 10
347.023
 20
200.708
 30
0.0
 70
    32
  0
VERTEX
  5
1AFF9
  8
0
 62
     5
 10
347.021
 20
200.707
 30
0.0
 70
    32
  0
VERTEX
  5
1AFFA
  8
0
 62
     5
 10
347.019
 20
200.707
 30
0.0
 70
    32
  0
VERTEX
  5
1AFFB
  8
0
 62
     5
 10
347.017
 20
200.706
 30
0.0
 70
    32
  0
VERTEX
  5
1AFFC
  8
0
 62
     5
 10
347.015
 20
200.705
 30
0.0
 70
    32
  0
VERTEX
  5
1AFFD
  8
0
 62
     5
 10
347.013
 20
200.705
 30
0.0
 70
    32
  0
VERTEX
  5
1AFFE
  8
0
 62
     5
 10
347.011
 20
200.704
 30
0.0
 70
    32
  0
VERTEX
  5
1AFFF
  8
0
 62
     5
 10
347.009
 20
200.703
 30
0.0
 70
    32
  0
VERTEX
  5
1B000
  8
0
 62
     5
 10
347.007
 20
200.703
 30
0.0
 70
    32
  0
VERTEX
  5
1B001
  8
0
 62
     5
 10
347.005
 20
200.702
 30
0.0
 70
    32
  0
VERTEX
  5
1B002
  8
0
 62
     5
 10
347.003
 20
200.701
 30
0.0
 70
    32
  0
VERTEX
  5
1B003
  8
0
 62
     5
 10
347.001
 20
200.7
 30
0.0
 70
    32
  0
VERTEX
  5
1B004
  8
0
 62
     5
 10
346.999
 20
200.7
 30
0.0
 70
    32
  0
VERTEX
  5
1B005
  8
0
 62
     5
 10
346.997
 20
200.699
 30
0.0
 70
    32
  0
VERTEX
  5
1B006
  8
0
 62
     5
 10
346.995
 20
200.698
 30
0.0
 70
    32
  0
VERTEX
  5
1B007
  8
0
 62
     5
 10
346.993
 20
200.698
 30
0.0
 70
    32
  0
VERTEX
  5
1B008
  8
0
 62
     5
 10
346.991
 20
200.697
 30
0.0
 70
    32
  0
VERTEX
  5
1B009
  8
0
 62
     5
 10
346.989
 20
200.696
 30
0.0
 70
    32
  0
VERTEX
  5
1B00A
  8
0
 62
     5
 10
346.987
 20
200.696
 30
0.0
 70
    32
  0
VERTEX
  5
1B00B
  8
0
 62
     5
 10
346.985
 20
200.695
 30
0.0
 70
    32
  0
VERTEX
  5
1B00C
  8
0
 62
     5
 10
346.983
 20
200.694
 30
0.0
 70
    32
  0
VERTEX
  5
1B00D
  8
0
 62
     5
 10
346.981
 20
200.693
 30
0.0
 70
    32
  0
VERTEX
  5
1B00E
  8
0
 62
     5
 10
346.979
 20
200.693
 30
0.0
 70
    32
  0
VERTEX
  5
1B00F
  8
0
 62
     5
 10
346.977
 20
200.692
 30
0.0
 70
    32
  0
VERTEX
  5
1B010
  8
0
 62
     5
 10
346.975
 20
200.691
 30
0.0
 70
    32
  0
VERTEX
  5
1B011
  8
0
 62
     5
 10
346.973
 20
200.69
 30
0.0
 70
    32
  0
VERTEX
  5
1B012
  8
0
 62
     5
 10
346.971
 20
200.69
 30
0.0
 70
    32
  0
VERTEX
  5
1B013
  8
0
 62
     5
 10
346.969
 20
200.689
 30
0.0
 70
    32
  0
VERTEX
  5
1B014
  8
0
 62
     5
 10
346.967
 20
200.688
 30
0.0
 70
    32
  0
VERTEX
  5
1B015
  8
0
 62
     5
 10
346.965
 20
200.687
 30
0.0
 70
    32
  0
VERTEX
  5
1B016
  8
0
 62
     5
 10
346.963
 20
200.687
 30
0.0
 70
    32
  0
VERTEX
  5
1B017
  8
0
 62
     5
 10
346.961
 20
200.686
 30
0.0
 70
    32
  0
VERTEX
  5
1B018
  8
0
 62
     5
 10
346.959
 20
200.685
 30
0.0
 70
    32
  0
VERTEX
  5
1B019
  8
0
 62
     5
 10
346.957
 20
200.684
 30
0.0
 70
    32
  0
VERTEX
  5
1B01A
  8
0
 62
     5
 10
346.955
 20
200.683
 30
0.0
 70
    32
  0
VERTEX
  5
1B01B
  8
0
 62
     5
 10
346.953
 20
200.683
 30
0.0
 70
    32
  0
VERTEX
  5
1B01C
  8
0
 62
     5
 10
346.951
 20
200.682
 30
0.0
 70
    32
  0
VERTEX
  5
1B01D
  8
0
 62
     5
 10
346.949
 20
200.681
 30
0.0
 70
    32
  0
VERTEX
  5
1B01E
  8
0
 62
     5
 10
346.947
 20
200.68
 30
0.0
 70
    32
  0
VERTEX
  5
1B01F
  8
0
 62
     5
 10
346.945
 20
200.679
 30
0.0
 70
    32
  0
VERTEX
  5
1B020
  8
0
 62
     5
 10
346.943
 20
200.679
 30
0.0
 70
    32
  0
VERTEX
  5
1B021
  8
0
 62
     5
 10
346.941
 20
200.678
 30
0.0
 70
    32
  0
VERTEX
  5
1B022
  8
0
 62
     5
 10
346.94
 20
200.677
 30
0.0
 70
    32
  0
VERTEX
  5
1B023
  8
0
 62
     5
 10
346.938
 20
200.676
 30
0.0
 70
    32
  0
VERTEX
  5
1B024
  8
0
 62
     5
 10
346.936
 20
200.675
 30
0.0
 70
    32
  0
VERTEX
  5
1B025
  8
0
 62
     5
 10
346.934
 20
200.674
 30
0.0
 70
    32
  0
VERTEX
  5
1B026
  8
0
 62
     5
 10
346.932
 20
200.674
 30
0.0
 70
    32
  0
VERTEX
  5
1B027
  8
0
 62
     5
 10
346.93
 20
200.673
 30
0.0
 70
    32
  0
VERTEX
  5
1B028
  8
0
 62
     5
 10
346.928
 20
200.672
 30
0.0
 70
    32
  0
VERTEX
  5
1B029
  8
0
 62
     5
 10
346.926
 20
200.671
 30
0.0
 70
    32
  0
VERTEX
  5
1B02A
  8
0
 62
     5
 10
346.924
 20
200.67
 30
0.0
 70
    32
  0
VERTEX
  5
1B02B
  8
0
 62
     5
 10
346.922
 20
200.669
 30
0.0
 70
    32
  0
VERTEX
  5
1B02C
  8
0
 62
     5
 10
346.92
 20
200.668
 30
0.0
 70
    32
  0
VERTEX
  5
1B02D
  8
0
 62
     5
 10
346.918
 20
200.668
 30
0.0
 70
    32
  0
VERTEX
  5
1B02E
  8
0
 62
     5
 10
346.916
 20
200.667
 30
0.0
 70
    32
  0
VERTEX
  5
1B02F
  8
0
 62
     5
 10
346.914
 20
200.666
 30
0.0
 70
    32
  0
VERTEX
  5
1B030
  8
0
 62
     5
 10
346.912
 20
200.665
 30
0.0
 70
    32
  0
VERTEX
  5
1B031
  8
0
 62
     5
 10
346.91
 20
200.664
 30
0.0
 70
    32
  0
VERTEX
  5
1B032
  8
0
 62
     5
 10
346.908
 20
200.663
 30
0.0
 70
    32
  0
VERTEX
  5
1B033
  8
0
 62
     5
 10
346.906
 20
200.662
 30
0.0
 70
    32
  0
VERTEX
  5
1B034
  8
0
 62
     5
 10
346.905
 20
200.661
 30
0.0
 70
    32
  0
VERTEX
  5
1B035
  8
0
 62
     5
 10
346.903
 20
200.661
 30
0.0
 70
    32
  0
VERTEX
  5
1B036
  8
0
 62
     5
 10
346.901
 20
200.66
 30
0.0
 70
    32
  0
VERTEX
  5
1B037
  8
0
 62
     5
 10
346.899
 20
200.659
 30
0.0
 70
    32
  0
VERTEX
  5
1B038
  8
0
 62
     5
 10
346.897
 20
200.658
 30
0.0
 70
    32
  0
VERTEX
  5
1B039
  8
0
 62
     5
 10
346.895
 20
200.657
 30
0.0
 70
    32
  0
VERTEX
  5
1B03A
  8
0
 62
     5
 10
346.893
 20
200.656
 30
0.0
 70
    32
  0
VERTEX
  5
1B03B
  8
0
 62
     5
 10
346.891
 20
200.655
 30
0.0
 70
    32
  0
VERTEX
  5
1B03C
  8
0
 62
     5
 10
346.889
 20
200.654
 30
0.0
 70
    32
  0
VERTEX
  5
1B03D
  8
0
 62
     5
 10
346.887
 20
200.653
 30
0.0
 70
    32
  0
VERTEX
  5
1B03E
  8
0
 62
     5
 10
346.885
 20
200.652
 30
0.0
 70
    32
  0
VERTEX
  5
1B03F
  8
0
 62
     5
 10
346.883
 20
200.651
 30
0.0
 70
    32
  0
VERTEX
  5
1B040
  8
0
 62
     5
 10
346.882
 20
200.65
 30
0.0
 70
    32
  0
VERTEX
  5
1B041
  8
0
 62
     5
 10
346.88
 20
200.649
 30
0.0
 70
    32
  0
VERTEX
  5
1B042
  8
0
 62
     5
 10
346.878
 20
200.648
 30
0.0
 70
    32
  0
VERTEX
  5
1B043
  8
0
 62
     5
 10
346.876
 20
200.647
 30
0.0
 70
    32
  0
VERTEX
  5
1B044
  8
0
 62
     5
 10
346.874
 20
200.647
 30
0.0
 70
    32
  0
VERTEX
  5
1B045
  8
0
 62
     5
 10
346.872
 20
200.646
 30
0.0
 70
    32
  0
VERTEX
  5
1B046
  8
0
 62
     5
 10
346.87
 20
200.645
 30
0.0
 70
    32
  0
VERTEX
  5
1B047
  8
0
 62
     5
 10
346.868
 20
200.644
 30
0.0
 70
    32
  0
VERTEX
  5
1B048
  8
0
 62
     5
 10
346.866
 20
200.643
 30
0.0
 70
    32
  0
VERTEX
  5
1B049
  8
0
 62
     5
 10
346.864
 20
200.642
 30
0.0
 70
    32
  0
VERTEX
  5
1B04A
  8
0
 62
     5
 10
346.863
 20
200.641
 30
0.0
 70
    32
  0
VERTEX
  5
1B04B
  8
0
 62
     5
 10
346.861
 20
200.64
 30
0.0
 70
    32
  0
VERTEX
  5
1B04C
  8
0
 62
     5
 10
346.859
 20
200.639
 30
0.0
 70
    32
  0
VERTEX
  5
1B04D
  8
0
 62
     5
 10
346.857
 20
200.638
 30
0.0
 70
    32
  0
VERTEX
  5
1B04E
  8
0
 62
     5
 10
346.855
 20
200.637
 30
0.0
 70
    32
  0
VERTEX
  5
1B04F
  8
0
 62
     5
 10
346.853
 20
200.636
 30
0.0
 70
    32
  0
VERTEX
  5
1B050
  8
0
 62
     5
 10
346.851
 20
200.635
 30
0.0
 70
    32
  0
VERTEX
  5
1B051
  8
0
 62
     5
 10
346.849
 20
200.634
 30
0.0
 70
    32
  0
VERTEX
  5
1B052
  8
0
 62
     5
 10
346.848
 20
200.633
 30
0.0
 70
    32
  0
VERTEX
  5
1B053
  8
0
 62
     5
 10
346.846
 20
200.632
 30
0.0
 70
    32
  0
VERTEX
  5
1B054
  8
0
 62
     5
 10
346.844
 20
200.631
 30
0.0
 70
    32
  0
VERTEX
  5
1B055
  8
0
 62
     5
 10
346.842
 20
200.63
 30
0.0
 70
    32
  0
VERTEX
  5
1B056
  8
0
 62
     5
 10
346.84
 20
200.629
 30
0.0
 70
    32
  0
VERTEX
  5
1B057
  8
0
 62
     5
 10
346.838
 20
200.627
 30
0.0
 70
    32
  0
VERTEX
  5
1B058
  8
0
 62
     5
 10
346.836
 20
200.626
 30
0.0
 70
    32
  0
VERTEX
  5
1B059
  8
0
 62
     5
 10
346.835
 20
200.625
 30
0.0
 70
    32
  0
VERTEX
  5
1B05A
  8
0
 62
     5
 10
346.833
 20
200.624
 30
0.0
 70
    32
  0
VERTEX
  5
1B05B
  8
0
 62
     5
 10
346.831
 20
200.623
 30
0.0
 70
    32
  0
VERTEX
  5
1B05C
  8
0
 62
     5
 10
346.829
 20
200.622
 30
0.0
 70
    32
  0
VERTEX
  5
1B05D
  8
0
 62
     5
 10
346.827
 20
200.621
 30
0.0
 70
    32
  0
VERTEX
  5
1B05E
  8
0
 62
     5
 10
346.825
 20
200.62
 30
0.0
 70
    32
  0
VERTEX
  5
1B05F
  8
0
 62
     5
 10
346.823
 20
200.619
 30
0.0
 70
    32
  0
VERTEX
  5
1B060
  8
0
 62
     5
 10
346.822
 20
200.618
 30
0.0
 70
    32
  0
VERTEX
  5
1B061
  8
0
 62
     5
 10
346.82
 20
200.617
 30
0.0
 70
    32
  0
VERTEX
  5
1B062
  8
0
 62
     5
 10
346.818
 20
200.616
 30
0.0
 70
    32
  0
VERTEX
  5
1B063
  8
0
 62
     5
 10
346.816
 20
200.615
 30
0.0
 70
    32
  0
VERTEX
  5
1B064
  8
0
 62
     5
 10
346.814
 20
200.614
 30
0.0
 70
    32
  0
VERTEX
  5
1B065
  8
0
 62
     5
 10
346.812
 20
200.613
 30
0.0
 70
    32
  0
VERTEX
  5
1B066
  8
0
 62
     5
 10
346.811
 20
200.611
 30
0.0
 70
    32
  0
VERTEX
  5
1B067
  8
0
 62
     5
 10
346.809
 20
200.61
 30
0.0
 70
    32
  0
VERTEX
  5
1B068
  8
0
 62
     5
 10
346.807
 20
200.609
 30
0.0
 70
    32
  0
VERTEX
  5
1B069
  8
0
 62
     5
 10
346.805
 20
200.608
 30
0.0
 70
    32
  0
VERTEX
  5
1B06A
  8
0
 62
     5
 10
346.803
 20
200.607
 30
0.0
 70
    32
  0
VERTEX
  5
1B06B
  8
0
 62
     5
 10
346.802
 20
200.606
 30
0.0
 70
    32
  0
VERTEX
  5
1B06C
  8
0
 62
     5
 10
346.8
 20
200.605
 30
0.0
 70
    32
  0
VERTEX
  5
1B06D
  8
0
 62
     5
 10
346.798
 20
200.604
 30
0.0
 70
    32
  0
VERTEX
  5
1B06E
  8
0
 62
     5
 10
346.796
 20
200.603
 30
0.0
 70
    32
  0
VERTEX
  5
1B06F
  8
0
 62
     5
 10
346.794
 20
200.601
 30
0.0
 70
    32
  0
VERTEX
  5
1B070
  8
0
 62
     5
 10
346.793
 20
200.6
 30
0.0
 70
    32
  0
VERTEX
  5
1B071
  8
0
 62
     5
 10
346.791
 20
200.599
 30
0.0
 70
    32
  0
VERTEX
  5
1B072
  8
0
 62
     5
 10
346.789
 20
200.598
 30
0.0
 70
    32
  0
VERTEX
  5
1B073
  8
0
 62
     5
 10
346.787
 20
200.597
 30
0.0
 70
    32
  0
VERTEX
  5
1B074
  8
0
 62
     5
 10
346.785
 20
200.596
 30
0.0
 70
    32
  0
VERTEX
  5
1B075
  8
0
 62
     5
 10
346.784
 20
200.595
 30
0.0
 70
    32
  0
VERTEX
  5
1B076
  8
0
 62
     5
 10
346.782
 20
200.593
 30
0.0
 70
    32
  0
VERTEX
  5
1B077
  8
0
 62
     5
 10
346.78
 20
200.592
 30
0.0
 70
    32
  0
VERTEX
  5
1B078
  8
0
 62
     5
 10
346.778
 20
200.591
 30
0.0
 70
    32
  0
VERTEX
  5
1B079
  8
0
 62
     5
 10
346.776
 20
200.59
 30
0.0
 70
    32
  0
VERTEX
  5
1B07A
  8
0
 62
     5
 10
346.775
 20
200.589
 30
0.0
 70
    32
  0
VERTEX
  5
1B07B
  8
0
 62
     5
 10
346.773
 20
200.588
 30
0.0
 70
    32
  0
VERTEX
  5
1B07C
  8
0
 62
     5
 10
346.771
 20
200.586
 30
0.0
 70
    32
  0
VERTEX
  5
1B07D
  8
0
 62
     5
 10
346.769
 20
200.585
 30
0.0
 70
    32
  0
VERTEX
  5
1B07E
  8
0
 62
     5
 10
346.768
 20
200.584
 30
0.0
 70
    32
  0
VERTEX
  5
1B07F
  8
0
 62
     5
 10
346.766
 20
200.583
 30
0.0
 70
    32
  0
VERTEX
  5
1B080
  8
0
 62
     5
 10
346.764
 20
200.582
 30
0.0
 70
    32
  0
VERTEX
  5
1B081
  8
0
 62
     5
 10
346.762
 20
200.58
 30
0.0
 70
    32
  0
VERTEX
  5
1B082
  8
0
 62
     5
 10
346.761
 20
200.579
 30
0.0
 70
    32
  0
VERTEX
  5
1B083
  8
0
 62
     5
 10
346.759
 20
200.578
 30
0.0
 70
    32
  0
VERTEX
  5
1B084
  8
0
 62
     5
 10
346.757
 20
200.577
 30
0.0
 70
    32
  0
VERTEX
  5
1B085
  8
0
 62
     5
 10
346.755
 20
200.576
 30
0.0
 70
    32
  0
VERTEX
  5
1B086
  8
0
 62
     5
 10
346.754
 20
200.574
 30
0.0
 70
    32
  0
VERTEX
  5
1B087
  8
0
 62
     5
 10
346.752
 20
200.573
 30
0.0
 70
    32
  0
VERTEX
  5
1B088
  8
0
 62
     5
 10
346.75
 20
200.572
 30
0.0
 70
    32
  0
VERTEX
  5
1B089
  8
0
 62
     5
 10
346.748
 20
200.571
 30
0.0
 70
    32
  0
VERTEX
  5
1B08A
  8
0
 62
     5
 10
346.747
 20
200.569
 30
0.0
 70
    32
  0
VERTEX
  5
1B08B
  8
0
 62
     5
 10
346.745
 20
200.568
 30
0.0
 70
    32
  0
VERTEX
  5
1B08C
  8
0
 62
     5
 10
346.743
 20
200.567
 30
0.0
 70
    32
  0
VERTEX
  5
1B08D
  8
0
 62
     5
 10
346.741
 20
200.566
 30
0.0
 70
    32
  0
VERTEX
  5
1B08E
  8
0
 62
     5
 10
346.74
 20
200.564
 30
0.0
 70
    32
  0
VERTEX
  5
1B08F
  8
0
 62
     5
 10
346.738
 20
200.563
 30
0.0
 70
    32
  0
VERTEX
  5
1B090
  8
0
 62
     5
 10
346.736
 20
200.562
 30
0.0
 70
    32
  0
VERTEX
  5
1B091
  8
0
 62
     5
 10
346.735
 20
200.561
 30
0.0
 70
    32
  0
VERTEX
  5
1B092
  8
0
 62
     5
 10
346.733
 20
200.559
 30
0.0
 70
    32
  0
VERTEX
  5
1B093
  8
0
 62
     5
 10
346.731
 20
200.558
 30
0.0
 70
    32
  0
VERTEX
  5
1B094
  8
0
 62
     5
 10
346.729
 20
200.557
 30
0.0
 70
    32
  0
VERTEX
  5
1B095
  8
0
 62
     5
 10
346.728
 20
200.556
 30
0.0
 70
    32
  0
VERTEX
  5
1B096
  8
0
 62
     5
 10
346.726
 20
200.554
 30
0.0
 70
    32
  0
VERTEX
  5
1B097
  8
0
 62
     5
 10
346.724
 20
200.553
 30
0.0
 70
    32
  0
VERTEX
  5
1B098
  8
0
 62
     5
 10
346.723
 20
200.552
 30
0.0
 70
    32
  0
VERTEX
  5
1B099
  8
0
 62
     5
 10
346.721
 20
200.551
 30
0.0
 70
    32
  0
VERTEX
  5
1B09A
  8
0
 62
     5
 10
346.719
 20
200.549
 30
0.0
 70
    32
  0
VERTEX
  5
1B09B
  8
0
 62
     5
 10
346.718
 20
200.548
 30
0.0
 70
    32
  0
VERTEX
  5
1B09C
  8
0
 62
     5
 10
346.716
 20
200.547
 30
0.0
 70
    32
  0
VERTEX
  5
1B09D
  8
0
 62
     5
 10
346.714
 20
200.545
 30
0.0
 70
    32
  0
VERTEX
  5
1B09E
  8
0
 62
     5
 10
346.713
 20
200.544
 30
0.0
 70
    32
  0
VERTEX
  5
1B09F
  8
0
 62
     5
 10
346.711
 20
200.543
 30
0.0
 70
    32
  0
VERTEX
  5
1B0A0
  8
0
 62
     5
 10
346.709
 20
200.541
 30
0.0
 70
    32
  0
VERTEX
  5
1B0A1
  8
0
 62
     5
 10
346.708
 20
200.54
 30
0.0
 70
    32
  0
VERTEX
  5
1B0A2
  8
0
 62
     5
 10
346.706
 20
200.539
 30
0.0
 70
    32
  0
VERTEX
  5
1B0A3
  8
0
 62
     5
 10
346.704
 20
200.537
 30
0.0
 70
    32
  0
VERTEX
  5
1B0A4
  8
0
 62
     5
 10
346.703
 20
200.536
 30
0.0
 70
    32
  0
VERTEX
  5
1B0A5
  8
0
 62
     5
 10
346.701
 20
200.535
 30
0.0
 70
    32
  0
VERTEX
  5
1B0A6
  8
0
 62
     5
 10
346.699
 20
200.533
 30
0.0
 70
    32
  0
VERTEX
  5
1B0A7
  8
0
 62
     5
 10
346.698
 20
200.532
 30
0.0
 70
    32
  0
VERTEX
  5
1B0A8
  8
0
 62
     5
 10
346.696
 20
200.531
 30
0.0
 70
    32
  0
VERTEX
  5
1B0A9
  8
0
 62
     5
 10
346.694
 20
200.529
 30
0.0
 70
    32
  0
VERTEX
  5
1B0AA
  8
0
 62
     5
 10
346.693
 20
200.528
 30
0.0
 70
    32
  0
VERTEX
  5
1B0AB
  8
0
 62
     5
 10
346.691
 20
200.527
 30
0.0
 70
    32
  0
VERTEX
  5
1B0AC
  8
0
 62
     5
 10
346.689
 20
200.525
 30
0.0
 70
    32
  0
VERTEX
  5
1B0AD
  8
0
 62
     5
 10
346.688
 20
200.524
 30
0.0
 70
    32
  0
VERTEX
  5
1B0AE
  8
0
 62
     5
 10
346.686
 20
200.523
 30
0.0
 70
    32
  0
VERTEX
  5
1B0AF
  8
0
 62
     5
 10
346.684
 20
200.521
 30
0.0
 70
    32
  0
VERTEX
  5
1B0B0
  8
0
 62
     5
 10
346.683
 20
200.52
 30
0.0
 70
    32
  0
VERTEX
  5
1B0B1
  8
0
 62
     5
 10
346.681
 20
200.519
 30
0.0
 70
    32
  0
VERTEX
  5
1B0B2
  8
0
 62
     5
 10
346.68
 20
200.517
 30
0.0
 70
    32
  0
VERTEX
  5
1B0B3
  8
0
 62
     5
 10
346.678
 20
200.516
 30
0.0
 70
    32
  0
VERTEX
  5
1B0B4
  8
0
 62
     5
 10
346.676
 20
200.514
 30
0.0
 70
    32
  0
VERTEX
  5
1B0B5
  8
0
 62
     5
 10
346.675
 20
200.513
 30
0.0
 70
    32
  0
VERTEX
  5
1B0B6
  8
0
 62
     5
 10
346.673
 20
200.512
 30
0.0
 70
    32
  0
VERTEX
  5
1B0B7
  8
0
 62
     5
 10
346.671
 20
200.51
 30
0.0
 70
    32
  0
VERTEX
  5
1B0B8
  8
0
 62
     5
 10
346.67
 20
200.509
 30
0.0
 70
    32
  0
VERTEX
  5
1B0B9
  8
0
 62
     5
 10
346.668
 20
200.507
 30
0.0
 70
    32
  0
VERTEX
  5
1B0BA
  8
0
 62
     5
 10
346.667
 20
200.506
 30
0.0
 70
    32
  0
VERTEX
  5
1B0BB
  8
0
 62
     5
 10
346.665
 20
200.505
 30
0.0
 70
    32
  0
VERTEX
  5
1B0BC
  8
0
 62
     5
 10
346.663
 20
200.503
 30
0.0
 70
    32
  0
VERTEX
  5
1B0BD
  8
0
 62
     5
 10
346.662
 20
200.502
 30
0.0
 70
    32
  0
VERTEX
  5
1B0BE
  8
0
 62
     5
 10
346.66
 20
200.5
 30
0.0
 70
    32
  0
VERTEX
  5
1B0BF
  8
0
 62
     5
 10
346.659
 20
200.499
 30
0.0
 70
    32
  0
VERTEX
  5
1B0C0
  8
0
 62
     5
 10
346.657
 20
200.498
 30
0.0
 70
    32
  0
VERTEX
  5
1B0C1
  8
0
 62
     5
 10
346.656
 20
200.496
 30
0.0
 70
    32
  0
VERTEX
  5
1B0C2
  8
0
 62
     5
 10
346.654
 20
200.495
 30
0.0
 70
    32
  0
VERTEX
  5
1B0C3
  8
0
 62
     5
 10
346.652
 20
200.493
 30
0.0
 70
    32
  0
VERTEX
  5
1B0C4
  8
0
 62
     5
 10
346.651
 20
200.492
 30
0.0
 70
    32
  0
VERTEX
  5
1B0C5
  8
0
 62
     5
 10
346.649
 20
200.49
 30
0.0
 70
    32
  0
VERTEX
  5
1B0C6
  8
0
 62
     5
 10
346.648
 20
200.489
 30
0.0
 70
    32
  0
SEQEND
  5
1B0C7
  8
0
 62
     5
  0
LINE
  5
1B0C8
  8
0
 62
     5
 10
396.473882
 20
189.369632
 30
0.0
 11
396.473882
 21
151.608128
 31
0.0
  0
LINE
  5
1B0C9
  8
CENTER
 10
366.207718
 20
207.126572
 30
0.0
 11
366.207718
 21
122.344881
 31
0.0
  0
LINE
  5
1B0CA
  8
0
 62
     5
 10
396.207718
 20
144.98888
 30
0.0
 11
396.207718
 21
195.98888
 31
0.0
  0
CIRCLE
  5
1B0CB
  8
0
 62
     5
 10
366.207718
 20
170.48888
 30
0.0
 40
8.5
  0
CIRCLE
  5
1B0CC
  8
0
 62
     5
 10
366.207718
 20
170.48888
 30
0.0
 40
7.0
  0
LINE
  5
1B0CD
  8
0
  6
CONTINUOUS
 62
     5
 10
374.148349
 20
138.48888
 30
0.0
 11
389.707718
 21
138.48888
 31
0.0
  0
ARC
  5
1B0CE
  8
CENTER
 10
366.207718
 20
170.48888
 30
0.0
 40
35.0
 50
306.254023
 51
324.381034
  0
LINE
  5
1B0CF
  8
CENTER
 10
384.9102
 20
151.786398
 30
0.0
 11
396.651311
 21
140.045287
 31
0.0
  0
LINE
  5
1B0D0
  8
0
 62
     5
 10
374.148349
 20
138.48888
 30
0.0
 11
389.707718
 21
138.48888
 31
0.0
  0
CIRCLE
  5
1B0D1
  8
0
 62
     5
 10
390.956455
 20
145.740143
 30
0.0
 40
2.9
  0
LINE
  5
1B0D2
  8
CENTER
 10
375.507718
 20
142.059677
 30
0.0
 11
375.507718
 21
122.822252
 31
0.0
  0
LINE
  5
1B0D3
  8
CENTER
 10
376.207718
 20
142.059677
 30
0.0
 11
376.207718
 21
122.822252
 31
0.0
  0
LINE
  5
1B0D4
  8
CENTER
 10
360.307718
 20
142.059677
 30
0.0
 11
360.307718
 21
119.745561
 31
0.0
  0
LINE
  5
1B0D5
  8
0
  6
CONTINUOUS
 62
     5
 10
386.317859
 20
135.18888
 30
0.0
 11
367.77601
 21
135.18888
 31
0.0
  0
LINE
  5
1B0D6
  8
0
 62
     5
 10
370.610362
 20
132.98888
 30
0.0
 11
367.706872
 21
132.98888
 31
0.0
  0
ARC
  5
1B0D7
  8
HIDDEN
 10
365.757718
 20
127.38888
 30
0.0
 40
4.0
 50
270.0
 51
360.0
  0
LINE
  5
1B0D8
  8
0
 62
     5
 10
367.725728
 20
133.58888
 30
0.0
 11
370.60566
 21
133.58888
 31
0.0
  0
ARC
  5
1B0D9
  8
HIDDEN
 10
354.859051
 20
127.390213
 30
0.0
 40
4.001333
 50
180.019082
 51
269.980918
  0
LINE
  5
1B0DA
  8
HIDDEN
 10
354.857718
 20
123.38888
 30
0.0
 11
365.757718
 21
123.38888
 31
0.0
  0
LINE
  5
1B0DB
  8
0
 62
     5
 10
363.817106
 20
137.38888
 30
0.0
 11
356.79833
 21
137.38888
 31
0.0
  0
LINE
  5
1B0DC
  8
0
 62
     5
 10
352.949418
 20
131.68888
 30
0.0
 11
367.666018
 21
131.68888
 31
0.0
  0
LINE
  5
1B0DD
  8
HIDDEN
 10
350.857718
 20
134.58888
 30
0.0
 11
350.857718
 21
127.38888
 31
0.0
  0
LINE
  5
1B0DE
  8
0
 62
     5
 10
352.949418
 20
131.68888
 30
0.0
 11
352.779716
 21
137.08888
 31
0.0
  0
LINE
  5
1B0DF
  8
0
 62
     5
 10
353.56683
 20
137.08888
 30
0.0
 11
353.637123
 21
131.68888
 31
0.0
  0
LINE
  5
1B0E0
  8
0
 62
     5
 10
356.807718
 20
137.28888
 30
0.0
 11
356.807718
 21
137.38888
 31
0.0
  0
ARC
  5
1B0E1
  8
0
 62
     5
 10
356.607718
 20
137.28888
 30
0.0
 40
0.2
 50
270.0
 51
0.0
  0
LINE
  5
1B0E2
  8
0
 62
     5
 10
367.83572
 20
137.08888
 30
0.0
 11
367.666018
 21
131.68888
 31
0.0
  0
LINE
  5
1B0E3
  8
0
 62
     5
 10
366.978313
 20
131.68888
 30
0.0
 11
367.048606
 21
137.08888
 31
0.0
  0
LINE
  5
1B0E4
  8
0
 62
     5
 10
363.807718
 20
137.28888
 30
0.0
 11
363.807718
 21
137.38888
 31
0.0
  0
ARC
  5
1B0E5
  8
0
 62
     5
 10
364.007718
 20
137.28888
 30
0.0
 40
0.2
 50
180.0
 51
270.0
  0
LINE
  5
1B0E6
  8
HIDDEN
 10
372.187676
 20
123.38888
 30
0.0
 11
377.777256
 21
123.38888
 31
0.0
  0
LINE
  5
1B0E7
  8
0
 62
     5
 10
370.915801
 20
129.68888
 30
0.0
 11
380.099635
 21
129.68888
 31
0.0
  0
LINE
  5
1B0E8
  8
0
 62
     5
 10
374.646205
 20
140.225552
 30
0.0
 11
385.08847
 21
140.222716
 31
0.0
  0
LINE
  5
1B0E9
  8
0
 62
     5
 10
370.610362
 20
135.18888
 30
0.0
 11
370.595081
 21
129.98888
 31
0.0
  0
LINE
  5
1B0EA
  8
HIDDEN
 10
369.757718
 20
134.58888
 30
0.0
 11
369.757718
 21
127.38888
 31
0.0
  0
LINE
  5
1B0EB
  8
0
 62
     5
 10
370.595081
 20
129.98888
 30
0.0
 11
370.915801
 21
129.68888
 31
0.0
  0
LINE
  5
1B0EC
  8
HIDDEN
 10
369.757718
 20
134.58888
 30
0.0
 11
372.057718
 21
134.58888
 31
0.0
  0
ARC
  5
1B0ED
  8
HIDDEN
 10
372.057718
 20
135.08888
 30
0.0
 40
0.5
 50
270.0
 51
0.0
  0
LINE
  5
1B0EE
  8
0
 62
     5
 10
374.148349
 20
139.725547
 30
0.0
 11
374.148349
 21
137.58888
 31
0.0
  0
ARC
  5
1B0EF
  8
0
 62
     5
 10
373.648349
 20
137.58888
 30
0.0
 40
0.5
 50
270.0
 51
0.0
  0
LINE
  5
1B0F0
  8
0
 62
     5
 10
374.648349
 20
140.225561
 30
0.0
 11
374.646205
 21
140.225552
 31
0.0
  0
LINE
  5
1B0F1
  8
0
 62
     5
 10
380.420355
 20
129.98888
 30
0.0
 11
380.420355
 21
135.18888
 31
0.0
  0
LINE
  5
1B0F2
  8
HIDDEN
 10
387.397553
 20
132.98888
 30
0.0
 11
387.397553
 21
138.48888
 31
0.0
  0
LINE
  5
1B0F3
  8
0
 62
     5
 10
386.297553
 20
135.18888
 30
0.0
 11
386.297553
 21
133.58888
 31
0.0
  0
LINE
  5
1B0F4
  8
0
 62
     5
 10
381.731713
 20
135.18888
 30
0.0
 11
381.731713
 21
133.28888
 31
0.0
  0
LINE
  5
1B0F5
  8
HIDDEN
 10
382.677524
 20
131.48888
 30
0.0
 11
385.897591
 21
131.48888
 31
0.0
  0
LINE
  5
1B0F6
  8
0
 62
     5
 10
385.696272
 20
132.98888
 30
0.0
 11
382.941408
 21
132.98888
 31
0.0
  0
LINE
  5
1B0F7
  8
0
 62
     5
 10
382.916939
 20
133.58888
 30
0.0
 11
386.297504
 21
133.58888
 31
0.0
  0
LINE
  5
1B0F8
  8
0
 62
     5
 10
380.099635
 20
129.68888
 30
0.0
 11
380.420355
 21
129.98888
 31
0.0
  0
ARC
  5
1B0F9
  8
HIDDEN
 10
378.408052
 20
128.747161
 30
0.0
 40
4.271453
 50
343.393119
 51
1.74531
  0
LINE
  5
1B0FA
  8
HIDDEN
 10
382.677524
 20
131.48888
 30
0.0
 11
382.677524
 21
128.877255
 31
0.0
  0
LINE
  5
1B0FB
  8
0
 62
     5
 10
381.731713
 20
133.28888
 30
0.0
 11
382.916939
 21
133.28888
 31
0.0
  0
LINE
  5
1B0FC
  8
0
 62
     5
 10
382.916939
 20
133.28888
 30
0.0
 11
382.916939
 21
133.58888
 31
0.0
  0
LINE
  5
1B0FD
  8
0
 62
     5
 10
381.731713
 20
133.28888
 30
0.0
 11
381.684783
 21
132.98888
 31
0.0
  0
LINE
  5
1B0FE
  8
0
 62
     5
 10
382.916939
 20
133.28888
 30
0.0
 11
382.870009
 21
132.98888
 31
0.0
  0
LINE
  5
1B0FF
  8
0
 62
     5
 10
382.870009
 20
132.98888
 30
0.0
 11
380.420355
 21
132.98888
 31
0.0
  0
ARC
  5
1B100
  8
HIDDEN
 10
385.897553
 20
132.98888
 30
0.0
 40
1.5
 50
270.0
 51
0.0
  0
LINE
  5
1B101
  8
0
 62
     5
 10
385.992579
 20
133.58888
 30
0.0
 11
385.992579
 21
133.28888
 31
0.0
  0
LINE
  5
1B102
  8
0
 62
     5
 10
385.696272
 20
132.98888
 30
0.0
 11
385.992579
 21
133.28888
 31
0.0
  0
ARC
  5
1B103
  8
0
  6
CONTINUOUS
 62
     5
 10
387.117887
 20
138.68888
 30
0.0
 40
0.2
 50
270.0
 51
0.0
  0
LINE
  5
1B104
  8
0
  6
CONTINUOUS
 62
     5
 10
387.317887
 20
138.68888
 30
0.0
 11
387.317887
 21
140.48888
 31
0.0
  0
LINE
  5
1B105
  8
0
 62
     5
 10
386.317887
 20
135.18888
 30
0.0
 11
386.317887
 21
138.48888
 31
0.0
  0
LINE
  5
1B106
  8
0
 62
     5
 10
388.397553
 20
137.48888
 30
0.0
 11
388.397553
 21
138.48888
 31
0.0
  0
LINE
  5
1B107
  8
0
 62
     5
 10
386.317887
 20
137.48888
 30
0.0
 11
388.397548
 21
137.48888
 31
0.0
  0
CIRCLE
  5
1B108
  8
0
 62
     5
 10
382.50368
 20
144.000172
 30
0.0
 40
1.25
  0
ARC
  5
1B109
  8
0
 62
     5
 10
391.707718
 20
144.98888
 30
0.0
 40
4.5
 50
270.0
 51
0.0
  0
ARC
  5
1B10A
  8
0
 62
     5
 10
389.707718
 20
138.68888
 30
0.0
 40
0.2
 50
270.0
 51
0.0
  0
LINE
  5
1B10B
  8
0
 62
     5
 10
389.907718
 20
140.48888
 30
0.0
 11
389.907718
 21
138.68888
 31
0.0
  0
LINE
  5
1B10C
  8
CENTER
 10
384.9102
 20
189.191362
 30
0.0
 11
396.651311
 21
200.932473
 31
0.0
  0
ARC
  5
1B10D
  8
CENTER
 10
366.207718
 20
170.48888
 30
0.0
 40
35.0
 50
36.254023
 51
54.381034
  0
CIRCLE
  5
1B10E
  8
0
 62
     5
 10
390.956455
 20
195.237617
 30
0.0
 40
2.9
  0
CIRCLE
  5
1B10F
  8
0
 62
     5
 10
349.911756
 20
196.977588
 30
0.0
 40
1.25
  0
LINE
  5
1B110
  8
0
 62
     5
 10
388.548105
 20
193.623028
 30
0.0
 11
388.549215
 21
193.624178
 31
0.0
  0
POLYLINE
  5
1B111
  8
0
 62
     5
 66
     1
 10
0.0
 20
0.0
 30
0.0
 70
     8
  0
VERTEX
  5
1B112
  8
0
 62
     5
 10
385.768
 20
200.489
 30
0.0
 70
    32
  0
VERTEX
  5
1B113
  8
0
 62
     5
 10
385.766
 20
200.49
 30
0.0
 70
    32
  0
VERTEX
  5
1B114
  8
0
 62
     5
 10
385.765
 20
200.492
 30
0.0
 70
    32
  0
VERTEX
  5
1B115
  8
0
 62
     5
 10
385.763
 20
200.493
 30
0.0
 70
    32
  0
VERTEX
  5
1B116
  8
0
 62
     5
 10
385.761
 20
200.495
 30
0.0
 70
    32
  0
VERTEX
  5
1B117
  8
0
 62
     5
 10
385.76
 20
200.496
 30
0.0
 70
    32
  0
VERTEX
  5
1B118
  8
0
 62
     5
 10
385.758
 20
200.498
 30
0.0
 70
    32
  0
VERTEX
  5
1B119
  8
0
 62
     5
 10
385.757
 20
200.499
 30
0.0
 70
    32
  0
VERTEX
  5
1B11A
  8
0
 62
     5
 10
385.755
 20
200.5
 30
0.0
 70
    32
  0
VERTEX
  5
1B11B
  8
0
 62
     5
 10
385.754
 20
200.502
 30
0.0
 70
    32
  0
VERTEX
  5
1B11C
  8
0
 62
     5
 10
385.752
 20
200.503
 30
0.0
 70
    32
  0
VERTEX
  5
1B11D
  8
0
 62
     5
 10
385.75
 20
200.505
 30
0.0
 70
    32
  0
VERTEX
  5
1B11E
  8
0
 62
     5
 10
385.749
 20
200.506
 30
0.0
 70
    32
  0
VERTEX
  5
1B11F
  8
0
 62
     5
 10
385.747
 20
200.507
 30
0.0
 70
    32
  0
VERTEX
  5
1B120
  8
0
 62
     5
 10
385.746
 20
200.509
 30
0.0
 70
    32
  0
VERTEX
  5
1B121
  8
0
 62
     5
 10
385.744
 20
200.51
 30
0.0
 70
    32
  0
VERTEX
  5
1B122
  8
0
 62
     5
 10
385.742
 20
200.512
 30
0.0
 70
    32
  0
VERTEX
  5
1B123
  8
0
 62
     5
 10
385.741
 20
200.513
 30
0.0
 70
    32
  0
VERTEX
  5
1B124
  8
0
 62
     5
 10
385.739
 20
200.514
 30
0.0
 70
    32
  0
VERTEX
  5
1B125
  8
0
 62
     5
 10
385.738
 20
200.516
 30
0.0
 70
    32
  0
VERTEX
  5
1B126
  8
0
 62
     5
 10
385.736
 20
200.517
 30
0.0
 70
    32
  0
VERTEX
  5
1B127
  8
0
 62
     5
 10
385.734
 20
200.519
 30
0.0
 70
    32
  0
VERTEX
  5
1B128
  8
0
 62
     5
 10
385.733
 20
200.52
 30
0.0
 70
    32
  0
VERTEX
  5
1B129
  8
0
 62
     5
 10
385.731
 20
200.521
 30
0.0
 70
    32
  0
VERTEX
  5
1B12A
  8
0
 62
     5
 10
385.729
 20
200.523
 30
0.0
 70
    32
  0
VERTEX
  5
1B12B
  8
0
 62
     5
 10
385.728
 20
200.524
 30
0.0
 70
    32
  0
VERTEX
  5
1B12C
  8
0
 62
     5
 10
385.726
 20
200.525
 30
0.0
 70
    32
  0
VERTEX
  5
1B12D
  8
0
 62
     5
 10
385.724
 20
200.527
 30
0.0
 70
    32
  0
VERTEX
  5
1B12E
  8
0
 62
     5
 10
385.723
 20
200.528
 30
0.0
 70
    32
  0
VERTEX
  5
1B12F
  8
0
 62
     5
 10
385.721
 20
200.529
 30
0.0
 70
    32
  0
VERTEX
  5
1B130
  8
0
 62
     5
 10
385.72
 20
200.531
 30
0.0
 70
    32
  0
VERTEX
  5
1B131
  8
0
 62
     5
 10
385.718
 20
200.532
 30
0.0
 70
    32
  0
VERTEX
  5
1B132
  8
0
 62
     5
 10
385.716
 20
200.533
 30
0.0
 70
    32
  0
VERTEX
  5
1B133
  8
0
 62
     5
 10
385.715
 20
200.535
 30
0.0
 70
    32
  0
VERTEX
  5
1B134
  8
0
 62
     5
 10
385.713
 20
200.536
 30
0.0
 70
    32
  0
VERTEX
  5
1B135
  8
0
 62
     5
 10
385.711
 20
200.537
 30
0.0
 70
    32
  0
VERTEX
  5
1B136
  8
0
 62
     5
 10
385.71
 20
200.539
 30
0.0
 70
    32
  0
VERTEX
  5
1B137
  8
0
 62
     5
 10
385.708
 20
200.54
 30
0.0
 70
    32
  0
VERTEX
  5
1B138
  8
0
 62
     5
 10
385.706
 20
200.541
 30
0.0
 70
    32
  0
VERTEX
  5
1B139
  8
0
 62
     5
 10
385.705
 20
200.543
 30
0.0
 70
    32
  0
VERTEX
  5
1B13A
  8
0
 62
     5
 10
385.703
 20
200.544
 30
0.0
 70
    32
  0
VERTEX
  5
1B13B
  8
0
 62
     5
 10
385.701
 20
200.545
 30
0.0
 70
    32
  0
VERTEX
  5
1B13C
  8
0
 62
     5
 10
385.7
 20
200.547
 30
0.0
 70
    32
  0
VERTEX
  5
1B13D
  8
0
 62
     5
 10
385.698
 20
200.548
 30
0.0
 70
    32
  0
VERTEX
  5
1B13E
  8
0
 62
     5
 10
385.696
 20
200.549
 30
0.0
 70
    32
  0
VERTEX
  5
1B13F
  8
0
 62
     5
 10
385.694
 20
200.551
 30
0.0
 70
    32
  0
VERTEX
  5
1B140
  8
0
 62
     5
 10
385.693
 20
200.552
 30
0.0
 70
    32
  0
VERTEX
  5
1B141
  8
0
 62
     5
 10
385.691
 20
200.553
 30
0.0
 70
    32
  0
VERTEX
  5
1B142
  8
0
 62
     5
 10
385.689
 20
200.554
 30
0.0
 70
    32
  0
VERTEX
  5
1B143
  8
0
 62
     5
 10
385.688
 20
200.556
 30
0.0
 70
    32
  0
VERTEX
  5
1B144
  8
0
 62
     5
 10
385.686
 20
200.557
 30
0.0
 70
    32
  0
VERTEX
  5
1B145
  8
0
 62
     5
 10
385.684
 20
200.558
 30
0.0
 70
    32
  0
VERTEX
  5
1B146
  8
0
 62
     5
 10
385.683
 20
200.559
 30
0.0
 70
    32
  0
VERTEX
  5
1B147
  8
0
 62
     5
 10
385.681
 20
200.561
 30
0.0
 70
    32
  0
VERTEX
  5
1B148
  8
0
 62
     5
 10
385.679
 20
200.562
 30
0.0
 70
    32
  0
VERTEX
  5
1B149
  8
0
 62
     5
 10
385.677
 20
200.563
 30
0.0
 70
    32
  0
VERTEX
  5
1B14A
  8
0
 62
     5
 10
385.676
 20
200.564
 30
0.0
 70
    32
  0
VERTEX
  5
1B14B
  8
0
 62
     5
 10
385.674
 20
200.566
 30
0.0
 70
    32
  0
VERTEX
  5
1B14C
  8
0
 62
     5
 10
385.672
 20
200.567
 30
0.0
 70
    32
  0
VERTEX
  5
1B14D
  8
0
 62
     5
 10
385.671
 20
200.568
 30
0.0
 70
    32
  0
VERTEX
  5
1B14E
  8
0
 62
     5
 10
385.669
 20
200.569
 30
0.0
 70
    32
  0
VERTEX
  5
1B14F
  8
0
 62
     5
 10
385.667
 20
200.571
 30
0.0
 70
    32
  0
VERTEX
  5
1B150
  8
0
 62
     5
 10
385.665
 20
200.572
 30
0.0
 70
    32
  0
VERTEX
  5
1B151
  8
0
 62
     5
 10
385.664
 20
200.573
 30
0.0
 70
    32
  0
VERTEX
  5
1B152
  8
0
 62
     5
 10
385.662
 20
200.574
 30
0.0
 70
    32
  0
VERTEX
  5
1B153
  8
0
 62
     5
 10
385.66
 20
200.576
 30
0.0
 70
    32
  0
VERTEX
  5
1B154
  8
0
 62
     5
 10
385.658
 20
200.577
 30
0.0
 70
    32
  0
VERTEX
  5
1B155
  8
0
 62
     5
 10
385.657
 20
200.578
 30
0.0
 70
    32
  0
VERTEX
  5
1B156
  8
0
 62
     5
 10
385.655
 20
200.579
 30
0.0
 70
    32
  0
VERTEX
  5
1B157
  8
0
 62
     5
 10
385.653
 20
200.58
 30
0.0
 70
    32
  0
VERTEX
  5
1B158
  8
0
 62
     5
 10
385.651
 20
200.582
 30
0.0
 70
    32
  0
VERTEX
  5
1B159
  8
0
 62
     5
 10
385.65
 20
200.583
 30
0.0
 70
    32
  0
VERTEX
  5
1B15A
  8
0
 62
     5
 10
385.648
 20
200.584
 30
0.0
 70
    32
  0
VERTEX
  5
1B15B
  8
0
 62
     5
 10
385.646
 20
200.585
 30
0.0
 70
    32
  0
VERTEX
  5
1B15C
  8
0
 62
     5
 10
385.644
 20
200.586
 30
0.0
 70
    32
  0
VERTEX
  5
1B15D
  8
0
 62
     5
 10
385.643
 20
200.588
 30
0.0
 70
    32
  0
VERTEX
  5
1B15E
  8
0
 62
     5
 10
385.641
 20
200.589
 30
0.0
 70
    32
  0
VERTEX
  5
1B15F
  8
0
 62
     5
 10
385.639
 20
200.59
 30
0.0
 70
    32
  0
VERTEX
  5
1B160
  8
0
 62
     5
 10
385.637
 20
200.591
 30
0.0
 70
    32
  0
VERTEX
  5
1B161
  8
0
 62
     5
 10
385.635
 20
200.592
 30
0.0
 70
    32
  0
VERTEX
  5
1B162
  8
0
 62
     5
 10
385.634
 20
200.593
 30
0.0
 70
    32
  0
VERTEX
  5
1B163
  8
0
 62
     5
 10
385.632
 20
200.595
 30
0.0
 70
    32
  0
VERTEX
  5
1B164
  8
0
 62
     5
 10
385.63
 20
200.596
 30
0.0
 70
    32
  0
VERTEX
  5
1B165
  8
0
 62
     5
 10
385.628
 20
200.597
 30
0.0
 70
    32
  0
VERTEX
  5
1B166
  8
0
 62
     5
 10
385.626
 20
200.598
 30
0.0
 70
    32
  0
VERTEX
  5
1B167
  8
0
 62
     5
 10
385.625
 20
200.599
 30
0.0
 70
    32
  0
VERTEX
  5
1B168
  8
0
 62
     5
 10
385.623
 20
200.6
 30
0.0
 70
    32
  0
VERTEX
  5
1B169
  8
0
 62
     5
 10
385.621
 20
200.601
 30
0.0
 70
    32
  0
VERTEX
  5
1B16A
  8
0
 62
     5
 10
385.619
 20
200.603
 30
0.0
 70
    32
  0
VERTEX
  5
1B16B
  8
0
 62
     5
 10
385.617
 20
200.604
 30
0.0
 70
    32
  0
VERTEX
  5
1B16C
  8
0
 62
     5
 10
385.616
 20
200.605
 30
0.0
 70
    32
  0
VERTEX
  5
1B16D
  8
0
 62
     5
 10
385.614
 20
200.606
 30
0.0
 70
    32
  0
VERTEX
  5
1B16E
  8
0
 62
     5
 10
385.612
 20
200.607
 30
0.0
 70
    32
  0
VERTEX
  5
1B16F
  8
0
 62
     5
 10
385.61
 20
200.608
 30
0.0
 70
    32
  0
VERTEX
  5
1B170
  8
0
 62
     5
 10
385.608
 20
200.609
 30
0.0
 70
    32
  0
VERTEX
  5
1B171
  8
0
 62
     5
 10
385.607
 20
200.61
 30
0.0
 70
    32
  0
VERTEX
  5
1B172
  8
0
 62
     5
 10
385.605
 20
200.611
 30
0.0
 70
    32
  0
VERTEX
  5
1B173
  8
0
 62
     5
 10
385.603
 20
200.613
 30
0.0
 70
    32
  0
VERTEX
  5
1B174
  8
0
 62
     5
 10
385.601
 20
200.614
 30
0.0
 70
    32
  0
VERTEX
  5
1B175
  8
0
 62
     5
 10
385.599
 20
200.615
 30
0.0
 70
    32
  0
VERTEX
  5
1B176
  8
0
 62
     5
 10
385.597
 20
200.616
 30
0.0
 70
    32
  0
VERTEX
  5
1B177
  8
0
 62
     5
 10
385.596
 20
200.617
 30
0.0
 70
    32
  0
VERTEX
  5
1B178
  8
0
 62
     5
 10
385.594
 20
200.618
 30
0.0
 70
    32
  0
VERTEX
  5
1B179
  8
0
 62
     5
 10
385.592
 20
200.619
 30
0.0
 70
    32
  0
VERTEX
  5
1B17A
  8
0
 62
     5
 10
385.59
 20
200.62
 30
0.0
 70
    32
  0
VERTEX
  5
1B17B
  8
0
 62
     5
 10
385.588
 20
200.621
 30
0.0
 70
    32
  0
VERTEX
  5
1B17C
  8
0
 62
     5
 10
385.586
 20
200.622
 30
0.0
 70
    32
  0
VERTEX
  5
1B17D
  8
0
 62
     5
 10
385.585
 20
200.623
 30
0.0
 70
    32
  0
VERTEX
  5
1B17E
  8
0
 62
     5
 10
385.583
 20
200.624
 30
0.0
 70
    32
  0
VERTEX
  5
1B17F
  8
0
 62
     5
 10
385.581
 20
200.625
 30
0.0
 70
    32
  0
VERTEX
  5
1B180
  8
0
 62
     5
 10
385.579
 20
200.626
 30
0.0
 70
    32
  0
VERTEX
  5
1B181
  8
0
 62
     5
 10
385.577
 20
200.627
 30
0.0
 70
    32
  0
VERTEX
  5
1B182
  8
0
 62
     5
 10
385.575
 20
200.629
 30
0.0
 70
    32
  0
VERTEX
  5
1B183
  8
0
 62
     5
 10
385.573
 20
200.63
 30
0.0
 70
    32
  0
VERTEX
  5
1B184
  8
0
 62
     5
 10
385.572
 20
200.631
 30
0.0
 70
    32
  0
VERTEX
  5
1B185
  8
0
 62
     5
 10
385.57
 20
200.632
 30
0.0
 70
    32
  0
VERTEX
  5
1B186
  8
0
 62
     5
 10
385.568
 20
200.633
 30
0.0
 70
    32
  0
VERTEX
  5
1B187
  8
0
 62
     5
 10
385.566
 20
200.634
 30
0.0
 70
    32
  0
VERTEX
  5
1B188
  8
0
 62
     5
 10
385.564
 20
200.635
 30
0.0
 70
    32
  0
VERTEX
  5
1B189
  8
0
 62
     5
 10
385.562
 20
200.636
 30
0.0
 70
    32
  0
VERTEX
  5
1B18A
  8
0
 62
     5
 10
385.56
 20
200.637
 30
0.0
 70
    32
  0
VERTEX
  5
1B18B
  8
0
 62
     5
 10
385.559
 20
200.638
 30
0.0
 70
    32
  0
VERTEX
  5
1B18C
  8
0
 62
     5
 10
385.557
 20
200.639
 30
0.0
 70
    32
  0
VERTEX
  5
1B18D
  8
0
 62
     5
 10
385.555
 20
200.64
 30
0.0
 70
    32
  0
VERTEX
  5
1B18E
  8
0
 62
     5
 10
385.553
 20
200.641
 30
0.0
 70
    32
  0
VERTEX
  5
1B18F
  8
0
 62
     5
 10
385.551
 20
200.642
 30
0.0
 70
    32
  0
VERTEX
  5
1B190
  8
0
 62
     5
 10
385.549
 20
200.643
 30
0.0
 70
    32
  0
VERTEX
  5
1B191
  8
0
 62
     5
 10
385.547
 20
200.644
 30
0.0
 70
    32
  0
VERTEX
  5
1B192
  8
0
 62
     5
 10
385.545
 20
200.645
 30
0.0
 70
    32
  0
VERTEX
  5
1B193
  8
0
 62
     5
 10
385.543
 20
200.646
 30
0.0
 70
    32
  0
VERTEX
  5
1B194
  8
0
 62
     5
 10
385.542
 20
200.647
 30
0.0
 70
    32
  0
VERTEX
  5
1B195
  8
0
 62
     5
 10
385.54
 20
200.647
 30
0.0
 70
    32
  0
VERTEX
  5
1B196
  8
0
 62
     5
 10
385.538
 20
200.648
 30
0.0
 70
    32
  0
VERTEX
  5
1B197
  8
0
 62
     5
 10
385.536
 20
200.649
 30
0.0
 70
    32
  0
VERTEX
  5
1B198
  8
0
 62
     5
 10
385.534
 20
200.65
 30
0.0
 70
    32
  0
VERTEX
  5
1B199
  8
0
 62
     5
 10
385.532
 20
200.651
 30
0.0
 70
    32
  0
VERTEX
  5
1B19A
  8
0
 62
     5
 10
385.53
 20
200.652
 30
0.0
 70
    32
  0
VERTEX
  5
1B19B
  8
0
 62
     5
 10
385.528
 20
200.653
 30
0.0
 70
    32
  0
VERTEX
  5
1B19C
  8
0
 62
     5
 10
385.526
 20
200.654
 30
0.0
 70
    32
  0
VERTEX
  5
1B19D
  8
0
 62
     5
 10
385.524
 20
200.655
 30
0.0
 70
    32
  0
VERTEX
  5
1B19E
  8
0
 62
     5
 10
385.522
 20
200.656
 30
0.0
 70
    32
  0
VERTEX
  5
1B19F
  8
0
 62
     5
 10
385.521
 20
200.657
 30
0.0
 70
    32
  0
VERTEX
  5
1B1A0
  8
0
 62
     5
 10
385.519
 20
200.658
 30
0.0
 70
    32
  0
VERTEX
  5
1B1A1
  8
0
 62
     5
 10
385.517
 20
200.659
 30
0.0
 70
    32
  0
VERTEX
  5
1B1A2
  8
0
 62
     5
 10
385.515
 20
200.66
 30
0.0
 70
    32
  0
VERTEX
  5
1B1A3
  8
0
 62
     5
 10
385.513
 20
200.661
 30
0.0
 70
    32
  0
VERTEX
  5
1B1A4
  8
0
 62
     5
 10
385.511
 20
200.661
 30
0.0
 70
    32
  0
VERTEX
  5
1B1A5
  8
0
 62
     5
 10
385.509
 20
200.662
 30
0.0
 70
    32
  0
VERTEX
  5
1B1A6
  8
0
 62
     5
 10
385.507
 20
200.663
 30
0.0
 70
    32
  0
VERTEX
  5
1B1A7
  8
0
 62
     5
 10
385.505
 20
200.664
 30
0.0
 70
    32
  0
VERTEX
  5
1B1A8
  8
0
 62
     5
 10
385.503
 20
200.665
 30
0.0
 70
    32
  0
VERTEX
  5
1B1A9
  8
0
 62
     5
 10
385.501
 20
200.666
 30
0.0
 70
    32
  0
VERTEX
  5
1B1AA
  8
0
 62
     5
 10
385.499
 20
200.667
 30
0.0
 70
    32
  0
VERTEX
  5
1B1AB
  8
0
 62
     5
 10
385.497
 20
200.668
 30
0.0
 70
    32
  0
VERTEX
  5
1B1AC
  8
0
 62
     5
 10
385.495
 20
200.668
 30
0.0
 70
    32
  0
VERTEX
  5
1B1AD
  8
0
 62
     5
 10
385.493
 20
200.669
 30
0.0
 70
    32
  0
VERTEX
  5
1B1AE
  8
0
 62
     5
 10
385.492
 20
200.67
 30
0.0
 70
    32
  0
VERTEX
  5
1B1AF
  8
0
 62
     5
 10
385.49
 20
200.671
 30
0.0
 70
    32
  0
VERTEX
  5
1B1B0
  8
0
 62
     5
 10
385.488
 20
200.672
 30
0.0
 70
    32
  0
VERTEX
  5
1B1B1
  8
0
 62
     5
 10
385.486
 20
200.673
 30
0.0
 70
    32
  0
VERTEX
  5
1B1B2
  8
0
 62
     5
 10
385.484
 20
200.674
 30
0.0
 70
    32
  0
VERTEX
  5
1B1B3
  8
0
 62
     5
 10
385.482
 20
200.674
 30
0.0
 70
    32
  0
VERTEX
  5
1B1B4
  8
0
 62
     5
 10
385.48
 20
200.675
 30
0.0
 70
    32
  0
VERTEX
  5
1B1B5
  8
0
 62
     5
 10
385.478
 20
200.676
 30
0.0
 70
    32
  0
VERTEX
  5
1B1B6
  8
0
 62
     5
 10
385.476
 20
200.677
 30
0.0
 70
    32
  0
VERTEX
  5
1B1B7
  8
0
 62
     5
 10
385.474
 20
200.678
 30
0.0
 70
    32
  0
VERTEX
  5
1B1B8
  8
0
 62
     5
 10
385.472
 20
200.679
 30
0.0
 70
    32
  0
VERTEX
  5
1B1B9
  8
0
 62
     5
 10
385.47
 20
200.679
 30
0.0
 70
    32
  0
VERTEX
  5
1B1BA
  8
0
 62
     5
 10
385.468
 20
200.68
 30
0.0
 70
    32
  0
VERTEX
  5
1B1BB
  8
0
 62
     5
 10
385.466
 20
200.681
 30
0.0
 70
    32
  0
VERTEX
  5
1B1BC
  8
0
 62
     5
 10
385.464
 20
200.682
 30
0.0
 70
    32
  0
VERTEX
  5
1B1BD
  8
0
 62
     5
 10
385.462
 20
200.683
 30
0.0
 70
    32
  0
VERTEX
  5
1B1BE
  8
0
 62
     5
 10
385.46
 20
200.683
 30
0.0
 70
    32
  0
VERTEX
  5
1B1BF
  8
0
 62
     5
 10
385.458
 20
200.684
 30
0.0
 70
    32
  0
VERTEX
  5
1B1C0
  8
0
 62
     5
 10
385.456
 20
200.685
 30
0.0
 70
    32
  0
VERTEX
  5
1B1C1
  8
0
 62
     5
 10
385.454
 20
200.686
 30
0.0
 70
    32
  0
VERTEX
  5
1B1C2
  8
0
 62
     5
 10
385.452
 20
200.687
 30
0.0
 70
    32
  0
VERTEX
  5
1B1C3
  8
0
 62
     5
 10
385.45
 20
200.687
 30
0.0
 70
    32
  0
VERTEX
  5
1B1C4
  8
0
 62
     5
 10
385.448
 20
200.688
 30
0.0
 70
    32
  0
VERTEX
  5
1B1C5
  8
0
 62
     5
 10
385.446
 20
200.689
 30
0.0
 70
    32
  0
VERTEX
  5
1B1C6
  8
0
 62
     5
 10
385.444
 20
200.69
 30
0.0
 70
    32
  0
VERTEX
  5
1B1C7
  8
0
 62
     5
 10
385.442
 20
200.69
 30
0.0
 70
    32
  0
VERTEX
  5
1B1C8
  8
0
 62
     5
 10
385.44
 20
200.691
 30
0.0
 70
    32
  0
VERTEX
  5
1B1C9
  8
0
 62
     5
 10
385.438
 20
200.692
 30
0.0
 70
    32
  0
VERTEX
  5
1B1CA
  8
0
 62
     5
 10
385.436
 20
200.693
 30
0.0
 70
    32
  0
VERTEX
  5
1B1CB
  8
0
 62
     5
 10
385.434
 20
200.693
 30
0.0
 70
    32
  0
VERTEX
  5
1B1CC
  8
0
 62
     5
 10
385.432
 20
200.694
 30
0.0
 70
    32
  0
VERTEX
  5
1B1CD
  8
0
 62
     5
 10
385.43
 20
200.695
 30
0.0
 70
    32
  0
VERTEX
  5
1B1CE
  8
0
 62
     5
 10
385.428
 20
200.696
 30
0.0
 70
    32
  0
VERTEX
  5
1B1CF
  8
0
 62
     5
 10
385.426
 20
200.696
 30
0.0
 70
    32
  0
VERTEX
  5
1B1D0
  8
0
 62
     5
 10
385.424
 20
200.697
 30
0.0
 70
    32
  0
VERTEX
  5
1B1D1
  8
0
 62
     5
 10
385.422
 20
200.698
 30
0.0
 70
    32
  0
VERTEX
  5
1B1D2
  8
0
 62
     5
 10
385.42
 20
200.698
 30
0.0
 70
    32
  0
VERTEX
  5
1B1D3
  8
0
 62
     5
 10
385.418
 20
200.699
 30
0.0
 70
    32
  0
VERTEX
  5
1B1D4
  8
0
 62
     5
 10
385.416
 20
200.7
 30
0.0
 70
    32
  0
VERTEX
  5
1B1D5
  8
0
 62
     5
 10
385.414
 20
200.7
 30
0.0
 70
    32
  0
VERTEX
  5
1B1D6
  8
0
 62
     5
 10
385.412
 20
200.701
 30
0.0
 70
    32
  0
VERTEX
  5
1B1D7
  8
0
 62
     5
 10
385.41
 20
200.702
 30
0.0
 70
    32
  0
VERTEX
  5
1B1D8
  8
0
 62
     5
 10
385.408
 20
200.703
 30
0.0
 70
    32
  0
VERTEX
  5
1B1D9
  8
0
 62
     5
 10
385.406
 20
200.703
 30
0.0
 70
    32
  0
VERTEX
  5
1B1DA
  8
0
 62
     5
 10
385.404
 20
200.704
 30
0.0
 70
    32
  0
VERTEX
  5
1B1DB
  8
0
 62
     5
 10
385.402
 20
200.705
 30
0.0
 70
    32
  0
VERTEX
  5
1B1DC
  8
0
 62
     5
 10
385.4
 20
200.705
 30
0.0
 70
    32
  0
VERTEX
  5
1B1DD
  8
0
 62
     5
 10
385.398
 20
200.706
 30
0.0
 70
    32
  0
VERTEX
  5
1B1DE
  8
0
 62
     5
 10
385.396
 20
200.707
 30
0.0
 70
    32
  0
VERTEX
  5
1B1DF
  8
0
 62
     5
 10
385.394
 20
200.707
 30
0.0
 70
    32
  0
VERTEX
  5
1B1E0
  8
0
 62
     5
 10
385.392
 20
200.708
 30
0.0
 70
    32
  0
VERTEX
  5
1B1E1
  8
0
 62
     5
 10
385.39
 20
200.708
 30
0.0
 70
    32
  0
VERTEX
  5
1B1E2
  8
0
 62
     5
 10
385.388
 20
200.709
 30
0.0
 70
    32
  0
VERTEX
  5
1B1E3
  8
0
 62
     5
 10
385.386
 20
200.71
 30
0.0
 70
    32
  0
VERTEX
  5
1B1E4
  8
0
 62
     5
 10
385.384
 20
200.71
 30
0.0
 70
    32
  0
VERTEX
  5
1B1E5
  8
0
 62
     5
 10
385.382
 20
200.711
 30
0.0
 70
    32
  0
VERTEX
  5
1B1E6
  8
0
 62
     5
 10
385.38
 20
200.712
 30
0.0
 70
    32
  0
VERTEX
  5
1B1E7
  8
0
 62
     5
 10
385.378
 20
200.712
 30
0.0
 70
    32
  0
VERTEX
  5
1B1E8
  8
0
 62
     5
 10
385.376
 20
200.713
 30
0.0
 70
    32
  0
VERTEX
  5
1B1E9
  8
0
 62
     5
 10
385.374
 20
200.713
 30
0.0
 70
    32
  0
VERTEX
  5
1B1EA
  8
0
 62
     5
 10
385.372
 20
200.714
 30
0.0
 70
    32
  0
VERTEX
  5
1B1EB
  8
0
 62
     5
 10
385.37
 20
200.715
 30
0.0
 70
    32
  0
VERTEX
  5
1B1EC
  8
0
 62
     5
 10
385.368
 20
200.715
 30
0.0
 70
    32
  0
VERTEX
  5
1B1ED
  8
0
 62
     5
 10
385.366
 20
200.716
 30
0.0
 70
    32
  0
VERTEX
  5
1B1EE
  8
0
 62
     5
 10
385.364
 20
200.716
 30
0.0
 70
    32
  0
VERTEX
  5
1B1EF
  8
0
 62
     5
 10
385.362
 20
200.717
 30
0.0
 70
    32
  0
VERTEX
  5
1B1F0
  8
0
 62
     5
 10
385.359
 20
200.718
 30
0.0
 70
    32
  0
VERTEX
  5
1B1F1
  8
0
 62
     5
 10
385.357
 20
200.718
 30
0.0
 70
    32
  0
VERTEX
  5
1B1F2
  8
0
 62
     5
 10
385.355
 20
200.719
 30
0.0
 70
    32
  0
VERTEX
  5
1B1F3
  8
0
 62
     5
 10
385.353
 20
200.719
 30
0.0
 70
    32
  0
VERTEX
  5
1B1F4
  8
0
 62
     5
 10
385.351
 20
200.72
 30
0.0
 70
    32
  0
VERTEX
  5
1B1F5
  8
0
 62
     5
 10
385.349
 20
200.72
 30
0.0
 70
    32
  0
VERTEX
  5
1B1F6
  8
0
 62
     5
 10
385.347
 20
200.721
 30
0.0
 70
    32
  0
VERTEX
  5
1B1F7
  8
0
 62
     5
 10
385.345
 20
200.722
 30
0.0
 70
    32
  0
VERTEX
  5
1B1F8
  8
0
 62
     5
 10
385.343
 20
200.722
 30
0.0
 70
    32
  0
VERTEX
  5
1B1F9
  8
0
 62
     5
 10
385.341
 20
200.723
 30
0.0
 70
    32
  0
VERTEX
  5
1B1FA
  8
0
 62
     5
 10
385.339
 20
200.723
 30
0.0
 70
    32
  0
VERTEX
  5
1B1FB
  8
0
 62
     5
 10
385.337
 20
200.724
 30
0.0
 70
    32
  0
VERTEX
  5
1B1FC
  8
0
 62
     5
 10
385.335
 20
200.724
 30
0.0
 70
    32
  0
VERTEX
  5
1B1FD
  8
0
 62
     5
 10
385.333
 20
200.725
 30
0.0
 70
    32
  0
VERTEX
  5
1B1FE
  8
0
 62
     5
 10
385.331
 20
200.725
 30
0.0
 70
    32
  0
VERTEX
  5
1B1FF
  8
0
 62
     5
 10
385.329
 20
200.726
 30
0.0
 70
    32
  0
VERTEX
  5
1B200
  8
0
 62
     5
 10
385.327
 20
200.726
 30
0.0
 70
    32
  0
VERTEX
  5
1B201
  8
0
 62
     5
 10
385.325
 20
200.727
 30
0.0
 70
    32
  0
VERTEX
  5
1B202
  8
0
 62
     5
 10
385.322
 20
200.727
 30
0.0
 70
    32
  0
VERTEX
  5
1B203
  8
0
 62
     5
 10
385.32
 20
200.728
 30
0.0
 70
    32
  0
VERTEX
  5
1B204
  8
0
 62
     5
 10
385.318
 20
200.728
 30
0.0
 70
    32
  0
VERTEX
  5
1B205
  8
0
 62
     5
 10
385.316
 20
200.729
 30
0.0
 70
    32
  0
VERTEX
  5
1B206
  8
0
 62
     5
 10
385.314
 20
200.729
 30
0.0
 70
    32
  0
VERTEX
  5
1B207
  8
0
 62
     5
 10
385.312
 20
200.73
 30
0.0
 70
    32
  0
VERTEX
  5
1B208
  8
0
 62
     5
 10
385.31
 20
200.73
 30
0.0
 70
    32
  0
VERTEX
  5
1B209
  8
0
 62
     5
 10
385.308
 20
200.731
 30
0.0
 70
    32
  0
VERTEX
  5
1B20A
  8
0
 62
     5
 10
385.306
 20
200.731
 30
0.0
 70
    32
  0
VERTEX
  5
1B20B
  8
0
 62
     5
 10
385.304
 20
200.732
 30
0.0
 70
    32
  0
VERTEX
  5
1B20C
  8
0
 62
     5
 10
385.302
 20
200.732
 30
0.0
 70
    32
  0
VERTEX
  5
1B20D
  8
0
 62
     5
 10
385.3
 20
200.732
 30
0.0
 70
    32
  0
VERTEX
  5
1B20E
  8
0
 62
     5
 10
385.298
 20
200.733
 30
0.0
 70
    32
  0
VERTEX
  5
1B20F
  8
0
 62
     5
 10
385.295
 20
200.733
 30
0.0
 70
    32
  0
VERTEX
  5
1B210
  8
0
 62
     5
 10
385.293
 20
200.734
 30
0.0
 70
    32
  0
VERTEX
  5
1B211
  8
0
 62
     5
 10
385.291
 20
200.734
 30
0.0
 70
    32
  0
VERTEX
  5
1B212
  8
0
 62
     5
 10
385.289
 20
200.735
 30
0.0
 70
    32
  0
VERTEX
  5
1B213
  8
0
 62
     5
 10
385.287
 20
200.735
 30
0.0
 70
    32
  0
VERTEX
  5
1B214
  8
0
 62
     5
 10
385.285
 20
200.736
 30
0.0
 70
    32
  0
VERTEX
  5
1B215
  8
0
 62
     5
 10
385.283
 20
200.736
 30
0.0
 70
    32
  0
VERTEX
  5
1B216
  8
0
 62
     5
 10
385.281
 20
200.736
 30
0.0
 70
    32
  0
VERTEX
  5
1B217
  8
0
 62
     5
 10
385.279
 20
200.737
 30
0.0
 70
    32
  0
VERTEX
  5
1B218
  8
0
 62
     5
 10
385.277
 20
200.737
 30
0.0
 70
    32
  0
VERTEX
  5
1B219
  8
0
 62
     5
 10
385.275
 20
200.738
 30
0.0
 70
    32
  0
VERTEX
  5
1B21A
  8
0
 62
     5
 10
385.273
 20
200.738
 30
0.0
 70
    32
  0
VERTEX
  5
1B21B
  8
0
 62
     5
 10
385.27
 20
200.738
 30
0.0
 70
    32
  0
VERTEX
  5
1B21C
  8
0
 62
     5
 10
385.268
 20
200.739
 30
0.0
 70
    32
  0
VERTEX
  5
1B21D
  8
0
 62
     5
 10
385.266
 20
200.739
 30
0.0
 70
    32
  0
VERTEX
  5
1B21E
  8
0
 62
     5
 10
385.264
 20
200.74
 30
0.0
 70
    32
  0
VERTEX
  5
1B21F
  8
0
 62
     5
 10
385.262
 20
200.74
 30
0.0
 70
    32
  0
VERTEX
  5
1B220
  8
0
 62
     5
 10
385.26
 20
200.74
 30
0.0
 70
    32
  0
VERTEX
  5
1B221
  8
0
 62
     5
 10
385.258
 20
200.741
 30
0.0
 70
    32
  0
VERTEX
  5
1B222
  8
0
 62
     5
 10
385.256
 20
200.741
 30
0.0
 70
    32
  0
VERTEX
  5
1B223
  8
0
 62
     5
 10
385.254
 20
200.741
 30
0.0
 70
    32
  0
VERTEX
  5
1B224
  8
0
 62
     5
 10
385.252
 20
200.742
 30
0.0
 70
    32
  0
VERTEX
  5
1B225
  8
0
 62
     5
 10
385.249
 20
200.742
 30
0.0
 70
    32
  0
VERTEX
  5
1B226
  8
0
 62
     5
 10
385.247
 20
200.742
 30
0.0
 70
    32
  0
VERTEX
  5
1B227
  8
0
 62
     5
 10
385.245
 20
200.743
 30
0.0
 70
    32
  0
VERTEX
  5
1B228
  8
0
 62
     5
 10
385.243
 20
200.743
 30
0.0
 70
    32
  0
VERTEX
  5
1B229
  8
0
 62
     5
 10
385.241
 20
200.743
 30
0.0
 70
    32
  0
VERTEX
  5
1B22A
  8
0
 62
     5
 10
385.239
 20
200.744
 30
0.0
 70
    32
  0
VERTEX
  5
1B22B
  8
0
 62
     5
 10
385.237
 20
200.744
 30
0.0
 70
    32
  0
VERTEX
  5
1B22C
  8
0
 62
     5
 10
385.235
 20
200.744
 30
0.0
 70
    32
  0
VERTEX
  5
1B22D
  8
0
 62
     5
 10
385.233
 20
200.745
 30
0.0
 70
    32
  0
VERTEX
  5
1B22E
  8
0
 62
     5
 10
385.231
 20
200.745
 30
0.0
 70
    32
  0
VERTEX
  5
1B22F
  8
0
 62
     5
 10
385.228
 20
200.745
 30
0.0
 70
    32
  0
VERTEX
  5
1B230
  8
0
 62
     5
 10
385.226
 20
200.746
 30
0.0
 70
    32
  0
VERTEX
  5
1B231
  8
0
 62
     5
 10
385.224
 20
200.746
 30
0.0
 70
    32
  0
VERTEX
  5
1B232
  8
0
 62
     5
 10
385.222
 20
200.746
 30
0.0
 70
    32
  0
VERTEX
  5
1B233
  8
0
 62
     5
 10
385.22
 20
200.746
 30
0.0
 70
    32
  0
VERTEX
  5
1B234
  8
0
 62
     5
 10
385.218
 20
200.747
 30
0.0
 70
    32
  0
VERTEX
  5
1B235
  8
0
 62
     5
 10
385.216
 20
200.747
 30
0.0
 70
    32
  0
VERTEX
  5
1B236
  8
0
 62
     5
 10
385.214
 20
200.747
 30
0.0
 70
    32
  0
VERTEX
  5
1B237
  8
0
 62
     5
 10
385.212
 20
200.748
 30
0.0
 70
    32
  0
VERTEX
  5
1B238
  8
0
 62
     5
 10
385.209
 20
200.748
 30
0.0
 70
    32
  0
VERTEX
  5
1B239
  8
0
 62
     5
 10
385.207
 20
200.748
 30
0.0
 70
    32
  0
VERTEX
  5
1B23A
  8
0
 62
     5
 10
385.205
 20
200.748
 30
0.0
 70
    32
  0
VERTEX
  5
1B23B
  8
0
 62
     5
 10
385.203
 20
200.749
 30
0.0
 70
    32
  0
VERTEX
  5
1B23C
  8
0
 62
     5
 10
385.201
 20
200.749
 30
0.0
 70
    32
  0
VERTEX
  5
1B23D
  8
0
 62
     5
 10
385.199
 20
200.749
 30
0.0
 70
    32
  0
VERTEX
  5
1B23E
  8
0
 62
     5
 10
385.197
 20
200.749
 30
0.0
 70
    32
  0
VERTEX
  5
1B23F
  8
0
 62
     5
 10
385.195
 20
200.749
 30
0.0
 70
    32
  0
VERTEX
  5
1B240
  8
0
 62
     5
 10
385.193
 20
200.75
 30
0.0
 70
    32
  0
VERTEX
  5
1B241
  8
0
 62
     5
 10
385.19
 20
200.75
 30
0.0
 70
    32
  0
VERTEX
  5
1B242
  8
0
 62
     5
 10
385.188
 20
200.75
 30
0.0
 70
    32
  0
VERTEX
  5
1B243
  8
0
 62
     5
 10
385.186
 20
200.75
 30
0.0
 70
    32
  0
VERTEX
  5
1B244
  8
0
 62
     5
 10
385.184
 20
200.75
 30
0.0
 70
    32
  0
VERTEX
  5
1B245
  8
0
 62
     5
 10
385.182
 20
200.751
 30
0.0
 70
    32
  0
VERTEX
  5
1B246
  8
0
 62
     5
 10
385.18
 20
200.751
 30
0.0
 70
    32
  0
VERTEX
  5
1B247
  8
0
 62
     5
 10
385.178
 20
200.751
 30
0.0
 70
    32
  0
VERTEX
  5
1B248
  8
0
 62
     5
 10
385.176
 20
200.751
 30
0.0
 70
    32
  0
VERTEX
  5
1B249
  8
0
 62
     5
 10
385.173
 20
200.751
 30
0.0
 70
    32
  0
VERTEX
  5
1B24A
  8
0
 62
     5
 10
385.171
 20
200.751
 30
0.0
 70
    32
  0
VERTEX
  5
1B24B
  8
0
 62
     5
 10
385.169
 20
200.752
 30
0.0
 70
    32
  0
VERTEX
  5
1B24C
  8
0
 62
     5
 10
385.167
 20
200.752
 30
0.0
 70
    32
  0
VERTEX
  5
1B24D
  8
0
 62
     5
 10
385.165
 20
200.752
 30
0.0
 70
    32
  0
VERTEX
  5
1B24E
  8
0
 62
     5
 10
385.163
 20
200.752
 30
0.0
 70
    32
  0
VERTEX
  5
1B24F
  8
0
 62
     5
 10
385.161
 20
200.752
 30
0.0
 70
    32
  0
VERTEX
  5
1B250
  8
0
 62
     5
 10
385.159
 20
200.752
 30
0.0
 70
    32
  0
VERTEX
  5
1B251
  8
0
 62
     5
 10
385.156
 20
200.752
 30
0.0
 70
    32
  0
VERTEX
  5
1B252
  8
0
 62
     5
 10
385.154
 20
200.753
 30
0.0
 70
    32
  0
VERTEX
  5
1B253
  8
0
 62
     5
 10
385.152
 20
200.753
 30
0.0
 70
    32
  0
VERTEX
  5
1B254
  8
0
 62
     5
 10
385.15
 20
200.753
 30
0.0
 70
    32
  0
VERTEX
  5
1B255
  8
0
 62
     5
 10
385.148
 20
200.753
 30
0.0
 70
    32
  0
VERTEX
  5
1B256
  8
0
 62
     5
 10
385.146
 20
200.753
 30
0.0
 70
    32
  0
VERTEX
  5
1B257
  8
0
 62
     5
 10
385.144
 20
200.753
 30
0.0
 70
    32
  0
VERTEX
  5
1B258
  8
0
 62
     5
 10
385.142
 20
200.753
 30
0.0
 70
    32
  0
VERTEX
  5
1B259
  8
0
 62
     5
 10
385.14
 20
200.753
 30
0.0
 70
    32
  0
VERTEX
  5
1B25A
  8
0
 62
     5
 10
385.137
 20
200.753
 30
0.0
 70
    32
  0
VERTEX
  5
1B25B
  8
0
 62
     5
 10
385.135
 20
200.753
 30
0.0
 70
    32
  0
VERTEX
  5
1B25C
  8
0
 62
     5
 10
385.133
 20
200.754
 30
0.0
 70
    32
  0
VERTEX
  5
1B25D
  8
0
 62
     5
 10
385.131
 20
200.754
 30
0.0
 70
    32
  0
VERTEX
  5
1B25E
  8
0
 62
     5
 10
385.129
 20
200.754
 30
0.0
 70
    32
  0
VERTEX
  5
1B25F
  8
0
 62
     5
 10
385.127
 20
200.754
 30
0.0
 70
    32
  0
VERTEX
  5
1B260
  8
0
 62
     5
 10
385.125
 20
200.754
 30
0.0
 70
    32
  0
VERTEX
  5
1B261
  8
0
 62
     5
 10
385.123
 20
200.754
 30
0.0
 70
    32
  0
VERTEX
  5
1B262
  8
0
 62
     5
 10
385.12
 20
200.754
 30
0.0
 70
    32
  0
VERTEX
  5
1B263
  8
0
 62
     5
 10
385.118
 20
200.754
 30
0.0
 70
    32
  0
VERTEX
  5
1B264
  8
0
 62
     5
 10
385.116
 20
200.754
 30
0.0
 70
    32
  0
VERTEX
  5
1B265
  8
0
 62
     5
 10
385.114
 20
200.754
 30
0.0
 70
    32
  0
VERTEX
  5
1B266
  8
0
 62
     5
 10
385.112
 20
200.754
 30
0.0
 70
    32
  0
VERTEX
  5
1B267
  8
0
 62
     5
 10
385.11
 20
200.754
 30
0.0
 70
    32
  0
VERTEX
  5
1B268
  8
0
 62
     5
 10
385.108
 20
200.754
 30
0.0
 70
    32
  0
VERTEX
  5
1B269
  8
0
 62
     5
 10
385.105
 20
200.755
 30
0.0
 70
    32
  0
VERTEX
  5
1B26A
  8
0
 62
     5
 10
385.103
 20
200.755
 30
0.0
 70
    32
  0
VERTEX
  5
1B26B
  8
0
 62
     5
 10
385.101
 20
200.755
 30
0.0
 70
    32
  0
VERTEX
  5
1B26C
  8
0
 62
     5
 10
385.099
 20
200.755
 30
0.0
 70
    32
  0
VERTEX
  5
1B26D
  8
0
 62
     5
 10
385.097
 20
200.755
 30
0.0
 70
    32
  0
VERTEX
  5
1B26E
  8
0
 62
     5
 10
385.095
 20
200.755
 30
0.0
 70
    32
  0
VERTEX
  5
1B26F
  8
0
 62
     5
 10
385.093
 20
200.755
 30
0.0
 70
    32
  0
VERTEX
  5
1B270
  8
0
 62
     5
 10
385.091
 20
200.755
 30
0.0
 70
    32
  0
VERTEX
  5
1B271
  8
0
 62
     5
 10
385.088
 20
200.755
 30
0.0
 70
    32
  0
SEQEND
  5
1B272
  8
0
 62
     5
  0
ARC
  5
1B273
  8
0
 62
     5
 10
391.707718
 20
195.98888
 30
0.0
 40
4.5
 50
0.0
 51
90.0
  0
CIRCLE
  5
1B274
  8
0
 62
     5
 10
392.696426
 20
186.784842
 30
0.0
 40
1.25
  0
POLYLINE
  5
1B275
  8
HIDDEN
 66
     1
 10
0.0
 20
0.0
 30
0.0
 70
     2
  0
VERTEX
  5
1B276
  8
HIDDEN
 10
56.538982
 20
128.88048
 30
0.0
 42
0.023047
  0
VERTEX
  5
1B277
  8
HIDDEN
 10
56.779835
 20
127.847159
 30
0.0
 42
0.034176
 70
     1
  0
VERTEX
  5
1B278
  8
HIDDEN
 10
57.0209
 20
127.173
 30
0.0
 42
0.005073
  0
VERTEX
  5
1B279
  8
HIDDEN
 10
57.444459
 20
126.229308
 30
0.0
 42
0.024584
 70
     1
  0
VERTEX
  5
1B27A
  8
HIDDEN
 10
57.5433
 20
126.04
 30
0.0
 42
0.028781
  0
VERTEX
  5
1B27B
  8
HIDDEN
 10
57.753771
 20
125.724216
 30
0.0
 42
0.033577
 70
     1
  0
VERTEX
  5
1B27C
  8
HIDDEN
 10
57.9665
 20
125.478
 30
0.0
 42
0.049038
  0
VERTEX
  5
1B27D
  8
HIDDEN
 10
58.28774
 20
125.211186
 30
0.0
 42
0.04683
 70
     1
  0
VERTEX
  5
1B27E
  8
HIDDEN
 10
58.6711
 20
125.001
 30
0.0
 42
0.01761
  0
VERTEX
  5
1B27F
  8
HIDDEN
 10
58.848348
 20
124.931698
 30
0.0
 42
0.005257
 70
     1
  0
VERTEX
  5
1B280
  8
HIDDEN
 10
59.4519
 20
124.727
 30
0.0
 42
0.026358
  0
VERTEX
  5
1B281
  8
HIDDEN
 10
59.861774
 20
124.616311
 30
0.0
 42
0.017718
 70
     1
  0
VERTEX
  5
1B282
  8
HIDDEN
 10
60.4834
 20
124.506
 30
0.0
  0
SEQEND
  5
1B283
  8
HIDDEN
  0
POLYLINE
  5
1B284
  8
HIDDEN
 66
     1
 10
0.0
 20
0.0
 30
0.0
 70
     2
  0
VERTEX
  5
1B285
  8
HIDDEN
 10
56.1587
 20
127.271
 30
0.0
 42
0.027179
  0
VERTEX
  5
1B286
  8
HIDDEN
 10
56.208134
 20
126.666934
 30
0.0
 42
0.038192
 70
     1
  0
VERTEX
  5
1B287
  8
HIDDEN
 10
56.2991
 20
126.245
 30
0.0
 42
0.022111
  0
VERTEX
  5
1B288
  8
HIDDEN
 10
56.601225
 20
125.371232
 30
0.0
 42
0.060416
 70
     1
  0
VERTEX
  5
1B289
  8
HIDDEN
 10
56.7633
 20
125.073
 30
0.0
 42
0.064051
  0
VERTEX
  5
1B28A
  8
HIDDEN
 10
57.140711
 20
124.664953
 30
0.0
 42
0.046953
 70
     1
  0
VERTEX
  5
1B28B
  8
HIDDEN
 10
57.7642
 20
124.236
 30
0.0
 42
0.014771
  0
VERTEX
  5
1B28C
  8
HIDDEN
 10
58.362441
 20
123.925126
 30
0.0
 42
0.02589
 70
     1
  0
VERTEX
  5
1B28D
  8
HIDDEN
 10
58.7172
 20
123.776
 30
0.0
 42
0.020923
  0
VERTEX
  5
1B28E
  8
HIDDEN
 10
59.017697
 20
123.68162
 30
0.0
 42
0.007757
 70
     1
  0
VERTEX
  5
1B28F
  8
HIDDEN
 10
59.8412
 20
123.474
 30
0.0
 42
0.037407
  0
VERTEX
  5
1B290
  8
HIDDEN
 10
60.215001
 20
123.414949
 30
0.0
 42
0.021309
 70
     1
  0
VERTEX
  5
1B291
  8
HIDDEN
 10
60.87818
 20
123.38888
 30
0.0
  0
SEQEND
  5
1B292
  8
HIDDEN
  0
POLYLINE
  5
1B293
  8
HIDDEN
 66
     1
 10
0.0
 20
0.0
 30
0.0
 70
     2
  0
VERTEX
  5
1B294
  8
HIDDEN
 10
66.6795
 20
124.492
 30
0.0
 42
0.027593
  0
VERTEX
  5
1B295
  8
HIDDEN
 10
67.191756
 20
124.518555
 30
0.0
 42
0.0415
 70
     1
  0
VERTEX
  5
1B296
  8
HIDDEN
 10
67.527
 20
124.583
 30
0.0
 42
0.006092
  0
VERTEX
  5
1B297
  8
HIDDEN
 10
67.95241
 20
124.70766
 30
0.0
 42
0.01545
 70
     1
  0
VERTEX
  5
1B298
  8
HIDDEN
 10
68.1179
 20
124.764
 30
0.0
 42
0.035794
  0
VERTEX
  5
1B299
  8
HIDDEN
 10
68.55279
 20
124.963762
 30
0.0
 42
0.030898
 70
     1
  0
VERTEX
  5
1B29A
  8
HIDDEN
 10
69.0212
 20
125.26
 30
0.0
 42
0.035384
  0
VERTEX
  5
1B29B
  8
HIDDEN
 10
69.327252
 20
125.515928
 30
0.0
 42
0.035061
 70
     1
  0
VERTEX
  5
1B29C
  8
HIDDEN
 10
69.5968
 20
125.815
 30
0.0
 42
0.041163
  0
VERTEX
  5
1B29D
  8
HIDDEN
 10
69.895467
 20
126.269722
 30
0.0
 42
0.042335
 70
     1
  0
VERTEX
  5
1B29E
  8
HIDDEN
 10
70.1084
 20
126.754
 30
0.0
 42
0.015616
  0
VERTEX
  5
1B29F
  8
HIDDEN
 10
70.268223
 20
127.273606
 30
0.0
 42
0.024648
 70
     1
  0
VERTEX
  5
1B2A0
  8
HIDDEN
 10
70.3427
 20
127.61
 30
0.0
 42
0.008952
  0
VERTEX
  5
1B2A1
  8
HIDDEN
 10
70.446875
 20
128.296054
 30
0.0
 42
0.015415
 70
     1
  0
VERTEX
  5
1B2A2
  8
HIDDEN
 10
70.4879
 20
128.697
 30
0.0
 42
0.001499
  0
VERTEX
  5
1B2A3
  8
HIDDEN
 10
70.507196
 20
128.979736
 30
0.0
 42
0.000677
 70
     1
  0
VERTEX
  5
1B2A4
  8
HIDDEN
 10
70.5472
 20
129.606
 30
0.0
 42
0.003246
  0
VERTEX
  5
1B2A5
  8
HIDDEN
 10
70.550971
 20
129.673335
 30
0.0
 42
0.000961
 70
     1
  0
VERTEX
  5
1B2A6
  8
HIDDEN
 10
70.5618
 20
129.901
 30
0.0
  0
SEQEND
  5
1B2A7
  8
HIDDEN
  0
POLYLINE
  5
1B2A8
  8
HIDDEN
 66
     1
 10
0.0
 20
0.0
 30
0.0
 70
     2
  0
VERTEX
  5
1B2A9
  8
HIDDEN
 10
66.4857
 20
123.39
 30
0.0
 42
0.011107
  0
VERTEX
  5
1B2AA
  8
HIDDEN
 10
66.82354
 20
123.403923
 30
0.0
 42
0.020533
 70
     1
  0
VERTEX
  5
1B2AB
  8
HIDDEN
 10
67.0055
 20
123.423
 30
0.0
 42
0.003166
  0
VERTEX
  5
1B2AC
  8
HIDDEN
 10
67.467155
 20
123.493648
 30
0.0
 42
0.011987
 70
     1
  0
VERTEX
  5
1B2AD
  8
HIDDEN
 10
67.5885
 20
123.516
 30
0.0
 42
0.022178
  0
VERTEX
  5
1B2AE
  8
HIDDEN
 10
67.91905
 20
123.600573
 30
0.0
 42
0.022199
 70
     1
  0
VERTEX
  5
1B2AF
  8
HIDDEN
 10
68.2405
 20
123.714
 30
0.0
 42
0.015842
  0
VERTEX
  5
1B2B0
  8
HIDDEN
 10
68.493934
 20
123.825749
 30
0.0
 42
0.019275
 70
     1
  0
VERTEX
  5
1B2B1
  8
HIDDEN
 10
68.6953
 20
123.932
 30
0.0
 42
0.013682
  0
VERTEX
  5
1B2B2
  8
HIDDEN
 10
68.886268
 20
124.049459
 30
0.0
 42
0.016539
 70
     1
  0
VERTEX
  5
1B2B3
  8
HIDDEN
 10
69.0381
 20
124.156
 30
0.0
 42
0.016705
  0
VERTEX
  5
1B2B4
  8
HIDDEN
 10
69.113256
 20
124.216571
 30
0.0
 42
0.002672
 70
     1
  0
VERTEX
  5
1B2B5
  8
HIDDEN
 10
69.5679
 20
124.613
 30
0.0
 42
0.016772
  0
VERTEX
  5
1B2B6
  8
HIDDEN
 10
69.713885
 20
124.750642
 30
0.0
 42
0.008826
 70
     1
  0
VERTEX
  5
1B2B7
  8
HIDDEN
 10
69.9775
 20
125.026
 30
0.0
  0
SEQEND
  5
1B2B8
  8
HIDDEN
  0
ARC
  5
1B2B9
  8
HIDDEN
 10
160.203757
 20
136.44149
 30
0.0
 40
1.64751
 50
53.919965
 51
89.956767
  0
ARC
  5
1B2BA
  8
HIDDEN
 10
160.212374
 20
126.110085
 30
0.0
 40
1.621102
 50
269.739364
 51
306.383904
  0
POLYLINE
  5
1B2BB
  8
HIDDEN
 66
     1
 10
0.0
 20
0.0
 30
0.0
 70
     2
  0
VERTEX
  5
1B2BC
  8
HIDDEN
 10
163.737
 20
136.889
 30
0.0
 42
-0.033526
  0
VERTEX
  5
1B2BD
  8
HIDDEN
 10
163.92078
 20
136.8759
 30
0.0
 42
-0.05083
 70
     1
  0
VERTEX
  5
1B2BE
  8
HIDDEN
 10
164.039
 20
136.847
 30
0.0
 42
-0.011054
  0
VERTEX
  5
1B2BF
  8
HIDDEN
 10
164.203759
 20
136.784336
 30
0.0
 42
-0.023832
 70
     1
  0
VERTEX
  5
1B2C0
  8
HIDDEN
 10
164.278
 20
136.75
 30
0.0
 42
-0.041686
  0
VERTEX
  5
1B2C1
  8
HIDDEN
 10
164.400982
 20
136.672179
 30
0.0
 42
-0.02955
 70
     1
  0
VERTEX
  5
1B2C2
  8
HIDDEN
 10
164.557
 20
136.539
 30
0.0
 42
-0.050535
  0
VERTEX
  5
1B2C3
  8
HIDDEN
 10
164.71258
 20
136.355835
 30
0.0
 42
-0.04148
 70
     1
  0
VERTEX
  5
1B2C4
  8
HIDDEN
 10
164.858
 20
136.102
 30
0.0
 42
-0.032239
  0
VERTEX
  5
1B2C5
  8
HIDDEN
 10
165.007931
 20
135.718725
 30
0.0
 42
-0.02572
 70
     1
  0
VERTEX
  5
1B2C6
  8
HIDDEN
 10
165.139
 20
135.22
 30
0.0
 42
-0.009525
  0
VERTEX
  5
1B2C7
  8
HIDDEN
 10
165.256553
 20
134.59708
 30
0.0
 42
-0.014101
 70
     1
  0
VERTEX
  5
1B2C8
  8
HIDDEN
 10
165.316
 20
134.173
 30
0.0
 42
-0.009419
  0
VERTEX
  5
1B2C9
  8
HIDDEN
 10
165.378884
 20
133.493154
 30
0.0
 42
-0.008582
 70
     1
  0
VERTEX
  5
1B2CA
  8
HIDDEN
 10
165.421
 20
132.745
 30
0.0
 42
-0.008837
  0
VERTEX
  5
1B2CB
  8
HIDDEN
 10
165.445275
 20
131.610766
 30
0.0
 42
-0.007827
 70
     1
  0
VERTEX
  5
1B2CC
  8
HIDDEN
 10
165.43
 20
130.33
 30
0.0
 42
-0.006518
  0
VERTEX
  5
1B2CD
  8
HIDDEN
 10
165.390345
 20
129.354187
 30
0.0
 42
-0.009856
 70
     1
  0
VERTEX
  5
1B2CE
  8
HIDDEN
 10
165.343
 20
128.71
 30
0.0
 42
-0.011749
  0
VERTEX
  5
1B2CF
  8
HIDDEN
 10
165.28117
 20
128.182008
 30
0.0
 42
-0.010394
 70
     1
  0
VERTEX
  5
1B2D0
  8
HIDDEN
 10
165.184929
 20
127.58888
 30
0.0
 42
-0.014133
  0
VERTEX
  5
1B2D1
  8
HIDDEN
 10
165.10776
 20
127.226665
 30
0.0
 42
-0.013626
 70
     1
  0
VERTEX
  5
1B2D2
  8
HIDDEN
 10
165.007
 20
126.856
 30
0.0
 42
-0.030648
  0
VERTEX
  5
1B2D3
  8
HIDDEN
 10
164.896355
 20
126.556565
 30
0.0
 42
-0.033529
 70
     1
  0
VERTEX
  5
1B2D4
  8
HIDDEN
 10
164.761
 20
126.298
 30
0.0
 42
-0.035324
  0
VERTEX
  5
1B2D5
  8
HIDDEN
 10
164.642376
 20
126.131807
 30
0.0
 42
-0.037474
 70
     1
  0
VERTEX
  5
1B2D6
  8
HIDDEN
 10
164.509
 20
125.993
 30
0.0
 42
-0.035047
  0
VERTEX
  5
1B2D7
  8
HIDDEN
 10
164.343223
 20
125.864241
 30
0.0
 42
-0.048316
 70
     1
  0
VERTEX
  5
1B2D8
  8
HIDDEN
 10
164.209
 20
125.792
 30
0.0
 42
-0.022332
  0
VERTEX
  5
1B2D9
  8
HIDDEN
 10
164.131168
 20
125.763365
 30
0.0
 42
-0.011021
 70
     1
  0
VERTEX
  5
1B2DA
  8
HIDDEN
 10
163.97
 20
125.716
 30
0.0
 42
-0.037125
  0
VERTEX
  5
1B2DB
  8
HIDDEN
 10
163.881067
 20
125.698935
 30
0.0
 42
-0.023261
 70
     1
  0
VERTEX
  5
1B2DC
  8
HIDDEN
 10
163.737
 20
125.689
 30
0.0
  0
SEQEND
  5
1B2DD
  8
HIDDEN
  0
POLYLINE
  5
1B2DE
  8
HIDDEN
 66
     1
 10
0.0
 20
0.0
 30
0.0
 70
     2
  0
VERTEX
  5
1B2DF
  8
HIDDEN
 10
182.636
 20
127.793
 30
0.0
 42
0.011586
  0
VERTEX
  5
1B2E0
  8
HIDDEN
 10
183.277484
 20
126.855594
 30
0.0
 42
0.017892
 70
     1
  0
VERTEX
  5
1B2E1
  8
HIDDEN
 10
183.728
 20
126.274
 30
0.0
 42
0.001621
  0
VERTEX
  5
1B2E2
  8
HIDDEN
 10
184.436782
 20
125.429246
 30
0.0
 42
0.010076
 70
     1
  0
VERTEX
  5
1B2E3
  8
HIDDEN
 10
184.554
 20
125.296
 30
0.0
 42
0.023167
  0
VERTEX
  5
1B2E4
  8
HIDDEN
 10
184.970728
 20
124.881408
 30
0.0
 42
0.021175
 70
     1
  0
VERTEX
  5
1B2E5
  8
HIDDEN
 10
185.465
 20
124.47
 30
0.0
 42
0.025701
  0
VERTEX
  5
1B2E6
  8
HIDDEN
 10
185.942482
 20
124.143039
 30
0.0
 42
0.029876
 70
     1
  0
VERTEX
  5
1B2E7
  8
HIDDEN
 10
186.382
 20
123.909
 30
0.0
 42
0.016383
  0
VERTEX
  5
1B2E8
  8
HIDDEN
 10
186.764541
 20
123.748703
 30
0.0
 42
0.022936
 70
     1
  0
VERTEX
  5
1B2E9
  8
HIDDEN
 10
187.046
 20
123.656
 30
0.0
 42
0.015952
  0
VERTEX
  5
1B2EA
  8
HIDDEN
 10
187.50151
 20
123.54433
 30
0.0
 42
0.021807
 70
     1
  0
VERTEX
  5
1B2EB
  8
HIDDEN
 10
187.84
 20
123.488
 30
0.0
 42
0.006279
  0
VERTEX
  5
1B2EC
  8
HIDDEN
 10
188.003138
 20
123.47019
 30
0.0
 42
0.001699
 70
     1
  0
VERTEX
  5
1B2ED
  8
HIDDEN
 10
188.607
 20
123.414
 30
0.0
 42
0.010066
  0
VERTEX
  5
1B2EE
  8
HIDDEN
 10
188.769317
 20
123.402741
 30
0.0
 42
0.004694
 70
     1
  0
VERTEX
  5
1B2EF
  8
HIDDEN
 10
189.117937
 20
123.38888
 30
0.0
  0
SEQEND
  5
1B2F0
  8
HIDDEN
  0
POLYLINE
  5
1B2F1
  8
HIDDEN
 66
     1
 10
0.0
 20
0.0
 30
0.0
 70
     2
  0
VERTEX
  5
1B2F2
  8
HIDDEN
 10
368.678
 20
125.026
 30
0.0
 42
0.007406
  0
VERTEX
  5
1B2F3
  8
HIDDEN
 10
368.919533
 20
124.77452
 30
0.0
 42
0.014433
 70
     1
  0
VERTEX
  5
1B2F4
  8
HIDDEN
 10
369.049
 20
124.651
 30
0.0
 42
0.002812
  0
VERTEX
  5
1B2F5
  8
HIDDEN
 10
369.479407
 20
124.267826
 30
0.0
 42
0.013014
 70
     1
  0
VERTEX
  5
1B2F6
  8
HIDDEN
 10
369.575
 20
124.188
 30
0.0
 42
0.023814
  0
VERTEX
  5
1B2F7
  8
HIDDEN
 10
369.780811
 20
124.040413
 30
0.0
 42
0.021464
 70
     1
  0
VERTEX
  5
1B2F8
  8
HIDDEN
 10
370.023
 20
123.898
 30
0.0
 42
0.020084
  0
VERTEX
  5
1B2F9
  8
HIDDEN
 10
370.260046
 20
123.783936
 30
0.0
 42
0.016957
 70
     1
  0
VERTEX
  5
1B2FA
  8
HIDDEN
 10
370.55
 20
123.67
 30
0.0
 42
0.015046
  0
VERTEX
  5
1B2FB
  8
HIDDEN
 10
370.888522
 20
123.561408
 30
0.0
 42
0.020922
 70
     1
  0
VERTEX
  5
1B2FC
  8
HIDDEN
 10
371.137
 20
123.501
 30
0.0
 42
0.013689
  0
VERTEX
  5
1B2FD
  8
HIDDEN
 10
371.253516
 20
123.481087
 30
0.0
 42
0.003302
 70
     1
  0
VERTEX
  5
1B2FE
  8
HIDDEN
 10
371.739
 20
123.415
 30
0.0
 42
0.017714
  0
VERTEX
  5
1B2FF
  8
HIDDEN
 10
371.889193
 20
123.400951
 30
0.0
 42
0.008933
 70
     1
  0
VERTEX
  5
1B300
  8
HIDDEN
 10
372.188
 20
123.389
 30
0.0
  0
SEQEND
  5
1B301
  8
HIDDEN
  0
POLYLINE
  5
1B302
  8
HIDDEN
 66
     1
 10
0.0
 20
0.0
 30
0.0
 70
     2
  0
VERTEX
  5
1B303
  8
HIDDEN
 10
377.813
 20
123.39
 30
0.0
 42
0.017756
  0
VERTEX
  5
1B304
  8
HIDDEN
 10
378.374154
 20
123.413168
 30
0.0
 42
0.029437
 70
     1
  0
VERTEX
  5
1B305
  8
HIDDEN
 10
378.71
 20
123.459
 30
0.0
 42
0.003634
  0
VERTEX
  5
1B306
  8
HIDDEN
 10
379.321947
 20
123.584166
 30
0.0
 42
0.015002
 70
     1
  0
VERTEX
  5
1B307
  8
HIDDEN
 10
379.469
 20
123.62
 30
0.0
 42
0.021008
  0
VERTEX
  5
1B308
  8
HIDDEN
 10
379.844744
 20
123.74079
 30
0.0
 42
0.016403
 70
     1
  0
VERTEX
  5
1B309
  8
HIDDEN
 10
380.313
 20
123.931
 30
0.0
 42
0.02357
  0
VERTEX
  5
1B30A
  8
HIDDEN
 10
380.611524
 20
124.081059
 30
0.0
 42
0.013081
 70
     1
  0
VERTEX
  5
1B30B
  8
HIDDEN
 10
381.128
 20
124.39
 30
0.0
 42
0.036807
  0
VERTEX
  5
1B30C
  8
HIDDEN
 10
381.617111
 20
124.753263
 30
0.0
 42
0.06006
 70
     1
  0
VERTEX
  5
1B30D
  8
HIDDEN
 10
381.869
 20
125.03
 30
0.0
 42
0.05018
  0
VERTEX
  5
1B30E
  8
HIDDEN
 10
382.056783
 20
125.359362
 30
0.0
 42
0.033755
 70
     1
  0
VERTEX
  5
1B30F
  8
HIDDEN
 10
382.25
 20
125.888
 30
0.0
 42
0.009787
  0
VERTEX
  5
1B310
  8
HIDDEN
 10
382.41054
 20
126.48343
 30
0.0
 42
0.030851
 70
     1
  0
VERTEX
  5
1B311
  8
HIDDEN
 10
382.446
 20
126.676
 30
0.0
 42
0.005129
  0
VERTEX
  5
1B312
  8
HIDDEN
 10
382.460635
 20
126.808314
 30
0.0
 42
0.002371
 70
     1
  0
VERTEX
  5
1B313
  8
HIDDEN
 10
382.488
 20
127.095
 30
0.0
 42
0.011559
  0
VERTEX
  5
1B314
  8
HIDDEN
 10
382.494561
 20
127.19233
 30
0.0
 42
0.00573
 70
     1
  0
VERTEX
  5
1B315
  8
HIDDEN
 10
382.501
 20
127.389
 30
0.0
  0
SEQEND
  5
1B316
  8
HIDDEN
  0
LINE
  5
1B317
  8
0
 62
     5
 10
200.183518
 20
190.247969
 30
0.0
 11
239.283518
 21
190.048249
 31
0.0
  0
LINE
  5
1B318
  8
0
 62
     5
 10
200.183518
 20
150.729791
 30
0.0
 11
239.283518
 21
150.929511
 31
0.0
  0
ARC
  5
1B319
  8
0
 62
     5
 10
53.563402
 20
199.755318
 30
0.0
 40
0.999682
 50
89.982923
 51
175.588166
  0
ARC
  5
1B31A
  8
0
 62
     5
 10
43.17884
 20
189.369104
 30
0.0
 40
1.000561
 50
94.455879
 51
179.969764
  0
ARC
  5
1B31B
  8
0
 62
     5
 10
43.177481
 20
151.607399
 30
0.0
 40
0.999203
 50
179.958186
 51
265.616171
  0
ARC
  5
1B31C
  8
0
 62
     5
 10
101.710112
 20
151.608803
 30
0.0
 40
1.000496
 50
274.924661
 51
359.961366
  0
ARC
  5
1B31D
  8
0
 62
     5
 10
91.324789
 20
199.754615
 30
0.0
 40
1.00043
 50
4.448916
 51
89.976727
  0
ARC
  5
1B31E
  8
0
 62
     5
 10
101.710444
 20
189.369078
 30
0.0
 40
1.000557
 50
0.052815
 51
85.566926
  0
POLYLINE
  5
1B31F
  8
0
 62
     5
 66
     1
 10
0.0
 20
0.0
 30
0.0
 70
     2
  0
VERTEX
  5
1B320
  8
0
 62
     5
 10
153.732407
 20
198.827588
 30
0.0
 42
0.009676
  0
VERTEX
  5
1B321
  8
0
 62
     5
 10
153.65916
 20
198.528803
 30
0.0
 42
0.017648
 70
     1
  0
VERTEX
  5
1B322
  8
0
 62
     5
 10
153.628
 20
198.363
 30
0.0
 42
0.001291
  0
VERTEX
  5
1B323
  8
0
 62
     5
 10
153.570545
 20
197.977343
 30
0.0
 42
0.00764
 70
     1
  0
VERTEX
  5
1B324
  8
0
 62
     5
 10
153.562
 20
197.912
 30
0.0
 42
0.011505
  0
VERTEX
  5
1B325
  8
0
 62
     5
 10
153.545498
 20
197.732635
 30
0.0
 42
0.021445
 70
     1
  0
VERTEX
  5
1B326
  8
0
 62
     5
 10
153.543
 20
197.636
 30
0.0
 42
0.025774
  0
VERTEX
  5
1B327
  8
0
 62
     5
 10
153.546087
 20
197.59105
 30
0.0
 42
0.00615
 70
     1
  0
VERTEX
  5
1B328
  8
0
 62
     5
 10
153.571
 20
197.404
 30
0.0
 42
0.021104
  0
VERTEX
  5
1B329
  8
0
 62
     5
 10
153.580385
 20
197.354372
 30
0.0
 42
0.010666
 70
     1
  0
VERTEX
  5
1B32A
  8
0
 62
     5
 10
153.605144
 20
197.257588
 30
0.0
  0
SEQEND
  5
1B32B
  8
0
 62
     5
  0
POLYLINE
  5
1B32C
  8
0
 62
     5
 66
     1
 10
0.0
 20
0.0
 30
0.0
 70
     2
  0
VERTEX
  5
1B32D
  8
0
 62
     5
 10
153.604
 20
196.692
 30
0.0
 42
0.012119
  0
VERTEX
  5
1B32E
  8
0
 62
     5
 10
153.578448
 20
196.594693
 30
0.0
 42
0.021904
 70
     1
  0
VERTEX
  5
1B32F
  8
0
 62
     5
 10
153.568
 20
196.54
 30
0.0
 42
0.00531
  0
VERTEX
  5
1B330
  8
0
 62
     5
 10
153.547938
 20
196.391561
 30
0.0
 42
0.017785
 70
     1
  0
VERTEX
  5
1B331
  8
0
 62
     5
 10
153.544
 20
196.347
 30
0.0
 42
0.031285
  0
VERTEX
  5
1B332
  8
0
 62
     5
 10
153.545438
 20
196.202657
 30
0.0
 42
0.016703
 70
     1
  0
VERTEX
  5
1B333
  8
0
 62
     5
 10
153.574
 20
195.934
 30
0.0
 42
0.00572
  0
VERTEX
  5
1B334
  8
0
 62
     5
 10
153.585449
 20
195.858631
 30
0.0
 42
0.001389
 70
     1
  0
VERTEX
  5
1B335
  8
0
 62
     5
 10
153.637
 20
195.549
 30
0.0
 42
0.016358
  0
VERTEX
  5
1B336
  8
0
 62
     5
 10
153.666288
 20
195.404866
 30
0.0
 42
0.009106
 70
     1
  0
VERTEX
  5
1B337
  8
0
 62
     5
 10
153.732
 20
195.149
 30
0.0
  0
SEQEND
  5
1B338
  8
0
 62
     5
  0
LINE
  5
1B339
  8
0
 62
     5
 10
148.574955
 20
144.367942
 30
0.0
 11
148.599
 21
144.28
 31
0.0
  0
LINE
  5
1B33A
  8
0
 62
     5
 10
148.598951
 20
143.720172
 30
0.0
 11
148.574955
 21
143.632403
 31
0.0
  0
POLYLINE
  5
1B33B
  8
0
 62
     5
 66
     1
 10
0.0
 20
0.0
 30
0.0
 70
     2
  0
VERTEX
  5
1B33C
  8
0
 62
     5
 10
153.605144
 20
153.912918
 30
0.0
 42
0.013644
  0
VERTEX
  5
1B33D
  8
0
 62
     5
 10
153.576529
 20
153.799863
 30
0.0
 42
0.020921
 70
     1
  0
VERTEX
  5
1B33E
  8
0
 62
     5
 10
153.563
 20
153.725
 30
0.0
 42
0.002933
  0
VERTEX
  5
1B33F
  8
0
 62
     5
 10
153.548215
 20
153.612851
 30
0.0
 42
0.010698
 70
     1
  0
VERTEX
  5
1B340
  8
0
 62
     5
 10
153.545
 20
153.582
 30
0.0
 42
0.036494
  0
VERTEX
  5
1B341
  8
0
 62
     5
 10
153.543704
 20
153.445198
 30
0.0
 42
0.018232
 70
     1
  0
VERTEX
  5
1B342
  8
0
 62
     5
 10
153.571
 20
153.173
 30
0.0
 42
0.010298
  0
VERTEX
  5
1B343
  8
0
 62
     5
 10
153.588484
 20
153.062552
 30
0.0
 42
0.002386
 70
     1
  0
VERTEX
  5
1B344
  8
0
 62
     5
 10
153.676
 20
152.588
 30
0.0
 42
0.015909
  0
VERTEX
  5
1B345
  8
0
 62
     5
 10
153.70848
 20
152.442036
 30
0.0
 42
0.007891
 70
     1
  0
VERTEX
  5
1B346
  8
0
 62
     5
 10
153.787878
 20
152.151252
 30
0.0
  0
SEQEND
  5
1B347
  8
0
 62
     5
  0
POLYLINE
  5
1B348
  8
0
 62
     5
 66
     1
 10
0.0
 20
0.0
 30
0.0
 70
     2
  0
VERTEX
  5
1B349
  8
0
 62
     5
 10
153.605144
 20
154.472918
 30
0.0
 42
-0.008344
  0
VERTEX
  5
1B34A
  8
0
 62
     5
 10
153.583896
 20
154.556148
 30
0.0
 42
-0.01467
 70
     1
  0
VERTEX
  5
1B34B
  8
0
 62
     5
 10
153.574
 20
154.604
 30
0.0
 42
-0.000965
  0
VERTEX
  5
1B34C
  8
0
 62
     5
 10
153.556777
 20
154.702755
 30
0.0
 42
-0.005535
 70
     1
  0
VERTEX
  5
1B34D
  8
0
 62
     5
 10
153.554
 20
154.72
 30
0.0
 42
-0.013309
  0
VERTEX
  5
1B34E
  8
0
 62
     5
 10
153.547276
 20
154.774853
 30
0.0
 42
-0.012197
 70
     1
  0
VERTEX
  5
1B34F
  8
0
 62
     5
 10
153.543
 20
154.835
 30
0.0
 42
-0.026217
  0
VERTEX
  5
1B350
  8
0
 62
     5
 10
153.543361
 20
154.896711
 30
0.0
 42
-0.009043
 70
     1
  0
VERTEX
  5
1B351
  8
0
 62
     5
 10
153.557
 20
155.075
 30
0.0
 42
-0.010391
  0
VERTEX
  5
1B352
  8
0
 62
     5
 10
153.592511
 20
155.381841
 30
0.0
 42
-0.018804
 70
     1
  0
VERTEX
  5
1B353
  8
0
 62
     5
 10
153.622
 20
155.55
 30
0.0
 42
-0.005018
  0
VERTEX
  5
1B354
  8
0
 62
     5
 10
153.651579
 20
155.681509
 30
0.0
 42
0.002685
 70
     1
  0
VERTEX
  5
1B355
  8
0
 62
     5
 10
153.708
 20
155.927
 30
0.0
 42
0.003252
  0
VERTEX
  5
1B356
  8
0
 62
     5
 10
153.713836
 20
155.95385
 30
0.0
 42
0.000982
 70
     1
  0
VERTEX
  5
1B357
  8
0
 62
     5
 10
153.732407
 20
156.042918
 30
0.0
  0
SEQEND
  5
1B358
  8
0
 62
     5
  0
ARC
  5
1B359
  8
0
 62
     5
 10
149.182821
 20
151.35686
 30
0.0
 40
0.499352
 50
183.837807
 51
270.080038
  0
ARC
  5
1B35A
  8
0
 62
     5
 10
151.184151
 20
151.35693
 30
0.0
 40
0.499422
 50
269.927469
 51
356.154685
  0
LINE
  5
1B35B
  8
0
 62
     5
 10
148.574955
 20
187.152611
 30
0.0
 11
148.598951
 21
187.064842
 31
0.0
  0
LINE
  5
1B35C
  8
0
 62
     5
 10
148.598951
 20
186.504842
 30
0.0
 11
148.574955
 21
186.417072
 31
0.0
  0
ARC
  5
1B35D
  8
0
 62
     5
 10
91.76686
 20
137.589155
 30
0.0
 40
0.500275
 50
270.031462
 51
359.968538
  0
POLYLINE
  5
1B35E
  8
HIDDEN
 66
     1
 10
0.0
 20
0.0
 30
0.0
 70
     8
  0
VERTEX
  5
1B35F
  8
0
 10
173.614
 20
127.589
 30
0.0
 70
    32
  0
VERTEX
  5
1B360
  8
0
 10
173.667
 20
127.591
 30
0.0
 70
    32
  0
VERTEX
  5
1B361
  8
0
 10
173.72
 20
127.598
 30
0.0
 70
    32
  0
VERTEX
  5
1B362
  8
0
 10
173.773
 20
127.609
 30
0.0
 70
    32
  0
VERTEX
  5
1B363
  8
0
 10
173.825
 20
127.625
 30
0.0
 70
    32
  0
VERTEX
  5
1B364
  8
0
 10
173.877
 20
127.644
 30
0.0
 70
    32
  0
VERTEX
  5
1B365
  8
0
 10
173.928
 20
127.669
 30
0.0
 70
    32
  0
VERTEX
  5
1B366
  8
0
 10
173.978
 20
127.697
 30
0.0
 70
    32
  0
VERTEX
  5
1B367
  8
0
 10
174.027
 20
127.73
 30
0.0
 70
    32
  0
VERTEX
  5
1B368
  8
0
 10
174.076
 20
127.767
 30
0.0
 70
    32
  0
VERTEX
  5
1B369
  8
0
 10
174.123
 20
127.807
 30
0.0
 70
    32
  0
VERTEX
  5
1B36A
  8
0
 10
174.169
 20
127.852
 30
0.0
 70
    32
  0
VERTEX
  5
1B36B
  8
0
 10
174.214
 20
127.901
 30
0.0
 70
    32
  0
VERTEX
  5
1B36C
  8
0
 10
174.257
 20
127.953
 30
0.0
 70
    32
  0
VERTEX
  5
1B36D
  8
0
 10
174.299
 20
128.009
 30
0.0
 70
    32
  0
VERTEX
  5
1B36E
  8
0
 10
174.339
 20
128.068
 30
0.0
 70
    32
  0
VERTEX
  5
1B36F
  8
0
 10
174.377
 20
128.131
 30
0.0
 70
    32
  0
VERTEX
  5
1B370
  8
0
 10
174.414
 20
128.197
 30
0.0
 70
    32
  0
VERTEX
  5
1B371
  8
0
 10
174.448
 20
128.265
 30
0.0
 70
    32
  0
VERTEX
  5
1B372
  8
0
 10
174.481
 20
128.337
 30
0.0
 70
    32
  0
VERTEX
  5
1B373
  8
0
 10
174.511
 20
128.411
 30
0.0
 70
    32
  0
VERTEX
  5
1B374
  8
0
 10
174.54
 20
128.488
 30
0.0
 70
    32
  0
VERTEX
  5
1B375
  8
0
 10
174.566
 20
128.567
 30
0.0
 70
    32
  0
VERTEX
  5
1B376
  8
0
 10
174.589
 20
128.648
 30
0.0
 70
    32
  0
VERTEX
  5
1B377
  8
0
 10
174.611
 20
128.731
 30
0.0
 70
    32
  0
VERTEX
  5
1B378
  8
0
 10
174.63
 20
128.816
 30
0.0
 70
    32
  0
VERTEX
  5
1B379
  8
0
 10
174.647
 20
128.902
 30
0.0
 70
    32
  0
VERTEX
  5
1B37A
  8
0
 10
174.661
 20
128.989
 30
0.0
 70
    32
  0
VERTEX
  5
1B37B
  8
0
 10
174.672
 20
129.078
 30
0.0
 70
    32
  0
VERTEX
  5
1B37C
  8
0
 10
174.681
 20
129.168
 30
0.0
 70
    32
  0
VERTEX
  5
1B37D
  8
0
 10
174.688
 20
129.258
 30
0.0
 70
    32
  0
VERTEX
  5
1B37E
  8
0
 10
174.692
 20
129.348
 30
0.0
 70
    32
  0
VERTEX
  5
1B37F
  8
0
 10
174.693
 20
129.439
 30
0.0
 70
    32
  0
VERTEX
  5
1B380
  8
0
 10
174.692
 20
129.53
 30
0.0
 70
    32
  0
VERTEX
  5
1B381
  8
0
 10
174.688
 20
129.62
 30
0.0
 70
    32
  0
VERTEX
  5
1B382
  8
0
 10
174.681
 20
129.71
 30
0.0
 70
    32
  0
VERTEX
  5
1B383
  8
0
 10
174.672
 20
129.8
 30
0.0
 70
    32
  0
VERTEX
  5
1B384
  8
0
 10
174.661
 20
129.889
 30
0.0
 70
    32
  0
VERTEX
  5
1B385
  8
0
 10
174.647
 20
129.976
 30
0.0
 70
    32
  0
VERTEX
  5
1B386
  8
0
 10
174.63
 20
130.062
 30
0.0
 70
    32
  0
VERTEX
  5
1B387
  8
0
 10
174.611
 20
130.147
 30
0.0
 70
    32
  0
VERTEX
  5
1B388
  8
0
 10
174.589
 20
130.23
 30
0.0
 70
    32
  0
VERTEX
  5
1B389
  8
0
 10
174.566
 20
130.311
 30
0.0
 70
    32
  0
VERTEX
  5
1B38A
  8
0
 10
174.54
 20
130.39
 30
0.0
 70
    32
  0
VERTEX
  5
1B38B
  8
0
 10
174.511
 20
130.467
 30
0.0
 70
    32
  0
VERTEX
  5
1B38C
  8
0
 10
174.481
 20
130.541
 30
0.0
 70
    32
  0
VERTEX
  5
1B38D
  8
0
 10
174.448
 20
130.613
 30
0.0
 70
    32
  0
VERTEX
  5
1B38E
  8
0
 10
174.414
 20
130.681
 30
0.0
 70
    32
  0
VERTEX
  5
1B38F
  8
0
 10
174.377
 20
130.747
 30
0.0
 70
    32
  0
VERTEX
  5
1B390
  8
0
 10
174.339
 20
130.81
 30
0.0
 70
    32
  0
VERTEX
  5
1B391
  8
0
 10
174.299
 20
130.869
 30
0.0
 70
    32
  0
VERTEX
  5
1B392
  8
0
 10
174.257
 20
130.925
 30
0.0
 70
    32
  0
VERTEX
  5
1B393
  8
0
 10
174.214
 20
130.977
 30
0.0
 70
    32
  0
VERTEX
  5
1B394
  8
0
 10
174.169
 20
131.026
 30
0.0
 70
    32
  0
VERTEX
  5
1B395
  8
0
 10
174.123
 20
131.071
 30
0.0
 70
    32
  0
VERTEX
  5
1B396
  8
0
 10
174.076
 20
131.111
 30
0.0
 70
    32
  0
VERTEX
  5
1B397
  8
0
 10
174.027
 20
131.148
 30
0.0
 70
    32
  0
VERTEX
  5
1B398
  8
0
 10
173.978
 20
131.181
 30
0.0
 70
    32
  0
VERTEX
  5
1B399
  8
0
 10
173.928
 20
131.209
 30
0.0
 70
    32
  0
VERTEX
  5
1B39A
  8
0
 10
173.877
 20
131.234
 30
0.0
 70
    32
  0
VERTEX
  5
1B39B
  8
0
 10
173.825
 20
131.253
 30
0.0
 70
    32
  0
VERTEX
  5
1B39C
  8
0
 10
173.773
 20
131.269
 30
0.0
 70
    32
  0
VERTEX
  5
1B39D
  8
0
 10
173.72
 20
131.28
 30
0.0
 70
    32
  0
VERTEX
  5
1B39E
  8
0
 10
173.667
 20
131.287
 30
0.0
 70
    32
  0
VERTEX
  5
1B39F
  8
0
 10
173.614
 20
131.289
 30
0.0
 70
    32
  0
VERTEX
  5
1B3A0
  8
0
 10
173.562
 20
131.287
 30
0.0
 70
    32
  0
VERTEX
  5
1B3A1
  8
0
 10
173.509
 20
131.28
 30
0.0
 70
    32
  0
VERTEX
  5
1B3A2
  8
0
 10
173.456
 20
131.269
 30
0.0
 70
    32
  0
VERTEX
  5
1B3A3
  8
0
 10
173.404
 20
131.253
 30
0.0
 70
    32
  0
VERTEX
  5
1B3A4
  8
0
 10
173.352
 20
131.234
 30
0.0
 70
    32
  0
VERTEX
  5
1B3A5
  8
0
 10
173.301
 20
131.209
 30
0.0
 70
    32
  0
VERTEX
  5
1B3A6
  8
0
 10
173.251
 20
131.181
 30
0.0
 70
    32
  0
VERTEX
  5
1B3A7
  8
0
 10
173.202
 20
131.148
 30
0.0
 70
    32
  0
VERTEX
  5
1B3A8
  8
0
 10
173.153
 20
131.111
 30
0.0
 70
    32
  0
VERTEX
  5
1B3A9
  8
0
 10
173.106
 20
131.071
 30
0.0
 70
    32
  0
VERTEX
  5
1B3AA
  8
0
 10
173.06
 20
131.026
 30
0.0
 70
    32
  0
VERTEX
  5
1B3AB
  8
0
 10
173.015
 20
130.977
 30
0.0
 70
    32
  0
VERTEX
  5
1B3AC
  8
0
 10
172.972
 20
130.925
 30
0.0
 70
    32
  0
VERTEX
  5
1B3AD
  8
0
 10
172.93
 20
130.869
 30
0.0
 70
    32
  0
VERTEX
  5
1B3AE
  8
0
 10
172.89
 20
130.81
 30
0.0
 70
    32
  0
VERTEX
  5
1B3AF
  8
0
 10
172.852
 20
130.747
 30
0.0
 70
    32
  0
VERTEX
  5
1B3B0
  8
0
 10
172.815
 20
130.681
 30
0.0
 70
    32
  0
VERTEX
  5
1B3B1
  8
0
 10
172.781
 20
130.613
 30
0.0
 70
    32
  0
VERTEX
  5
1B3B2
  8
0
 10
172.748
 20
130.541
 30
0.0
 70
    32
  0
VERTEX
  5
1B3B3
  8
0
 10
172.718
 20
130.467
 30
0.0
 70
    32
  0
VERTEX
  5
1B3B4
  8
0
 10
172.689
 20
130.39
 30
0.0
 70
    32
  0
VERTEX
  5
1B3B5
  8
0
 10
172.663
 20
130.311
 30
0.0
 70
    32
  0
VERTEX
  5
1B3B6
  8
0
 10
172.64
 20
130.23
 30
0.0
 70
    32
  0
VERTEX
  5
1B3B7
  8
0
 10
172.618
 20
130.147
 30
0.0
 70
    32
  0
VERTEX
  5
1B3B8
  8
0
 10
172.599
 20
130.062
 30
0.0
 70
    32
  0
VERTEX
  5
1B3B9
  8
0
 10
172.582
 20
129.976
 30
0.0
 70
    32
  0
VERTEX
  5
1B3BA
  8
0
 10
172.568
 20
129.889
 30
0.0
 70
    32
  0
VERTEX
  5
1B3BB
  8
0
 10
172.557
 20
129.8
 30
0.0
 70
    32
  0
VERTEX
  5
1B3BC
  8
0
 10
172.548
 20
129.71
 30
0.0
 70
    32
  0
VERTEX
  5
1B3BD
  8
0
 10
172.541
 20
129.62
 30
0.0
 70
    32
  0
VERTEX
  5
1B3BE
  8
0
 10
172.537
 20
129.53
 30
0.0
 70
    32
  0
VERTEX
  5
1B3BF
  8
0
 10
172.536
 20
129.439
 30
0.0
 70
    32
  0
VERTEX
  5
1B3C0
  8
0
 10
172.537
 20
129.348
 30
0.0
 70
    32
  0
VERTEX
  5
1B3C1
  8
0
 10
172.541
 20
129.258
 30
0.0
 70
    32
  0
VERTEX
  5
1B3C2
  8
0
 10
172.548
 20
129.168
 30
0.0
 70
    32
  0
VERTEX
  5
1B3C3
  8
0
 10
172.557
 20
129.078
 30
0.0
 70
    32
  0
VERTEX
  5
1B3C4
  8
0
 10
172.568
 20
128.989
 30
0.0
 70
    32
  0
VERTEX
  5
1B3C5
  8
0
 10
172.582
 20
128.902
 30
0.0
 70
    32
  0
VERTEX
  5
1B3C6
  8
0
 10
172.599
 20
128.816
 30
0.0
 70
    32
  0
VERTEX
  5
1B3C7
  8
0
 10
172.618
 20
128.731
 30
0.0
 70
    32
  0
VERTEX
  5
1B3C8
  8
0
 10
172.64
 20
128.648
 30
0.0
 70
    32
  0
VERTEX
  5
1B3C9
  8
0
 10
172.663
 20
128.567
 30
0.0
 70
    32
  0
VERTEX
  5
1B3CA
  8
0
 10
172.689
 20
128.488
 30
0.0
 70
    32
  0
VERTEX
  5
1B3CB
  8
0
 10
172.718
 20
128.411
 30
0.0
 70
    32
  0
VERTEX
  5
1B3CC
  8
0
 10
172.748
 20
128.337
 30
0.0
 70
    32
  0
VERTEX
  5
1B3CD
  8
0
 10
172.781
 20
128.265
 30
0.0
 70
    32
  0
VERTEX
  5
1B3CE
  8
0
 10
172.815
 20
128.197
 30
0.0
 70
    32
  0
VERTEX
  5
1B3CF
  8
0
 10
172.852
 20
128.131
 30
0.0
 70
    32
  0
VERTEX
  5
1B3D0
  8
0
 10
172.89
 20
128.068
 30
0.0
 70
    32
  0
VERTEX
  5
1B3D1
  8
0
 10
172.93
 20
128.009
 30
0.0
 70
    32
  0
VERTEX
  5
1B3D2
  8
0
 10
172.972
 20
127.953
 30
0.0
 70
    32
  0
VERTEX
  5
1B3D3
  8
0
 10
173.015
 20
127.901
 30
0.0
 70
    32
  0
VERTEX
  5
1B3D4
  8
0
 10
173.06
 20
127.852
 30
0.0
 70
    32
  0
VERTEX
  5
1B3D5
  8
0
 10
173.106
 20
127.807
 30
0.0
 70
    32
  0
VERTEX
  5
1B3D6
  8
0
 10
173.153
 20
127.767
 30
0.0
 70
    32
  0
VERTEX
  5
1B3D7
  8
0
 10
173.202
 20
127.73
 30
0.0
 70
    32
  0
VERTEX
  5
1B3D8
  8
0
 10
173.251
 20
127.697
 30
0.0
 70
    32
  0
VERTEX
  5
1B3D9
  8
0
 10
173.301
 20
127.669
 30
0.0
 70
    32
  0
VERTEX
  5
1B3DA
  8
0
 10
173.352
 20
127.644
 30
0.0
 70
    32
  0
VERTEX
  5
1B3DB
  8
0
 10
173.404
 20
127.625
 30
0.0
 70
    32
  0
VERTEX
  5
1B3DC
  8
0
 10
173.456
 20
127.609
 30
0.0
 70
    32
  0
VERTEX
  5
1B3DD
  8
0
 10
173.509
 20
127.598
 30
0.0
 70
    32
  0
VERTEX
  5
1B3DE
  8
0
 10
173.562
 20
127.591
 30
0.0
 70
    32
  0
VERTEX
  5
1B3DF
  8
0
 10
173.614
 20
127.589
 30
0.0
 70
    32
  0
SEQEND
  5
1B3E0
  8
0
  0
POLYLINE
  5
1B3E1
  8
HIDDEN
 66
     1
 10
0.0
 20
0.0
 30
0.0
 70
     8
  0
VERTEX
  5
1B3E2
  8
HIDDEN
 10
173.614169
 20
131.291032
 30
0.0
 70
    32
  0
VERTEX
  5
1B3E3
  8
HIDDEN
 10
173.641
 20
131.29
 30
0.0
 70
    32
  0
VERTEX
  5
1B3E4
  8
HIDDEN
 10
173.693
 20
131.293
 30
0.0
 70
    32
  0
VERTEX
  5
1B3E5
  8
HIDDEN
 10
173.745
 20
131.3
 30
0.0
 70
    32
  0
VERTEX
  5
1B3E6
  8
HIDDEN
 10
173.797
 20
131.311
 30
0.0
 70
    32
  0
VERTEX
  5
1B3E7
  8
HIDDEN
 10
173.849
 20
131.327
 30
0.0
 70
    32
  0
VERTEX
  5
1B3E8
  8
HIDDEN
 10
173.899
 20
131.347
 30
0.0
 70
    32
  0
VERTEX
  5
1B3E9
  8
HIDDEN
 10
173.95
 20
131.372
 30
0.0
 70
    32
  0
VERTEX
  5
1B3EA
  8
HIDDEN
 10
173.999
 20
131.401
 30
0.0
 70
    32
  0
VERTEX
  5
1B3EB
  8
HIDDEN
 10
174.048
 20
131.434
 30
0.0
 70
    32
  0
VERTEX
  5
1B3EC
  8
HIDDEN
 10
174.095
 20
131.471
 30
0.0
 70
    32
  0
VERTEX
  5
1B3ED
  8
HIDDEN
 10
174.142
 20
131.512
 30
0.0
 70
    32
  0
VERTEX
  5
1B3EE
  8
HIDDEN
 10
174.187
 20
131.557
 30
0.0
 70
    32
  0
VERTEX
  5
1B3EF
  8
HIDDEN
 10
174.231
 20
131.606
 30
0.0
 70
    32
  0
VERTEX
  5
1B3F0
  8
HIDDEN
 10
174.273
 20
131.659
 30
0.0
 70
    32
  0
VERTEX
  5
1B3F1
  8
HIDDEN
 10
174.314
 20
131.715
 30
0.0
 70
    32
  0
VERTEX
  5
1B3F2
  8
HIDDEN
 10
174.353
 20
131.774
 30
0.0
 70
    32
  0
VERTEX
  5
1B3F3
  8
HIDDEN
 10
174.39
 20
131.837
 30
0.0
 70
    32
  0
VERTEX
  5
1B3F4
  8
HIDDEN
 10
174.426
 20
131.903
 30
0.0
 70
    32
  0
VERTEX
  5
1B3F5
  8
HIDDEN
 10
174.46
 20
131.972
 30
0.0
 70
    32
  0
VERTEX
  5
1B3F6
  8
HIDDEN
 10
174.491
 20
132.044
 30
0.0
 70
    32
  0
VERTEX
  5
1B3F7
  8
HIDDEN
 10
174.521
 20
132.118
 30
0.0
 70
    32
  0
VERTEX
  5
1B3F8
  8
HIDDEN
 10
174.548
 20
132.195
 30
0.0
 70
    32
  0
VERTEX
  5
1B3F9
  8
HIDDEN
 10
174.573
 20
132.274
 30
0.0
 70
    32
  0
VERTEX
  5
1B3FA
  8
HIDDEN
 10
174.596
 20
132.356
 30
0.0
 70
    32
  0
VERTEX
  5
1B3FB
  8
HIDDEN
 10
174.617
 20
132.439
 30
0.0
 70
    32
  0
VERTEX
  5
1B3FC
  8
HIDDEN
 10
174.635
 20
132.524
 30
0.0
 70
    32
  0
VERTEX
  5
1B3FD
  8
HIDDEN
 10
174.651
 20
132.61
 30
0.0
 70
    32
  0
VERTEX
  5
1B3FE
  8
HIDDEN
 10
174.664
 20
132.698
 30
0.0
 70
    32
  0
VERTEX
  5
1B3FF
  8
HIDDEN
 10
174.675
 20
132.786
 30
0.0
 70
    32
  0
VERTEX
  5
1B400
  8
HIDDEN
 10
174.683
 20
132.876
 30
0.0
 70
    32
  0
VERTEX
  5
1B401
  8
HIDDEN
 10
174.689
 20
132.966
 30
0.0
 70
    32
  0
VERTEX
  5
1B402
  8
HIDDEN
 10
174.692
 20
133.056
 30
0.0
 70
    32
  0
VERTEX
  5
1B403
  8
HIDDEN
 10
174.693
 20
133.147
 30
0.0
 70
    32
  0
VERTEX
  5
1B404
  8
HIDDEN
 10
174.691
 20
133.238
 30
0.0
 70
    32
  0
VERTEX
  5
1B405
  8
HIDDEN
 10
174.687
 20
133.328
 30
0.0
 70
    32
  0
VERTEX
  5
1B406
  8
HIDDEN
 10
174.679
 20
133.418
 30
0.0
 70
    32
  0
VERTEX
  5
1B407
  8
HIDDEN
 10
174.67
 20
133.508
 30
0.0
 70
    32
  0
VERTEX
  5
1B408
  8
HIDDEN
 10
174.658
 20
133.596
 30
0.0
 70
    32
  0
VERTEX
  5
1B409
  8
HIDDEN
 10
174.643
 20
133.684
 30
0.0
 70
    32
  0
VERTEX
  5
1B40A
  8
HIDDEN
 10
174.626
 20
133.77
 30
0.0
 70
    32
  0
VERTEX
  5
1B40B
  8
HIDDEN
 10
174.607
 20
133.854
 30
0.0
 70
    32
  0
VERTEX
  5
1B40C
  8
HIDDEN
 10
174.585
 20
133.937
 30
0.0
 70
    32
  0
VERTEX
  5
1B40D
  8
HIDDEN
 10
174.561
 20
134.018
 30
0.0
 70
    32
  0
VERTEX
  5
1B40E
  8
HIDDEN
 10
174.535
 20
134.097
 30
0.0
 70
    32
  0
VERTEX
  5
1B40F
  8
HIDDEN
 10
174.506
 20
134.173
 30
0.0
 70
    32
  0
VERTEX
  5
1B410
  8
HIDDEN
 10
174.475
 20
134.247
 30
0.0
 70
    32
  0
VERTEX
  5
1B411
  8
HIDDEN
 10
174.443
 20
134.319
 30
0.0
 70
    32
  0
VERTEX
  5
1B412
  8
HIDDEN
 10
174.408
 20
134.387
 30
0.0
 70
    32
  0
VERTEX
  5
1B413
  8
HIDDEN
 10
174.371
 20
134.453
 30
0.0
 70
    32
  0
VERTEX
  5
1B414
  8
HIDDEN
 10
174.333
 20
134.515
 30
0.0
 70
    32
  0
VERTEX
  5
1B415
  8
HIDDEN
 10
174.293
 20
134.574
 30
0.0
 70
    32
  0
VERTEX
  5
1B416
  8
HIDDEN
 10
174.251
 20
134.63
 30
0.0
 70
    32
  0
VERTEX
  5
1B417
  8
HIDDEN
 10
174.208
 20
134.681
 30
0.0
 70
    32
  0
VERTEX
  5
1B418
  8
HIDDEN
 10
174.164
 20
134.73
 30
0.0
 70
    32
  0
VERTEX
  5
1B419
  8
HIDDEN
 10
174.118
 20
134.774
 30
0.0
 70
    32
  0
VERTEX
  5
1B41A
  8
HIDDEN
 10
174.071
 20
134.815
 30
0.0
 70
    32
  0
VERTEX
  5
1B41B
  8
HIDDEN
 10
174.023
 20
134.851
 30
0.0
 70
    32
  0
VERTEX
  5
1B41C
  8
HIDDEN
 10
173.974
 20
134.883
 30
0.0
 70
    32
  0
VERTEX
  5
1B41D
  8
HIDDEN
 10
173.924
 20
134.911
 30
0.0
 70
    32
  0
VERTEX
  5
1B41E
  8
HIDDEN
 10
173.873
 20
134.935
 30
0.0
 70
    32
  0
VERTEX
  5
1B41F
  8
HIDDEN
 10
173.822
 20
134.955
 30
0.0
 70
    32
  0
VERTEX
  5
1B420
  8
HIDDEN
 10
173.771
 20
134.97
 30
0.0
 70
    32
  0
VERTEX
  5
1B421
  8
HIDDEN
 10
173.719
 20
134.981
 30
0.0
 70
    32
  0
VERTEX
  5
1B422
  8
HIDDEN
 10
173.666
 20
134.987
 30
0.0
 70
    32
  0
VERTEX
  5
1B423
  8
HIDDEN
 10
173.614
 20
134.989
 30
0.0
 70
    32
  0
SEQEND
  5
1B424
  8
HIDDEN
  0
ARC
  5
1B425
  8
0
 62
     5
 10
336.942341
 20
151.608941
 30
0.0
 40
1.000788
 50
180.046532
 51
222.77344
  0
ARC
  5
1B426
  8
0
 62
     5
 10
336.939554
 20
189.370153
 30
0.0
 40
0.998
 50
137.163939
 51
180.029891
  0
ARC
  5
1B427
  8
0
 62
     5
 10
395.469995
 20
189.368456
 30
0.0
 40
1.003888
 50
0.067103
 51
42.704132
  0
ARC
  5
1B428
  8
0
 62
     5
 10
395.47006
 20
151.609519
 30
0.0
 40
1.003824
 50
317.294415
 51
359.920606
  0
ARC
  5
1B429
  8
0
 62
     5
 10
385.090013
 20
141.218966
 30
0.0
 40
0.996252
 50
269.911283
 51
312.875581
  0
ARC
  5
1B42A
  8
0
 62
     5
 10
374.651519
 20
139.722401
 30
0.0
 40
0.503179
 50
90.605044
 51
179.641748
  0
ARC
  5
1B42B
  8
0
 62
     5
 10
346.885521
 20
137.5894
 30
0.0
 40
0.500521
 50
180.045839
 51
269.943383
  0
ARC
  5
1B42C
  8
0
 62
     5
 10
218.163847
 20
140.445889
 30
0.0
 40
0.035687
 50
57.540608
 51
94.621312
  0
LINE
  5
1B42D
  8
0
 62
     5
 10
218.183
 20
140.476
 30
0.0
 11
218.577
 21
140.246
 31
0.0
  0
ARC
  5
1B42E
  8
0
 62
     5
 10
219.383197
 20
139.845831
 30
0.0
 40
0.90005
 50
153.601763
 51
178.355464
  0
ARC
  5
1B42F
  8
0
 62
     5
 10
200.843154
 20
140.413433
 30
0.0
 40
0.065464
 50
96.537739
 51
142.813725
  0
ARC
  5
1B430
  8
0
 62
     5
 10
201.117556
 20
140.205832
 30
0.0
 40
0.40955
 50
142.878141
 51
163.721202
  0
ENDSEC
  0
EOF
