  0
SECTION
  2
HEADER
  9
$ACADVER
  1
AC1012
  9
$DWGCODEPAGE
  3
dos932
  9
$INSBASE
 10
-204.223222
 20
588.672058
 30
0.0
  9
$EXTMIN
 10
0.0
 20
0.0
 30
0.0
  9
$EXTMAX
 10
574.310718
 20
330.0
 30
0.0
  9
$LIMMIN
 10
0.0
 20
0.0
  9
$LIMMAX
 10
420.0
 20
297.0
  9
$ORTHOMODE
 70
     1
  9
$REGENMODE
 70
     1
  9
$FILLMODE
 70
     1
  9
$QTEXTMODE
 70
     0
  9
$MIRRTEXT
 70
     1
  9
$DRAGMODE
 70
     2
  9
$LTSCALE
 40
1.0
  9
$OSMODE
 70
    39
  9
$ATTMODE
 70
     1
  9
$TEXTSIZE
 40
2.5
  9
$TRACEWID
 40
1.0
  9
$TEXTSTYLE
  7
STANDARD
  9
$CLAYER
  8
10
  9
$CELTYPE
  6
BYLAYER
  9
$CECOLOR
 62
   256
  9
$CELTSCALE
 40
1.0
  9
$DELOBJ
 70
     1
  9
$DISPSILH
 70
     0
  9
$DIMSCALE
 40
1.0
  9
$DIMASZ
 40
2.5
  9
$DIMEXO
 40
0.625
  9
$DIMDLI
 40
3.75
  9
$DIMRND
 40
0.0
  9
$DIMDLE
 40
0.0
  9
$DIMEXE
 40
1.25
  9
$DIMTP
 40
0.0
  9
$DIMTM
 40
0.0
  9
$DIMTXT
 40
2.5
  9
$DIMCEN
 40
2.5
  9
$DIMTSZ
 40
0.0
  9
$DIMTOL
 70
     0
  9
$DIMLIM
 70
     0
  9
$DIMTIH
 70
     0
  9
$DIMTOH
 70
     0
  9
$DIMSE1
 70
     0
  9
$DIMSE2
 70
     0
  9
$DIMTAD
 70
     1
  9
$DIMZIN
 70
     8
  9
$DIMBLK
  1

  9
$DIMASO
 70
     1
  9
$DIMSHO
 70
     1
  9
$DIMPOST
  1

  9
$DIMAPOST
  1

  9
$DIMALT
 70
     0
  9
$DIMALTD
 70
     4
  9
$DIMALTF
 40
0.0394
  9
$DIMLFAC
 40
1.0
  9
$DIMTOFL
 70
     1
  9
$DIMTVP
 40
0.0
  9
$DIMTIX
 70
     0
  9
$DIMSOXD
 70
     0
  9
$DIMSAH
 70
     0
  9
$DIMBLK1
  1

  9
$DIMBLK2
  1

  9
$DIMSTYLE
  2
STANDARD
  9
$DIMCLRD
 70
   256
  9
$DIMCLRE
 70
   256
  9
$DIMCLRT
 70
   256
  9
$DIMTFAC
 40
1.0
  9
$DIMGAP
 40
0.625
  9
$DIMJUST
 70
     0
  9
$DIMSD1
 70
     0
  9
$DIMSD2
 70
     0
  9
$DIMTOLJ
 70
     1
  9
$DIMTZIN
 70
     0
  9
$DIMALTZ
 70
     0
  9
$DIMALTTZ
 70
     0
  9
$DIMFIT
 70
     0
  9
$DIMUPT
 70
     0
  9
$DIMUNIT
 70
     8
  9
$DIMDEC
 70
     4
  9
$DIMTDEC
 70
     4
  9
$DIMALTU
 70
     8
  9
$DIMALTTD
 70
     4
  9
$DIMTXSTY
  7
STANDARD
  9
$DIMAUNIT
 70
     1
  9
$LUNITS
 70
     2
  9
$LUPREC
 70
     4
  9
$SKETCHINC
 40
1.0
  9
$FILLETRAD
 40
1.0
  9
$AUNITS
 70
     0
  9
$AUPREC
 70
     0
  9
$MENU
  1
acad
  9
$ELEVATION
 40
0.0
  9
$PELEVATION
 40
0.0
  9
$THICKNESS
 40
0.0
  9
$LIMCHECK
 70
     0
  9
$BLIPMODE
 70
     0
  9
$CHAMFERA
 40
0.0
  9
$CHAMFERB
 40
0.0
  9
$CHAMFERC
 40
20.0
  9
$CHAMFERD
 40
0.0
  9
$SKPOLY
 70
     0
  9
$TDCREATE
 40
2451661.477957870
  9
$TDUPDATE
 40
2452074.697323611
  9
$TDINDWG
 40
0.9236166667
  9
$TDUSRTIMER
 40
0.9236166667
  9
$USRTIMER
 70
     1
  9
$ANGBASE
 50
0.0
  9
$ANGDIR
 70
     0
  9
$PDMODE
 70
     0
  9
$PDSIZE
 40
0.0
  9
$PLINEWID
 40
0.0
  9
$COORDS
 70
     2
  9
$SPLFRAME
 70
     0
  9
$SPLINETYPE
 70
     6
  9
$SPLINESEGS
 70
     8
  9
$ATTDIA
 70
     0
  9
$ATTREQ
 70
     1
  9
$HANDLING
 70
     1
  9
$HANDSEED
  5
14FC
  9
$SURFTAB1
 70
     6
  9
$SURFTAB2
 70
     6
  9
$SURFTYPE
 70
     6
  9
$SURFU
 70
     6
  9
$SURFV
 70
     6
  9
$UCSNAME
  2

  9
$UCSORG
 10
0.0
 20
0.0
 30
0.0
  9
$UCSXDIR
 10
1.0
 20
0.0
 30
0.0
  9
$UCSYDIR
 10
0.0
 20
1.0
 30
0.0
  9
$PUCSNAME
  2

  9
$PUCSORG
 10
0.0
 20
0.0
 30
0.0
  9
$PUCSXDIR
 10
1.0
 20
0.0
 30
0.0
  9
$PUCSYDIR
 10
0.0
 20
1.0
 30
0.0
  9
$USERI1
 70
     0
  9
$USERI2
 70
     0
  9
$USERI3
 70
     0
  9
$USERI4
 70
     0
  9
$USERI5
 70
     0
  9
$USERR1
 40
0.0
  9
$USERR2
 40
0.0
  9
$USERR3
 40
0.0
  9
$USERR4
 40
0.0
  9
$USERR5
 40
0.0
  9
$WORLDVIEW
 70
     1
  9
$SHADEDGE
 70
     3
  9
$SHADEDIF
 70
    70
  9
$TILEMODE
 70
     1
  9
$MAXACTVP
 70
    48
  9
$PINSBASE
 10
0.0
 20
0.0
 30
0.0
  9
$PLIMCHECK
 70
     0
  9
$PEXTMIN
 10
1.000000E+20
 20
1.000000E+20
 30
1.000000E+20
  9
$PEXTMAX
 10
-1.000000E+20
 20
-1.000000E+20
 30
-1.000000E+20
  9
$PLIMMIN
 10
0.0
 20
0.0
  9
$PLIMMAX
 10
420.0
 20
297.0
  9
$UNITMODE
 70
     0
  9
$VISRETAIN
 70
     1
  9
$PLINEGEN
 70
     0
  9
$PSLTSCALE
 70
     1
  9
$TREEDEPTH
 70
  3020
  9
$PICKSTYLE
 70
     1
  9
$CMLSTYLE
  2
STANDARD
  9
$CMLJUST
 70
     0
  9
$CMLSCALE
 40
20.0
  9
$SAVEIMAGES
 70
     1
  0
ENDSEC
  0
SECTION
  2
CLASSES
  0
CLASS
  1
HATCH
  2
AcDbHatch
  3
"ACAD_SEDONA"
 90
    32768
280
     0
281
     1
  0
ENDSEC
  0
SECTION
  2
TABLES
  0
TABLE
  2
VPORT
  5
12
100
AcDbSymbolTable
 70
     2
  0
VPORT
  5
14FB
100
AcDbSymbolTableRecord
100
AcDbViewportTableRecord
  2
*ACTIVE
 70
     0
 10
0.0
 20
0.0
 11
1.0
 21
1.0
 12
288.243353
 22
164.989887
 13
0.0
 23
0.0
 14
10.0
 24
10.0
 15
10.0
 25
10.0
 16
0.0
 26
0.0
 36
1.0
 17
0.0
 27
0.0
 37
0.0
 40
372.679233
 41
1.554569
 42
50.0
 43
0.0
 44
0.0
 50
0.0
 51
0.0
 71
     0
 72
   100
 73
     1
 74
     0
 75
     0
 76
     0
 77
     0
 78
     0
  0
ENDTAB
  0
TABLE
  2
LTYPE
  5
D
100
AcDbSymbolTable
 70
     4
  0
LTYPE
  5
E
100
AcDbSymbolTableRecord
100
AcDbLinetypeTableRecord
  2
BYBLOCK
 70
     0
  3

 72
    65
 73
     0
 40
0.0
  0
LTYPE
  5
F
100
AcDbSymbolTableRecord
100
AcDbLinetypeTableRecord
  2
BYLAYER
 70
     0
  3

 72
    65
 73
     0
 40
0.0
  0
LTYPE
  5
5
100
AcDbSymbolTableRecord
100
AcDbLinetypeTableRecord
  2
CONTINUOUS
 70
     0
  3
Solid line
 72
    65
 73
     0
 40
0.0
  0
LTYPE
  5
1C
100
AcDbSymbolTableRecord
100
AcDbLinetypeTableRecord
  2
CENTER
 70
     0
  3
Center ____ _ ____ _ ____ _ ____ _ ____ _ ____
 72
    65
 73
     4
 40
50.8
 49
31.75
 74
     0
 49
-6.35
 74
     0
 49
6.35
 74
     0
 49
-6.35
 74
     0
  0
LTYPE
  5
24
100
AcDbSymbolTableRecord
100
AcDbLinetypeTableRecord
  2
PHANTOM
 70
     0
  3
Phantom ______  __  __  ______  __  __  ______
 72
    65
 73
     6
 40
63.5
 49
31.75
 74
     0
 49
-6.35
 74
     0
 49
6.35
 74
     0
 49
-6.35
 74
     0
 49
6.35
 74
     0
 49
-6.35
 74
     0
  0
LTYPE
  5
441
100
AcDbSymbolTableRecord
100
AcDbLinetypeTableRecord
  2
HIDDEN
 70
     0
  3
Hidden __ __ __ __ __ __ __ __ __ __ __ __ __ _
 72
    65
 73
     2
 40
0.375
 49
0.25
 74
     0
 49
-0.125
 74
     0
  0
ENDTAB
  0
TABLE
  2
LAYER
  5
A
100
AcDbSymbolTable
 70
     8
  0
LAYER
  5
4
100
AcDbSymbolTableRecord
100
AcDbLayerTableRecord
  2
0
 70
     0
 62
     7
  6
CONTINUOUS
  0
LAYER
  5
29
100
AcDbSymbolTableRecord
100
AcDbLayerTableRecord
  2
10
 70
     0
 62
     3
  6
CONTINUOUS
  0
LAYER
  5
158
100
AcDbSymbolTableRecord
100
AcDbLayerTableRecord
  2
11
 70
     0
 62
     2
  6
CONTINUOUS
  0
LAYER
  5
33
100
AcDbSymbolTableRecord
100
AcDbLayerTableRecord
  2
12
 70
     0
 62
     7
  6
CONTINUOUS
  0
LAYER
  5
1B
100
AcDbSymbolTableRecord
100
AcDbLayerTableRecord
  2
16
 70
     0
 62
     7
  6
CENTER
  0
LAYER
  5
2F
100
AcDbSymbolTableRecord
100
AcDbLayerTableRecord
  2
17
 70
     0
 62
     6
  6
CENTER
  0
LAYER
  5
23
100
AcDbSymbolTableRecord
100
AcDbLayerTableRecord
  2
18
 70
     0
 62
     1
  6
PHANTOM
  0
LAYER
  5
20
100
AcDbSymbolTableRecord
100
AcDbLayerTableRecord
  2
19
 70
     0
 62
     2
  6
CONTINUOUS
  0
ENDTAB
  0
TABLE
  2
STYLE
  5
B
100
AcDbSymbolTable
 70
     2
  0
STYLE
  5
C
100
AcDbSymbolTableRecord
100
AcDbTextStyleTableRecord
  2
STANDARD
 70
     0
 40
0.0
 41
1.0
 50
0.0
 71
     0
 42
2.5
  3
txt
  4

  0
STYLE
  5
21
100
AcDbSymbolTableRecord
100
AcDbTextStyleTableRecord
  2
STANDARD1
 70
     0
 40
0.0
 41
1.0
 50
0.0
 71
     0
 42
3.0
  3
MONOTXT
  4
BIGFONT
  0
ENDTAB
  0
TABLE
  2
VIEW
  5
10
100
AcDbSymbolTable
 70
     0
  0
ENDTAB
  0
TABLE
  2
UCS
  5
11
100
AcDbSymbolTable
 70
     0
  0
ENDTAB
  0
TABLE
  2
APPID
  5
14
100
AcDbSymbolTable
 70
     4
  0
APPID
  5
15
100
AcDbSymbolTableRecord
100
AcDbRegAppTableRecord
  2
ACAD
 70
     0
  0
APPID
  5
359
100
AcDbSymbolTableRecord
100
AcDbRegAppTableRecord
  2
CONTENTTABDATA
 70
     0
  0
APPID
  5
35A
100
AcDbSymbolTableRecord
100
AcDbRegAppTableRecord
  2
CONTENTCURRENTTAB
 70
     0
  0
APPID
  5
448
100
AcDbSymbolTableRecord
100
AcDbRegAppTableRecord
  2
CONTENTBLOCKICON
 70
     0
  0
ENDTAB
  0
TABLE
  2
DIMSTYLE
  5
16
100
AcDbSymbolTable
 70
     1
  0
DIMSTYLE
105
1E
100
AcDbSymbolTableRecord
100
AcDbDimStyleTableRecord
  2
STANDARD
 70
     0
  3

  4

  5

  6

  7

 40
1.0
 41
2.5
 42
0.625
 43
3.75
 44
1.25
 45
0.0
 46
0.0
 47
0.0
 48
0.0
140
2.5
141
2.5
142
0.0
143
0.0394
144
1.0
145
0.0
146
1.0
147
0.625
 71
     0
 72
     0
 73
     0
 74
     0
 75
     0
 76
     0
 77
     1
 78
     8
170
     0
171
     4
172
     1
173
     0
174
     0
175
     0
176
   256
177
   256
178
   256
270
     8
271
     4
272
     4
273
     8
274
     4
340
C
275
     1
280
     0
281
     0
282
     0
283
     1
284
     0
285
     0
286
     0
287
     0
288
     0
  0
ENDTAB
  0
TABLE
  2
BLOCK_RECORD
  5
1
100
AcDbSymbolTable
 70
     0
  0
BLOCK_RECORD
  5
2
100
AcDbSymbolTableRecord
100
AcDbBlockTableRecord
  2
*MODEL_SPACE
  0
BLOCK_RECORD
  5
7
100
AcDbSymbolTableRecord
100
AcDbBlockTableRecord
  2
*PAPER_SPACE
  0
ENDTAB
  0
ENDSEC
  0
SECTION
  2
BLOCKS
  0
BLOCK
  5
3
100
AcDbEntity
  8
0
100
AcDbBlockBegin
  2
*MODEL_SPACE
 70
     0
 10
0.0
 20
0.0
 30
0.0
  3
*MODEL_SPACE
  1

  0
ENDBLK
  5
6
100
AcDbEntity
  8
0
100
AcDbBlockEnd
  0
BLOCK
  5
8
100
AcDbEntity
 67
     1
  8
0
100
AcDbBlockBegin
  2
*PAPER_SPACE
 70
     0
 10
0.0
 20
0.0
 30
0.0
  3
*PAPER_SPACE
  1

  0
ENDBLK
  5
9
100
AcDbEntity
 67
     1
  8
0
100
AcDbBlockEnd
  0
ENDSEC
  0
SECTION
  2
ENTITIES
  0
TEXT
  5
1F
100
AcDbEntity
  8
19
100
AcDbText
 10
513.819605
 20
34.094471
 30
0.0
 40
6.666667
  1
MR-J2S-500□
 50
0.000003
 41
0.835
  7
STANDARD1
100
AcDbText
  0
TEXT
  5
22F
100
AcDbEntity
  8
19
100
AcDbText
 10
513.819605
 20
18.302092
 30
0.0
 40
6.666667
  1
j2s_500a
 50
0.000003
 41
0.835
  7
STANDARD1
100
AcDbText
  0
LINE
  5
AF3
100
AcDbEntity
  8
10
100
AcDbLine
 10
474.500031
 20
40.0
 30
0.0
 11
470.000031
 21
40.0
 31
0.0
  0
LINE
  5
AF4
100
AcDbEntity
  8
10
100
AcDbLine
 10
470.000031
 20
46.5
 30
0.0
 11
474.500031
 21
46.5
 31
0.0
  0
LINE
  5
AF5
100
AcDbEntity
  8
10
100
AcDbLine
 10
470.000031
 20
41.0
 30
0.0
 11
475.000031
 21
41.0
 31
0.0
  0
LINE
  5
AF6
100
AcDbEntity
  8
10
100
AcDbLine
 10
475.000031
 20
45.5
 30
0.0
 11
470.000031
 21
45.5
 31
0.0
  0
LINE
  5
AF7
100
AcDbEntity
  8
10
100
AcDbLine
 10
470.000031
 20
289.999985
 30
0.0
 11
474.500031
 21
289.999985
 31
0.0
  0
LINE
  5
AFA
100
AcDbEntity
  8
10
100
AcDbLine
 10
102.0
 20
40.0
 30
0.0
 11
50.999969
 21
40.0
 31
0.0
  0
LINE
  5
AFD
100
AcDbEntity
  8
10
100
AcDbLine
 10
50.0
 20
137.499969
 30
0.0
 11
50.0
 21
185.999969
 31
0.0
  0
LINE
  5
AFE
100
AcDbEntity
  8
10
100
AcDbLine
 10
10.0
 20
46.499985
 30
0.0
 11
10.0
 21
289.0
 31
0.0
  0
LINE
  5
AFF
100
AcDbEntity
  8
10
100
AcDbLine
 10
50.0
 20
235.5
 30
0.0
 11
50.0
 21
128.5
 31
0.0
  0
LINE
  5
B01
100
AcDbEntity
  8
10
100
AcDbLine
 10
10.0
 20
127.499969
 30
0.0
 11
38.0
 21
127.499969
 31
0.0
  0
LINE
  5
B02
100
AcDbEntity
  8
10
100
AcDbLine
 10
10.0
 20
137.499969
 30
0.0
 11
50.0
 21
137.499969
 31
0.0
  0
LINE
  5
B03
100
AcDbEntity
  8
10
100
AcDbLine
 10
21.105728
 20
55.917664
 30
0.0
 11
12.447136
 21
57.541153
 31
0.0
  0
LINE
  5
B04
100
AcDbEntity
  8
12
100
AcDbLine
 10
10.0
 20
47.499985
 30
0.0
 11
22.0
 21
47.499985
 31
0.0
  0
LINE
  5
B05
100
AcDbEntity
  8
10
100
AcDbLine
 10
51.001068
 20
39.999985
 30
0.0
 11
20.0
 21
39.999985
 31
0.0
  0
ARC
  5
B06
100
AcDbEntity
  8
10
100
AcDbCircle
 10
13.0
 20
60.489761
 30
0.0
 40
3.0
100
AcDbArc
 50
180.000005
 51
259.380341
  0
ARC
  5
B07
100
AcDbEntity
  8
12
100
AcDbCircle
 10
16.0
 20
47.499985
 30
0.0
 40
3.0
100
AcDbArc
 50
0.0
 51
180.000005
  0
ARC
  5
B08
100
AcDbEntity
  8
10
100
AcDbCircle
 10
11.0
 20
46.499985
 30
0.0
 40
1.0
100
AcDbArc
 50
179.999995
 51
269.999997
  0
LINE
  5
B09
100
AcDbEntity
  8
12
100
AcDbLine
 10
13.0
 20
47.499985
 30
0.0
 11
13.0
 21
46.499985
 31
0.0
  0
LINE
  5
B0A
100
AcDbEntity
  8
10
100
AcDbLine
 10
12.0
 20
45.499985
 30
0.0
 11
11.0
 21
45.499985
 31
0.0
  0
ARC
  5
B0B
100
AcDbEntity
  8
12
100
AcDbCircle
 10
12.0
 20
46.499985
 30
0.0
 40
1.0
100
AcDbArc
 50
269.999997
 51
0.0
  0
LINE
  5
B0C
100
AcDbEntity
  8
12
100
AcDbLine
 10
19.0
 20
40.999985
 30
0.0
 11
19.0
 21
47.499985
 31
0.0
  0
LINE
  5
B0D
100
AcDbEntity
  8
12
100
AcDbLine
 10
16.0
 20
53.499985
 30
0.0
 11
16.0
 21
41.499985
 31
0.0
  0
ARC
  5
B0E
100
AcDbEntity
  8
12
100
AcDbCircle
 10
20.0
 20
40.999985
 30
0.0
 40
1.0
100
AcDbArc
 50
179.999995
 51
269.999997
  0
LINE
  5
B0F
100
AcDbEntity
  8
10
100
AcDbLine
 10
50.0
 20
40.999985
 30
0.0
 11
50.0
 21
76.999985
 31
0.0
  0
LINE
  5
B10
100
AcDbEntity
  8
10
100
AcDbLine
 10
50.0
 20
41.0
 30
0.0
 11
50.0
 21
128.5
 31
0.0
  0
ARC
  5
B11
100
AcDbEntity
  8
10
100
AcDbCircle
 10
51.0
 20
40.999985
 30
0.0
 40
1.0
100
AcDbArc
 50
179.999995
 51
269.999997
  0
ARC
  5
B12
100
AcDbEntity
  8
10
100
AcDbCircle
 10
50.999969
 20
41.0
 30
0.0
 40
1.0
100
AcDbArc
 50
179.999995
 51
269.999997
  0
LINE
  5
B13
100
AcDbEntity
  8
10
100
AcDbLine
 10
50.0
 20
40.999969
 30
0.0
 11
28.506805
 21
44.582184
 31
0.0
  0
ARC
  5
B14
100
AcDbEntity
  8
10
100
AcDbCircle
 10
29.0
 20
47.541367
 30
0.0
 40
3.0
100
AcDbArc
 50
180.000005
 51
260.537648
  0
ARC
  5
B15
100
AcDbEntity
  8
10
100
AcDbCircle
 10
20.0
 20
50.020432
 30
0.0
 40
6.0
100
AcDbArc
 50
0.0
 51
79.380342
  0
LINE
  5
B16
100
AcDbEntity
  8
10
100
AcDbLine
 10
26.0
 20
47.541367
 30
0.0
 11
26.0
 21
47.84198
 31
0.0
  0
LINE
  5
B17
100
AcDbEntity
  8
10
100
AcDbLine
 10
26.0
 20
47.541367
 30
0.0
 11
26.0
 21
50.020432
 31
0.0
  0
LINE
  5
B18
100
AcDbEntity
  8
10
100
AcDbLine
 10
38.0
 20
122.0
 30
0.0
 11
38.0
 21
76.999985
 31
0.0
  0
LINE
  5
B1A
100
AcDbEntity
  8
10
100
AcDbLine
 10
38.0
 20
76.999985
 30
0.0
 11
50.0
 21
76.999985
 31
0.0
  0
LINE
  5
B1D
100
AcDbEntity
  8
10
100
AcDbLine
 10
45.0
 20
114.699982
 30
0.0
 11
41.0
 21
114.699982
 31
0.0
  0
LINE
  5
B1E
100
AcDbEntity
  8
10
100
AcDbLine
 10
43.75
 20
113.399994
 30
0.0
 11
42.25
 21
113.399994
 31
0.0
  0
LINE
  5
B1F
100
AcDbEntity
  8
10
100
AcDbLine
 10
46.0
 20
115.999969
 30
0.0
 11
40.0
 21
115.999969
 31
0.0
  0
CIRCLE
  5
B20
100
AcDbEntity
  8
10
100
AcDbCircle
 10
43.0
 20
115.999969
 30
0.0
 40
4.0
  0
LINE
  5
B21
100
AcDbEntity
  8
10
100
AcDbLine
 10
38.0
 20
127.499969
 30
0.0
 11
38.0
 21
122.0
 31
0.0
  0
LINE
  5
B22
100
AcDbEntity
  8
10
100
AcDbLine
 10
43.0
 20
115.999969
 30
0.0
 11
43.0
 21
118.999969
 31
0.0
  0
LINE
  5
B27
100
AcDbEntity
  8
10
100
AcDbLine
 10
71.0
 20
121.0
 30
0.0
 11
65.0
 21
121.0
 31
0.0
  0
LINE
  5
B28
100
AcDbEntity
  8
10
100
AcDbLine
 10
65.0
 20
121.0
 30
0.0
 11
65.0
 21
122.0
 31
0.0
  0
LINE
  5
B29
100
AcDbEntity
  8
10
100
AcDbLine
 10
71.0
 20
121.0
 30
0.0
 11
71.0
 21
122.0
 31
0.0
  0
LINE
  5
B2F
100
AcDbEntity
  8
10
100
AcDbLine
 10
11.0
 20
289.999969
 30
0.0
 11
90.0
 21
289.999969
 31
0.0
  0
LINE
  5
B30
100
AcDbEntity
  8
12
100
AcDbLine
 10
10.0
 20
282.499969
 30
0.0
 11
22.0
 21
282.499969
 31
0.0
  0
LINE
  5
B31
100
AcDbEntity
  8
10
100
AcDbLine
 10
21.105728
 20
274.082294
 30
0.0
 11
12.447136
 21
272.458807
 31
0.0
  0
LINE
  5
B32
100
AcDbEntity
  8
10
100
AcDbLine
 10
10.0
 20
201.999969
 30
0.0
 11
50.0
 21
201.999969
 31
0.0
  0
ARC
  5
B33
100
AcDbEntity
  8
10
100
AcDbCircle
 10
23.711923
 20
195.5
 30
0.0
 40
5.0
100
AcDbArc
 50
180.000132
 51
269.999997
  0
ARC
  5
B34
100
AcDbEntity
  8
10
100
AcDbCircle
 10
23.711923
 20
195.5
 30
0.0
 40
11.0
100
AcDbArc
 50
239.999997
 51
269.999997
  0
ARC
  5
B35
100
AcDbEntity
  8
10
100
AcDbCircle
 10
23.711923
 20
195.5
 30
0.0
 40
8.0
100
AcDbArc
 50
180.000132
 51
269.999997
  0
LINE
  5
B36
100
AcDbEntity
  8
10
100
AcDbLine
 10
15.0
 20
192.999969
 30
0.0
 11
15.0
 21
188.999969
 31
0.0
  0
ARC
  5
B37
100
AcDbEntity
  8
10
100
AcDbCircle
 10
20.711923
 20
190.303864
 30
0.0
 40
5.0
100
AcDbArc
 50
180.000005
 51
240.000007
  0
LINE
  5
B38
100
AcDbEntity
  8
10
100
AcDbLine
 10
10.0
 20
185.999969
 30
0.0
 11
18.167027
 21
185.999969
 31
0.0
  0
LINE
  5
B39
100
AcDbEntity
  8
10
100
AcDbLine
 10
16.0
 20
187.999969
 30
0.0
 11
16.274348
 21
187.999969
 31
0.0
  0
ARC
  5
B3A
100
AcDbEntity
  8
10
100
AcDbCircle
 10
16.0
 20
188.999969
 30
0.0
 40
1.0
100
AcDbArc
 50
180.000005
 51
270.000001
  0
LINE
  5
B3B
100
AcDbEntity
  8
10
100
AcDbLine
 10
10.0
 20
193.999969
 30
0.0
 11
14.0
 21
193.999969
 31
0.0
  0
LINE
  5
B3C
100
AcDbEntity
  8
10
100
AcDbLine
 10
10.0
 20
199.999969
 30
0.0
 11
18.5
 21
199.999969
 31
0.0
  0
ARC
  5
B3D
100
AcDbEntity
  8
10
100
AcDbCircle
 10
17.211923
 20
195.5
 30
0.0
 40
1.5
100
AcDbArc
 50
0.000135
 51
180.000128
  0
ARC
  5
B3E
100
AcDbEntity
  8
10
100
AcDbCircle
 10
14.0
 20
192.999969
 30
0.0
 40
1.0
100
AcDbArc
 50
0.0
 51
90.000003
  0
LINE
  5
B3F
100
AcDbEntity
  8
10
100
AcDbLine
 10
15.711923
 20
192.5
 30
0.0
 11
15.711923
 21
190.303864
 31
0.0
  0
ARC
  5
B40
100
AcDbEntity
  8
10
100
AcDbCircle
 10
17.211923
 20
192.5
 30
0.0
 40
1.5
100
AcDbArc
 50
144.043527
 51
180.0
  0
LINE
  5
B41
100
AcDbEntity
  8
10
100
AcDbLine
 10
19.5
 20
198.999969
 30
0.0
 11
19.5
 21
192.805616
 31
0.0
  0
ARC
  5
B42
100
AcDbEntity
  8
10
100
AcDbCircle
 10
18.5
 20
198.999969
 30
0.0
 40
1.0
100
AcDbArc
 50
0.0
 51
90.000003
  0
CIRCLE
  5
B43
100
AcDbEntity
  8
12
100
AcDbCircle
 10
16.0
 20
282.499969
 30
0.0
 40
3.0
  0
ARC
  5
B44
100
AcDbEntity
  8
10
100
AcDbCircle
 10
13.0
 20
269.510191
 30
0.0
 40
3.0
100
AcDbArc
 50
100.619656
 51
180.000005
  0
ARC
  5
B45
100
AcDbEntity
  8
10
100
AcDbCircle
 10
11.0
 20
289.0
 30
0.0
 40
1.0
100
AcDbArc
 50
90.000003
 51
180.000005
  0
LINE
  5
B46
100
AcDbEntity
  8
12
100
AcDbLine
 10
16.0
 20
288.499969
 30
0.0
 11
16.0
 21
276.499969
 31
0.0
  0
LINE
  5
B48
100
AcDbEntity
  8
10
100
AcDbLine
 10
50.0
 20
289.0
 30
0.0
 11
50.0
 21
235.5
 31
0.0
  0
LINE
  5
B49
100
AcDbEntity
  8
10
100
AcDbLine
 10
23.711923
 20
190.5
 30
0.0
 11
42.461923
 21
190.5
 31
0.0
  0
LINE
  5
B4A
100
AcDbEntity
  8
10
100
AcDbLine
 10
23.711923
 20
187.5
 30
0.0
 11
42.856881
 21
187.5
 31
0.0
  0
LINE
  5
B4B
100
AcDbEntity
  8
10
100
AcDbLine
 10
23.711923
 20
184.5
 30
0.0
 11
42.461923
 21
184.5
 31
0.0
  0
LINE
  5
B4C
100
AcDbEntity
  8
10
100
AcDbLine
 10
42.461923
 20
184.5
 30
0.0
 11
50.0
 21
182.480181
 31
0.0
  0
LINE
  5
B4D
100
AcDbEntity
  8
10
100
AcDbLine
 10
42.856881
 20
187.5
 30
0.0
 11
50.0
 21
189.41399
 31
0.0
  0
LINE
  5
B4E
100
AcDbEntity
  8
10
100
AcDbLine
 10
42.856881
 20
187.5
 30
0.0
 11
50.0
 21
185.58601
 31
0.0
  0
LINE
  5
B4F
100
AcDbEntity
  8
10
100
AcDbLine
 10
48.455079
 20
185.999969
 30
0.0
 11
50.0
 21
185.999969
 31
0.0
  0
LINE
  5
B50
100
AcDbEntity
  8
10
100
AcDbLine
 10
42.461923
 20
190.5
 30
0.0
 11
50.0
 21
192.519819
 31
0.0
  0
LINE
  5
B52
100
AcDbEntity
  8
10
100
AcDbLine
 10
50.0
 20
288.999977
 30
0.0
 11
28.506805
 21
285.417771
 31
0.0
  0
ARC
  5
B53
100
AcDbEntity
  8
10
100
AcDbCircle
 10
29.0
 20
282.458589
 30
0.0
 40
3.0
100
AcDbArc
 50
99.462342
 51
180.000005
  0
LINE
  5
B54
100
AcDbEntity
  8
10
100
AcDbLine
 10
26.0
 20
282.458589
 30
0.0
 11
26.0
 21
279.979527
 31
0.0
  0
ARC
  5
B55
100
AcDbEntity
  8
10
100
AcDbCircle
 10
20.0
 20
279.979527
 30
0.0
 40
6.0
100
AcDbArc
 50
280.619658
 51
0.0
  0
LINE
  5
B56
100
AcDbEntity
  8
10
100
AcDbLine
 10
140.0
 20
153.5
 30
0.0
 11
140.0
 21
168.5
 31
0.0
  0
ARC
  5
B57
100
AcDbEntity
  8
12
100
AcDbCircle
 10
138.0
 20
46.499985
 30
0.0
 40
1.0
100
AcDbArc
 50
179.999995
 51
269.999997
  0
LINE
  5
B58
100
AcDbEntity
  8
12
100
AcDbLine
 10
128.0
 20
47.499985
 30
0.0
 11
140.0
 21
47.499985
 31
0.0
  0
LINE
  5
B59
100
AcDbEntity
  8
10
100
AcDbLine
 10
100.999969
 20
119.5
 30
0.0
 11
140.0
 21
119.5
 31
0.0
  0
LINE
  5
B5A
100
AcDbEntity
  8
10
100
AcDbLine
 10
138.999969
 20
40.0
 30
0.0
 11
102.0
 21
40.0
 31
0.0
  0
LINE
  5
B5B
100
AcDbEntity
  8
10
100
AcDbLine
 10
100.999969
 20
41.0
 30
0.0
 11
100.999969
 21
119.5
 31
0.0
  0
ARC
  5
B5C
100
AcDbEntity
  8
10
100
AcDbCircle
 10
102.0
 20
41.0
 30
0.0
 40
1.0
100
AcDbArc
 50
179.999995
 51
269.999997
  0
ARC
  5
B5D
100
AcDbEntity
  8
12
100
AcDbCircle
 10
130.0
 20
40.999985
 30
0.0
 40
1.0
100
AcDbArc
 50
269.999997
 51
0.0
  0
LINE
  5
B5E
100
AcDbEntity
  8
12
100
AcDbLine
 10
131.0
 20
47.499985
 30
0.0
 11
131.0
 21
40.999985
 31
0.0
  0
ARC
  5
B5F
100
AcDbEntity
  8
12
100
AcDbCircle
 10
134.0
 20
47.499985
 30
0.0
 40
3.0
100
AcDbArc
 50
0.0
 51
180.000005
  0
LINE
  5
B60
100
AcDbEntity
  8
12
100
AcDbLine
 10
134.0
 20
53.499985
 30
0.0
 11
134.0
 21
41.499985
 31
0.0
  0
LINE
  5
B61
100
AcDbEntity
  8
12
100
AcDbLine
 10
137.000031
 20
46.499985
 30
0.0
 11
137.000031
 21
47.499985
 31
0.0
  0
LINE
  5
B6A
100
AcDbEntity
  8
10
100
AcDbLine
 10
100.999969
 20
121.999969
 30
0.0
 11
100.999969
 21
119.5
 31
0.0
  0
LINE
  5
B6F
100
AcDbEntity
  8
10
100
AcDbLine
 10
140.0
 20
119.5
 30
0.0
 11
140.0
 21
41.0
 31
0.0
  0
ARC
  5
B70
100
AcDbEntity
  8
10
100
AcDbCircle
 10
138.999969
 20
41.0
 30
0.0
 40
1.0
100
AcDbArc
 50
269.999997
 51
0.0
  0
ARC
  5
B71
100
AcDbEntity
  8
12
100
AcDbCircle
 10
139.0
 20
46.499985
 30
0.0
 40
1.0
100
AcDbArc
 50
269.999997
 51
0.0
  0
LINE
  5
B72
100
AcDbEntity
  8
12
100
AcDbLine
 10
139.0
 20
45.499985
 30
0.0
 11
138.0
 21
45.499985
 31
0.0
  0
LINE
  5
B74
100
AcDbEntity
  8
10
100
AcDbLine
 10
140.0
 20
119.5
 30
0.0
 11
140.0
 21
133.5
 31
0.0
  0
LINE
  5
B7E
100
AcDbEntity
  8
12
100
AcDbLine
 10
128.0
 20
282.499969
 30
0.0
 11
140.0
 21
282.499969
 31
0.0
  0
LINE
  5
B82
100
AcDbEntity
  8
11
100
AcDbLine
 10
90.0
 20
249.5
 30
0.0
 11
90.0
 21
289.999969
 31
0.0
  0
LINE
  5
B86
100
AcDbEntity
  8
10
100
AcDbLine
 10
110.92569
 20
210.5
 30
0.0
 11
107.262268
 21
210.5
 31
0.0
  0
LINE
  5
B87
100
AcDbEntity
  8
10
100
AcDbLine
 10
107.262268
 20
175.5
 30
0.0
 11
110.92569
 21
175.5
 31
0.0
  0
LINE
  5
B88
100
AcDbEntity
  8
10
100
AcDbLine
 10
107.262268
 20
212.5
 30
0.0
 11
110.92569
 21
212.5
 31
0.0
  0
LINE
  5
B8B
100
AcDbEntity
  8
10
100
AcDbLine
 10
102.599976
 20
246.5
 30
0.0
 11
102.599976
 21
213.5
 31
0.0
  0
LINE
  5
B8C
100
AcDbEntity
  8
10
100
AcDbLine
 10
104.600006
 20
212.5
 30
0.0
 11
104.600006
 21
247.5
 31
0.0
  0
LINE
  5
B8D
100
AcDbEntity
  8
10
100
AcDbLine
 10
90.0
 20
168.5
 30
0.0
 11
90.0
 21
249.5
 31
0.0
  0
LINE
  5
B93
100
AcDbEntity
  8
10
100
AcDbLine
 10
90.0
 20
166.999969
 30
0.0
 11
90.0
 21
168.5
 31
0.0
  0
LINE
  5
B96
100
AcDbEntity
  8
10
100
AcDbLine
 10
102.599976
 20
209.5
 30
0.0
 11
102.599976
 21
176.5
 31
0.0
  0
LINE
  5
B97
100
AcDbEntity
  8
10
100
AcDbLine
 10
104.600006
 20
175.5
 30
0.0
 11
104.600006
 21
210.5
 31
0.0
  0
LINE
  5
B9B
100
AcDbEntity
  8
10
100
AcDbLine
 10
103.599976
 20
175.5
 30
0.0
 11
107.262268
 21
175.5
 31
0.0
  0
LINE
  5
B9C
100
AcDbEntity
  8
10
100
AcDbLine
 10
102.624207
 20
176.28125
 30
0.0
 11
102.599976
 21
176.5
 31
0.0
  0
LINE
  5
B9D
100
AcDbEntity
  8
10
100
AcDbLine
 10
102.674896
 20
176.120514
 30
0.0
 11
102.624207
 21
176.28125
 31
0.0
  0
LINE
  5
B9E
100
AcDbEntity
  8
10
100
AcDbLine
 10
102.751648
 20
175.97052
 30
0.0
 11
102.674896
 21
176.120514
 31
0.0
  0
LINE
  5
B9F
100
AcDbEntity
  8
10
100
AcDbLine
 10
102.852753
 20
175.835571
 30
0.0
 11
102.751648
 21
175.97052
 31
0.0
  0
LINE
  5
BA0
100
AcDbEntity
  8
10
100
AcDbLine
 10
102.974915
 20
175.719421
 30
0.0
 11
102.852753
 21
175.835571
 31
0.0
  0
LINE
  5
BA1
100
AcDbEntity
  8
10
100
AcDbLine
 10
103.115021
 20
175.62558
 30
0.0
 11
102.974915
 21
175.719421
 31
0.0
  0
LINE
  5
BA2
100
AcDbEntity
  8
10
100
AcDbLine
 10
103.268768
 20
175.556427
 30
0.0
 11
103.115021
 21
175.62558
 31
0.0
  0
LINE
  5
BA3
100
AcDbEntity
  8
10
100
AcDbLine
 10
103.432007
 20
175.514313
 30
0.0
 11
103.268768
 21
175.556427
 31
0.0
  0
LINE
  5
BA4
100
AcDbEntity
  8
10
100
AcDbLine
 10
103.599976
 20
175.5
 30
0.0
 11
103.432007
 21
175.514313
 31
0.0
  0
LINE
  5
BA5
100
AcDbEntity
  8
10
100
AcDbLine
 10
107.262268
 20
210.5
 30
0.0
 11
103.599976
 21
210.5
 31
0.0
  0
LINE
  5
BA6
100
AcDbEntity
  8
10
100
AcDbLine
 10
103.599976
 20
212.5
 30
0.0
 11
107.262268
 21
212.5
 31
0.0
  0
LINE
  5
BA7
100
AcDbEntity
  8
10
100
AcDbLine
 10
102.624207
 20
213.281219
 30
0.0
 11
102.599976
 21
213.5
 31
0.0
  0
LINE
  5
BA8
100
AcDbEntity
  8
10
100
AcDbLine
 10
102.674896
 20
213.120514
 30
0.0
 11
102.624207
 21
213.281219
 31
0.0
  0
LINE
  5
BA9
100
AcDbEntity
  8
10
100
AcDbLine
 10
102.751648
 20
212.97052
 30
0.0
 11
102.674896
 21
213.120514
 31
0.0
  0
LINE
  5
BAA
100
AcDbEntity
  8
10
100
AcDbLine
 10
102.852753
 20
212.835602
 30
0.0
 11
102.751648
 21
212.97052
 31
0.0
  0
LINE
  5
BAB
100
AcDbEntity
  8
10
100
AcDbLine
 10
102.974915
 20
212.719421
 30
0.0
 11
102.852753
 21
212.835602
 31
0.0
  0
LINE
  5
BAC
100
AcDbEntity
  8
10
100
AcDbLine
 10
103.115021
 20
212.62558
 30
0.0
 11
102.974915
 21
212.719421
 31
0.0
  0
LINE
  5
BAD
100
AcDbEntity
  8
10
100
AcDbLine
 10
103.268768
 20
212.556458
 30
0.0
 11
103.115021
 21
212.62558
 31
0.0
  0
LINE
  5
BAE
100
AcDbEntity
  8
10
100
AcDbLine
 10
103.432007
 20
212.514313
 30
0.0
 11
103.268768
 21
212.556458
 31
0.0
  0
LINE
  5
BAF
100
AcDbEntity
  8
10
100
AcDbLine
 10
103.599976
 20
212.5
 30
0.0
 11
103.432007
 21
212.514313
 31
0.0
  0
LINE
  5
BB0
100
AcDbEntity
  8
10
100
AcDbLine
 10
103.37973
 20
210.475433
 30
0.0
 11
103.599976
 21
210.5
 31
0.0
  0
LINE
  5
BB1
100
AcDbEntity
  8
10
100
AcDbLine
 10
103.219147
 20
210.42453
 30
0.0
 11
103.37973
 21
210.475433
 31
0.0
  0
LINE
  5
BB2
100
AcDbEntity
  8
10
100
AcDbLine
 10
103.069275
 20
210.347565
 30
0.0
 11
103.219147
 21
210.42453
 31
0.0
  0
LINE
  5
BB3
100
AcDbEntity
  8
10
100
AcDbLine
 10
102.934692
 20
210.246429
 30
0.0
 11
103.069275
 21
210.347565
 31
0.0
  0
LINE
  5
BB4
100
AcDbEntity
  8
10
100
AcDbLine
 10
102.818817
 20
210.124298
 30
0.0
 11
102.934692
 21
210.246429
 31
0.0
  0
LINE
  5
BB5
100
AcDbEntity
  8
10
100
AcDbLine
 10
102.72522
 20
209.984375
 30
0.0
 11
102.818817
 21
210.124298
 31
0.0
  0
LINE
  5
BB6
100
AcDbEntity
  8
10
100
AcDbLine
 10
102.656281
 20
209.83078
 30
0.0
 11
102.72522
 21
209.984375
 31
0.0
  0
LINE
  5
BB7
100
AcDbEntity
  8
10
100
AcDbLine
 10
102.614258
 20
209.667755
 30
0.0
 11
102.656281
 21
209.83078
 31
0.0
  0
LINE
  5
BB8
100
AcDbEntity
  8
10
100
AcDbLine
 10
102.599976
 20
209.5
 30
0.0
 11
102.614258
 21
209.667755
 31
0.0
  0
LINE
  5
BBA
100
AcDbEntity
  8
11
100
AcDbLine
 10
140.0
 20
249.5
 30
0.0
 11
90.0
 21
249.5
 31
0.0
  0
LINE
  5
BC8
100
AcDbEntity
  8
10
100
AcDbLine
 10
90.0
 20
245.5
 30
0.0
 11
99.999969
 21
245.5
 31
0.0
  0
LINE
  5
BD2
100
AcDbEntity
  8
10
100
AcDbLine
 10
100.999969
 20
246.5
 30
0.0
 11
100.999969
 21
249.5
 31
0.0
  0
LINE
  5
BDD
100
AcDbEntity
  8
10
100
AcDbLine
 10
133.899963
 20
213.5
 30
0.0
 11
133.899963
 21
246.5
 31
0.0
  0
LINE
  5
BDE
100
AcDbEntity
  8
10
100
AcDbLine
 10
120.399963
 20
212.5
 30
0.0
 11
120.399963
 21
247.5
 31
0.0
  0
LINE
  5
BDF
100
AcDbEntity
  8
10
100
AcDbLine
 10
116.099976
 20
247.5
 30
0.0
 11
116.099976
 21
212.5
 31
0.0
  0
LINE
  5
BE0
100
AcDbEntity
  8
10
100
AcDbLine
 10
131.899963
 20
247.5
 30
0.0
 11
131.899963
 21
212.5
 31
0.0
  0
LINE
  5
BE2
100
AcDbEntity
  8
10
100
AcDbLine
 10
125.580078
 20
210.5
 30
0.0
 11
121.917511
 21
210.5
 31
0.0
  0
LINE
  5
BE3
100
AcDbEntity
  8
10
100
AcDbLine
 10
121.917511
 20
175.5
 30
0.0
 11
125.580078
 21
175.5
 31
0.0
  0
LINE
  5
BE4
100
AcDbEntity
  8
10
100
AcDbLine
 10
121.917511
 20
212.5
 30
0.0
 11
125.580078
 21
212.5
 31
0.0
  0
LINE
  5
BE5
100
AcDbEntity
  8
10
100
AcDbLine
 10
120.399963
 20
175.5
 30
0.0
 11
120.399963
 21
210.5
 31
0.0
  0
LINE
  5
BE6
100
AcDbEntity
  8
10
100
AcDbLine
 10
116.099976
 20
210.5
 30
0.0
 11
116.099976
 21
175.5
 31
0.0
  0
LINE
  5
BE8
100
AcDbEntity
  8
10
100
AcDbLine
 10
114.589783
 20
175.5
 30
0.0
 11
118.253876
 21
175.5
 31
0.0
  0
LINE
  5
BEA
100
AcDbEntity
  8
10
100
AcDbLine
 10
110.92569
 20
175.5
 30
0.0
 11
114.589783
 21
175.5
 31
0.0
  0
LINE
  5
BEC
100
AcDbEntity
  8
10
100
AcDbLine
 10
118.253876
 20
175.5
 30
0.0
 11
121.917511
 21
175.5
 31
0.0
  0
LINE
  5
BED
100
AcDbEntity
  8
10
100
AcDbLine
 10
118.253876
 20
210.5
 30
0.0
 11
114.589783
 21
210.5
 31
0.0
  0
LINE
  5
BEE
100
AcDbEntity
  8
10
100
AcDbLine
 10
114.589783
 20
212.5
 30
0.0
 11
118.253876
 21
212.5
 31
0.0
  0
LINE
  5
BEF
100
AcDbEntity
  8
10
100
AcDbLine
 10
114.589783
 20
210.5
 30
0.0
 11
110.92569
 21
210.5
 31
0.0
  0
LINE
  5
BF0
100
AcDbEntity
  8
10
100
AcDbLine
 10
110.92569
 20
212.5
 30
0.0
 11
114.589783
 21
212.5
 31
0.0
  0
LINE
  5
BF1
100
AcDbEntity
  8
10
100
AcDbLine
 10
121.917511
 20
210.5
 30
0.0
 11
118.253876
 21
210.5
 31
0.0
  0
LINE
  5
BF2
100
AcDbEntity
  8
10
100
AcDbLine
 10
118.253876
 20
212.5
 30
0.0
 11
121.917511
 21
212.5
 31
0.0
  0
LINE
  5
BF3
100
AcDbEntity
  8
10
100
AcDbLine
 10
133.899963
 20
176.5
 30
0.0
 11
133.899963
 21
209.5
 31
0.0
  0
LINE
  5
BF4
100
AcDbEntity
  8
10
100
AcDbLine
 10
131.899963
 20
210.5
 30
0.0
 11
131.899963
 21
175.5
 31
0.0
  0
LINE
  5
BF6
100
AcDbEntity
  8
10
100
AcDbLine
 10
129.241089
 20
175.5
 30
0.0
 11
132.899994
 21
175.5
 31
0.0
  0
LINE
  5
BF7
100
AcDbEntity
  8
10
100
AcDbLine
 10
126.983612
 20
174.08963
 30
0.0
 11
126.621002
 21
174.200134
 31
0.0
  0
LINE
  5
BF8
100
AcDbEntity
  8
10
100
AcDbLine
 10
126.667419
 20
169.810303
 30
0.0
 11
127.027863
 21
169.928589
 31
0.0
  0
LINE
  5
BFA
100
AcDbEntity
  8
10
100
AcDbLine
 10
125.580078
 20
175.5
 30
0.0
 11
129.241089
 21
175.5
 31
0.0
  0
LINE
  5
BFB
100
AcDbEntity
  8
10
100
AcDbLine
 10
126.38681
 20
174.237457
 30
0.0
 11
126.149994
 21
174.25
 31
0.0
  0
LINE
  5
BFC
100
AcDbEntity
  8
10
100
AcDbLine
 10
126.621002
 20
174.200134
 30
0.0
 11
126.38681
 21
174.237457
 31
0.0
  0
LINE
  5
BFD
100
AcDbEntity
  8
10
100
AcDbLine
 10
126.292358
 20
169.75473
 30
0.0
 11
126.667419
 21
169.810303
 31
0.0
  0
LINE
  5
BFE
100
AcDbEntity
  8
10
100
AcDbLine
 10
125.913269
 20
169.762512
 30
0.0
 11
126.292358
 21
169.75473
 31
0.0
  0
LINE
  5
BFF
100
AcDbEntity
  8
10
100
AcDbLine
 10
125.541077
 20
169.834198
 30
0.0
 11
125.913269
 21
169.762512
 31
0.0
  0
LINE
  5
C00
100
AcDbEntity
  8
10
100
AcDbLine
 10
125.186066
 20
169.966949
 30
0.0
 11
125.541077
 21
169.834198
 31
0.0
  0
LINE
  5
C01
100
AcDbEntity
  8
10
100
AcDbLine
 10
124.858704
 20
170.157715
 30
0.0
 11
125.186066
 21
169.966949
 31
0.0
  0
LINE
  5
C02
100
AcDbEntity
  8
10
100
AcDbLine
 10
124.567688
 20
170.40036
 30
0.0
 11
124.858704
 21
170.157715
 31
0.0
  0
LINE
  5
C03
100
AcDbEntity
  8
10
100
AcDbLine
 10
124.321899
 20
170.68869
 30
0.0
 11
124.567688
 21
170.40036
 31
0.0
  0
LINE
  5
C04
100
AcDbEntity
  8
10
100
AcDbLine
 10
124.127563
 20
171.013916
 30
0.0
 11
124.321899
 21
170.68869
 31
0.0
  0
LINE
  5
C05
100
AcDbEntity
  8
10
100
AcDbLine
 10
123.990997
 20
171.36734
 30
0.0
 11
124.127563
 21
171.013916
 31
0.0
  0
LINE
  5
C06
100
AcDbEntity
  8
10
100
AcDbLine
 10
123.915222
 20
171.738586
 30
0.0
 11
123.990997
 21
171.36734
 31
0.0
  0
LINE
  5
C07
100
AcDbEntity
  8
10
100
AcDbLine
 10
123.90329
 20
172.117371
 30
0.0
 11
123.915222
 21
171.738586
 31
0.0
  0
LINE
  5
C08
100
AcDbEntity
  8
10
100
AcDbLine
 10
123.95462
 20
172.492859
 30
0.0
 11
123.90329
 21
172.117371
 31
0.0
  0
LINE
  5
C09
100
AcDbEntity
  8
10
100
AcDbLine
 10
124.068756
 20
172.85437
 30
0.0
 11
123.95462
 21
172.492859
 31
0.0
  0
LINE
  5
C0A
100
AcDbEntity
  8
10
100
AcDbLine
 10
124.241516
 20
173.191772
 30
0.0
 11
124.068756
 21
172.85437
 31
0.0
  0
LINE
  5
C0B
100
AcDbEntity
  8
10
100
AcDbLine
 10
124.468994
 20
173.495209
 30
0.0
 11
124.241516
 21
173.191772
 31
0.0
  0
LINE
  5
C0C
100
AcDbEntity
  8
10
100
AcDbLine
 10
124.743835
 20
173.7565
 30
0.0
 11
124.468994
 21
173.495209
 31
0.0
  0
LINE
  5
C0D
100
AcDbEntity
  8
10
100
AcDbLine
 10
125.059021
 20
173.96756
 30
0.0
 11
124.743835
 21
173.7565
 31
0.0
  0
LINE
  5
C0E
100
AcDbEntity
  8
10
100
AcDbLine
 10
125.404938
 20
174.123047
 30
0.0
 11
125.059021
 21
173.96756
 31
0.0
  0
LINE
  5
C0F
100
AcDbEntity
  8
10
100
AcDbLine
 10
125.772156
 20
174.217834
 30
0.0
 11
125.404938
 21
174.123047
 31
0.0
  0
LINE
  5
C10
100
AcDbEntity
  8
10
100
AcDbLine
 10
126.149994
 20
174.25
 30
0.0
 11
125.772156
 21
174.217834
 31
0.0
  0
LINE
  5
C11
100
AcDbEntity
  8
10
100
AcDbLine
 10
127.322723
 20
173.920197
 30
0.0
 11
126.983612
 21
174.08963
 31
0.0
  0
LINE
  5
C12
100
AcDbEntity
  8
10
100
AcDbLine
 10
127.628082
 20
173.696075
 30
0.0
 11
127.322723
 21
173.920197
 31
0.0
  0
LINE
  5
C13
100
AcDbEntity
  8
10
100
AcDbLine
 10
127.891876
 20
173.424194
 30
0.0
 11
127.628082
 21
173.696075
 31
0.0
  0
LINE
  5
C14
100
AcDbEntity
  8
10
100
AcDbLine
 10
128.105835
 20
173.111816
 30
0.0
 11
127.891876
 21
173.424194
 31
0.0
  0
LINE
  5
C15
100
AcDbEntity
  8
10
100
AcDbLine
 10
128.264801
 20
172.768127
 30
0.0
 11
128.105835
 21
173.111816
 31
0.0
  0
LINE
  5
C16
100
AcDbEntity
  8
10
100
AcDbLine
 10
128.363464
 20
172.402466
 30
0.0
 11
128.264801
 21
172.768127
 31
0.0
  0
LINE
  5
C17
100
AcDbEntity
  8
10
100
AcDbLine
 10
128.399841
 20
172.025513
 30
0.0
 11
128.363464
 21
172.402466
 31
0.0
  0
LINE
  5
C18
100
AcDbEntity
  8
10
100
AcDbLine
 10
128.371979
 20
171.647522
 30
0.0
 11
128.399841
 21
172.025513
 31
0.0
  0
LINE
  5
C19
100
AcDbEntity
  8
10
100
AcDbLine
 10
128.281525
 20
171.279541
 30
0.0
 11
128.371979
 21
171.647522
 31
0.0
  0
LINE
  5
C1A
100
AcDbEntity
  8
10
100
AcDbLine
 10
128.130005
 20
170.931824
 30
0.0
 11
128.281525
 21
171.279541
 31
0.0
  0
LINE
  5
C1B
100
AcDbEntity
  8
10
100
AcDbLine
 10
127.922638
 20
170.614319
 30
0.0
 11
128.130005
 21
170.931824
 31
0.0
  0
LINE
  5
C1C
100
AcDbEntity
  8
10
100
AcDbLine
 10
127.664459
 20
170.336304
 30
0.0
 11
127.922638
 21
170.614319
 31
0.0
  0
LINE
  5
C1D
100
AcDbEntity
  8
10
100
AcDbLine
 10
127.363495
 20
170.105316
 30
0.0
 11
127.664459
 21
170.336304
 31
0.0
  0
LINE
  5
C1E
100
AcDbEntity
  8
10
100
AcDbLine
 10
127.027863
 20
169.928589
 30
0.0
 11
127.363495
 21
170.105316
 31
0.0
  0
LINE
  5
C20
100
AcDbEntity
  8
10
100
AcDbLine
 10
133.121307
 20
175.52478
 30
0.0
 11
132.899994
 21
175.5
 31
0.0
  0
LINE
  5
C21
100
AcDbEntity
  8
10
100
AcDbLine
 10
133.281769
 20
175.575867
 30
0.0
 11
133.121307
 21
175.52478
 31
0.0
  0
LINE
  5
C22
100
AcDbEntity
  8
10
100
AcDbLine
 10
133.431519
 20
175.652954
 30
0.0
 11
133.281769
 21
175.575867
 31
0.0
  0
LINE
  5
C23
100
AcDbEntity
  8
10
100
AcDbLine
 10
133.565887
 20
175.75412
 30
0.0
 11
133.431519
 21
175.652954
 31
0.0
  0
LINE
  5
C24
100
AcDbEntity
  8
10
100
AcDbLine
 10
133.68158
 20
175.876221
 30
0.0
 11
133.565887
 21
175.75412
 31
0.0
  0
LINE
  5
C25
100
AcDbEntity
  8
10
100
AcDbLine
 10
133.774963
 20
176.016052
 30
0.0
 11
133.68158
 21
175.876221
 31
0.0
  0
LINE
  5
C26
100
AcDbEntity
  8
10
100
AcDbLine
 10
133.843781
 20
176.169464
 30
0.0
 11
133.774963
 21
176.016052
 31
0.0
  0
LINE
  5
C27
100
AcDbEntity
  8
10
100
AcDbLine
 10
133.885742
 20
176.332367
 30
0.0
 11
133.843781
 21
176.169464
 31
0.0
  0
LINE
  5
C28
100
AcDbEntity
  8
10
100
AcDbLine
 10
133.899963
 20
176.5
 30
0.0
 11
133.885742
 21
176.332367
 31
0.0
  0
LINE
  5
C29
100
AcDbEntity
  8
10
100
AcDbLine
 10
137.499969
 20
168.5
 30
0.0
 11
137.499969
 21
166.999969
 31
0.0
  0
LINE
  5
C2A
100
AcDbEntity
  8
10
100
AcDbLine
 10
132.899994
 20
210.5
 30
0.0
 11
129.241089
 21
210.5
 31
0.0
  0
LINE
  5
C2B
100
AcDbEntity
  8
10
100
AcDbLine
 10
129.241089
 20
212.5
 30
0.0
 11
132.899994
 21
212.5
 31
0.0
  0
LINE
  5
C2C
100
AcDbEntity
  8
10
100
AcDbLine
 10
129.241089
 20
210.5
 30
0.0
 11
125.580078
 21
210.5
 31
0.0
  0
LINE
  5
C2D
100
AcDbEntity
  8
10
100
AcDbLine
 10
125.580078
 20
212.5
 30
0.0
 11
129.241089
 21
212.5
 31
0.0
  0
LINE
  5
C2E
100
AcDbEntity
  8
10
100
AcDbLine
 10
133.121307
 20
212.52478
 30
0.0
 11
132.899994
 21
212.5
 31
0.0
  0
LINE
  5
C2F
100
AcDbEntity
  8
10
100
AcDbLine
 10
133.281769
 20
212.575836
 30
0.0
 11
133.121307
 21
212.52478
 31
0.0
  0
LINE
  5
C30
100
AcDbEntity
  8
10
100
AcDbLine
 10
133.431519
 20
212.652985
 30
0.0
 11
133.281769
 21
212.575836
 31
0.0
  0
LINE
  5
C31
100
AcDbEntity
  8
10
100
AcDbLine
 10
133.565887
 20
212.75412
 30
0.0
 11
133.431519
 21
212.652985
 31
0.0
  0
LINE
  5
C32
100
AcDbEntity
  8
10
100
AcDbLine
 10
133.68158
 20
212.876221
 30
0.0
 11
133.565887
 21
212.75412
 31
0.0
  0
LINE
  5
C33
100
AcDbEntity
  8
10
100
AcDbLine
 10
133.774963
 20
213.016022
 30
0.0
 11
133.68158
 21
212.876221
 31
0.0
  0
LINE
  5
C34
100
AcDbEntity
  8
10
100
AcDbLine
 10
133.843781
 20
213.169495
 30
0.0
 11
133.774963
 21
213.016022
 31
0.0
  0
LINE
  5
C35
100
AcDbEntity
  8
10
100
AcDbLine
 10
133.885742
 20
213.332367
 30
0.0
 11
133.843781
 21
213.169495
 31
0.0
  0
LINE
  5
C36
100
AcDbEntity
  8
10
100
AcDbLine
 10
133.899963
 20
213.5
 30
0.0
 11
133.885742
 21
213.332367
 31
0.0
  0
LINE
  5
C37
100
AcDbEntity
  8
10
100
AcDbLine
 10
133.876007
 20
209.717712
 30
0.0
 11
133.899963
 21
209.5
 31
0.0
  0
LINE
  5
C38
100
AcDbEntity
  8
10
100
AcDbLine
 10
133.82547
 20
209.87854
 30
0.0
 11
133.876007
 21
209.717712
 31
0.0
  0
LINE
  5
C39
100
AcDbEntity
  8
10
100
AcDbLine
 10
133.74881
 20
210.028656
 30
0.0
 11
133.82547
 21
209.87854
 31
0.0
  0
LINE
  5
C3A
100
AcDbEntity
  8
10
100
AcDbLine
 10
133.647736
 20
210.163818
 30
0.0
 11
133.74881
 21
210.028656
 31
0.0
  0
LINE
  5
C3B
100
AcDbEntity
  8
10
100
AcDbLine
 10
133.525543
 20
210.280151
 30
0.0
 11
133.647736
 21
210.163818
 31
0.0
  0
LINE
  5
C3C
100
AcDbEntity
  8
10
100
AcDbLine
 10
133.385345
 20
210.374176
 30
0.0
 11
133.525543
 21
210.280151
 31
0.0
  0
LINE
  5
C3D
100
AcDbEntity
  8
10
100
AcDbLine
 10
133.231476
 20
210.443481
 30
0.0
 11
133.385345
 21
210.374176
 31
0.0
  0
LINE
  5
C3E
100
AcDbEntity
  8
10
100
AcDbLine
 10
133.068085
 20
210.485657
 30
0.0
 11
133.231476
 21
210.443481
 31
0.0
  0
LINE
  5
C3F
100
AcDbEntity
  8
10
100
AcDbLine
 10
132.899994
 20
210.5
 30
0.0
 11
133.068085
 21
210.485657
 31
0.0
  0
LINE
  5
C48
100
AcDbEntity
  8
10
100
AcDbLine
 10
132.899963
 20
247.5
 30
0.0
 11
103.599976
 21
247.5
 31
0.0
  0
LINE
  5
C56
100
AcDbEntity
  8
11
100
AcDbLine
 10
90.0
 20
289.999969
 30
0.0
 11
138.5
 21
289.999969
 31
0.0
  0
LINE
  5
C59
100
AcDbEntity
  8
10
100
AcDbLine
 10
90.0
 20
284.500031
 30
0.0
 11
89.499969
 21
284.500031
 31
0.0
  0
CIRCLE
  5
C5A
100
AcDbEntity
  8
12
100
AcDbCircle
 10
134.0
 20
282.499969
 30
0.0
 40
3.0
  0
LINE
  5
C5B
100
AcDbEntity
  8
12
100
AcDbLine
 10
134.0
 20
288.499969
 30
0.0
 11
134.0
 21
276.499969
 31
0.0
  0
LINE
  5
C5D
100
AcDbEntity
  8
10
100
AcDbLine
 10
140.0
 20
249.5
 30
0.0
 11
140.0
 21
168.5
 31
0.0
  0
LINE
  5
C63
100
AcDbEntity
  8
10
100
AcDbLine
 10
140.0
 20
168.5
 30
0.0
 11
90.0
 21
168.5
 31
0.0
  0
LINE
  5
C73
100
AcDbEntity
  8
11
100
AcDbLine
 10
140.0
 20
288.499969
 30
0.0
 11
140.0
 21
249.5
 31
0.0
  0
LINE
  5
C7F
100
AcDbEntity
  8
10
100
AcDbLine
 10
470.000031
 20
58.0
 30
0.0
 11
306.0
 21
58.0
 31
0.0
  0
LINE
  5
C80
100
AcDbEntity
  8
10
100
AcDbLine
 10
306.0
 20
290.0
 30
0.0
 11
470.000031
 21
290.0
 31
0.0
  0
LINE
  5
C81
100
AcDbEntity
  8
10
100
AcDbLine
 10
470.000031
 20
40.0
 30
0.0
 11
306.0
 21
40.0
 31
0.0
  0
LINE
  5
C82
100
AcDbEntity
  8
10
100
AcDbLine
 10
307.5
 20
276.5
 30
0.0
 11
470.000031
 21
276.5
 31
0.0
  0
LINE
  5
C84
100
AcDbEntity
  8
10
100
AcDbLine
 10
286.0
 20
153.500031
 30
0.0
 11
286.0
 21
168.500031
 31
0.0
  0
LINE
  5
C85
100
AcDbEntity
  8
10
100
AcDbLine
 10
305.500031
 20
40.000031
 30
0.0
 11
305.500031
 21
290.0
 31
0.0
  0
LINE
  5
C86
100
AcDbEntity
  8
10
100
AcDbLine
 10
306.0
 20
290.0
 30
0.0
 11
306.0
 21
40.0
 31
0.0
  0
LINE
  5
C87
100
AcDbEntity
  8
10
100
AcDbLine
 10
305.500031
 20
40.000031
 30
0.0
 11
280.0
 21
40.000031
 31
0.0
  0
LINE
  5
C88
100
AcDbEntity
  8
10
100
AcDbLine
 10
279.0
 20
41.000031
 30
0.0
 11
279.0
 21
118.500031
 31
0.0
  0
ARC
  5
C89
100
AcDbEntity
  8
10
100
AcDbCircle
 10
280.0
 20
41.000031
 30
0.0
 40
1.0
100
AcDbArc
 50
179.999995
 51
269.999997
  0
LINE
  5
C8A
100
AcDbEntity
  8
10
100
AcDbLine
 10
286.0
 20
119.500031
 30
0.0
 11
280.0
 21
119.500031
 31
0.0
  0
LINE
  5
C94
100
AcDbEntity
  8
10
100
AcDbLine
 10
295.0
 20
134.600031
 30
0.0
 11
295.0
 21
142.400031
 31
0.0
  0
LINE
  5
C95
100
AcDbEntity
  8
10
100
AcDbLine
 10
293.7
 20
141.996526
 30
0.0
 11
293.7
 21
135.003535
 31
0.0
  0
LINE
  5
C96
100
AcDbEntity
  8
10
100
AcDbLine
 10
294.5
 20
142.500031
 30
0.0
 11
294.5
 21
134.500031
 31
0.0
  0
LINE
  5
C97
100
AcDbEntity
  8
10
100
AcDbLine
 10
295.0
 20
142.500031
 30
0.0
 11
295.0
 21
134.500031
 31
0.0
  0
ARC
  5
C98
100
AcDbEntity
  8
10
100
AcDbCircle
 10
295.300001
 20
138.500031
 30
0.0
 40
4.199998
100
AcDbArc
 50
140.8332
 51
219.166782
  0
LINE
  5
C99
100
AcDbEntity
  8
10
100
AcDbLine
 10
296.000031
 20
133.500031
 30
0.0
 11
296.000031
 21
153.500031
 31
0.0
  0
LINE
  5
C9A
100
AcDbEntity
  8
10
100
AcDbLine
 10
289.9
 20
134.300031
 30
0.0
 11
296.000031
 21
134.300031
 31
0.0
  0
LINE
  5
C9B
100
AcDbEntity
  8
10
100
AcDbLine
 10
286.0
 20
133.500031
 30
0.0
 11
296.000031
 21
133.500031
 31
0.0
  0
LINE
  5
C9C
100
AcDbEntity
  8
10
100
AcDbLine
 10
286.0
 20
119.500031
 30
0.0
 11
286.0
 21
133.500031
 31
0.0
  0
LINE
  5
C9D
100
AcDbEntity
  8
10
100
AcDbLine
 10
289.9
 20
133.500031
 30
0.0
 11
289.9
 21
134.300031
 31
0.0
  0
LINE
  5
C9E
100
AcDbEntity
  8
10
100
AcDbLine
 10
294.5
 20
134.500031
 30
0.0
 11
295.0
 21
134.500031
 31
0.0
  0
LINE
  5
C9F
100
AcDbEntity
  8
10
100
AcDbLine
 10
293.7
 20
135.200031
 30
0.0
 11
294.5
 21
135.200031
 31
0.0
  0
ARC
  5
CA0
100
AcDbEntity
  8
10
100
AcDbCircle
 10
293.826911
 20
137.30003
 30
0.0
 40
2.299999
100
AcDbArc
 50
219.166854
 51
266.83693
  0
LINE
  5
CA1
100
AcDbEntity
  8
10
100
AcDbLine
 10
295.0
 20
134.600031
 30
0.0
 11
296.0
 21
134.600031
 31
0.0
  0
LINE
  5
CA2
100
AcDbEntity
  8
10
100
AcDbLine
 10
289.9
 20
152.70003
 30
0.0
 11
296.000031
 21
152.70003
 31
0.0
  0
LINE
  5
CA3
100
AcDbEntity
  8
10
100
AcDbLine
 10
289.9
 20
142.70003
 30
0.0
 11
296.000031
 21
142.70003
 31
0.0
  0
LINE
  5
CA4
100
AcDbEntity
  8
10
100
AcDbLine
 10
289.9
 20
144.300031
 30
0.0
 11
296.000031
 21
144.300031
 31
0.0
  0
LINE
  5
CA5
100
AcDbEntity
  8
10
100
AcDbLine
 10
286.0
 20
153.500031
 30
0.0
 11
296.000031
 21
153.500031
 31
0.0
  0
LINE
  5
CA6
100
AcDbEntity
  8
10
100
AcDbLine
 10
289.9
 20
142.70003
 30
0.0
 11
289.9
 21
144.300031
 31
0.0
  0
LINE
  5
CA7
100
AcDbEntity
  8
10
100
AcDbLine
 10
289.9
 20
152.70003
 30
0.0
 11
289.9
 21
153.500031
 31
0.0
  0
LINE
  5
CA8
100
AcDbEntity
  8
10
100
AcDbLine
 10
295.0
 20
144.60003
 30
0.0
 11
295.0
 21
152.400031
 31
0.0
  0
LINE
  5
CA9
100
AcDbEntity
  8
10
100
AcDbLine
 10
293.7
 20
151.996526
 30
0.0
 11
293.7
 21
145.003535
 31
0.0
  0
LINE
  5
CAA
100
AcDbEntity
  8
10
100
AcDbLine
 10
294.5
 20
152.500031
 30
0.0
 11
294.5
 21
144.500031
 31
0.0
  0
LINE
  5
CAB
100
AcDbEntity
  8
10
100
AcDbLine
 10
295.0
 20
152.500031
 30
0.0
 11
295.0
 21
144.500031
 31
0.0
  0
ARC
  5
CAC
100
AcDbEntity
  8
10
100
AcDbCircle
 10
295.300001
 20
148.500031
 30
0.0
 40
4.199998
100
AcDbArc
 50
140.8332
 51
219.166782
  0
LINE
  5
CAD
100
AcDbEntity
  8
10
100
AcDbLine
 10
294.5
 20
144.500031
 30
0.0
 11
295.0
 21
144.500031
 31
0.0
  0
LINE
  5
CAE
100
AcDbEntity
  8
10
100
AcDbLine
 10
294.5
 20
142.500031
 30
0.0
 11
295.0
 21
142.500031
 31
0.0
  0
LINE
  5
CAF
100
AcDbEntity
  8
10
100
AcDbLine
 10
293.7
 20
145.200031
 30
0.0
 11
294.5
 21
145.200031
 31
0.0
  0
ARC
  5
CB0
100
AcDbEntity
  8
10
100
AcDbCircle
 10
293.826911
 20
147.30003
 30
0.0
 40
2.299999
100
AcDbArc
 50
219.166854
 51
266.83693
  0
LINE
  5
CB1
100
AcDbEntity
  8
10
100
AcDbLine
 10
293.7
 20
141.80003
 30
0.0
 11
294.5
 21
141.80003
 31
0.0
  0
ARC
  5
CB2
100
AcDbEntity
  8
10
100
AcDbCircle
 10
293.826911
 20
139.70003
 30
0.0
 40
2.299999
100
AcDbArc
 50
93.16307
 51
140.833146
  0
LINE
  5
CB3
100
AcDbEntity
  8
10
100
AcDbLine
 10
295.0
 20
144.60003
 30
0.0
 11
296.0
 21
144.60003
 31
0.0
  0
LINE
  5
CB4
100
AcDbEntity
  8
10
100
AcDbLine
 10
295.0
 20
142.400031
 30
0.0
 11
296.0
 21
142.400031
 31
0.0
  0
LINE
  5
CB5
100
AcDbEntity
  8
10
100
AcDbLine
 10
294.5
 20
152.500031
 30
0.0
 11
295.0
 21
152.500031
 31
0.0
  0
LINE
  5
CB6
100
AcDbEntity
  8
10
100
AcDbLine
 10
293.7
 20
151.80003
 30
0.0
 11
294.5
 21
151.80003
 31
0.0
  0
ARC
  5
CB7
100
AcDbEntity
  8
10
100
AcDbCircle
 10
293.826911
 20
149.70003
 30
0.0
 40
2.299999
100
AcDbArc
 50
93.16307
 51
140.833146
  0
LINE
  5
CB8
100
AcDbEntity
  8
10
100
AcDbLine
 10
295.0
 20
152.400031
 30
0.0
 11
296.0
 21
152.400031
 31
0.0
  0
LINE
  5
CB9
100
AcDbEntity
  8
10
100
AcDbLine
 10
307.5
 20
40.0
 30
0.0
 11
307.5
 21
55.999985
 31
0.0
  0
LINE
  5
CBA
100
AcDbEntity
  8
10
100
AcDbLine
 10
306.0
 20
40.500031
 30
0.0
 11
305.500031
 21
40.500031
 31
0.0
  0
LINE
  5
CC2
100
AcDbEntity
  8
10
100
AcDbLine
 10
325.249969
 20
63.249985
 30
0.0
 11
325.249969
 21
120.75
 31
0.0
  0
LINE
  5
CC3
100
AcDbEntity
  8
10
100
AcDbLine
 10
322.75
 20
63.249985
 30
0.0
 11
322.75
 21
120.75
 31
0.0
  0
LINE
  5
CC4
100
AcDbEntity
  8
10
100
AcDbLine
 10
313.200012
 20
68.500031
 30
0.0
 11
313.200012
 21
80.500031
 31
0.0
  0
LINE
  5
CC5
100
AcDbEntity
  8
10
100
AcDbLine
 10
315.200012
 20
80.500031
 30
0.0
 11
315.200012
 21
68.500031
 31
0.0
  0
LINE
  5
CC6
100
AcDbEntity
  8
10
100
AcDbLine
 10
313.700012
 20
68.500031
 30
0.0
 11
313.700012
 21
80.500031
 31
0.0
  0
LINE
  5
CC7
100
AcDbEntity
  8
10
100
AcDbLine
 10
316.0
 20
67.999985
 30
0.0
 11
316.0
 21
80.999985
 31
0.0
  0
LINE
  5
CC8
100
AcDbEntity
  8
10
100
AcDbLine
 10
313.0
 20
67.999985
 30
0.0
 11
313.0
 21
80.999985
 31
0.0
  0
LINE
  5
CC9
100
AcDbEntity
  8
10
100
AcDbLine
 10
315.200012
 20
68.500031
 30
0.0
 11
313.700012
 21
68.500031
 31
0.0
  0
LINE
  5
CCA
100
AcDbEntity
  8
10
100
AcDbLine
 10
313.700012
 20
68.500031
 30
0.0
 11
313.200012
 21
68.500031
 31
0.0
  0
LINE
  5
CCB
100
AcDbEntity
  8
10
100
AcDbLine
 10
313.0
 20
67.999985
 30
0.0
 11
316.0
 21
67.999985
 31
0.0
  0
LINE
  5
CCC
100
AcDbEntity
  8
10
100
AcDbLine
 10
313.700012
 20
80.500031
 30
0.0
 11
313.200012
 21
80.500031
 31
0.0
  0
LINE
  5
CCD
100
AcDbEntity
  8
10
100
AcDbLine
 10
313.700012
 20
80.500031
 30
0.0
 11
315.200012
 21
80.500031
 31
0.0
  0
LINE
  5
CCE
100
AcDbEntity
  8
10
100
AcDbLine
 10
313.0
 20
80.999985
 30
0.0
 11
316.0
 21
80.999985
 31
0.0
  0
ARC
  5
CCF
100
AcDbEntity
  8
10
100
AcDbCircle
 10
324.0
 20
63.249985
 30
0.0
 40
1.25
100
AcDbArc
 50
179.999995
 51
0.0
  0
ARC
  5
CD0
100
AcDbEntity
  8
10
100
AcDbCircle
 10
324.0
 20
120.75
 30
0.0
 40
1.25
100
AcDbArc
 50
0.0
 51
180.000005
  0
LINE
  5
CD1
100
AcDbEntity
  8
10
100
AcDbLine
 10
330.25
 20
63.249985
 30
0.0
 11
330.25
 21
120.75
 31
0.0
  0
LINE
  5
CD2
100
AcDbEntity
  8
10
100
AcDbLine
 10
327.749969
 20
63.249985
 30
0.0
 11
327.749969
 21
120.75
 31
0.0
  0
LINE
  5
CD3
100
AcDbEntity
  8
10
100
AcDbLine
 10
335.25
 20
63.249985
 30
0.0
 11
335.25
 21
120.75
 31
0.0
  0
LINE
  5
CD4
100
AcDbEntity
  8
10
100
AcDbLine
 10
332.75
 20
63.249985
 30
0.0
 11
332.75
 21
120.75
 31
0.0
  0
LINE
  5
CD5
100
AcDbEntity
  8
10
100
AcDbLine
 10
340.249969
 20
63.249985
 30
0.0
 11
340.249969
 21
120.75
 31
0.0
  0
LINE
  5
CD6
100
AcDbEntity
  8
10
100
AcDbLine
 10
337.75
 20
63.249985
 30
0.0
 11
337.75
 21
120.75
 31
0.0
  0
LINE
  5
CD7
100
AcDbEntity
  8
10
100
AcDbLine
 10
345.249969
 20
63.249985
 30
0.0
 11
345.249969
 21
120.75
 31
0.0
  0
LINE
  5
CD8
100
AcDbEntity
  8
10
100
AcDbLine
 10
342.749969
 20
63.249985
 30
0.0
 11
342.749969
 21
120.75
 31
0.0
  0
LINE
  5
CD9
100
AcDbEntity
  8
10
100
AcDbLine
 10
350.250031
 20
63.249985
 30
0.0
 11
350.250031
 21
120.75
 31
0.0
  0
LINE
  5
CDA
100
AcDbEntity
  8
10
100
AcDbLine
 10
347.750031
 20
63.249985
 30
0.0
 11
347.750031
 21
120.75
 31
0.0
  0
LINE
  5
CDB
100
AcDbEntity
  8
10
100
AcDbLine
 10
355.249969
 20
63.249985
 30
0.0
 11
355.249969
 21
120.75
 31
0.0
  0
LINE
  5
CDC
100
AcDbEntity
  8
10
100
AcDbLine
 10
352.749969
 20
63.249985
 30
0.0
 11
352.749969
 21
120.75
 31
0.0
  0
ARC
  5
CDD
100
AcDbEntity
  8
10
100
AcDbCircle
 10
333.999969
 20
63.249985
 30
0.0
 40
1.25
100
AcDbArc
 50
179.999995
 51
0.0
  0
ARC
  5
CDE
100
AcDbEntity
  8
10
100
AcDbCircle
 10
329.0
 20
63.249985
 30
0.0
 40
1.25
100
AcDbArc
 50
179.999995
 51
0.0
  0
ARC
  5
CDF
100
AcDbEntity
  8
10
100
AcDbCircle
 10
339.000031
 20
63.249985
 30
0.0
 40
1.25
100
AcDbArc
 50
179.999995
 51
0.0
  0
ARC
  5
CE0
100
AcDbEntity
  8
10
100
AcDbCircle
 10
348.999969
 20
63.249985
 30
0.0
 40
1.25
100
AcDbArc
 50
179.999995
 51
0.0
  0
ARC
  5
CE1
100
AcDbEntity
  8
10
100
AcDbCircle
 10
343.999969
 20
63.249985
 30
0.0
 40
1.25
100
AcDbArc
 50
179.999995
 51
0.0
  0
ARC
  5
CE2
100
AcDbEntity
  8
10
100
AcDbCircle
 10
353.999969
 20
63.249985
 30
0.0
 40
1.25
100
AcDbArc
 50
179.999995
 51
0.0
  0
ARC
  5
CE3
100
AcDbEntity
  8
10
100
AcDbCircle
 10
333.999969
 20
120.75
 30
0.0
 40
1.25
100
AcDbArc
 50
0.0
 51
180.000005
  0
ARC
  5
CE4
100
AcDbEntity
  8
10
100
AcDbCircle
 10
329.0
 20
120.75
 30
0.0
 40
1.25
100
AcDbArc
 50
0.0
 51
180.000005
  0
ARC
  5
CE5
100
AcDbEntity
  8
10
100
AcDbCircle
 10
339.000031
 20
120.75
 30
0.0
 40
1.25
100
AcDbArc
 50
0.0
 51
180.000005
  0
ARC
  5
CE6
100
AcDbEntity
  8
10
100
AcDbCircle
 10
348.999969
 20
120.75
 30
0.0
 40
1.25
100
AcDbArc
 50
0.0
 51
180.000005
  0
ARC
  5
CE7
100
AcDbEntity
  8
10
100
AcDbCircle
 10
343.999969
 20
120.75
 30
0.0
 40
1.25
100
AcDbArc
 50
0.0
 51
180.000005
  0
ARC
  5
CE8
100
AcDbEntity
  8
10
100
AcDbCircle
 10
353.999969
 20
120.75
 30
0.0
 40
1.25
100
AcDbArc
 50
0.0
 51
180.000005
  0
LINE
  5
CE9
100
AcDbEntity
  8
10
100
AcDbLine
 10
288.5
 20
290.0
 30
0.0
 11
305.500031
 21
290.0
 31
0.0
  0
LINE
  5
CEB
100
AcDbEntity
  8
10
100
AcDbLine
 10
283.0
 20
284.500061
 30
0.0
 11
283.0
 21
251.22345
 31
0.0
  0
LINE
  5
CEC
100
AcDbEntity
  8
10
100
AcDbLine
 10
275.595947
 20
212.500031
 30
0.0
 11
275.595947
 21
247.500031
 31
0.0
  0
LINE
  5
CED
100
AcDbEntity
  8
10
100
AcDbLine
 10
275.256378
 20
247.500031
 30
0.0
 11
275.256378
 21
212.500031
 31
0.0
  0
LINE
  5
CEE
100
AcDbEntity
  8
10
100
AcDbLine
 10
275.0
 20
168.500031
 30
0.0
 11
286.0
 21
168.500031
 31
0.0
  0
LINE
  5
CEF
100
AcDbEntity
  8
10
100
AcDbLine
 10
275.595947
 20
175.500031
 30
0.0
 11
275.595947
 21
210.500031
 31
0.0
  0
LINE
  5
CF0
100
AcDbEntity
  8
10
100
AcDbLine
 10
275.256378
 20
210.500031
 30
0.0
 11
275.256378
 21
175.500031
 31
0.0
  0
LINE
  5
CF2
100
AcDbEntity
  8
10
100
AcDbLine
 10
275.0
 20
175.500031
 30
0.0
 11
275.0
 21
168.500031
 31
0.0
  0
LINE
  5
D38
100
AcDbEntity
  8
10
100
AcDbLine
 10
279.500031
 20
167.0
 30
0.0
 11
279.500031
 21
168.500031
 31
0.0
  0
LINE
  5
D3C
100
AcDbEntity
  8
10
100
AcDbLine
 10
275.0
 20
212.500031
 30
0.0
 11
275.0
 21
210.500031
 31
0.0
  0
LINE
  5
D6C
100
AcDbEntity
  8
10
100
AcDbLine
 10
275.0
 20
249.500031
 30
0.0
 11
275.0
 21
247.500031
 31
0.0
  0
LINE
  5
D8C
100
AcDbEntity
  8
10
100
AcDbLine
 10
278.000031
 20
249.500031
 30
0.0
 11
282.629425
 21
250.740479
 31
0.0
  0
LINE
  5
D90
100
AcDbEntity
  8
10
100
AcDbLine
 10
275.0
 20
249.500031
 30
0.0
 11
278.000031
 21
249.500031
 31
0.0
  0
ARC
  5
D91
100
AcDbEntity
  8
10
100
AcDbCircle
 10
282.500031
 20
251.22345
 30
0.0
 40
0.5
100
AcDbArc
 50
285.000001
 51
0.0
  0
LINE
  5
D98
100
AcDbEntity
  8
10
100
AcDbLine
 10
283.0
 20
290.0
 30
0.0
 11
288.5
 21
290.0
 31
0.0
  0
LINE
  5
D99
100
AcDbEntity
  8
10
100
AcDbLine
 10
283.0
 20
284.500061
 30
0.0
 11
286.0
 21
284.500061
 31
0.0
  0
LINE
  5
D9A
100
AcDbEntity
  8
10
100
AcDbLine
 10
287.0
 20
285.500031
 30
0.0
 11
287.500031
 21
285.500031
 31
0.0
  0
LINE
  5
D9B
100
AcDbEntity
  8
10
100
AcDbLine
 10
284.002502
 20
288.25
 30
0.0
 11
284.997498
 21
288.25
 31
0.0
  0
LINE
  5
D9C
100
AcDbEntity
  8
10
100
AcDbLine
 10
284.997498
 20
286.75
 30
0.0
 11
284.002502
 21
286.75
 31
0.0
  0
ARC
  5
D9D
100
AcDbEntity
  8
10
100
AcDbCircle
 10
287.0
 20
284.500061
 30
0.0
 40
1.0
100
AcDbArc
 50
90.000003
 51
180.000005
  0
ARC
  5
D9E
100
AcDbEntity
  8
10
100
AcDbCircle
 10
284.5
 20
287.5
 30
0.0
 40
0.9
100
AcDbArc
 50
303.557311
 51
56.442689
  0
ARC
  5
D9F
100
AcDbEntity
  8
10
100
AcDbCircle
 10
284.5
 20
287.5
 30
0.0
 40
0.9
100
AcDbArc
 50
123.557316
 51
236.44268
  0
LINE
  5
DA1
100
AcDbEntity
  8
10
100
AcDbLine
 10
288.5
 20
286.500031
 30
0.0
 11
288.5
 21
290.0
 31
0.0
  0
ARC
  5
DA9
100
AcDbEntity
  8
10
100
AcDbCircle
 10
287.500031
 20
286.500031
 30
0.0
 40
1.0
100
AcDbArc
 50
269.999997
 51
0.0
  0
ARC
  5
DAA
100
AcDbEntity
  8
10
100
AcDbCircle
 10
324.0
 20
268.249969
 30
0.0
 40
1.25
100
AcDbArc
 50
0.0
 51
180.000005
  0
ARC
  5
DAB
100
AcDbEntity
  8
10
100
AcDbCircle
 10
329.0
 20
268.249969
 30
0.0
 40
1.25
100
AcDbArc
 50
0.0
 51
180.000005
  0
ARC
  5
DAC
100
AcDbEntity
  8
10
100
AcDbCircle
 10
333.999969
 20
268.249969
 30
0.0
 40
1.25
100
AcDbArc
 50
0.0
 51
180.000005
  0
ARC
  5
DAD
100
AcDbEntity
  8
10
100
AcDbCircle
 10
339.000031
 20
268.249969
 30
0.0
 40
1.25
100
AcDbArc
 50
0.0
 51
180.000005
  0
ARC
  5
DAE
100
AcDbEntity
  8
10
100
AcDbCircle
 10
343.999969
 20
268.249969
 30
0.0
 40
1.25
100
AcDbArc
 50
0.0
 51
180.000005
  0
ARC
  5
DAF
100
AcDbEntity
  8
10
100
AcDbCircle
 10
348.999969
 20
268.249969
 30
0.0
 40
1.25
100
AcDbArc
 50
0.0
 51
180.000005
  0
ARC
  5
DB0
100
AcDbEntity
  8
10
100
AcDbCircle
 10
353.999969
 20
268.249969
 30
0.0
 40
1.25
100
AcDbArc
 50
0.0
 51
180.000005
  0
LINE
  5
DB1
100
AcDbEntity
  8
10
100
AcDbLine
 10
325.249969
 20
210.75
 30
0.0
 11
325.249969
 21
268.249969
 31
0.0
  0
LINE
  5
DB2
100
AcDbEntity
  8
10
100
AcDbLine
 10
322.75
 20
210.75
 30
0.0
 11
322.75
 21
268.249969
 31
0.0
  0
ARC
  5
DB3
100
AcDbEntity
  8
10
100
AcDbCircle
 10
324.0
 20
210.75
 30
0.0
 40
1.25
100
AcDbArc
 50
179.999995
 51
0.0
  0
LINE
  5
DB4
100
AcDbEntity
  8
10
100
AcDbLine
 10
313.200012
 20
249.500031
 30
0.0
 11
313.200012
 21
261.500031
 31
0.0
  0
LINE
  5
DB5
100
AcDbEntity
  8
10
100
AcDbLine
 10
315.200012
 20
261.500031
 30
0.0
 11
315.200012
 21
249.500031
 31
0.0
  0
LINE
  5
DB6
100
AcDbEntity
  8
10
100
AcDbLine
 10
313.700012
 20
249.500031
 30
0.0
 11
313.700012
 21
261.500031
 31
0.0
  0
LINE
  5
DB7
100
AcDbEntity
  8
10
100
AcDbLine
 10
316.0
 20
248.999969
 30
0.0
 11
316.0
 21
262.0
 31
0.0
  0
LINE
  5
DB8
100
AcDbEntity
  8
10
100
AcDbLine
 10
313.0
 20
248.999969
 30
0.0
 11
313.0
 21
262.0
 31
0.0
  0
LINE
  5
DB9
100
AcDbEntity
  8
10
100
AcDbLine
 10
315.200012
 20
249.500031
 30
0.0
 11
313.700012
 21
249.500031
 31
0.0
  0
LINE
  5
DBA
100
AcDbEntity
  8
10
100
AcDbLine
 10
313.700012
 20
249.500031
 30
0.0
 11
313.200012
 21
249.500031
 31
0.0
  0
LINE
  5
DBB
100
AcDbEntity
  8
10
100
AcDbLine
 10
313.0
 20
248.999969
 30
0.0
 11
316.0
 21
248.999969
 31
0.0
  0
LINE
  5
DBC
100
AcDbEntity
  8
10
100
AcDbLine
 10
313.700012
 20
261.500031
 30
0.0
 11
313.200012
 21
261.500031
 31
0.0
  0
LINE
  5
DBD
100
AcDbEntity
  8
10
100
AcDbLine
 10
313.700012
 20
261.500031
 30
0.0
 11
315.200012
 21
261.500031
 31
0.0
  0
LINE
  5
DBE
100
AcDbEntity
  8
10
100
AcDbLine
 10
313.0
 20
262.0
 30
0.0
 11
316.0
 21
262.0
 31
0.0
  0
LINE
  5
DBF
100
AcDbEntity
  8
10
100
AcDbLine
 10
330.25
 20
210.75
 30
0.0
 11
330.25
 21
268.249969
 31
0.0
  0
LINE
  5
DC0
100
AcDbEntity
  8
10
100
AcDbLine
 10
327.749969
 20
210.75
 30
0.0
 11
327.749969
 21
268.249969
 31
0.0
  0
LINE
  5
DC1
100
AcDbEntity
  8
10
100
AcDbLine
 10
335.25
 20
210.75
 30
0.0
 11
335.25
 21
268.249969
 31
0.0
  0
LINE
  5
DC2
100
AcDbEntity
  8
10
100
AcDbLine
 10
332.75
 20
210.75
 30
0.0
 11
332.75
 21
268.249969
 31
0.0
  0
LINE
  5
DC3
100
AcDbEntity
  8
10
100
AcDbLine
 10
340.249969
 20
210.75
 30
0.0
 11
340.249969
 21
268.249969
 31
0.0
  0
LINE
  5
DC4
100
AcDbEntity
  8
10
100
AcDbLine
 10
337.75
 20
210.75
 30
0.0
 11
337.75
 21
268.249969
 31
0.0
  0
LINE
  5
DC5
100
AcDbEntity
  8
10
100
AcDbLine
 10
345.249969
 20
210.75
 30
0.0
 11
345.249969
 21
268.249969
 31
0.0
  0
LINE
  5
DC6
100
AcDbEntity
  8
10
100
AcDbLine
 10
342.749969
 20
210.75
 30
0.0
 11
342.749969
 21
268.249969
 31
0.0
  0
LINE
  5
DC7
100
AcDbEntity
  8
10
100
AcDbLine
 10
350.250031
 20
210.75
 30
0.0
 11
350.250031
 21
268.249969
 31
0.0
  0
LINE
  5
DC8
100
AcDbEntity
  8
10
100
AcDbLine
 10
347.750031
 20
210.75
 30
0.0
 11
347.750031
 21
268.249969
 31
0.0
  0
LINE
  5
DC9
100
AcDbEntity
  8
10
100
AcDbLine
 10
355.249969
 20
210.75
 30
0.0
 11
355.249969
 21
268.249969
 31
0.0
  0
LINE
  5
DCA
100
AcDbEntity
  8
10
100
AcDbLine
 10
352.749969
 20
210.75
 30
0.0
 11
352.749969
 21
268.249969
 31
0.0
  0
ARC
  5
DCB
100
AcDbEntity
  8
10
100
AcDbCircle
 10
333.999969
 20
210.75
 30
0.0
 40
1.25
100
AcDbArc
 50
179.999995
 51
0.0
  0
ARC
  5
DCC
100
AcDbEntity
  8
10
100
AcDbCircle
 10
329.0
 20
210.75
 30
0.0
 40
1.25
100
AcDbArc
 50
179.999995
 51
0.0
  0
ARC
  5
DCD
100
AcDbEntity
  8
10
100
AcDbCircle
 10
339.000031
 20
210.75
 30
0.0
 40
1.25
100
AcDbArc
 50
179.999995
 51
0.0
  0
ARC
  5
DCE
100
AcDbEntity
  8
10
100
AcDbCircle
 10
348.999969
 20
210.75
 30
0.0
 40
1.25
100
AcDbArc
 50
179.999995
 51
0.0
  0
ARC
  5
DCF
100
AcDbEntity
  8
10
100
AcDbCircle
 10
343.999969
 20
210.75
 30
0.0
 40
1.25
100
AcDbArc
 50
179.999995
 51
0.0
  0
ARC
  5
DD0
100
AcDbEntity
  8
10
100
AcDbCircle
 10
353.999969
 20
210.75
 30
0.0
 40
1.25
100
AcDbArc
 50
179.999995
 51
0.0
  0
LINE
  5
DD1
100
AcDbEntity
  8
10
100
AcDbLine
 10
307.5
 20
275.5
 30
0.0
 11
307.5
 21
290.0
 31
0.0
  0
LINE
  5
DD9
100
AcDbEntity
  8
10
100
AcDbLine
 10
306.0
 20
289.500031
 30
0.0
 11
305.500031
 21
289.500031
 31
0.0
  0
LINE
  5
DDA
100
AcDbEntity
  8
10
100
AcDbLine
 10
470.000031
 20
290.0
 30
0.0
 11
470.000031
 21
40.0
 31
0.0
  0
LINE
  5
DDB
100
AcDbEntity
  8
10
100
AcDbLine
 10
360.999969
 20
130.5
 30
0.0
 11
360.999969
 21
199.5
 31
0.0
  0
LINE
  5
DDC
100
AcDbEntity
  8
10
100
AcDbLine
 10
414.999969
 20
130.5
 30
0.0
 11
414.999969
 21
199.5
 31
0.0
  0
LINE
  5
DDD
100
AcDbEntity
  8
10
100
AcDbLine
 10
360.999969
 20
130.5
 30
0.0
 11
414.999969
 21
130.5
 31
0.0
  0
LINE
  5
DDE
100
AcDbEntity
  8
10
100
AcDbLine
 10
360.249969
 20
63.249985
 30
0.0
 11
360.249969
 21
120.75
 31
0.0
  0
LINE
  5
DDF
100
AcDbEntity
  8
10
100
AcDbLine
 10
357.749969
 20
63.249985
 30
0.0
 11
357.749969
 21
120.75
 31
0.0
  0
LINE
  5
DE0
100
AcDbEntity
  8
10
100
AcDbLine
 10
365.250031
 20
63.249985
 30
0.0
 11
365.250031
 21
120.75
 31
0.0
  0
LINE
  5
DE1
100
AcDbEntity
  8
10
100
AcDbLine
 10
362.749969
 20
63.249985
 30
0.0
 11
362.749969
 21
120.75
 31
0.0
  0
LINE
  5
DE2
100
AcDbEntity
  8
10
100
AcDbLine
 10
370.249969
 20
63.249985
 30
0.0
 11
370.249969
 21
120.75
 31
0.0
  0
LINE
  5
DE3
100
AcDbEntity
  8
10
100
AcDbLine
 10
367.750031
 20
63.249985
 30
0.0
 11
367.750031
 21
120.75
 31
0.0
  0
LINE
  5
DE4
100
AcDbEntity
  8
10
100
AcDbLine
 10
375.249969
 20
63.249985
 30
0.0
 11
375.249969
 21
120.75
 31
0.0
  0
LINE
  5
DE5
100
AcDbEntity
  8
10
100
AcDbLine
 10
372.749969
 20
63.249985
 30
0.0
 11
372.749969
 21
120.75
 31
0.0
  0
LINE
  5
DE6
100
AcDbEntity
  8
10
100
AcDbLine
 10
380.250031
 20
63.249985
 30
0.0
 11
380.250031
 21
120.75
 31
0.0
  0
LINE
  5
DE7
100
AcDbEntity
  8
10
100
AcDbLine
 10
377.749969
 20
63.249985
 30
0.0
 11
377.749969
 21
120.75
 31
0.0
  0
LINE
  5
DE8
100
AcDbEntity
  8
10
100
AcDbLine
 10
385.249969
 20
63.249985
 30
0.0
 11
385.249969
 21
120.75
 31
0.0
  0
LINE
  5
DE9
100
AcDbEntity
  8
10
100
AcDbLine
 10
382.750031
 20
63.249985
 30
0.0
 11
382.750031
 21
120.75
 31
0.0
  0
ARC
  5
DEA
100
AcDbEntity
  8
10
100
AcDbCircle
 10
363.999969
 20
63.249985
 30
0.0
 40
1.25
100
AcDbArc
 50
179.999995
 51
0.0
  0
ARC
  5
DEB
100
AcDbEntity
  8
10
100
AcDbCircle
 10
359.000031
 20
63.249985
 30
0.0
 40
1.25
100
AcDbArc
 50
179.999995
 51
0.0
  0
ARC
  5
DEC
100
AcDbEntity
  8
10
100
AcDbCircle
 10
368.999969
 20
63.249985
 30
0.0
 40
1.25
100
AcDbArc
 50
179.999995
 51
0.0
  0
ARC
  5
DED
100
AcDbEntity
  8
10
100
AcDbCircle
 10
378.999969
 20
63.249985
 30
0.0
 40
1.25
100
AcDbArc
 50
179.999995
 51
0.0
  0
ARC
  5
DEE
100
AcDbEntity
  8
10
100
AcDbCircle
 10
374.000031
 20
63.249985
 30
0.0
 40
1.25
100
AcDbArc
 50
179.999995
 51
0.0
  0
ARC
  5
DEF
100
AcDbEntity
  8
10
100
AcDbCircle
 10
383.999969
 20
63.249985
 30
0.0
 40
1.25
100
AcDbArc
 50
179.999995
 51
0.0
  0
ARC
  5
DF0
100
AcDbEntity
  8
10
100
AcDbCircle
 10
363.999969
 20
120.75
 30
0.0
 40
1.25
100
AcDbArc
 50
0.0
 51
180.000005
  0
ARC
  5
DF1
100
AcDbEntity
  8
10
100
AcDbCircle
 10
359.000031
 20
120.75
 30
0.0
 40
1.25
100
AcDbArc
 50
0.0
 51
180.000005
  0
ARC
  5
DF2
100
AcDbEntity
  8
10
100
AcDbCircle
 10
368.999969
 20
120.75
 30
0.0
 40
1.25
100
AcDbArc
 50
0.0
 51
180.000005
  0
ARC
  5
DF3
100
AcDbEntity
  8
10
100
AcDbCircle
 10
378.999969
 20
120.75
 30
0.0
 40
1.25
100
AcDbArc
 50
0.0
 51
180.000005
  0
ARC
  5
DF4
100
AcDbEntity
  8
10
100
AcDbCircle
 10
374.000031
 20
120.75
 30
0.0
 40
1.25
100
AcDbArc
 50
0.0
 51
180.000005
  0
ARC
  5
DF5
100
AcDbEntity
  8
10
100
AcDbCircle
 10
383.999969
 20
120.75
 30
0.0
 40
1.25
100
AcDbArc
 50
0.0
 51
180.000005
  0
LINE
  5
DF6
100
AcDbEntity
  8
10
100
AcDbLine
 10
390.249969
 20
63.249985
 30
0.0
 11
390.249969
 21
120.75
 31
0.0
  0
LINE
  5
DF7
100
AcDbEntity
  8
10
100
AcDbLine
 10
387.749969
 20
63.249985
 30
0.0
 11
387.749969
 21
120.75
 31
0.0
  0
LINE
  5
DF8
100
AcDbEntity
  8
10
100
AcDbLine
 10
395.249969
 20
63.249985
 30
0.0
 11
395.249969
 21
120.75
 31
0.0
  0
LINE
  5
DF9
100
AcDbEntity
  8
10
100
AcDbLine
 10
392.749969
 20
63.249985
 30
0.0
 11
392.749969
 21
120.75
 31
0.0
  0
LINE
  5
DFA
100
AcDbEntity
  8
10
100
AcDbLine
 10
400.250031
 20
63.249985
 30
0.0
 11
400.250031
 21
120.75
 31
0.0
  0
LINE
  5
DFB
100
AcDbEntity
  8
10
100
AcDbLine
 10
397.750031
 20
63.249985
 30
0.0
 11
397.750031
 21
120.75
 31
0.0
  0
LINE
  5
DFC
100
AcDbEntity
  8
10
100
AcDbLine
 10
405.249969
 20
63.249985
 30
0.0
 11
405.249969
 21
120.75
 31
0.0
  0
LINE
  5
DFD
100
AcDbEntity
  8
10
100
AcDbLine
 10
402.749969
 20
63.249985
 30
0.0
 11
402.749969
 21
120.75
 31
0.0
  0
LINE
  5
DFE
100
AcDbEntity
  8
10
100
AcDbLine
 10
410.249969
 20
63.249985
 30
0.0
 11
410.249969
 21
120.75
 31
0.0
  0
LINE
  5
DFF
100
AcDbEntity
  8
10
100
AcDbLine
 10
407.749969
 20
63.249985
 30
0.0
 11
407.749969
 21
120.75
 31
0.0
  0
LINE
  5
E00
100
AcDbEntity
  8
10
100
AcDbLine
 10
415.250031
 20
63.249985
 30
0.0
 11
415.250031
 21
120.75
 31
0.0
  0
LINE
  5
E01
100
AcDbEntity
  8
10
100
AcDbLine
 10
412.749969
 20
63.249985
 30
0.0
 11
412.749969
 21
120.75
 31
0.0
  0
ARC
  5
E02
100
AcDbEntity
  8
10
100
AcDbCircle
 10
393.999969
 20
63.249985
 30
0.0
 40
1.25
100
AcDbArc
 50
179.999995
 51
0.0
  0
ARC
  5
E03
100
AcDbEntity
  8
10
100
AcDbCircle
 10
389.000031
 20
63.249985
 30
0.0
 40
1.25
100
AcDbArc
 50
179.999995
 51
0.0
  0
ARC
  5
E04
100
AcDbEntity
  8
10
100
AcDbCircle
 10
398.999969
 20
63.249985
 30
0.0
 40
1.25
100
AcDbArc
 50
179.999995
 51
0.0
  0
ARC
  5
E05
100
AcDbEntity
  8
10
100
AcDbCircle
 10
409.000031
 20
63.249985
 30
0.0
 40
1.25
100
AcDbArc
 50
179.999995
 51
0.0
  0
ARC
  5
E06
100
AcDbEntity
  8
10
100
AcDbCircle
 10
403.999969
 20
63.249985
 30
0.0
 40
1.25
100
AcDbArc
 50
179.999995
 51
0.0
  0
ARC
  5
E07
100
AcDbEntity
  8
10
100
AcDbCircle
 10
413.999969
 20
63.249985
 30
0.0
 40
1.25
100
AcDbArc
 50
179.999995
 51
0.0
  0
ARC
  5
E08
100
AcDbEntity
  8
10
100
AcDbCircle
 10
393.999969
 20
120.75
 30
0.0
 40
1.25
100
AcDbArc
 50
0.0
 51
180.000005
  0
ARC
  5
E09
100
AcDbEntity
  8
10
100
AcDbCircle
 10
389.000031
 20
120.75
 30
0.0
 40
1.25
100
AcDbArc
 50
0.0
 51
180.000005
  0
ARC
  5
E0A
100
AcDbEntity
  8
10
100
AcDbCircle
 10
398.999969
 20
120.75
 30
0.0
 40
1.25
100
AcDbArc
 50
0.0
 51
180.000005
  0
ARC
  5
E0B
100
AcDbEntity
  8
10
100
AcDbCircle
 10
409.000031
 20
120.75
 30
0.0
 40
1.25
100
AcDbArc
 50
0.0
 51
180.000005
  0
ARC
  5
E0C
100
AcDbEntity
  8
10
100
AcDbCircle
 10
403.999969
 20
120.75
 30
0.0
 40
1.25
100
AcDbArc
 50
0.0
 51
180.000005
  0
ARC
  5
E0D
100
AcDbEntity
  8
10
100
AcDbCircle
 10
413.999969
 20
120.75
 30
0.0
 40
1.25
100
AcDbArc
 50
0.0
 51
180.000005
  0
ARC
  5
E0E
100
AcDbEntity
  8
10
100
AcDbCircle
 10
443.999969
 20
63.249985
 30
0.0
 40
1.25
100
AcDbArc
 50
179.999995
 51
0.0
  0
ARC
  5
E0F
100
AcDbEntity
  8
10
100
AcDbCircle
 10
443.999969
 20
120.75
 30
0.0
 40
1.25
100
AcDbArc
 50
0.0
 51
180.000005
  0
LINE
  5
E10
100
AcDbEntity
  8
10
100
AcDbLine
 10
420.249969
 20
63.249985
 30
0.0
 11
420.249969
 21
120.75
 31
0.0
  0
LINE
  5
E11
100
AcDbEntity
  8
10
100
AcDbLine
 10
417.750031
 20
63.249985
 30
0.0
 11
417.750031
 21
120.75
 31
0.0
  0
LINE
  5
E12
100
AcDbEntity
  8
10
100
AcDbLine
 10
425.249969
 20
63.249985
 30
0.0
 11
425.249969
 21
120.75
 31
0.0
  0
LINE
  5
E13
100
AcDbEntity
  8
10
100
AcDbLine
 10
422.749969
 20
63.249985
 30
0.0
 11
422.749969
 21
120.75
 31
0.0
  0
LINE
  5
E14
100
AcDbEntity
  8
10
100
AcDbLine
 10
430.250031
 20
63.249985
 30
0.0
 11
430.250031
 21
120.75
 31
0.0
  0
LINE
  5
E15
100
AcDbEntity
  8
10
100
AcDbLine
 10
427.749969
 20
63.249985
 30
0.0
 11
427.749969
 21
120.75
 31
0.0
  0
LINE
  5
E16
100
AcDbEntity
  8
10
100
AcDbLine
 10
435.249969
 20
63.249985
 30
0.0
 11
435.249969
 21
120.75
 31
0.0
  0
LINE
  5
E17
100
AcDbEntity
  8
10
100
AcDbLine
 10
432.750031
 20
63.249985
 30
0.0
 11
432.750031
 21
120.75
 31
0.0
  0
LINE
  5
E18
100
AcDbEntity
  8
10
100
AcDbLine
 10
440.249969
 20
63.249985
 30
0.0
 11
440.249969
 21
120.75
 31
0.0
  0
LINE
  5
E19
100
AcDbEntity
  8
10
100
AcDbLine
 10
437.749969
 20
63.249985
 30
0.0
 11
437.749969
 21
120.75
 31
0.0
  0
LINE
  5
E1A
100
AcDbEntity
  8
10
100
AcDbLine
 10
442.749969
 20
63.249985
 30
0.0
 11
442.749969
 21
120.75
 31
0.0
  0
ARC
  5
E1B
100
AcDbEntity
  8
10
100
AcDbCircle
 10
428.999969
 20
63.249985
 30
0.0
 40
1.25
100
AcDbArc
 50
179.999995
 51
0.0
  0
ARC
  5
E1C
100
AcDbEntity
  8
10
100
AcDbCircle
 10
418.999969
 20
63.249985
 30
0.0
 40
1.25
100
AcDbArc
 50
179.999995
 51
0.0
  0
ARC
  5
E1D
100
AcDbEntity
  8
10
100
AcDbCircle
 10
424.000031
 20
63.249985
 30
0.0
 40
1.25
100
AcDbArc
 50
179.999995
 51
0.0
  0
ARC
  5
E1E
100
AcDbEntity
  8
10
100
AcDbCircle
 10
433.999969
 20
63.249985
 30
0.0
 40
1.25
100
AcDbArc
 50
179.999995
 51
0.0
  0
ARC
  5
E1F
100
AcDbEntity
  8
10
100
AcDbCircle
 10
439.000031
 20
63.249985
 30
0.0
 40
1.25
100
AcDbArc
 50
179.999995
 51
0.0
  0
ARC
  5
E20
100
AcDbEntity
  8
10
100
AcDbCircle
 10
428.999969
 20
120.75
 30
0.0
 40
1.25
100
AcDbArc
 50
0.0
 51
180.000005
  0
ARC
  5
E21
100
AcDbEntity
  8
10
100
AcDbCircle
 10
418.999969
 20
120.75
 30
0.0
 40
1.25
100
AcDbArc
 50
0.0
 51
180.000005
  0
ARC
  5
E22
100
AcDbEntity
  8
10
100
AcDbCircle
 10
424.000031
 20
120.75
 30
0.0
 40
1.25
100
AcDbArc
 50
0.0
 51
180.000005
  0
ARC
  5
E23
100
AcDbEntity
  8
10
100
AcDbCircle
 10
433.999969
 20
120.75
 30
0.0
 40
1.25
100
AcDbArc
 50
0.0
 51
180.000005
  0
ARC
  5
E24
100
AcDbEntity
  8
10
100
AcDbCircle
 10
439.000031
 20
120.75
 30
0.0
 40
1.25
100
AcDbArc
 50
0.0
 51
180.000005
  0
LINE
  5
E25
100
AcDbEntity
  8
10
100
AcDbLine
 10
445.249969
 20
63.249985
 30
0.0
 11
445.249969
 21
120.75
 31
0.0
  0
LINE
  5
E26
100
AcDbEntity
  8
10
100
AcDbLine
 10
450.250031
 20
63.249985
 30
0.0
 11
450.250031
 21
120.75
 31
0.0
  0
LINE
  5
E27
100
AcDbEntity
  8
10
100
AcDbLine
 10
447.750031
 20
63.249985
 30
0.0
 11
447.750031
 21
120.75
 31
0.0
  0
LINE
  5
E28
100
AcDbEntity
  8
10
100
AcDbLine
 10
455.249969
 20
63.249985
 30
0.0
 11
455.249969
 21
120.75
 31
0.0
  0
LINE
  5
E29
100
AcDbEntity
  8
10
100
AcDbLine
 10
452.749969
 20
63.249985
 30
0.0
 11
452.749969
 21
120.75
 31
0.0
  0
LINE
  5
E2A
100
AcDbEntity
  8
10
100
AcDbLine
 10
460.249969
 20
63.249985
 30
0.0
 11
460.249969
 21
120.75
 31
0.0
  0
LINE
  5
E2B
100
AcDbEntity
  8
10
100
AcDbLine
 10
457.749969
 20
63.249985
 30
0.0
 11
457.749969
 21
120.75
 31
0.0
  0
ARC
  5
E2C
100
AcDbEntity
  8
10
100
AcDbCircle
 10
459.000031
 20
63.249985
 30
0.0
 40
1.25
100
AcDbArc
 50
179.999995
 51
0.0
  0
ARC
  5
E2D
100
AcDbEntity
  8
10
100
AcDbCircle
 10
448.999969
 20
63.249985
 30
0.0
 40
1.25
100
AcDbArc
 50
179.999995
 51
0.0
  0
ARC
  5
E2E
100
AcDbEntity
  8
10
100
AcDbCircle
 10
453.999969
 20
63.249985
 30
0.0
 40
1.25
100
AcDbArc
 50
179.999995
 51
0.0
  0
ARC
  5
E2F
100
AcDbEntity
  8
10
100
AcDbCircle
 10
459.000031
 20
120.75
 30
0.0
 40
1.25
100
AcDbArc
 50
0.0
 51
180.000005
  0
ARC
  5
E30
100
AcDbEntity
  8
10
100
AcDbCircle
 10
448.999969
 20
120.75
 30
0.0
 40
1.25
100
AcDbArc
 50
0.0
 51
180.000005
  0
ARC
  5
E31
100
AcDbEntity
  8
10
100
AcDbCircle
 10
453.999969
 20
120.75
 30
0.0
 40
1.25
100
AcDbArc
 50
0.0
 51
180.000005
  0
ARC
  5
E32
100
AcDbEntity
  8
10
100
AcDbCircle
 10
359.000031
 20
268.249969
 30
0.0
 40
1.25
100
AcDbArc
 50
0.0
 51
180.000005
  0
ARC
  5
E33
100
AcDbEntity
  8
10
100
AcDbCircle
 10
363.999969
 20
268.249969
 30
0.0
 40
1.25
100
AcDbArc
 50
0.0
 51
180.000005
  0
ARC
  5
E34
100
AcDbEntity
  8
10
100
AcDbCircle
 10
368.999969
 20
268.249969
 30
0.0
 40
1.25
100
AcDbArc
 50
0.0
 51
180.000005
  0
ARC
  5
E35
100
AcDbEntity
  8
10
100
AcDbCircle
 10
374.000031
 20
268.249969
 30
0.0
 40
1.25
100
AcDbArc
 50
0.0
 51
180.000005
  0
ARC
  5
E36
100
AcDbEntity
  8
10
100
AcDbCircle
 10
378.999969
 20
268.249969
 30
0.0
 40
1.25
100
AcDbArc
 50
0.0
 51
180.000005
  0
ARC
  5
E37
100
AcDbEntity
  8
10
100
AcDbCircle
 10
383.999969
 20
268.249969
 30
0.0
 40
1.25
100
AcDbArc
 50
0.0
 51
180.000005
  0
ARC
  5
E38
100
AcDbEntity
  8
10
100
AcDbCircle
 10
389.000031
 20
268.249969
 30
0.0
 40
1.25
100
AcDbArc
 50
0.0
 51
180.000005
  0
ARC
  5
E39
100
AcDbEntity
  8
10
100
AcDbCircle
 10
393.999969
 20
268.249969
 30
0.0
 40
1.25
100
AcDbArc
 50
0.0
 51
180.000005
  0
ARC
  5
E3A
100
AcDbEntity
  8
10
100
AcDbCircle
 10
398.999969
 20
268.249969
 30
0.0
 40
1.25
100
AcDbArc
 50
0.0
 51
180.000005
  0
ARC
  5
E3B
100
AcDbEntity
  8
10
100
AcDbCircle
 10
403.999969
 20
268.249969
 30
0.0
 40
1.25
100
AcDbArc
 50
0.0
 51
180.000005
  0
ARC
  5
E3C
100
AcDbEntity
  8
10
100
AcDbCircle
 10
409.000031
 20
268.249969
 30
0.0
 40
1.25
100
AcDbArc
 50
0.0
 51
180.000005
  0
ARC
  5
E3D
100
AcDbEntity
  8
10
100
AcDbCircle
 10
413.999969
 20
268.249969
 30
0.0
 40
1.25
100
AcDbArc
 50
0.0
 51
180.000005
  0
LINE
  5
E3E
100
AcDbEntity
  8
10
100
AcDbLine
 10
360.999969
 20
199.5
 30
0.0
 11
414.999969
 21
199.5
 31
0.0
  0
LINE
  5
E3F
100
AcDbEntity
  8
10
100
AcDbLine
 10
360.249969
 20
210.75
 30
0.0
 11
360.249969
 21
268.249969
 31
0.0
  0
LINE
  5
E40
100
AcDbEntity
  8
10
100
AcDbLine
 10
357.749969
 20
210.75
 30
0.0
 11
357.749969
 21
268.249969
 31
0.0
  0
LINE
  5
E41
100
AcDbEntity
  8
10
100
AcDbLine
 10
365.250031
 20
210.75
 30
0.0
 11
365.250031
 21
268.249969
 31
0.0
  0
LINE
  5
E42
100
AcDbEntity
  8
10
100
AcDbLine
 10
362.749969
 20
210.75
 30
0.0
 11
362.749969
 21
268.249969
 31
0.0
  0
LINE
  5
E43
100
AcDbEntity
  8
10
100
AcDbLine
 10
370.249969
 20
210.75
 30
0.0
 11
370.249969
 21
268.249969
 31
0.0
  0
LINE
  5
E44
100
AcDbEntity
  8
10
100
AcDbLine
 10
367.750031
 20
210.75
 30
0.0
 11
367.750031
 21
268.249969
 31
0.0
  0
LINE
  5
E45
100
AcDbEntity
  8
10
100
AcDbLine
 10
375.249969
 20
210.75
 30
0.0
 11
375.249969
 21
268.249969
 31
0.0
  0
LINE
  5
E46
100
AcDbEntity
  8
10
100
AcDbLine
 10
372.749969
 20
210.75
 30
0.0
 11
372.749969
 21
268.249969
 31
0.0
  0
LINE
  5
E47
100
AcDbEntity
  8
10
100
AcDbLine
 10
380.250031
 20
210.75
 30
0.0
 11
380.250031
 21
268.249969
 31
0.0
  0
LINE
  5
E48
100
AcDbEntity
  8
10
100
AcDbLine
 10
377.749969
 20
210.75
 30
0.0
 11
377.749969
 21
268.249969
 31
0.0
  0
LINE
  5
E49
100
AcDbEntity
  8
10
100
AcDbLine
 10
385.249969
 20
210.75
 30
0.0
 11
385.249969
 21
268.249969
 31
0.0
  0
LINE
  5
E4A
100
AcDbEntity
  8
10
100
AcDbLine
 10
382.750031
 20
210.75
 30
0.0
 11
382.750031
 21
268.249969
 31
0.0
  0
ARC
  5
E4B
100
AcDbEntity
  8
10
100
AcDbCircle
 10
363.999969
 20
210.75
 30
0.0
 40
1.25
100
AcDbArc
 50
179.999995
 51
0.0
  0
ARC
  5
E4C
100
AcDbEntity
  8
10
100
AcDbCircle
 10
359.000031
 20
210.75
 30
0.0
 40
1.25
100
AcDbArc
 50
179.999995
 51
0.0
  0
ARC
  5
E4D
100
AcDbEntity
  8
10
100
AcDbCircle
 10
368.999969
 20
210.75
 30
0.0
 40
1.25
100
AcDbArc
 50
179.999995
 51
0.0
  0
ARC
  5
E4E
100
AcDbEntity
  8
10
100
AcDbCircle
 10
378.999969
 20
210.75
 30
0.0
 40
1.25
100
AcDbArc
 50
179.999995
 51
0.0
  0
ARC
  5
E4F
100
AcDbEntity
  8
10
100
AcDbCircle
 10
374.000031
 20
210.75
 30
0.0
 40
1.25
100
AcDbArc
 50
179.999995
 51
0.0
  0
ARC
  5
E50
100
AcDbEntity
  8
10
100
AcDbCircle
 10
383.999969
 20
210.75
 30
0.0
 40
1.25
100
AcDbArc
 50
179.999995
 51
0.0
  0
LINE
  5
E51
100
AcDbEntity
  8
10
100
AcDbLine
 10
390.249969
 20
210.75
 30
0.0
 11
390.249969
 21
268.249969
 31
0.0
  0
LINE
  5
E52
100
AcDbEntity
  8
10
100
AcDbLine
 10
387.749969
 20
210.75
 30
0.0
 11
387.749969
 21
268.249969
 31
0.0
  0
LINE
  5
E53
100
AcDbEntity
  8
10
100
AcDbLine
 10
395.249969
 20
210.75
 30
0.0
 11
395.249969
 21
268.249969
 31
0.0
  0
LINE
  5
E54
100
AcDbEntity
  8
10
100
AcDbLine
 10
392.749969
 20
210.75
 30
0.0
 11
392.749969
 21
268.249969
 31
0.0
  0
LINE
  5
E55
100
AcDbEntity
  8
10
100
AcDbLine
 10
400.250031
 20
210.75
 30
0.0
 11
400.250031
 21
268.249969
 31
0.0
  0
LINE
  5
E56
100
AcDbEntity
  8
10
100
AcDbLine
 10
397.750031
 20
210.75
 30
0.0
 11
397.750031
 21
268.249969
 31
0.0
  0
LINE
  5
E57
100
AcDbEntity
  8
10
100
AcDbLine
 10
405.249969
 20
210.75
 30
0.0
 11
405.249969
 21
268.249969
 31
0.0
  0
LINE
  5
E58
100
AcDbEntity
  8
10
100
AcDbLine
 10
402.749969
 20
210.75
 30
0.0
 11
402.749969
 21
268.249969
 31
0.0
  0
LINE
  5
E59
100
AcDbEntity
  8
10
100
AcDbLine
 10
410.249969
 20
210.75
 30
0.0
 11
410.249969
 21
268.249969
 31
0.0
  0
LINE
  5
E5A
100
AcDbEntity
  8
10
100
AcDbLine
 10
407.749969
 20
210.75
 30
0.0
 11
407.749969
 21
268.249969
 31
0.0
  0
LINE
  5
E5B
100
AcDbEntity
  8
10
100
AcDbLine
 10
415.250031
 20
210.75
 30
0.0
 11
415.250031
 21
268.249969
 31
0.0
  0
LINE
  5
E5C
100
AcDbEntity
  8
10
100
AcDbLine
 10
412.749969
 20
210.75
 30
0.0
 11
412.749969
 21
268.249969
 31
0.0
  0
ARC
  5
E5D
100
AcDbEntity
  8
10
100
AcDbCircle
 10
393.999969
 20
210.75
 30
0.0
 40
1.25
100
AcDbArc
 50
179.999995
 51
0.0
  0
ARC
  5
E5E
100
AcDbEntity
  8
10
100
AcDbCircle
 10
389.000031
 20
210.75
 30
0.0
 40
1.25
100
AcDbArc
 50
179.999995
 51
0.0
  0
ARC
  5
E5F
100
AcDbEntity
  8
10
100
AcDbCircle
 10
398.999969
 20
210.75
 30
0.0
 40
1.25
100
AcDbArc
 50
179.999995
 51
0.0
  0
ARC
  5
E60
100
AcDbEntity
  8
10
100
AcDbCircle
 10
409.000031
 20
210.75
 30
0.0
 40
1.25
100
AcDbArc
 50
179.999995
 51
0.0
  0
ARC
  5
E61
100
AcDbEntity
  8
10
100
AcDbCircle
 10
403.999969
 20
210.75
 30
0.0
 40
1.25
100
AcDbArc
 50
179.999995
 51
0.0
  0
ARC
  5
E62
100
AcDbEntity
  8
10
100
AcDbCircle
 10
413.999969
 20
210.75
 30
0.0
 40
1.25
100
AcDbArc
 50
179.999995
 51
0.0
  0
ARC
  5
E63
100
AcDbEntity
  8
10
100
AcDbCircle
 10
418.999969
 20
268.249969
 30
0.0
 40
1.25
100
AcDbArc
 50
0.0
 51
180.000005
  0
ARC
  5
E64
100
AcDbEntity
  8
10
100
AcDbCircle
 10
424.000031
 20
268.249969
 30
0.0
 40
1.25
100
AcDbArc
 50
0.0
 51
180.000005
  0
ARC
  5
E65
100
AcDbEntity
  8
10
100
AcDbCircle
 10
428.999969
 20
268.249969
 30
0.0
 40
1.25
100
AcDbArc
 50
0.0
 51
180.000005
  0
ARC
  5
E66
100
AcDbEntity
  8
10
100
AcDbCircle
 10
433.999969
 20
268.249969
 30
0.0
 40
1.25
100
AcDbArc
 50
0.0
 51
180.000005
  0
ARC
  5
E67
100
AcDbEntity
  8
10
100
AcDbCircle
 10
439.000031
 20
268.249969
 30
0.0
 40
1.25
100
AcDbArc
 50
0.0
 51
180.000005
  0
ARC
  5
E68
100
AcDbEntity
  8
10
100
AcDbCircle
 10
443.999969
 20
268.249969
 30
0.0
 40
1.25
100
AcDbArc
 50
0.0
 51
180.000005
  0
ARC
  5
E69
100
AcDbEntity
  8
10
100
AcDbCircle
 10
448.999969
 20
268.249969
 30
0.0
 40
1.25
100
AcDbArc
 50
0.0
 51
180.000005
  0
ARC
  5
E6A
100
AcDbEntity
  8
10
100
AcDbCircle
 10
453.999969
 20
268.249969
 30
0.0
 40
1.25
100
AcDbArc
 50
0.0
 51
180.000005
  0
ARC
  5
E6B
100
AcDbEntity
  8
10
100
AcDbCircle
 10
459.000031
 20
268.249969
 30
0.0
 40
1.25
100
AcDbArc
 50
0.0
 51
180.000005
  0
ARC
  5
E6C
100
AcDbEntity
  8
10
100
AcDbCircle
 10
443.999969
 20
210.75
 30
0.0
 40
1.25
100
AcDbArc
 50
179.999995
 51
0.0
  0
LINE
  5
E6D
100
AcDbEntity
  8
10
100
AcDbLine
 10
420.249969
 20
210.75
 30
0.0
 11
420.249969
 21
268.249969
 31
0.0
  0
LINE
  5
E6E
100
AcDbEntity
  8
10
100
AcDbLine
 10
417.750031
 20
210.75
 30
0.0
 11
417.750031
 21
268.249969
 31
0.0
  0
LINE
  5
E6F
100
AcDbEntity
  8
10
100
AcDbLine
 10
425.249969
 20
210.75
 30
0.0
 11
425.249969
 21
268.249969
 31
0.0
  0
LINE
  5
E70
100
AcDbEntity
  8
10
100
AcDbLine
 10
422.749969
 20
210.75
 30
0.0
 11
422.749969
 21
268.249969
 31
0.0
  0
LINE
  5
E71
100
AcDbEntity
  8
10
100
AcDbLine
 10
430.250031
 20
210.75
 30
0.0
 11
430.250031
 21
268.249969
 31
0.0
  0
LINE
  5
E72
100
AcDbEntity
  8
10
100
AcDbLine
 10
427.749969
 20
210.75
 30
0.0
 11
427.749969
 21
268.249969
 31
0.0
  0
LINE
  5
E73
100
AcDbEntity
  8
10
100
AcDbLine
 10
435.249969
 20
210.75
 30
0.0
 11
435.249969
 21
268.249969
 31
0.0
  0
LINE
  5
E74
100
AcDbEntity
  8
10
100
AcDbLine
 10
432.750031
 20
210.75
 30
0.0
 11
432.750031
 21
268.249969
 31
0.0
  0
LINE
  5
E75
100
AcDbEntity
  8
10
100
AcDbLine
 10
440.249969
 20
210.75
 30
0.0
 11
440.249969
 21
268.249969
 31
0.0
  0
LINE
  5
E76
100
AcDbEntity
  8
10
100
AcDbLine
 10
437.749969
 20
210.75
 30
0.0
 11
437.749969
 21
268.249969
 31
0.0
  0
LINE
  5
E77
100
AcDbEntity
  8
10
100
AcDbLine
 10
442.749969
 20
210.75
 30
0.0
 11
442.749969
 21
268.249969
 31
0.0
  0
ARC
  5
E78
100
AcDbEntity
  8
10
100
AcDbCircle
 10
428.999969
 20
210.75
 30
0.0
 40
1.25
100
AcDbArc
 50
179.999995
 51
0.0
  0
ARC
  5
E79
100
AcDbEntity
  8
10
100
AcDbCircle
 10
418.999969
 20
210.75
 30
0.0
 40
1.25
100
AcDbArc
 50
179.999995
 51
0.0
  0
ARC
  5
E7A
100
AcDbEntity
  8
10
100
AcDbCircle
 10
424.000031
 20
210.75
 30
0.0
 40
1.25
100
AcDbArc
 50
179.999995
 51
0.0
  0
ARC
  5
E7B
100
AcDbEntity
  8
10
100
AcDbCircle
 10
433.999969
 20
210.75
 30
0.0
 40
1.25
100
AcDbArc
 50
179.999995
 51
0.0
  0
ARC
  5
E7C
100
AcDbEntity
  8
10
100
AcDbCircle
 10
439.000031
 20
210.75
 30
0.0
 40
1.25
100
AcDbArc
 50
179.999995
 51
0.0
  0
LINE
  5
E7D
100
AcDbEntity
  8
10
100
AcDbLine
 10
445.249969
 20
210.75
 30
0.0
 11
445.249969
 21
268.249969
 31
0.0
  0
LINE
  5
E7E
100
AcDbEntity
  8
10
100
AcDbLine
 10
450.250031
 20
210.75
 30
0.0
 11
450.250031
 21
268.249969
 31
0.0
  0
LINE
  5
E7F
100
AcDbEntity
  8
10
100
AcDbLine
 10
447.750031
 20
210.75
 30
0.0
 11
447.750031
 21
268.249969
 31
0.0
  0
LINE
  5
E80
100
AcDbEntity
  8
10
100
AcDbLine
 10
455.249969
 20
210.75
 30
0.0
 11
455.249969
 21
268.249969
 31
0.0
  0
LINE
  5
E81
100
AcDbEntity
  8
10
100
AcDbLine
 10
452.749969
 20
210.75
 30
0.0
 11
452.749969
 21
268.249969
 31
0.0
  0
LINE
  5
E82
100
AcDbEntity
  8
10
100
AcDbLine
 10
460.249969
 20
210.75
 30
0.0
 11
460.249969
 21
268.249969
 31
0.0
  0
LINE
  5
E83
100
AcDbEntity
  8
10
100
AcDbLine
 10
457.749969
 20
210.75
 30
0.0
 11
457.749969
 21
268.249969
 31
0.0
  0
ARC
  5
E84
100
AcDbEntity
  8
10
100
AcDbCircle
 10
459.000031
 20
210.75
 30
0.0
 40
1.25
100
AcDbArc
 50
179.999995
 51
0.0
  0
ARC
  5
E85
100
AcDbEntity
  8
10
100
AcDbCircle
 10
448.999969
 20
210.75
 30
0.0
 40
1.25
100
AcDbArc
 50
179.999995
 51
0.0
  0
ARC
  5
E86
100
AcDbEntity
  8
10
100
AcDbCircle
 10
453.999969
 20
210.75
 30
0.0
 40
1.25
100
AcDbArc
 50
179.999995
 51
0.0
  0
LINE
  5
E92
100
AcDbEntity
  8
10
100
AcDbLine
 10
474.500031
 20
45.633972
 30
0.0
 11
474.500031
 21
289.999985
 31
0.0
  0
LINE
  5
E93
100
AcDbEntity
  8
10
100
AcDbLine
 10
475.000031
 20
40.5
 30
0.0
 11
475.000031
 21
45.499924
 31
0.0
  0
LINE
  5
E94
100
AcDbEntity
  8
10
100
AcDbLine
 10
475.000031
 20
40.5
 30
0.0
 11
474.500031
 21
40.5
 31
0.0
  0
LINE
  5
E95
100
AcDbEntity
  8
10
100
AcDbLine
 10
474.500031
 20
40.5
 30
0.0
 11
474.500031
 21
40.0
 31
0.0
  0
LINE
  5
E96
100
AcDbEntity
  8
10
100
AcDbLine
 10
475.000031
 20
45.633972
 30
0.0
 11
474.500031
 21
45.633972
 31
0.0
  0
LINE
  5
E97
100
AcDbEntity
  8
10
100
AcDbLine
 10
475.000031
 20
55.5
 30
0.0
 11
474.500031
 21
55.5
 31
0.0
  0
LINE
  5
E98
100
AcDbEntity
  8
10
100
AcDbLine
 10
475.000031
 20
45.5
 30
0.0
 11
475.000031
 21
55.5
 31
0.0
  0
LINE
  5
EA9
100
AcDbEntity
  8
10
100
AcDbLine
 10
475.000031
 20
274.499985
 30
0.0
 11
475.000031
 21
289.499985
 31
0.0
  0
LINE
  5
EAA
100
AcDbEntity
  8
10
100
AcDbLine
 10
475.000031
 20
274.499985
 30
0.0
 11
474.500031
 21
274.499985
 31
0.0
  0
LINE
  5
EAB
100
AcDbEntity
  8
10
100
AcDbLine
 10
475.000031
 20
289.499985
 30
0.0
 11
474.500031
 21
289.499985
 31
0.0
  0
LINE
  5
125D
100
AcDbEntity
  8
10
100
AcDbLine
 10
130.999998
 20
176.299999
 30
0.0
 11
120.85
 21
176.299999
 31
0.0
  0
LINE
  5
125E
100
AcDbEntity
  8
10
100
AcDbLine
 10
130.999998
 20
209.700001
 30
0.0
 11
120.85
 21
209.700001
 31
0.0
  0
LINE
  5
125F
100
AcDbEntity
  8
10
100
AcDbLine
 10
113.499997
 20
186.740754
 30
0.0
 11
113.499997
 21
199.259246
 31
0.0
  0
LINE
  5
1261
100
AcDbEntity
  8
10
100
AcDbLine
 10
114.799998
 20
204.7
 30
0.0
 11
114.799998
 21
181.3
 31
0.0
  0
LINE
  5
1262
100
AcDbEntity
  8
10
100
AcDbLine
 10
121.599999
 20
204.7
 30
0.0
 11
121.599999
 21
181.3
 31
0.0
  0
LINE
  5
1263
100
AcDbEntity
  8
10
100
AcDbLine
 10
111.699997
 20
186.3
 30
0.0
 11
111.699997
 21
199.7
 31
0.0
  0
LINE
  5
1264
100
AcDbEntity
  8
10
100
AcDbLine
 10
105.199999
 20
209.700001
 30
0.0
 11
105.199999
 21
176.299999
 31
0.0
  0
LINE
  5
1265
100
AcDbEntity
  8
10
100
AcDbLine
 10
107.199997
 20
186.183612
 30
0.0
 11
107.199997
 21
199.816388
 31
0.0
  0
LINE
  5
1266
100
AcDbEntity
  8
10
100
AcDbLine
 10
108.999997
 20
186.3
 30
0.0
 11
108.999997
 21
199.7
 31
0.0
  0
LINE
  5
1268
100
AcDbEntity
  8
10
100
AcDbLine
 10
115.649997
 20
176.299999
 30
0.0
 11
105.199999
 21
176.299999
 31
0.0
  0
LINE
  5
1269
100
AcDbEntity
  8
10
100
AcDbLine
 10
120.85
 20
181.3
 30
0.0
 11
120.85
 21
176.299999
 31
0.0
  0
LINE
  5
126A
100
AcDbEntity
  8
10
100
AcDbLine
 10
115.649997
 20
181.3
 30
0.0
 11
115.649997
 21
176.299999
 31
0.0
  0
CIRCLE
  5
126B
100
AcDbEntity
  8
10
100
AcDbCircle
 10
110.349997
 20
179.275
 30
0.0
 40
1.0
  0
LINE
  5
126D
100
AcDbEntity
  8
10
100
AcDbLine
 10
114.049998
 20
183.725
 30
0.0
 11
114.049998
 21
181.225
 31
0.0
  0
LINE
  5
126E
100
AcDbEntity
  8
10
100
AcDbLine
 10
111.849997
 20
183.725
 30
0.0
 11
111.849997
 21
181.225
 31
0.0
  0
LINE
  5
126F
100
AcDbEntity
  8
10
100
AcDbLine
 10
111.849997
 20
181.225
 30
0.0
 11
114.049998
 21
181.225
 31
0.0
  0
ARC
  5
1270
100
AcDbEntity
  8
10
100
AcDbCircle
 10
112.299998
 20
186.740754
 30
0.0
 40
1.2
100
AcDbArc
 50
278.130101
 51
0.0
  0
LINE
  5
1271
100
AcDbEntity
  8
10
100
AcDbLine
 10
106.649996
 20
181.225
 30
0.0
 11
108.849997
 21
181.225
 31
0.0
  0
LINE
  5
1272
100
AcDbEntity
  8
10
100
AcDbLine
 10
106.649996
 20
183.725
 30
0.0
 11
106.649996
 21
181.225
 31
0.0
  0
LINE
  5
1273
100
AcDbEntity
  8
10
100
AcDbLine
 10
108.849997
 20
183.725
 30
0.0
 11
108.849997
 21
181.225
 31
0.0
  0
ARC
  5
1274
100
AcDbEntity
  8
10
100
AcDbCircle
 10
108.399996
 20
186.183612
 30
0.0
 40
1.2
100
AcDbArc
 50
179.999995
 51
278.130101
  0
LINE
  5
1275
100
AcDbEntity
  8
10
100
AcDbLine
 10
106.649996
 20
183.725
 30
0.0
 11
114.049998
 21
183.725
 31
0.0
  0
LINE
  5
1276
100
AcDbEntity
  8
10
100
AcDbLine
 10
108.849997
 20
183.075
 30
0.0
 11
111.849997
 21
183.075
 31
0.0
  0
LINE
  5
1277
100
AcDbEntity
  8
10
100
AcDbLine
 10
112.469702
 20
185.552815
 30
0.0
 11
108.569703
 21
184.995672
 31
0.0
  0
LINE
  5
1278
100
AcDbEntity
  8
10
100
AcDbLine
 10
108.999997
 20
186.3
 30
0.0
 11
111.699997
 21
186.3
 31
0.0
  0
LINE
  5
1279
100
AcDbEntity
  8
10
100
AcDbLine
 10
115.649997
 20
181.3
 30
0.0
 11
114.799998
 21
181.3
 31
0.0
  0
LINE
  5
127A
100
AcDbEntity
  8
10
100
AcDbLine
 10
121.599999
 20
181.3
 30
0.0
 11
120.85
 21
181.3
 31
0.0
  0
LINE
  5
127B
100
AcDbEntity
  8
10
100
AcDbLine
 10
115.649997
 20
209.700001
 30
0.0
 11
105.199999
 21
209.700001
 31
0.0
  0
CIRCLE
  5
127D
100
AcDbEntity
  8
10
100
AcDbCircle
 10
110.349997
 20
206.725
 30
0.0
 40
1.0
  0
LINE
  5
127E
100
AcDbEntity
  8
10
100
AcDbLine
 10
114.049998
 20
204.775
 30
0.0
 11
114.049998
 21
202.275
 31
0.0
  0
LINE
  5
127F
100
AcDbEntity
  8
10
100
AcDbLine
 10
111.849997
 20
204.775
 30
0.0
 11
111.849997
 21
202.275
 31
0.0
  0
LINE
  5
1280
100
AcDbEntity
  8
10
100
AcDbLine
 10
111.849997
 20
204.775
 30
0.0
 11
114.049998
 21
204.775
 31
0.0
  0
ARC
  5
1281
100
AcDbEntity
  8
10
100
AcDbCircle
 10
112.299998
 20
199.259246
 30
0.0
 40
1.2
100
AcDbArc
 50
0.0
 51
81.869899
  0
LINE
  5
1282
100
AcDbEntity
  8
10
100
AcDbLine
 10
106.649996
 20
204.775
 30
0.0
 11
108.849997
 21
204.775
 31
0.0
  0
LINE
  5
1283
100
AcDbEntity
  8
10
100
AcDbLine
 10
106.649996
 20
204.775
 30
0.0
 11
106.649996
 21
202.275
 31
0.0
  0
LINE
  5
1284
100
AcDbEntity
  8
10
100
AcDbLine
 10
108.849997
 20
204.775
 30
0.0
 11
108.849997
 21
202.275
 31
0.0
  0
ARC
  5
1285
100
AcDbEntity
  8
10
100
AcDbCircle
 10
108.399996
 20
199.816388
 30
0.0
 40
1.2
100
AcDbArc
 50
81.869899
 51
180.000005
  0
LINE
  5
1286
100
AcDbEntity
  8
10
100
AcDbLine
 10
106.649996
 20
202.275
 30
0.0
 11
114.049998
 21
202.275
 31
0.0
  0
LINE
  5
1287
100
AcDbEntity
  8
10
100
AcDbLine
 10
108.849997
 20
202.925
 30
0.0
 11
111.849997
 21
202.925
 31
0.0
  0
LINE
  5
1288
100
AcDbEntity
  8
10
100
AcDbLine
 10
112.469702
 20
200.447185
 30
0.0
 11
108.569703
 21
201.004328
 31
0.0
  0
LINE
  5
1289
100
AcDbEntity
  8
10
100
AcDbLine
 10
108.999997
 20
199.7
 30
0.0
 11
111.699997
 21
199.7
 31
0.0
  0
LINE
  5
128A
100
AcDbEntity
  8
10
100
AcDbLine
 10
115.649997
 20
204.7
 30
0.0
 11
114.799998
 21
204.7
 31
0.0
  0
LINE
  5
128B
100
AcDbEntity
  8
10
100
AcDbLine
 10
121.599999
 20
204.7
 30
0.0
 11
120.85
 21
204.7
 31
0.0
  0
LINE
  5
128C
100
AcDbEntity
  8
10
100
AcDbLine
 10
115.649997
 20
209.700001
 30
0.0
 11
115.649997
 21
204.7
 31
0.0
  0
LINE
  5
128D
100
AcDbEntity
  8
10
100
AcDbLine
 10
120.85
 20
209.700001
 30
0.0
 11
120.85
 21
204.7
 31
0.0
  0
LINE
  5
128E
100
AcDbEntity
  8
10
100
AcDbLine
 10
129.3
 20
186.740754
 30
0.0
 11
129.3
 21
199.259246
 31
0.0
  0
LINE
  5
1290
100
AcDbEntity
  8
10
100
AcDbLine
 10
130.999998
 20
209.700001
 30
0.0
 11
130.999998
 21
176.299999
 31
0.0
  0
LINE
  5
1291
100
AcDbEntity
  8
10
100
AcDbLine
 10
123.0
 20
186.183612
 30
0.0
 11
123.0
 21
199.816388
 31
0.0
  0
LINE
  5
1292
100
AcDbEntity
  8
10
100
AcDbLine
 10
124.8
 20
186.3
 30
0.0
 11
124.8
 21
199.7
 31
0.0
  0
LINE
  5
1293
100
AcDbEntity
  8
10
100
AcDbLine
 10
127.5
 20
186.3
 30
0.0
 11
127.5
 21
199.7
 31
0.0
  0
CIRCLE
  5
1294
100
AcDbEntity
  8
10
100
AcDbCircle
 10
126.15
 20
179.275
 30
0.0
 40
1.0
  0
LINE
  5
1295
100
AcDbEntity
  8
10
100
AcDbLine
 10
127.65
 20
181.225
 30
0.0
 11
129.85
 21
181.225
 31
0.0
  0
LINE
  5
1297
100
AcDbEntity
  8
10
100
AcDbLine
 10
122.45
 20
183.725
 30
0.0
 11
129.85
 21
183.725
 31
0.0
  0
LINE
  5
1298
100
AcDbEntity
  8
10
100
AcDbLine
 10
127.65
 20
183.725
 30
0.0
 11
127.65
 21
181.225
 31
0.0
  0
LINE
  5
1299
100
AcDbEntity
  8
10
100
AcDbLine
 10
122.45
 20
181.225
 30
0.0
 11
124.65
 21
181.225
 31
0.0
  0
LINE
  5
129A
100
AcDbEntity
  8
10
100
AcDbLine
 10
122.45
 20
183.725
 30
0.0
 11
122.45
 21
181.225
 31
0.0
  0
LINE
  5
129B
100
AcDbEntity
  8
10
100
AcDbLine
 10
124.65
 20
183.725
 30
0.0
 11
124.65
 21
181.225
 31
0.0
  0
ARC
  5
129C
100
AcDbEntity
  8
10
100
AcDbCircle
 10
124.2
 20
186.183612
 30
0.0
 40
1.2
100
AcDbArc
 50
179.999995
 51
278.130101
  0
LINE
  5
129D
100
AcDbEntity
  8
10
100
AcDbLine
 10
124.65
 20
183.075
 30
0.0
 11
127.65
 21
183.075
 31
0.0
  0
LINE
  5
129E
100
AcDbEntity
  8
10
100
AcDbLine
 10
128.269705
 20
185.552815
 30
0.0
 11
124.369705
 21
184.995672
 31
0.0
  0
LINE
  5
129F
100
AcDbEntity
  8
10
100
AcDbLine
 10
124.8
 20
186.3
 30
0.0
 11
127.5
 21
186.3
 31
0.0
  0
ARC
  5
12A0
100
AcDbEntity
  8
10
100
AcDbCircle
 10
128.1
 20
186.740754
 30
0.0
 40
1.2
100
AcDbArc
 50
278.130101
 51
0.0
  0
LINE
  5
12A1
100
AcDbEntity
  8
10
100
AcDbLine
 10
129.85
 20
183.725
 30
0.0
 11
129.85
 21
181.225
 31
0.0
  0
LINE
  5
12A2
100
AcDbEntity
  8
10
100
AcDbLine
 10
127.65
 20
204.775
 30
0.0
 11
129.85
 21
204.775
 31
0.0
  0
LINE
  5
12A4
100
AcDbEntity
  8
10
100
AcDbLine
 10
122.45
 20
202.275
 30
0.0
 11
129.85
 21
202.275
 31
0.0
  0
LINE
  5
12A5
100
AcDbEntity
  8
10
100
AcDbLine
 10
127.65
 20
204.775
 30
0.0
 11
127.65
 21
202.275
 31
0.0
  0
ARC
  5
12A6
100
AcDbEntity
  8
10
100
AcDbCircle
 10
128.1
 20
199.259246
 30
0.0
 40
1.2
100
AcDbArc
 50
0.0
 51
81.869899
  0
LINE
  5
12A7
100
AcDbEntity
  8
10
100
AcDbLine
 10
122.45
 20
204.775
 30
0.0
 11
124.65
 21
204.775
 31
0.0
  0
LINE
  5
12A8
100
AcDbEntity
  8
10
100
AcDbLine
 10
122.45
 20
204.775
 30
0.0
 11
122.45
 21
202.275
 31
0.0
  0
LINE
  5
12A9
100
AcDbEntity
  8
10
100
AcDbLine
 10
124.65
 20
204.775
 30
0.0
 11
124.65
 21
202.275
 31
0.0
  0
ARC
  5
12AA
100
AcDbEntity
  8
10
100
AcDbCircle
 10
124.2
 20
199.816388
 30
0.0
 40
1.2
100
AcDbArc
 50
81.869899
 51
180.000005
  0
CIRCLE
  5
12AB
100
AcDbEntity
  8
10
100
AcDbCircle
 10
126.15
 20
206.725
 30
0.0
 40
1.0
  0
LINE
  5
12AC
100
AcDbEntity
  8
10
100
AcDbLine
 10
124.65
 20
202.925
 30
0.0
 11
127.65
 21
202.925
 31
0.0
  0
LINE
  5
12AD
100
AcDbEntity
  8
10
100
AcDbLine
 10
128.269705
 20
200.447185
 30
0.0
 11
124.369705
 21
201.004328
 31
0.0
  0
LINE
  5
12AE
100
AcDbEntity
  8
10
100
AcDbLine
 10
124.8
 20
199.7
 30
0.0
 11
127.5
 21
199.7
 31
0.0
  0
LINE
  5
12AF
100
AcDbEntity
  8
10
100
AcDbLine
 10
129.85
 20
204.775
 30
0.0
 11
129.85
 21
202.275
 31
0.0
  0
LINE
  5
12B1
100
AcDbEntity
  8
10
100
AcDbLine
 10
130.999998
 20
213.299999
 30
0.0
 11
120.85
 21
213.299999
 31
0.0
  0
LINE
  5
12B2
100
AcDbEntity
  8
10
100
AcDbLine
 10
130.999998
 20
246.700001
 30
0.0
 11
120.85
 21
246.700001
 31
0.0
  0
LINE
  5
12B3
100
AcDbEntity
  8
10
100
AcDbLine
 10
113.499997
 20
223.740754
 30
0.0
 11
113.499997
 21
236.259246
 31
0.0
  0
LINE
  5
12B5
100
AcDbEntity
  8
10
100
AcDbLine
 10
114.799998
 20
241.7
 30
0.0
 11
114.799998
 21
218.3
 31
0.0
  0
LINE
  5
12B6
100
AcDbEntity
  8
10
100
AcDbLine
 10
121.599999
 20
241.7
 30
0.0
 11
121.599999
 21
218.3
 31
0.0
  0
LINE
  5
12B7
100
AcDbEntity
  8
10
100
AcDbLine
 10
111.699997
 20
223.3
 30
0.0
 11
111.699997
 21
236.7
 31
0.0
  0
LINE
  5
12B8
100
AcDbEntity
  8
10
100
AcDbLine
 10
105.199999
 20
246.700001
 30
0.0
 11
105.199999
 21
213.299999
 31
0.0
  0
LINE
  5
12B9
100
AcDbEntity
  8
10
100
AcDbLine
 10
107.199997
 20
223.183612
 30
0.0
 11
107.199997
 21
236.816388
 31
0.0
  0
LINE
  5
12BA
100
AcDbEntity
  8
10
100
AcDbLine
 10
108.999997
 20
223.3
 30
0.0
 11
108.999997
 21
236.7
 31
0.0
  0
LINE
  5
12BC
100
AcDbEntity
  8
10
100
AcDbLine
 10
115.649997
 20
213.299999
 30
0.0
 11
105.199999
 21
213.299999
 31
0.0
  0
LINE
  5
12BD
100
AcDbEntity
  8
10
100
AcDbLine
 10
120.85
 20
218.3
 30
0.0
 11
120.85
 21
213.299999
 31
0.0
  0
LINE
  5
12BE
100
AcDbEntity
  8
10
100
AcDbLine
 10
115.649997
 20
218.3
 30
0.0
 11
115.649997
 21
213.299999
 31
0.0
  0
CIRCLE
  5
12BF
100
AcDbEntity
  8
10
100
AcDbCircle
 10
110.349997
 20
216.275
 30
0.0
 40
1.0
  0
LINE
  5
12C1
100
AcDbEntity
  8
10
100
AcDbLine
 10
114.049998
 20
220.725
 30
0.0
 11
114.049998
 21
218.225
 31
0.0
  0
LINE
  5
12C2
100
AcDbEntity
  8
10
100
AcDbLine
 10
111.849997
 20
220.725
 30
0.0
 11
111.849997
 21
218.225
 31
0.0
  0
LINE
  5
12C3
100
AcDbEntity
  8
10
100
AcDbLine
 10
111.849997
 20
218.225
 30
0.0
 11
114.049998
 21
218.225
 31
0.0
  0
ARC
  5
12C4
100
AcDbEntity
  8
10
100
AcDbCircle
 10
112.299998
 20
223.740754
 30
0.0
 40
1.2
100
AcDbArc
 50
278.130101
 51
0.0
  0
LINE
  5
12C5
100
AcDbEntity
  8
10
100
AcDbLine
 10
106.649996
 20
218.225
 30
0.0
 11
108.849997
 21
218.225
 31
0.0
  0
LINE
  5
12C6
100
AcDbEntity
  8
10
100
AcDbLine
 10
106.649996
 20
220.725
 30
0.0
 11
106.649996
 21
218.225
 31
0.0
  0
LINE
  5
12C7
100
AcDbEntity
  8
10
100
AcDbLine
 10
108.849997
 20
220.725
 30
0.0
 11
108.849997
 21
218.225
 31
0.0
  0
ARC
  5
12C8
100
AcDbEntity
  8
10
100
AcDbCircle
 10
108.399996
 20
223.183612
 30
0.0
 40
1.2
100
AcDbArc
 50
179.999995
 51
278.130101
  0
LINE
  5
12C9
100
AcDbEntity
  8
10
100
AcDbLine
 10
106.649996
 20
220.725
 30
0.0
 11
114.049998
 21
220.725
 31
0.0
  0
LINE
  5
12CA
100
AcDbEntity
  8
10
100
AcDbLine
 10
108.849997
 20
220.075
 30
0.0
 11
111.849997
 21
220.075
 31
0.0
  0
LINE
  5
12CB
100
AcDbEntity
  8
10
100
AcDbLine
 10
112.469702
 20
222.552815
 30
0.0
 11
108.569703
 21
221.995672
 31
0.0
  0
LINE
  5
12CC
100
AcDbEntity
  8
10
100
AcDbLine
 10
108.999997
 20
223.3
 30
0.0
 11
111.699997
 21
223.3
 31
0.0
  0
LINE
  5
12CD
100
AcDbEntity
  8
10
100
AcDbLine
 10
115.649997
 20
218.3
 30
0.0
 11
114.799998
 21
218.3
 31
0.0
  0
LINE
  5
12CE
100
AcDbEntity
  8
10
100
AcDbLine
 10
121.599999
 20
218.3
 30
0.0
 11
120.85
 21
218.3
 31
0.0
  0
LINE
  5
12CF
100
AcDbEntity
  8
10
100
AcDbLine
 10
115.649997
 20
246.700001
 30
0.0
 11
105.199999
 21
246.700001
 31
0.0
  0
CIRCLE
  5
12D1
100
AcDbEntity
  8
10
100
AcDbCircle
 10
110.349997
 20
243.725
 30
0.0
 40
1.0
  0
LINE
  5
12D2
100
AcDbEntity
  8
10
100
AcDbLine
 10
114.049998
 20
241.775
 30
0.0
 11
114.049998
 21
239.275
 31
0.0
  0
LINE
  5
12D3
100
AcDbEntity
  8
10
100
AcDbLine
 10
111.849997
 20
241.775
 30
0.0
 11
111.849997
 21
239.275
 31
0.0
  0
LINE
  5
12D4
100
AcDbEntity
  8
10
100
AcDbLine
 10
111.849997
 20
241.775
 30
0.0
 11
114.049998
 21
241.775
 31
0.0
  0
ARC
  5
12D5
100
AcDbEntity
  8
10
100
AcDbCircle
 10
112.299998
 20
236.259246
 30
0.0
 40
1.2
100
AcDbArc
 50
0.0
 51
81.869899
  0
LINE
  5
12D6
100
AcDbEntity
  8
10
100
AcDbLine
 10
106.649996
 20
241.775
 30
0.0
 11
108.849997
 21
241.775
 31
0.0
  0
LINE
  5
12D7
100
AcDbEntity
  8
10
100
AcDbLine
 10
106.649996
 20
241.775
 30
0.0
 11
106.649996
 21
239.275
 31
0.0
  0
LINE
  5
12D8
100
AcDbEntity
  8
10
100
AcDbLine
 10
108.849997
 20
241.775
 30
0.0
 11
108.849997
 21
239.275
 31
0.0
  0
ARC
  5
12D9
100
AcDbEntity
  8
10
100
AcDbCircle
 10
108.399996
 20
236.816388
 30
0.0
 40
1.2
100
AcDbArc
 50
81.869899
 51
180.000005
  0
LINE
  5
12DA
100
AcDbEntity
  8
10
100
AcDbLine
 10
106.649996
 20
239.275
 30
0.0
 11
114.049998
 21
239.275
 31
0.0
  0
LINE
  5
12DB
100
AcDbEntity
  8
10
100
AcDbLine
 10
108.849997
 20
239.925
 30
0.0
 11
111.849997
 21
239.925
 31
0.0
  0
LINE
  5
12DC
100
AcDbEntity
  8
10
100
AcDbLine
 10
112.469702
 20
237.447185
 30
0.0
 11
108.569703
 21
238.004328
 31
0.0
  0
LINE
  5
12DD
100
AcDbEntity
  8
10
100
AcDbLine
 10
108.999997
 20
236.7
 30
0.0
 11
111.699997
 21
236.7
 31
0.0
  0
LINE
  5
12DE
100
AcDbEntity
  8
10
100
AcDbLine
 10
115.649997
 20
241.7
 30
0.0
 11
114.799998
 21
241.7
 31
0.0
  0
LINE
  5
12DF
100
AcDbEntity
  8
10
100
AcDbLine
 10
121.599999
 20
241.7
 30
0.0
 11
120.85
 21
241.7
 31
0.0
  0
LINE
  5
12E0
100
AcDbEntity
  8
10
100
AcDbLine
 10
115.649997
 20
246.700001
 30
0.0
 11
115.649997
 21
241.7
 31
0.0
  0
LINE
  5
12E1
100
AcDbEntity
  8
10
100
AcDbLine
 10
120.85
 20
246.700001
 30
0.0
 11
120.85
 21
241.7
 31
0.0
  0
LINE
  5
12E2
100
AcDbEntity
  8
10
100
AcDbLine
 10
129.3
 20
223.740754
 30
0.0
 11
129.3
 21
236.259246
 31
0.0
  0
LINE
  5
12E4
100
AcDbEntity
  8
10
100
AcDbLine
 10
130.999998
 20
246.700001
 30
0.0
 11
130.999998
 21
213.299999
 31
0.0
  0
LINE
  5
12E5
100
AcDbEntity
  8
10
100
AcDbLine
 10
123.0
 20
223.183612
 30
0.0
 11
123.0
 21
236.816388
 31
0.0
  0
LINE
  5
12E6
100
AcDbEntity
  8
10
100
AcDbLine
 10
124.8
 20
223.3
 30
0.0
 11
124.8
 21
236.7
 31
0.0
  0
LINE
  5
12E7
100
AcDbEntity
  8
10
100
AcDbLine
 10
127.5
 20
223.3
 30
0.0
 11
127.5
 21
236.7
 31
0.0
  0
CIRCLE
  5
12E8
100
AcDbEntity
  8
10
100
AcDbCircle
 10
126.15
 20
216.275
 30
0.0
 40
1.0
  0
LINE
  5
12E9
100
AcDbEntity
  8
10
100
AcDbLine
 10
127.65
 20
218.225
 30
0.0
 11
129.85
 21
218.225
 31
0.0
  0
LINE
  5
12EB
100
AcDbEntity
  8
10
100
AcDbLine
 10
122.45
 20
220.725
 30
0.0
 11
129.85
 21
220.725
 31
0.0
  0
LINE
  5
12EC
100
AcDbEntity
  8
10
100
AcDbLine
 10
127.65
 20
220.725
 30
0.0
 11
127.65
 21
218.225
 31
0.0
  0
LINE
  5
12ED
100
AcDbEntity
  8
10
100
AcDbLine
 10
122.45
 20
218.225
 30
0.0
 11
124.65
 21
218.225
 31
0.0
  0
LINE
  5
12EE
100
AcDbEntity
  8
10
100
AcDbLine
 10
122.45
 20
220.725
 30
0.0
 11
122.45
 21
218.225
 31
0.0
  0
LINE
  5
12EF
100
AcDbEntity
  8
10
100
AcDbLine
 10
124.65
 20
220.725
 30
0.0
 11
124.65
 21
218.225
 31
0.0
  0
ARC
  5
12F0
100
AcDbEntity
  8
10
100
AcDbCircle
 10
124.2
 20
223.183612
 30
0.0
 40
1.2
100
AcDbArc
 50
179.999995
 51
278.130101
  0
LINE
  5
12F1
100
AcDbEntity
  8
10
100
AcDbLine
 10
124.65
 20
220.075
 30
0.0
 11
127.65
 21
220.075
 31
0.0
  0
LINE
  5
12F2
100
AcDbEntity
  8
10
100
AcDbLine
 10
128.269705
 20
222.552815
 30
0.0
 11
124.369705
 21
221.995672
 31
0.0
  0
LINE
  5
12F3
100
AcDbEntity
  8
10
100
AcDbLine
 10
124.8
 20
223.3
 30
0.0
 11
127.5
 21
223.3
 31
0.0
  0
ARC
  5
12F4
100
AcDbEntity
  8
10
100
AcDbCircle
 10
128.1
 20
223.740754
 30
0.0
 40
1.2
100
AcDbArc
 50
278.130101
 51
0.0
  0
LINE
  5
12F5
100
AcDbEntity
  8
10
100
AcDbLine
 10
129.85
 20
220.725
 30
0.0
 11
129.85
 21
218.225
 31
0.0
  0
LINE
  5
12F6
100
AcDbEntity
  8
10
100
AcDbLine
 10
127.65
 20
241.775
 30
0.0
 11
129.85
 21
241.775
 31
0.0
  0
LINE
  5
12F8
100
AcDbEntity
  8
10
100
AcDbLine
 10
122.45
 20
239.275
 30
0.0
 11
129.85
 21
239.275
 31
0.0
  0
LINE
  5
12F9
100
AcDbEntity
  8
10
100
AcDbLine
 10
127.65
 20
241.775
 30
0.0
 11
127.65
 21
239.275
 31
0.0
  0
ARC
  5
12FA
100
AcDbEntity
  8
10
100
AcDbCircle
 10
128.1
 20
236.259246
 30
0.0
 40
1.2
100
AcDbArc
 50
0.0
 51
81.869899
  0
LINE
  5
12FB
100
AcDbEntity
  8
10
100
AcDbLine
 10
122.45
 20
241.775
 30
0.0
 11
124.65
 21
241.775
 31
0.0
  0
LINE
  5
12FC
100
AcDbEntity
  8
10
100
AcDbLine
 10
122.45
 20
241.775
 30
0.0
 11
122.45
 21
239.275
 31
0.0
  0
LINE
  5
12FD
100
AcDbEntity
  8
10
100
AcDbLine
 10
124.65
 20
241.775
 30
0.0
 11
124.65
 21
239.275
 31
0.0
  0
ARC
  5
12FE
100
AcDbEntity
  8
10
100
AcDbCircle
 10
124.2
 20
236.816388
 30
0.0
 40
1.2
100
AcDbArc
 50
81.869899
 51
180.000005
  0
CIRCLE
  5
12FF
100
AcDbEntity
  8
10
100
AcDbCircle
 10
126.15
 20
243.725
 30
0.0
 40
1.0
  0
LINE
  5
1300
100
AcDbEntity
  8
10
100
AcDbLine
 10
124.65
 20
239.925
 30
0.0
 11
127.65
 21
239.925
 31
0.0
  0
LINE
  5
1301
100
AcDbEntity
  8
10
100
AcDbLine
 10
128.269705
 20
237.447185
 30
0.0
 11
124.369705
 21
238.004328
 31
0.0
  0
LINE
  5
1302
100
AcDbEntity
  8
10
100
AcDbLine
 10
124.8
 20
236.7
 30
0.0
 11
127.5
 21
236.7
 31
0.0
  0
LINE
  5
1303
100
AcDbEntity
  8
10
100
AcDbLine
 10
129.85
 20
241.775
 30
0.0
 11
129.85
 21
239.275
 31
0.0
  0
LINE
  5
1304
100
AcDbEntity
  8
10
100
AcDbLine
 10
50.0
 20
289.199969
 30
0.0
 11
50.0
 21
122.799973
 31
0.0
  0
LINE
  5
1305
100
AcDbEntity
  8
10
100
AcDbLine
 10
89.5
 20
289.799969
 30
0.0
 11
89.5
 21
121.999969
 31
0.0
  0
LINE
  5
1306
100
AcDbEntity
  8
10
100
AcDbLine
 10
50.8
 20
121.999969
 30
0.0
 11
139.199997
 21
121.999969
 31
0.0
  0
ARC
  5
1307
100
AcDbEntity
  8
10
100
AcDbCircle
 10
50.8
 20
122.799973
 30
0.0
 40
0.8
100
AcDbArc
 50
180.000005
 51
270.000001
  0
LINE
  5
1308
100
AcDbEntity
  8
10
100
AcDbLine
 10
89.5
 20
166.999969
 30
0.0
 11
139.800003
 21
166.999969
 31
0.0
  0
LINE
  5
130A
100
AcDbEntity
  8
10
100
AcDbLine
 10
140.0
 20
166.799973
 30
0.0
 11
140.0
 21
122.799973
 31
0.0
  0
ARC
  5
130B
100
AcDbEntity
  8
10
100
AcDbCircle
 10
139.199997
 20
122.799973
 30
0.0
 40
0.8
100
AcDbArc
 50
269.999997
 51
0.0
  0
ARC
  5
130C
100
AcDbEntity
  8
10
100
AcDbCircle
 10
139.800003
 20
166.799973
 30
0.0
 40
0.2
100
AcDbArc
 50
0.0
 51
90.000003
  0
ARC
  5
130E
100
AcDbEntity
  8
10
100
AcDbCircle
 10
50.8
 20
289.199969
 30
0.0
 40
0.8
100
AcDbArc
 50
90.000003
 51
180.000005
  0
ARC
  5
1314
100
AcDbEntity
  8
10
100
AcDbCircle
 10
89.299999
 20
289.799969
 30
0.0
 40
0.2
100
AcDbArc
 50
0.0
 51
90.000003
  0
CIRCLE
  5
1315
100
AcDbEntity
  8
10
100
AcDbCircle
 10
43.0
 20
103.999985
 30
0.0
 40
4.0
  0
CIRCLE
  5
1316
100
AcDbEntity
  8
10
100
AcDbCircle
 10
43.0
 20
103.999985
 30
0.0
 40
3.5
  0
LINE
  5
1317
100
AcDbEntity
  8
10
100
AcDbLine
 10
40.95
 20
104.599985
 30
0.0
 11
40.95
 21
103.399985
 31
0.0
  0
LINE
  5
1318
100
AcDbEntity
  8
10
100
AcDbLine
 10
45.05
 20
104.599985
 30
0.0
 11
45.05
 21
103.399985
 31
0.0
  0
ARC
  5
1319
100
AcDbEntity
  8
10
100
AcDbCircle
 10
44.3
 20
102.699985
 30
0.0
 40
0.7
100
AcDbArc
 50
90.000003
 51
180.000005
  0
ARC
  5
131A
100
AcDbEntity
  8
10
100
AcDbCircle
 10
41.7
 20
102.699985
 30
0.0
 40
0.7
100
AcDbArc
 50
0.0
 51
90.000003
  0
LINE
  5
131B
100
AcDbEntity
  8
10
100
AcDbLine
 10
43.6
 20
102.699985
 30
0.0
 11
43.6
 21
101.949985
 31
0.0
  0
LINE
  5
131C
100
AcDbEntity
  8
10
100
AcDbLine
 10
44.3
 20
103.399985
 30
0.0
 11
45.05
 21
103.399985
 31
0.0
  0
LINE
  5
131D
100
AcDbEntity
  8
10
100
AcDbLine
 10
42.4
 20
102.699985
 30
0.0
 11
42.4
 21
101.949985
 31
0.0
  0
LINE
  5
131E
100
AcDbEntity
  8
10
100
AcDbLine
 10
40.95
 20
103.399985
 30
0.0
 11
41.7
 21
103.399985
 31
0.0
  0
LINE
  5
131F
100
AcDbEntity
  8
10
100
AcDbLine
 10
42.4
 20
101.949985
 30
0.0
 11
43.6
 21
101.949985
 31
0.0
  0
ARC
  5
1320
100
AcDbEntity
  8
10
100
AcDbCircle
 10
41.7
 20
105.299985
 30
0.0
 40
0.7
100
AcDbArc
 50
269.999997
 51
0.0
  0
ARC
  5
1321
100
AcDbEntity
  8
10
100
AcDbCircle
 10
44.3
 20
105.299985
 30
0.0
 40
0.7
100
AcDbArc
 50
179.999991
 51
270.000001
  0
LINE
  5
1322
100
AcDbEntity
  8
10
100
AcDbLine
 10
44.3
 20
104.599985
 30
0.0
 11
45.05
 21
104.599985
 31
0.0
  0
LINE
  5
1323
100
AcDbEntity
  8
10
100
AcDbLine
 10
40.95
 20
104.599985
 30
0.0
 11
41.7
 21
104.599985
 31
0.0
  0
LINE
  5
1324
100
AcDbEntity
  8
10
100
AcDbLine
 10
42.4
 20
106.049985
 30
0.0
 11
42.4
 21
105.299985
 31
0.0
  0
LINE
  5
1325
100
AcDbEntity
  8
10
100
AcDbLine
 10
43.6
 20
106.049985
 30
0.0
 11
43.6
 21
105.299985
 31
0.0
  0
LINE
  5
1326
100
AcDbEntity
  8
10
100
AcDbLine
 10
42.4
 20
106.049985
 30
0.0
 11
43.6
 21
106.049985
 31
0.0
  0
CIRCLE
  5
1327
100
AcDbEntity
  8
10
100
AcDbCircle
 10
43.0
 20
81.999985
 30
0.0
 40
4.0
  0
CIRCLE
  5
1328
100
AcDbEntity
  8
10
100
AcDbCircle
 10
43.0
 20
81.999985
 30
0.0
 40
3.5
  0
LINE
  5
1329
100
AcDbEntity
  8
10
100
AcDbLine
 10
40.95
 20
82.599985
 30
0.0
 11
40.95
 21
81.399985
 31
0.0
  0
LINE
  5
132A
100
AcDbEntity
  8
10
100
AcDbLine
 10
45.05
 20
82.599985
 30
0.0
 11
45.05
 21
81.399985
 31
0.0
  0
ARC
  5
132B
100
AcDbEntity
  8
10
100
AcDbCircle
 10
44.3
 20
80.699985
 30
0.0
 40
0.7
100
AcDbArc
 50
90.000003
 51
180.000005
  0
ARC
  5
132C
100
AcDbEntity
  8
10
100
AcDbCircle
 10
41.7
 20
80.699985
 30
0.0
 40
0.7
100
AcDbArc
 50
0.0
 51
90.000003
  0
LINE
  5
132D
100
AcDbEntity
  8
10
100
AcDbLine
 10
43.6
 20
80.699985
 30
0.0
 11
43.6
 21
79.949985
 31
0.0
  0
LINE
  5
132E
100
AcDbEntity
  8
10
100
AcDbLine
 10
44.3
 20
81.399985
 30
0.0
 11
45.05
 21
81.399985
 31
0.0
  0
LINE
  5
132F
100
AcDbEntity
  8
10
100
AcDbLine
 10
42.4
 20
80.699985
 30
0.0
 11
42.4
 21
79.949985
 31
0.0
  0
LINE
  5
1330
100
AcDbEntity
  8
10
100
AcDbLine
 10
40.95
 20
81.399985
 30
0.0
 11
41.7
 21
81.399985
 31
0.0
  0
LINE
  5
1331
100
AcDbEntity
  8
10
100
AcDbLine
 10
42.4
 20
79.949985
 30
0.0
 11
43.6
 21
79.949985
 31
0.0
  0
ARC
  5
1332
100
AcDbEntity
  8
10
100
AcDbCircle
 10
41.7
 20
83.299985
 30
0.0
 40
0.7
100
AcDbArc
 50
269.999997
 51
0.0
  0
ARC
  5
1333
100
AcDbEntity
  8
10
100
AcDbCircle
 10
44.3
 20
83.299985
 30
0.0
 40
0.7
100
AcDbArc
 50
179.999991
 51
270.000001
  0
LINE
  5
1334
100
AcDbEntity
  8
10
100
AcDbLine
 10
44.3
 20
82.599985
 30
0.0
 11
45.05
 21
82.599985
 31
0.0
  0
LINE
  5
1335
100
AcDbEntity
  8
10
100
AcDbLine
 10
40.95
 20
82.599985
 30
0.0
 11
41.7
 21
82.599985
 31
0.0
  0
LINE
  5
1336
100
AcDbEntity
  8
10
100
AcDbLine
 10
42.4
 20
84.049985
 30
0.0
 11
42.4
 21
83.299985
 31
0.0
  0
LINE
  5
1337
100
AcDbEntity
  8
10
100
AcDbLine
 10
43.6
 20
84.049985
 30
0.0
 11
43.6
 21
83.299985
 31
0.0
  0
LINE
  5
1338
100
AcDbEntity
  8
10
100
AcDbLine
 10
42.4
 20
84.049985
 30
0.0
 11
43.6
 21
84.049985
 31
0.0
  0
CIRCLE
  5
1339
100
AcDbEntity
  8
10
100
AcDbCircle
 10
43.0
 20
92.999985
 30
0.0
 40
4.0
  0
CIRCLE
  5
133A
100
AcDbEntity
  8
10
100
AcDbCircle
 10
43.0
 20
92.999985
 30
0.0
 40
3.5
  0
LINE
  5
133B
100
AcDbEntity
  8
10
100
AcDbLine
 10
40.95
 20
93.599985
 30
0.0
 11
40.95
 21
92.399985
 31
0.0
  0
LINE
  5
133C
100
AcDbEntity
  8
10
100
AcDbLine
 10
45.05
 20
93.599985
 30
0.0
 11
45.05
 21
92.399985
 31
0.0
  0
ARC
  5
133D
100
AcDbEntity
  8
10
100
AcDbCircle
 10
44.3
 20
91.699985
 30
0.0
 40
0.7
100
AcDbArc
 50
90.000003
 51
180.000005
  0
ARC
  5
133E
100
AcDbEntity
  8
10
100
AcDbCircle
 10
41.7
 20
91.699985
 30
0.0
 40
0.7
100
AcDbArc
 50
0.0
 51
90.000003
  0
LINE
  5
133F
100
AcDbEntity
  8
10
100
AcDbLine
 10
43.6
 20
91.699985
 30
0.0
 11
43.6
 21
90.949985
 31
0.0
  0
LINE
  5
1340
100
AcDbEntity
  8
10
100
AcDbLine
 10
44.3
 20
92.399985
 30
0.0
 11
45.05
 21
92.399985
 31
0.0
  0
LINE
  5
1341
100
AcDbEntity
  8
10
100
AcDbLine
 10
42.4
 20
91.699985
 30
0.0
 11
42.4
 21
90.949985
 31
0.0
  0
LINE
  5
1342
100
AcDbEntity
  8
10
100
AcDbLine
 10
40.95
 20
92.399985
 30
0.0
 11
41.7
 21
92.399985
 31
0.0
  0
LINE
  5
1343
100
AcDbEntity
  8
10
100
AcDbLine
 10
42.4
 20
90.949985
 30
0.0
 11
43.6
 21
90.949985
 31
0.0
  0
ARC
  5
1344
100
AcDbEntity
  8
10
100
AcDbCircle
 10
41.7
 20
94.299985
 30
0.0
 40
0.7
100
AcDbArc
 50
269.999997
 51
0.0
  0
ARC
  5
1345
100
AcDbEntity
  8
10
100
AcDbCircle
 10
44.3
 20
94.299985
 30
0.0
 40
0.7
100
AcDbArc
 50
179.999991
 51
270.000001
  0
LINE
  5
1346
100
AcDbEntity
  8
10
100
AcDbLine
 10
44.3
 20
93.599985
 30
0.0
 11
45.05
 21
93.599985
 31
0.0
  0
LINE
  5
1347
100
AcDbEntity
  8
10
100
AcDbLine
 10
40.95
 20
93.599985
 30
0.0
 11
41.7
 21
93.599985
 31
0.0
  0
LINE
  5
1348
100
AcDbEntity
  8
10
100
AcDbLine
 10
42.4
 20
95.049985
 30
0.0
 11
42.4
 21
94.299985
 31
0.0
  0
LINE
  5
1349
100
AcDbEntity
  8
10
100
AcDbLine
 10
43.6
 20
95.049985
 30
0.0
 11
43.6
 21
94.299985
 31
0.0
  0
LINE
  5
134A
100
AcDbEntity
  8
10
100
AcDbLine
 10
42.4
 20
95.049985
 30
0.0
 11
43.6
 21
95.049985
 31
0.0
  0
CIRCLE
  5
134B
100
AcDbEntity
  8
10
100
AcDbCircle
 10
17.25
 20
132.499969
 30
0.0
 40
4.0
  0
CIRCLE
  5
134C
100
AcDbEntity
  8
10
100
AcDbCircle
 10
17.25
 20
132.499969
 30
0.0
 40
3.5
  0
LINE
  5
134D
100
AcDbEntity
  8
10
100
AcDbLine
 10
15.2
 20
133.09997
 30
0.0
 11
15.2
 21
131.899969
 31
0.0
  0
LINE
  5
134E
100
AcDbEntity
  8
10
100
AcDbLine
 10
19.3
 20
133.09997
 30
0.0
 11
19.3
 21
131.899969
 31
0.0
  0
ARC
  5
134F
100
AcDbEntity
  8
10
100
AcDbCircle
 10
18.55
 20
131.19997
 30
0.0
 40
0.7
100
AcDbArc
 50
90.000003
 51
180.000005
  0
ARC
  5
1350
100
AcDbEntity
  8
10
100
AcDbCircle
 10
15.95
 20
131.19997
 30
0.0
 40
0.7
100
AcDbArc
 50
0.0
 51
90.000003
  0
LINE
  5
1351
100
AcDbEntity
  8
10
100
AcDbLine
 10
17.85
 20
131.19997
 30
0.0
 11
17.85
 21
130.44997
 31
0.0
  0
LINE
  5
1352
100
AcDbEntity
  8
10
100
AcDbLine
 10
18.55
 20
131.899969
 30
0.0
 11
19.3
 21
131.899969
 31
0.0
  0
LINE
  5
1353
100
AcDbEntity
  8
10
100
AcDbLine
 10
16.65
 20
131.19997
 30
0.0
 11
16.65
 21
130.44997
 31
0.0
  0
LINE
  5
1354
100
AcDbEntity
  8
10
100
AcDbLine
 10
15.2
 20
131.899969
 30
0.0
 11
15.95
 21
131.899969
 31
0.0
  0
LINE
  5
1355
100
AcDbEntity
  8
10
100
AcDbLine
 10
16.65
 20
130.44997
 30
0.0
 11
17.85
 21
130.44997
 31
0.0
  0
ARC
  5
1356
100
AcDbEntity
  8
10
100
AcDbCircle
 10
15.95
 20
133.799969
 30
0.0
 40
0.7
100
AcDbArc
 50
269.999997
 51
0.0
  0
ARC
  5
1357
100
AcDbEntity
  8
10
100
AcDbCircle
 10
18.55
 20
133.799969
 30
0.0
 40
0.7
100
AcDbArc
 50
179.999991
 51
270.000001
  0
LINE
  5
1358
100
AcDbEntity
  8
10
100
AcDbLine
 10
18.55
 20
133.09997
 30
0.0
 11
19.3
 21
133.09997
 31
0.0
  0
LINE
  5
1359
100
AcDbEntity
  8
10
100
AcDbLine
 10
15.2
 20
133.09997
 30
0.0
 11
15.95
 21
133.09997
 31
0.0
  0
LINE
  5
135A
100
AcDbEntity
  8
10
100
AcDbLine
 10
16.65
 20
134.549969
 30
0.0
 11
16.65
 21
133.799969
 31
0.0
  0
LINE
  5
135B
100
AcDbEntity
  8
10
100
AcDbLine
 10
17.85
 20
134.549969
 30
0.0
 11
17.85
 21
133.799969
 31
0.0
  0
LINE
  5
135C
100
AcDbEntity
  8
10
100
AcDbLine
 10
16.65
 20
134.549969
 30
0.0
 11
17.85
 21
134.549969
 31
0.0
  0
LINE
  5
135D
100
AcDbEntity
  8
10
100
AcDbLine
 10
286.0
 20
166.0
 30
0.0
 11
286.0
 21
122.0
 31
0.0
  0
LINE
  5
135E
100
AcDbEntity
  8
10
100
AcDbLine
 10
275.0
 20
166.800003
 30
0.0
 11
275.0
 21
122.800003
 31
0.0
  0
LINE
  5
135F
100
AcDbEntity
  8
10
100
AcDbLine
 10
275.8
 20
122.0
 30
0.0
 11
286.0
 21
122.0
 31
0.0
  0
ARC
  5
1360
100
AcDbEntity
  8
10
100
AcDbCircle
 10
275.8
 20
122.800003
 30
0.0
 40
0.8
100
AcDbArc
 50
180.000005
 51
270.000001
  0
LINE
  5
1361
100
AcDbEntity
  8
10
100
AcDbLine
 10
275.2
 20
167.0
 30
0.0
 11
285.0
 21
167.0
 31
0.0
  0
ARC
  5
1362
100
AcDbEntity
  8
10
100
AcDbCircle
 10
275.2
 20
166.800003
 30
0.0
 40
0.2
100
AcDbArc
 50
90.000003
 51
180.000005
  0
ARC
  5
1363
100
AcDbEntity
  8
10
100
AcDbCircle
 10
285.0
 20
166.0
 30
0.0
 40
1.0
100
AcDbArc
 50
0.0
 51
90.000003
  0
LINE
  5
1472
100
AcDbEntity
  8
10
100
AcDbLine
 10
283.0
 20
285.0
 30
0.0
 11
283.0
 21
251.607075
 31
0.0
  0
LINE
  5
1473
100
AcDbEntity
  8
10
100
AcDbLine
 10
275.0
 20
290.0
 30
0.0
 11
275.0
 21
249.5
 31
0.0
  0
LINE
  5
1478
100
AcDbEntity
  8
10
100
AcDbLine
 10
275.0
 20
290.0
 30
0.0
 11
286.217691
 21
290.0
 31
0.0
  0
ARC
  5
1479
100
AcDbEntity
  8
10
100
AcDbCircle
 10
285.424695
 20
286.735187
 30
0.0
 40
0.2
100
AcDbArc
 50
60.000002
 51
140.405931
  0
ARC
  5
147A
100
AcDbEntity
  8
10
100
AcDbCircle
 10
285.424695
 20
288.264813
 30
0.0
 40
0.2
100
AcDbArc
 50
219.594069
 51
299.999998
  0
ARC
  5
147B
100
AcDbEntity
  8
10
100
AcDbCircle
 10
286.217691
 20
289.3
 30
0.0
 40
0.7
100
AcDbArc
 50
299.999998
 51
90.000003
  0
ARC
  5
147C
100
AcDbEntity
  8
10
100
AcDbCircle
 10
284.5
 20
287.5
 30
0.0
 40
1.0
100
AcDbArc
 50
39.594067
 51
320.405922
  0
ARC
  5
147D
100
AcDbEntity
  8
10
100
AcDbCircle
 10
284.5
 20
287.5
 30
0.0
 40
2.5
100
AcDbArc
 50
269.999997
 51
329.999999
  0
LINE
  5
147E
100
AcDbEntity
  8
10
100
AcDbLine
 10
285.524695
 20
288.091608
 30
0.0
 11
286.567692
 21
288.693782
 31
0.0
  0
LINE
  5
147F
100
AcDbEntity
  8
10
100
AcDbLine
 10
285.524695
 20
286.908392
 30
0.0
 11
286.665064
 21
286.25
 31
0.0
  0
LINE
  5
1480
100
AcDbEntity
  8
10
100
AcDbLine
 10
283.0
 20
285.0
 30
0.0
 11
284.5
 21
285.0
 31
0.0
  0
LINE
  5
149E
100
AcDbEntity
  8
16
100
AcDbLine
 10
75.0
 20
299.999969
 30
0.0
 11
75.0
 21
30.0
 31
0.0
  0
ARC
  5
149F
100
AcDbEntity
  8
11
100
AcDbCircle
 10
138.5
 20
288.499969
 30
0.0
 40
1.5
100
AcDbArc
 50
0.0
 51
90.0
  0
LINE
  5
14A0
100
AcDbEntity
  8
17
100
AcDbLine
 10
67.5
 20
226.0
 30
0.0
 11
77.5
 21
226.0
 31
0.0
  0
LINE
  5
14A1
100
AcDbEntity
  8
17
100
AcDbLine
 10
72.5
 20
221.0
 30
0.0
 11
72.5
 21
231.0
 31
0.0
  0
LINE
  5
14A2
100
AcDbEntity
  8
17
100
AcDbLine
 10
67.5
 20
215.0
 30
0.0
 11
77.5
 21
215.0
 31
0.0
  0
LINE
  5
14A3
100
AcDbEntity
  8
17
100
AcDbLine
 10
72.5
 20
210.0
 30
0.0
 11
72.5
 21
220.0
 31
0.0
  0
LINE
  5
14A4
100
AcDbEntity
  8
17
100
AcDbLine
 10
67.5
 20
204.0
 30
0.0
 11
77.5
 21
204.0
 31
0.0
  0
LINE
  5
14A5
100
AcDbEntity
  8
17
100
AcDbLine
 10
72.5
 20
199.0
 30
0.0
 11
72.5
 21
209.0
 31
0.0
  0
LINE
  5
14A6
100
AcDbEntity
  8
17
100
AcDbLine
 10
67.499999
 20
193.0
 30
0.0
 11
77.499999
 21
193.0
 31
0.0
  0
LINE
  5
14A7
100
AcDbEntity
  8
17
100
AcDbLine
 10
72.499999
 20
188.0
 30
0.0
 11
72.499999
 21
198.0
 31
0.0
  0
LINE
  5
14A8
100
AcDbEntity
  8
17
100
AcDbLine
 10
67.499999
 20
182.0
 30
0.0
 11
77.499999
 21
182.0
 31
0.0
  0
LINE
  5
14A9
100
AcDbEntity
  8
17
100
AcDbLine
 10
72.499999
 20
177.0
 30
0.0
 11
72.499999
 21
187.0
 31
0.0
  0
LINE
  5
14AA
100
AcDbEntity
  8
17
100
AcDbLine
 10
67.499998
 20
171.0
 30
0.0
 11
77.499998
 21
171.0
 31
0.0
  0
LINE
  5
14AB
100
AcDbEntity
  8
17
100
AcDbLine
 10
72.499998
 20
166.0
 30
0.0
 11
72.499998
 21
176.0
 31
0.0
  0
LINE
  5
14AC
100
AcDbEntity
  8
17
100
AcDbLine
 10
67.499998
 20
160.0
 30
0.0
 11
77.499998
 21
160.0
 31
0.0
  0
LINE
  5
14AD
100
AcDbEntity
  8
17
100
AcDbLine
 10
72.499998
 20
155.0
 30
0.0
 11
72.499998
 21
165.0
 31
0.0
  0
LINE
  5
14AE
100
AcDbEntity
  8
17
100
AcDbLine
 10
67.499997
 20
149.0
 30
0.0
 11
77.499997
 21
149.0
 31
0.0
  0
LINE
  5
14AF
100
AcDbEntity
  8
17
100
AcDbLine
 10
72.499997
 20
144.0
 30
0.0
 11
72.499997
 21
154.0
 31
0.0
  0
LINE
  5
14B0
100
AcDbEntity
  8
17
100
AcDbLine
 10
67.499997
 20
138.0
 30
0.0
 11
77.499997
 21
138.0
 31
0.0
  0
LINE
  5
14B1
100
AcDbEntity
  8
17
100
AcDbLine
 10
72.499997
 20
133.0
 30
0.0
 11
72.499997
 21
143.0
 31
0.0
  0
LINE
  5
14B2
100
AcDbEntity
  8
17
100
AcDbLine
 10
119.599998
 20
148.5
 30
0.0
 11
129.599998
 21
148.5
 31
0.0
  0
LINE
  5
14B3
100
AcDbEntity
  8
17
100
AcDbLine
 10
124.599998
 20
143.5
 30
0.0
 11
124.599998
 21
153.5
 31
0.0
  0
LINE
  5
14B4
100
AcDbEntity
  8
17
100
AcDbLine
 10
119.599998
 20
138.5
 30
0.0
 11
129.599998
 21
138.5
 31
0.0
  0
LINE
  5
14B5
100
AcDbEntity
  8
17
100
AcDbLine
 10
124.599998
 20
133.5
 30
0.0
 11
124.599998
 21
143.5
 31
0.0
  0
LINE
  5
14B6
100
AcDbEntity
  8
17
100
AcDbLine
 10
38.0
 20
81.999985
 30
0.0
 11
48.0
 21
81.999985
 31
0.0
  0
LINE
  5
14B7
100
AcDbEntity
  8
17
100
AcDbLine
 10
43.0
 20
76.999985
 30
0.0
 11
43.0
 21
86.999985
 31
0.0
  0
LINE
  5
14B8
100
AcDbEntity
  8
17
100
AcDbLine
 10
38.0
 20
92.999985
 30
0.0
 11
48.0
 21
92.999985
 31
0.0
  0
LINE
  5
14B9
100
AcDbEntity
  8
17
100
AcDbLine
 10
43.0
 20
87.999985
 30
0.0
 11
43.0
 21
97.999985
 31
0.0
  0
LINE
  5
14BA
100
AcDbEntity
  8
17
100
AcDbLine
 10
38.0
 20
103.999985
 30
0.0
 11
48.0
 21
103.999985
 31
0.0
  0
LINE
  5
14BB
100
AcDbEntity
  8
17
100
AcDbLine
 10
43.0
 20
98.999985
 30
0.0
 11
43.0
 21
108.999985
 31
0.0
  0
ARC
  5
14C0
100
AcDbEntity
  8
10
100
AcDbCircle
 10
280.0
 20
118.500031
 30
0.0
 40
1.0
100
AcDbArc
 50
90.0
 51
180.0
  0
LINE
  5
14C1
100
AcDbEntity
  8
10
100
AcDbLine
 10
275.0
 20
175.500031
 30
0.0
 11
275.595947
 21
175.500031
 31
0.0
  0
LINE
  5
14C2
100
AcDbEntity
  8
10
100
AcDbLine
 10
275.0
 20
247.500031
 30
0.0
 11
275.595947
 21
247.500031
 31
0.0
  0
LINE
  5
14C3
100
AcDbEntity
  8
10
100
AcDbLine
 10
275.0
 20
212.500031
 30
0.0
 11
275.595947
 21
212.500031
 31
0.0
  0
LINE
  5
14C4
100
AcDbEntity
  8
10
100
AcDbLine
 10
275.0
 20
210.500031
 30
0.0
 11
275.595947
 21
210.500031
 31
0.0
  0
ARC
  5
14C5
100
AcDbEntity
  8
10
100
AcDbCircle
 10
99.999969
 20
246.5
 30
0.0
 40
1.0
100
AcDbArc
 50
270.0
 51
0.0
  0
ARC
  5
14C6
100
AcDbEntity
  8
10
100
AcDbCircle
 10
103.599976
 20
246.5
 30
0.0
 40
1.0
100
AcDbArc
 50
90.0
 51
180.0
  0
ARC
  5
14CA
100
AcDbEntity
  8
10
100
AcDbCircle
 10
132.899963
 20
246.5
 30
0.0
 40
1.0
100
AcDbArc
 50
0.0
 51
90.0
  0
LINE
  5
14CB
100
AcDbEntity
  8
12
100
AcDbLine
 10
460.000031
 20
47.500015
 30
0.0
 11
485.000031
 21
47.500015
 31
0.0
  0
LINE
  5
14CC
100
AcDbEntity
  8
12
100
AcDbLine
 10
460.000031
 20
282.5
 30
0.0
 11
485.000031
 21
282.5
 31
0.0
  0
LINE
  5
14CD
100
AcDbEntity
  8
18
100
AcDbLine
 10
205.0
 20
330.0
 30
0.0
 11
475.000031
 21
330.0
 31
0.0
  0
LINE
  5
14CE
100
AcDbEntity
  8
18
100
AcDbLine
 10
475.000031
 20
0.0
 30
0.0
 11
205.0
 21
0.0
 31
0.0
  0
LINE
  5
14CF
100
AcDbEntity
  8
18
100
AcDbLine
 10
150.0
 20
0.0
 30
0.0
 11
0.0
 21
0.0
 31
0.0
  0
LINE
  5
14D0
100
AcDbEntity
  8
18
100
AcDbLine
 10
0.0
 20
329.999969
 30
0.0
 11
150.0
 21
329.999969
 31
0.0
  0
LINE
  5
14D1
100
AcDbEntity
  8
18
100
AcDbLine
 10
150.0
 20
329.999969
 30
0.0
 11
150.0
 21
0.0
 31
0.0
  0
LINE
  5
14D2
100
AcDbEntity
  8
18
100
AcDbLine
 10
0.0
 20
0.0
 30
0.0
 11
0.0
 21
329.999969
 31
0.0
  0
LINE
  5
14D3
100
AcDbEntity
  8
18
100
AcDbLine
 10
205.0
 20
330.0
 30
0.0
 11
205.0
 21
0.0
 31
0.0
  0
LINE
  5
14D4
100
AcDbEntity
  8
18
100
AcDbLine
 10
475.000031
 20
0.0
 30
0.0
 11
475.000031
 21
330.0
 31
0.0
  0
LINE
  5
14D7
100
AcDbEntity
  8
17
100
AcDbLine
 10
290.0
 20
148.500031
 30
0.0
 11
300.0
 21
148.500031
 31
0.0
  0
LINE
  5
14D8
100
AcDbEntity
  8
17
100
AcDbLine
 10
290.0
 20
138.500031
 30
0.0
 11
300.0
 21
138.500031
 31
0.0
  0
LINE
  5
14D9
100
AcDbEntity
  8
17
100
AcDbLine
 10
295.0
 20
143.500031
 30
0.0
 11
295.0
 21
153.500031
 31
0.0
  0
LINE
  5
14DA
100
AcDbEntity
  8
17
100
AcDbLine
 10
295.0
 20
133.500031
 30
0.0
 11
295.0
 21
143.500031
 31
0.0
  0
LINE
  5
14DC
100
AcDbEntity
  8
17
100
AcDbLine
 10
296.999999
 20
188.0
 30
0.0
 11
296.999999
 21
198.0
 31
0.0
  0
LINE
  5
14DD
100
AcDbEntity
  8
17
100
AcDbLine
 10
296.999997
 20
144.0
 30
0.0
 11
296.999997
 21
154.0
 31
0.0
  0
LINE
  5
14DE
100
AcDbEntity
  8
17
100
AcDbLine
 10
291.999997
 20
149.0
 30
0.0
 11
301.999997
 21
149.0
 31
0.0
  0
LINE
  5
14DF
100
AcDbEntity
  8
17
100
AcDbLine
 10
291.999997
 20
138.0
 30
0.0
 11
301.999997
 21
138.0
 31
0.0
  0
LINE
  5
14E0
100
AcDbEntity
  8
17
100
AcDbLine
 10
296.999997
 20
133.0
 30
0.0
 11
296.999997
 21
143.0
 31
0.0
  0
LINE
  5
14E1
100
AcDbEntity
  8
17
100
AcDbLine
 10
291.999999
 20
193.0
 30
0.0
 11
301.999999
 21
193.0
 31
0.0
  0
LINE
  5
14E2
100
AcDbEntity
  8
17
100
AcDbLine
 10
291.999999
 20
182.0
 30
0.0
 11
301.999999
 21
182.0
 31
0.0
  0
LINE
  5
14E3
100
AcDbEntity
  8
17
100
AcDbLine
 10
291.999998
 20
171.0
 30
0.0
 11
301.999998
 21
171.0
 31
0.0
  0
LINE
  5
14E4
100
AcDbEntity
  8
17
100
AcDbLine
 10
291.999998
 20
160.0
 30
0.0
 11
301.999998
 21
160.0
 31
0.0
  0
LINE
  5
14E5
100
AcDbEntity
  8
17
100
AcDbLine
 10
296.999998
 20
166.0
 30
0.0
 11
296.999998
 21
176.0
 31
0.0
  0
LINE
  5
14E6
100
AcDbEntity
  8
17
100
AcDbLine
 10
296.999998
 20
155.0
 30
0.0
 11
296.999998
 21
165.0
 31
0.0
  0
LINE
  5
14E7
100
AcDbEntity
  8
17
100
AcDbLine
 10
296.999999
 20
177.0
 30
0.0
 11
296.999999
 21
187.0
 31
0.0
  0
LINE
  5
14E8
100
AcDbEntity
  8
17
100
AcDbLine
 10
292.0
 20
226.0
 30
0.0
 11
302.0
 21
226.0
 31
0.0
  0
LINE
  5
14E9
100
AcDbEntity
  8
17
100
AcDbLine
 10
292.0
 20
215.0
 30
0.0
 11
302.0
 21
215.0
 31
0.0
  0
LINE
  5
14EA
100
AcDbEntity
  8
17
100
AcDbLine
 10
292.0
 20
204.0
 30
0.0
 11
302.0
 21
204.0
 31
0.0
  0
LINE
  5
14EB
100
AcDbEntity
  8
17
100
AcDbLine
 10
297.0
 20
210.0
 30
0.0
 11
297.0
 21
220.0
 31
0.0
  0
LINE
  5
14EC
100
AcDbEntity
  8
17
100
AcDbLine
 10
297.0
 20
199.0
 30
0.0
 11
297.0
 21
209.0
 31
0.0
  0
LINE
  5
14ED
100
AcDbEntity
  8
17
100
AcDbLine
 10
297.0
 20
221.0
 30
0.0
 11
297.0
 21
231.0
 31
0.0
  0
LINE
  5
14EF
100
AcDbEntity
  8
17
100
AcDbLine
 10
306.0
 20
76.999985
 30
0.0
 11
306.0
 21
86.999985
 31
0.0
  0
LINE
  5
14F0
100
AcDbEntity
  8
17
100
AcDbLine
 10
301.0
 20
81.999985
 30
0.0
 11
311.0
 21
81.999985
 31
0.0
  0
LINE
  5
14F1
100
AcDbEntity
  8
17
100
AcDbLine
 10
301.0
 20
92.999985
 30
0.0
 11
311.0
 21
92.999985
 31
0.0
  0
LINE
  5
14F2
100
AcDbEntity
  8
17
100
AcDbLine
 10
306.0
 20
87.999985
 30
0.0
 11
306.0
 21
97.999985
 31
0.0
  0
LINE
  5
14F3
100
AcDbEntity
  8
17
100
AcDbLine
 10
306.0
 20
98.999985
 30
0.0
 11
306.0
 21
108.999985
 31
0.0
  0
LINE
  5
14F4
100
AcDbEntity
  8
17
100
AcDbLine
 10
301.0
 20
103.999985
 30
0.0
 11
311.0
 21
103.999985
 31
0.0
  0
ENDSEC
  0
SECTION
  2
OBJECTS
  0
DICTIONARY
  5
1A
100
AcDbDictionary
  3
ACAD_GROUP
350
18
  3
ACAD_MLINESTYLE
350
19
  3
CONTENTDICTIONARY
350
358
  0
DICTIONARY
  5
18
102
{ACAD_REACTORS
330
1A
102
}
100
AcDbDictionary
  0
DICTIONARY
  5
19
102
{ACAD_REACTORS
330
1A
102
}
100
AcDbDictionary
  3
STANDARD
350
1D
  0
DICTIONARY
  5
358
102
{ACAD_REACTORS
330
1A
102
}
100
AcDbDictionary
  0
MLINESTYLE
  5
1D
102
{ACAD_REACTORS
330
19
102
}
100
AcDbMlineStyle
  2
STANDARD
 70
     0
  3

 62
   256
 51
90.0
 52
90.0
 71
     2
 49
0.5
 62
   256
  6
BYLAYER
 49
-0.5
 62
   256
  6
BYLAYER
  0
ENDSEC
  0
EOF
